999
DXF file: C:\Users\sesa63760\Dev\_Creo\CAD\MCADID0003611_3D-CAD\drw0001_1.dxf
999
Pro/ENGINEER 2019471 by Parametric Technology Corporation
  0
SECTION
  2
HEADER
  9
$ACADVER
  1
AC1024
  9
$DWGCODEPAGE
  3
ANSI_1252
  9
$EXTMAX
 10
103.7868673326
 20
146.784283799
 30
0.0
  9
$EXTMIN
 10
0.0
 20
0.0
 30
0.0
  9
$LIMMIN
 10
0.0
 20
0.0
  9
$LIMMAX
 10
103.7868673326
 20
146.784283799
  9
$VIEWCTR
 10
51.8934336663
 20
73.3921418995
  9
$VIEWSIZE
 40
146.784283799
  9
$CLAYER
  8
0
  9
$LTSCALE
 40
9.5681607217
  9
$CELTYPE
  6
BYLAYER
  9
$DIMSCALE
 40
1.0
  9
$DIMASZ
 40
1.2355579444
  9
$DIMEXO
 40
1.0
  9
$DIMDLI
 40
6.6107292259
  9
$DIMEXE
 40
1.0
  9
$DIMCEN
 40
1.5656990272
  9
$DIMLFAC
 40
1.0
  9
$DIMBLK
  1
_FILLED
  9
$DIMALT
 70
0
  9
$DIMALTF
 40
0.0393700787
  9
$DIMTXT
 40
1.7297811222
  9
$DIMTOL
 70
1
  9
$DIMLIM
 70
0
  9
$DIMTFAC
 40
1.0
  9
$DIMTP
 40
0.01
  9
$DIMTM
 40
0.01
  9
$DIMGAP
 40
0.625
  9
$DIMDSEP
 70
46
  9
$AUNITS
 70
0
  9
$PDMODE
 70
3
  9
$PDSIZE
 40
0.3125
  9
$HANDSEED
  5
30C
  9
$TILEMODE
 70
1
  9
$MEASUREMENT
 70
1
  9
$INSUNITS
 70
4
  0
ENDSEC
  0
SECTION
  2
CLASSES
  0
CLASS
  1
ACDBDICTIONARYWDFLT
  2
AcDbDictionaryWithDefault
  3
AutoCAD 2000
 90
0
 91
1
280
0
281
0
  0
CLASS
  1
ACDBPLACEHOLDER
  2
AcDbPlaceHolder
  3
AutoCAD 2000
 90
0
 91
1
280
0
281
0
  0
CLASS
  1
LAYOUT
  2
AcDbLayout
  3
AutoCAD 2000
 90
0
 91
0
280
0
281
0
  0
ENDSEC
  0
SECTION
  2
TABLES
  0
TABLE
  2
VPORT
  5
8
100
AcDbSymbolTable
 70
2
  0
VPORT
  5
1F4
100
AcDbSymbolTableRecord
100
AcDbViewportTableRecord
  2
*ACTIVE
 70
0
 10
0.0
 20
0.0
 11
1.0
 21
1.0
 12
51.8934336663
 22
73.3921418995
 13
0.0
 23
0.0
 14
1.0
 24
1.0
 15
0.0
 25
0.0
 16
0.0
 26
0.0
 36
1.0
 17
0.0
 27
0.0
 37
0.0
 40
146.784283799
 41
0.7070707071
 42
50.0
 43
0.0
 44
0.0
 50
0.0
 51
0.0
 71
0
 72
100
 73
1
 74
1
 75
0
 76
0
 77
0
 78
0
  0
ENDTAB
  0
TABLE
  2
LTYPE
  5
5
100
AcDbSymbolTable
 70
6
  0
LTYPE
  5
14
100
AcDbSymbolTableRecord
100
AcDbLinetypeTableRecord
  2
BYBLOCK
 70
0
  3

 72
65
 73
0
 40
0.0
  0
LTYPE
  5
15
100
AcDbSymbolTableRecord
100
AcDbLinetypeTableRecord
  2
BYLAYER
 70
0
  3

 72
65
 73
0
 40
0.0
  0
LTYPE
  5
16
100
AcDbSymbolTableRecord
100
AcDbLinetypeTableRecord
  2
CONTINUOUS
 70
64
  3
Solid line
 72
65
 73
0
 40
0.0
  0
LTYPE
  5
1F5
100
AcDbSymbolTableRecord
100
AcDbLinetypeTableRecord
  2
CENTER
 70
64
  3
____ _ ____ _ ____ _ ____ _ ____ _ ____ _ ____
 72
65
 73
4
 40
0.6
 49
0.375
 74
0
 49
-0.075
 74
0
 49
0.075
 74
0
 49
-0.075
 74
0
  0
LTYPE
  5
1F6
100
AcDbSymbolTableRecord
100
AcDbLinetypeTableRecord
  2
HIDDEN
 70
64
  3
- - - - - - - - - - - - - - - - - - - -
 72
65
 73
2
 40
0.2
 49
0.1
 74
0
 49
-0.1
 74
0
  0
LTYPE
  5
1F7
100
AcDbSymbolTableRecord
100
AcDbLinetypeTableRecord
  2
PHANTOM
 70
64
  3
_____ _ _ _____ _ _ _____ _ _ _____
 72
65
 73
6
 40
0.8
 49
0.45
 74
0
 49
-0.05
 74
0
 49
0.1
 74
0
 49
-0.05
 74
0
 49
0.1
 74
0
 49
-0.05
 74
0
  0
LTYPE
  5
1F8
100
AcDbSymbolTableRecord
100
AcDbLinetypeTableRecord
  2
DOT
 70
64
  3
. . . . . . . . . . . . . . . . . . . .
 72
65
 73
2
 40
0.2
 49
0.1
 74
0
 49
-0.1
 74
0
  0
LTYPE
  5
1F9
100
AcDbSymbolTableRecord
100
AcDbLinetypeTableRecord
  2
DASHED
 70
64
  3
- - - - - - - - - - - - - - - - - - - -
 72
65
 73
2
 40
0.2
 49
0.1
 74
0
 49
-0.1
 74
0
  0
ENDTAB
  0
TABLE
  2
LAYER
  5
2
100
AcDbSymbolTable
 70
36
  0
LAYER
  5
10
100
AcDbSymbolTableRecord
100
AcDbLayerTableRecord
  2
0
 70
0
 62
7
  6
CONTINUOUS
370
-3
390
F
  0
LAYER
  5
1FA
100
AcDbSymbolTableRecord
100
AcDbLayerTableRecord
  2
DEFAULT_1
 70
0
 62
7
  6
CENTER
370
-3
390
F
  0
LAYER
  5
1FB
100
AcDbSymbolTableRecord
100
AcDbLayerTableRecord
  2
DEFAULT_2
 70
0
 62
7
  6
HIDDEN
370
-3
390
F
  0
LAYER
  5
1FC
100
AcDbSymbolTableRecord
100
AcDbLayerTableRecord
  2
DEFAULT_3
 70
0
 62
7
  6
PHANTOM
370
-3
390
F
  0
LAYER
  5
1FD
100
AcDbSymbolTableRecord
100
AcDbLayerTableRecord
  2
00_COMPONENTS
 70
0
 62
7
  6
CONTINUOUS
370
-3
390
F
  0
LAYER
  5
1FE
100
AcDbSymbolTableRecord
100
AcDbLayerTableRecord
  2
01_1_DEFAULT_DATUMS
 70
0
 62
7
  6
CONTINUOUS
370
-3
390
F
  0
LAYER
  5
1FF
100
AcDbSymbolTableRecord
100
AcDbLayerTableRecord
  2
01_PLANES
 70
0
 62
7
  6
CONTINUOUS
370
-3
390
F
  0
LAYER
  5
200
100
AcDbSymbolTableRecord
100
AcDbLayerTableRecord
  2
02_COORD_SYS
 70
0
 62
7
  6
CONTINUOUS
370
-3
390
F
  0
LAYER
  5
201
100
AcDbSymbolTableRecord
100
AcDbLayerTableRecord
  2
03_AXES
 70
0
 62
7
  6
CONTINUOUS
370
-3
390
F
  0
LAYER
  5
202
100
AcDbSymbolTableRecord
100
AcDbLayerTableRecord
  2
04_POINTS
 70
0
 62
7
  6
CONTINUOUS
370
-3
390
F
  0
LAYER
  5
203
100
AcDbSymbolTableRecord
100
AcDbLayerTableRecord
  2
05_CURVES
 70
0
 62
7
  6
CONTINUOUS
370
-3
390
F
  0
LAYER
  5
204
100
AcDbSymbolTableRecord
100
AcDbLayerTableRecord
  2
06_SURFS
 70
0
 62
7
  6
CONTINUOUS
370
-3
390
F
  0
LAYER
  5
205
100
AcDbSymbolTableRecord
100
AcDbLayerTableRecord
  2
07_COSMETICS
 70
0
 62
7
  6
CONTINUOUS
370
-3
390
F
  0
LAYER
  5
206
100
AcDbSymbolTableRecord
100
AcDbLayerTableRecord
  2
10_NOTES
 70
0
 62
7
  6
CONTINUOUS
370
-3
390
F
  0
LAYER
  5
207
100
AcDbSymbolTableRecord
100
AcDbLayerTableRecord
  2
11_NOTES_PUB
 70
0
 62
7
  6
CONTINUOUS
370
-3
390
F
  0
LAYER
  5
208
100
AcDbSymbolTableRecord
100
AcDbLayerTableRecord
  2
13_REF_GTOL
 70
0
 62
7
  6
CONTINUOUS
370
-3
390
F
  0
LAYER
  5
209
100
AcDbSymbolTableRecord
100
AcDbLayerTableRecord
  2
16_MISC
 70
0
 62
7
  6
CONTINUOUS
370
-3
390
F
  0
LAYER
  5
20A
100
AcDbSymbolTableRecord
100
AcDbLayerTableRecord
  2
17_NO_PRINT
 70
0
 62
7
  6
CONTINUOUS
370
-3
390
F
  0
LAYER
  5
20B
100
AcDbSymbolTableRecord
100
AcDbLayerTableRecord
  2
18_DATUM_CAMS_JOINTS
 70
0
 62
7
  6
CONTINUOUS
370
-3
390
F
  0
LAYER
  5
20C
100
AcDbSymbolTableRecord
100
AcDbLayerTableRecord
  2
19_DATUM_FUNCTIONAL
 70
0
 62
7
  6
CONTINUOUS
370
-3
390
F
  0
LAYER
  5
20D
100
AcDbSymbolTableRecord
100
AcDbLayerTableRecord
  2
20_DATUM_KINEMATIC_SCHEME
 70
0
 62
7
  6
CONTINUOUS
370
-3
390
F
  0
ENDTAB
  0
TABLE
  2
STYLE
  5
3
100
AcDbSymbolTable
 70
1
  0
STYLE
  5
11
100
AcDbSymbolTableRecord
100
AcDbTextStyleTableRecord
  2
STANDARD
 70
0
 40
0.0
 41
1.0
 50
0.0
 71
0
 42
0.2
  3
ARIAL.TTF
  4

  0
STYLE
  5
20E
100
AcDbSymbolTableRecord
100
AcDbTextStyleTableRecord
  2
TEXTSTYLE_1
 70
0
 40
0.0
 41
0.8
 50
0.0
 71
0
 42
0.2
  3
gdt
  4

  0
ENDTAB
  0
TABLE
  2
VIEW
  5
6
100
AcDbSymbolTable
 70
0
  0
ENDTAB
  0
TABLE
  2
UCS
  5
7
100
AcDbSymbolTable
 70
0
  0
ENDTAB
  0
TABLE
  2
APPID
  5
9
100
AcDbSymbolTable
 70
1
  0
APPID
  5
20F
100
AcDbSymbolTableRecord
100
AcDbRegAppTableRecord
  2
ACAD
 70
0
  0
ENDTAB
  0
TABLE
  2
BLOCK_RECORD
  5
1
100
AcDbSymbolTable
 70
0
  0
BLOCK_RECORD
  5
210
100
AcDbSymbolTableRecord
100
AcDbBlockTableRecord
  2
*Model_Space
  0
BLOCK_RECORD
  5
211
100
AcDbSymbolTableRecord
100
AcDbBlockTableRecord
  2
*Paper_Space
  0
BLOCK_RECORD
  5
212
100
AcDbSymbolTableRecord
100
AcDbBlockTableRecord
  2
_FILLED
  0
ENDTAB
  0
TABLE
  2
DIMSTYLE
  5
A
100
AcDbSymbolTable
 70
1
100
AcDbDimStyleTable
 71
0
  0
DIMSTYLE
105
213
100
AcDbSymbolTableRecord
100
AcDbDimStyleTableRecord
  2
STANDARD
 70
0
  3

  4

 40
1.0
 41
1.2355579444
 42
1.0
 43
0.38
 44
1.0
 45
0.0
 46
0.0
 47
0.01
 48
0.01
140
1.7297811222
141
0.09
142
0.0
143
25.4
144
1.0
145
0.0
146
1.0
147
0.625
 71
1
 72
0
 73
0
 74
0
 75
0
 76
0
 77
1
 78
8
 79
2
170
0
171
1
172
0
173
0
174
0
175
0
176
0
177
0
178
0
270
2
179
2
271
2
272
2
273
2
274
2
275
0
280
0
281
0
282
0
283
1
284
8
285
0
286
0
287
3
288
0
340
11
278
46
341
212
342
212
343
212
344
212
  0
ENDTAB
  0
ENDSEC
  0
SECTION
  2
BLOCKS
  0
BLOCK
  5
20
100
AcDbEntity
  8
0
100
AcDbBlockBegin
  2
*Model_Space
 70
0
 10
0.0
 20
0.0
 30
0.0
  3
*Model_Space
  1

  0
ENDBLK
  5
21
100
AcDbEntity
  8
0
100
AcDbBlockEnd
  0
BLOCK
  5
1C
100
AcDbEntity
  8
0
100
AcDbBlockBegin
  2
*Paper_Space
 70
0
 10
0.0
 20
0.0
 30
0.0
  3
*Paper_Space
  1

  0
ENDBLK
  5
1D
100
AcDbEntity
  8
0
100
AcDbBlockEnd
  0
BLOCK
  5
214
100
AcDbEntity
  8
0
100
AcDbBlockBegin
  2
_FILLED
 70
64
 10
0.0
 20
0.0
  3
_FILLED
  1

  0
SOLID
  5
215
100
AcDbEntity
  8
0
  6
BYBLOCK
 62
0
100
AcDbTrace
 10
0.0
 20
0.0
 11
-1.0
 21
0.25
 12
-1.0
 22
-0.25
 13
-1.0
 23
-0.25
  0
ENDBLK
  5
216
100
AcDbEntity
  8
0
  6
BYBLOCK
 62
0
100
AcDbBlockEnd
  0
ENDSEC
  0
SECTION
  2
ENTITIES
  0
LINE
  5
217
100
AcDbEntity
  8
0
100
AcDbLine
 62
7
  6
BYLAYER
 10
79.7041095908
 20
11.3320065397
 11
79.7286027988
 21
11.3324919798
  0
LINE
  5
218
100
AcDbEntity
  8
0
100
AcDbLine
 62
7
  6
BYLAYER
 10
33.314559055
 20
111.6285971733
 11
31.0594651086
 21
110.326625848
  0
LINE
  5
219
100
AcDbEntity
  8
0
100
AcDbLine
 62
7
  6
BYLAYER
 10
32.9003469037
 20
110.7130603076
 11
34.3145545782
 21
111.5295486153
  0
LINE
  5
21A
100
AcDbEntity
  8
0
100
AcDbLine
 62
7
  6
BYLAYER
 10
39.3679580447
 20
33.9023492502
 11
47.2747717075
 21
29.3372473002
  0
LINE
  5
21B
100
AcDbEntity
  8
0
100
AcDbLine
 62
7
  6
BYLAYER
 10
54.9243719979
 20
24.9210526508
 11
63.5560758201
 21
19.9374354544
  0
LINE
  5
21C
100
AcDbEntity
  8
0
100
AcDbLine
 62
7
  6
BYLAYER
 10
56.2350384888
 20
24.3334623676
 11
54.8208190385
 21
25.1499438766
  0
LINE
  5
21D
100
AcDbEntity
  8
0
100
AcDbLine
 62
7
  6
BYLAYER
 10
40.6786245355
 20
33.314758967
 11
39.2644050852
 21
34.1312404761
  0
LINE
  5
21E
100
AcDbEntity
  8
0
100
AcDbLine
 62
7
  6
BYLAYER
 10
79.7039968939
 20
11.3320716009
 11
56.5457069699
 21
24.7024335841
  0
LINE
  5
21F
100
AcDbEntity
  8
0
100
AcDbLine
 62
7
  6
BYLAYER
 10
39.2644050852
 20
34.6795721661
 11
23.311549888
 21
43.8897490466
  0
LINE
  5
220
100
AcDbEntity
  8
0
100
AcDbLine
 62
7
  6
BYLAYER
 10
79.8782451023
 20
11.738790375
 11
73.5591364428
 21
15.387046926
  0
LINE
  5
221
100
AcDbEntity
  8
0
100
AcDbLine
 62
7
  6
BYLAYER
 10
72.4985621672
 20
15.9995754519
 11
56.2350384888
 21
25.3891128059
  0
LINE
  5
222
100
AcDbEntity
  8
0
100
AcDbLine
 62
7
  6
BYLAYER
 10
39.2644050852
 20
35.1868909143
 11
23.0008814069
 21
44.5764282683
  0
LINE
  5
223
100
AcDbEntity
  8
0
100
AcDbLine
 62
7
  6
BYLAYER
 10
29.3648159418
 20
101.7315339751
 11
24.0615371627
 21
98.6697028211
  0
LINE
  5
224
100
AcDbEntity
  8
0
100
AcDbLine
 62
7
  6
BYLAYER
 10
78.8624831221
 20
18.4489956892
 11
79.9231524579
 21
17.8366318161
  0
LINE
  5
225
100
AcDbEntity
  8
0
100
AcDbLine
 62
7
  6
BYLAYER
 10
23.0008814069
 20
44.5764282683
 11
23.0008814069
 21
96.8325829646
  0
LINE
  5
226
100
AcDbEntity
  8
0
100
AcDbLine
 62
7
  6
BYLAYER
 10
40.6785627122
 20
99.0780421211
 11
43.1534261425
 21
100.5068966596
  0
LINE
  5
227
100
AcDbEntity
  8
0
100
AcDbLine
 62
7
  6
BYLAYER
 10
49.1638588062
 20
102.9564927704
 11
46.8354413757
 21
101.6121883645
  0
LINE
  5
228
100
AcDbEntity
  8
0
100
AcDbLine
 62
7
  6
BYLAYER
 10
50.5780782565
 20
40.4940787681
 11
49.8709744193
 21
40.9023161233
  0
LINE
  5
229
100
AcDbEntity
  8
0
100
AcDbLine
 62
7
  6
BYLAYER
 10
44.7444573782
 20
98.5677644115
 11
43.1534467503
 21
97.6491994803
  0
LINE
  5
22A
100
AcDbEntity
  8
0
100
AcDbLine
 62
7
  6
BYLAYER
 10
46.6890071519
 20
98.2616635808
 11
50.5780782565
 21
100.5070064271
  0
LINE
  5
22B
100
AcDbEntity
  8
0
100
AcDbLine
 62
7
  6
BYLAYER
 10
30.4254716976
 20
109.2841707515
 11
30.4254716976
 21
103.5686538316
  0
LINE
  5
22C
100
AcDbEntity
  8
0
100
AcDbLine
 62
7
  6
BYLAYER
 10
39.3679580447
 20
88.847159219
 11
46.5854424165
 21
101.3482782491
  0
LINE
  5
22D
100
AcDbEntity
  8
0
100
AcDbLine
 62
7
  6
BYLAYER
 10
39.2644050852
 20
34.1312404761
 11
39.2644050852
 21
35.1868909143
  0
LINE
  5
22E
100
AcDbEntity
  8
0
100
AcDbLine
 62
7
  6
BYLAYER
 10
39.2644050852
 20
87.4430456106
 11
39.2644050852
 21
88.4986960489
  0
LINE
  5
22F
100
AcDbEntity
  8
0
100
AcDbLine
 62
7
  6
BYLAYER
 10
46.6890071519
 20
98.2616635808
 11
40.782177495
 21
88.03067771
  0
LINE
  5
230
100
AcDbEntity
  8
0
100
AcDbLine
 62
7
  6
BYLAYER
 10
50.5780782565
 20
91.9337310472
 11
49.8709744193
 21
91.5254868934
  0
LINE
  5
231
100
AcDbEntity
  8
0
100
AcDbLine
 62
7
  6
BYLAYER
 10
40.6786245355
 20
87.6822145398
 11
40.6786245355
 21
33.314758967
  0
LINE
  5
232
100
AcDbEntity
  8
0
100
AcDbLine
 62
7
  6
BYLAYER
 10
65.1344966866
 20
93.2577632199
 11
62.2454300587
 21
91.5897697812
  0
LINE
  5
233
100
AcDbEntity
  8
0
100
AcDbLine
 62
7
  6
BYLAYER
 10
63.8060747792
 20
91.814410256
 11
66.1344922098
 21
93.1587146619
  0
LINE
  5
234
100
AcDbEntity
  8
0
100
AcDbLine
 62
7
  6
BYLAYER
 10
49.8709744193
 20
91.5254868934
 11
49.8709744193
 21
40.0858346142
  0
LINE
  5
235
100
AcDbEntity
  8
0
100
AcDbLine
 62
7
  6
BYLAYER
 10
50.5780782565
 20
31.9208033882
 11
50.5780782565
 21
40.4940787681
  0
LINE
  5
236
100
AcDbEntity
  8
0
100
AcDbLine
 62
7
  6
BYLAYER
 10
50.5780782565
 20
91.9337310472
 11
50.5780782565
 21
100.5070064271
  0
LINE
  5
237
100
AcDbEntity
  8
0
100
AcDbLine
 62
7
  6
BYLAYER
 10
54.9243719979
 20
79.8658626196
 11
60.8312016548
 21
90.0968484904
  0
LINE
  5
238
100
AcDbEntity
  8
0
100
AcDbLine
 62
7
  6
BYLAYER
 10
63.5560758201
 20
91.5505001406
 11
56.3385914482
 21
79.0493811105
  0
LINE
  5
239
100
AcDbEntity
  8
0
100
AcDbLine
 62
7
  6
BYLAYER
 10
57.2956942446
 20
79.4823873586
 11
62.5989730237
 21
82.5442185127
  0
LINE
  5
23A
100
AcDbEntity
  8
0
100
AcDbLine
 62
7
  6
BYLAYER
 10
67.1951774053
 20
83.7690138266
 11
69.6700408355
 21
85.1978683651
  0
LINE
  5
23B
100
AcDbEntity
  8
0
100
AcDbLine
 62
7
  6
BYLAYER
 10
54.8208190385
 20
25.1499438766
 11
54.8208190385
 21
79.5173994494
  0
LINE
  5
23C
100
AcDbEntity
  8
0
100
AcDbLine
 62
7
  6
BYLAYER
 10
56.2350384888
 20
78.7009179404
 11
56.2350384888
 21
77.6452675021
  0
LINE
  5
23D
100
AcDbEntity
  8
0
100
AcDbLine
 62
7
  6
BYLAYER
 10
56.2350384888
 20
25.3891128059
 11
56.2350384888
 21
24.3334623676
  0
LINE
  5
23E
100
AcDbEntity
  8
0
100
AcDbLine
 62
7
  6
BYLAYER
 10
71.2309371287
 20
83.2413378036
 11
69.6700614433
 21
82.3401711857
  0
LINE
  5
23F
100
AcDbEntity
  8
0
100
AcDbLine
 62
7
  6
BYLAYER
 10
80.9837964379
 20
84.585658817
 11
79.5695887634
 21
83.7691705092
  0
LINE
  5
240
100
AcDbEntity
  8
0
100
AcDbLine
 62
7
  6
BYLAYER
 10
79.9231524579
 20
80.7073179351
 11
82.3980158882
 21
82.1361724737
  0
LINE
  5
241
100
AcDbEntity
  8
0
100
AcDbLine
 62
7
  6
BYLAYER
 10
23.0008814069
 20
96.8325829646
 11
39.2644050852
 21
87.4430456106
  0
LINE
  5
242
100
AcDbEntity
  8
0
100
AcDbLine
 62
7
  6
BYLAYER
 10
56.2350384888
 20
77.6452675021
 11
72.4985621672
 21
68.2557301482
  0
LINE
  5
243
100
AcDbEntity
  8
0
100
AcDbLine
 62
7
  6
BYLAYER
 10
39.2644050852
 20
88.4986960489
 11
40.6786245355
 21
87.6822145398
  0
LINE
  5
244
100
AcDbEntity
  8
0
100
AcDbLine
 62
7
  6
BYLAYER
 10
54.8208190385
 20
79.5173994494
 11
56.2350384888
 21
78.7009179404
  0
LINE
  5
245
100
AcDbEntity
  8
0
100
AcDbLine
 62
7
  6
BYLAYER
 10
56.3385914482
 20
79.0493811105
 11
54.9243719979
 21
79.8658626196
  0
LINE
  5
246
100
AcDbEntity
  8
0
100
AcDbLine
 62
7
  6
BYLAYER
 10
40.782177495
 20
88.03067771
 11
39.3679580447
 21
88.847159219
  0
LINE
  5
247
100
AcDbEntity
  8
0
100
AcDbLine
 62
7
  6
BYLAYER
 10
73.559217923
 20
70.0928500047
 11
57.2956942446
 21
79.4823873586
  0
LINE
  5
248
100
AcDbEntity
  8
0
100
AcDbLine
 62
7
  6
BYLAYER
 10
39.7947261731
 20
89.5863474037
 11
24.0615371627
 21
98.6697028211
  0
LINE
  5
249
100
AcDbEntity
  8
0
100
AcDbLine
 62
7
  6
BYLAYER
 10
63.6596287795
 20
90.5051064977
 11
63.6596287795
 21
84.3813383692
  0
LINE
  5
24A
100
AcDbEntity
  8
0
100
AcDbLine
 62
7
  6
BYLAYER
 10
66.6469371287
 20
124.2676911356
 11
66.6469371287
 21
119.1645510285
  0
LINE
  5
24B
100
AcDbEntity
  8
0
100
AcDbLine
 62
7
  6
BYLAYER
 10
73.559217923
 20
70.0928500047
 11
78.8624967021
 21
73.1546811587
  0
LINE
  5
24C
100
AcDbEntity
  8
0
100
AcDbLine
 62
7
  6
BYLAYER
 10
29.3648159418
 20
101.7315339751
 11
42.4463316121
 21
94.1790882406
  0
LINE
  5
24D
100
AcDbEntity
  8
0
100
AcDbLine
 62
7
  6
BYLAYER
 10
62.5989730237
 20
82.5442185127
 11
71.2309371287
 21
77.5606644561
  0
LINE
  5
24E
100
AcDbEntity
  8
0
100
AcDbLine
 62
7
  6
BYLAYER
 10
77.1432017668
 20
74.1472940965
 11
78.8624967021
 21
73.1546811587
  0
LINE
  5
24F
100
AcDbEntity
  8
0
100
AcDbLine
 62
7
  6
BYLAYER
 10
67.5159371287
 20
117.2741046287
 11
67.5159371287
 21
113.6786754134
  0
LINE
  5
250
100
AcDbEntity
  8
0
100
AcDbLine
 62
7
  6
BYLAYER
 10
68.6219371287
 20
131.9224012962
 11
68.6219371287
 21
124.2676911356
  0
LINE
  5
251
100
AcDbEntity
  8
0
100
AcDbLine
 62
7
  6
BYLAYER
 10
68.6219371287
 20
109.5792806586
 11
68.6219371287
 21
105.7688082475
  0
LINE
  5
252
100
AcDbEntity
  8
0
100
AcDbLine
 62
7
  6
BYLAYER
 10
68.6219371287
 20
104.174076964
 11
68.6219371287
 21
102.5793456806
  0
LINE
  5
253
100
AcDbEntity
  8
0
100
AcDbLine
 62
7
  6
BYLAYER
 10
68.6219371287
 20
100.9846143971
 11
68.6219371287
 21
99.3898831137
  0
LINE
  5
254
100
AcDbEntity
  8
0
100
AcDbLine
 62
7
  6
BYLAYER
 10
69.2539371287
 20
132.9430293176
 11
69.2539371287
 21
131.9224012962
  0
LINE
  5
255
100
AcDbEntity
  8
0
100
AcDbLine
 62
7
  6
BYLAYER
 10
71.2309371287
 20
74.5631064928
 11
71.2309371287
 21
85.9941403326
  0
LINE
  5
256
100
AcDbEntity
  8
0
100
AcDbLine
 62
7
  6
BYLAYER
 10
71.6309371287
 20
93.7009971098
 11
71.6309371287
 21
92.0662687996
  0
LINE
  5
257
100
AcDbEntity
  8
0
100
AcDbLine
 62
7
  6
BYLAYER
 10
71.6309371287
 20
85.9941403326
 11
71.6309371287
 21
89.6167615482
  0
LINE
  5
258
100
AcDbEntity
  8
0
100
AcDbLine
 62
7
  6
BYLAYER
 10
79.7613251698
 20
109.3110537086
 11
80.8518242202
 21
113.0318773418
  0
LINE
  5
259
100
AcDbEntity
  8
0
100
AcDbLine
 62
7
  6
BYLAYER
 10
79.9231524579
 20
74.9918010152
 11
77.2309371287
 21
76.5461170969
  0
LINE
  5
25A
100
AcDbEntity
  8
0
100
AcDbLine
 62
7
  6
BYLAYER
 10
71.2309371287
 20
80.0101403454
 11
63.6596287795
 21
84.3813383692
  0
LINE
  5
25B
100
AcDbEntity
  8
0
100
AcDbLine
 62
7
  6
BYLAYER
 10
43.5069873679
 20
96.0162080971
 11
30.4254716976
 21
103.5686538316
  0
LINE
  5
25C
100
AcDbEntity
  8
0
100
AcDbLine
 62
7
  6
BYLAYER
 10
40.6785627122
 20
99.0780421211
 11
43.1534467503
 21
97.6491994803
  0
LINE
  5
25D
100
AcDbEntity
  8
0
100
AcDbLine
 62
7
  6
BYLAYER
 10
67.1951774053
 20
83.7690138266
 11
69.6700614433
 21
82.3401711857
  0
LINE
  5
25E
100
AcDbEntity
  8
0
100
AcDbLine
 62
7
  6
BYLAYER
 10
70.9599209497
 20
84.4531725812
 11
69.6700408355
 21
85.1978683651
  0
LINE
  5
25F
100
AcDbEntity
  8
0
100
AcDbLine
 62
7
  6
BYLAYER
 10
44.4433062567
 20
99.7622008758
 11
43.1534261425
 21
100.5068966596
  0
LINE
  5
260
100
AcDbEntity
  8
0
100
AcDbLine
 62
7
  6
BYLAYER
 10
72.4985621672
 20
68.2557301482
 11
72.4985621672
 21
15.9995754519
  0
LINE
  5
261
100
AcDbEntity
  8
0
100
AcDbLine
 62
7
  6
BYLAYER
 10
79.2897657967
 20
95.6916785341
 11
79.7567345969
 21
97.2394490164
  0
LINE
  5
262
100
AcDbEntity
  8
0
100
AcDbLine
 62
7
  6
BYLAYER
 10
69.6700614433
 20
86.0144320628
 11
67.1951774053
 21
87.4432747036
  0
LINE
  5
263
100
AcDbEntity
  8
0
100
AcDbLine
 62
7
  6
BYLAYER
 10
43.1534467503
 20
101.3234603573
 11
40.6785627122
 21
102.7523029982
  0
LINE
  5
264
100
AcDbEntity
  8
0
100
AcDbLine
 62
7
  6
BYLAYER
 10
30.4703790532
 20
109.6664952728
 11
46.158660708
 21
100.6090665427
  0
LINE
  5
265
100
AcDbEntity
  8
0
100
AcDbLine
 62
7
  6
BYLAYER
 10
63.6596287795
 20
90.5051064977
 11
71.2627617469
 21
86.1155349376
  0
LINE
  5
266
100
AcDbEntity
  8
0
100
AcDbLine
 62
7
  6
BYLAYER
 10
77.2309371287
 20
82.6698852254
 11
79.8782451023
 21
81.141495831
  0
LINE
  5
267
100
AcDbEntity
  8
0
100
AcDbLine
 62
7
  6
BYLAYER
 10
46.5854424165
 20
101.3482782491
 11
47.1166413093
 21
101.0415973634
  0
LINE
  5
268
100
AcDbEntity
  8
0
100
AcDbLine
 62
7
  6
BYLAYER
 10
63.0248769273
 20
91.8571810263
 11
63.5560758201
 21
91.5505001406
  0
LINE
  5
269
100
AcDbEntity
  8
0
100
AcDbLine
 62
7
  6
BYLAYER
 10
79.5695887634
 20
83.7691705092
 11
77.2309371287
 21
85.1193611147
  0
LINE
  5
26A
100
AcDbEntity
  8
0
100
AcDbLine
 62
7
  6
BYLAYER
 10
71.6309371287
 20
88.3524494799
 11
64.7202845353
 21
92.3422263542
  0
LINE
  5
26B
100
AcDbEntity
  8
0
100
AcDbLine
 62
7
  6
BYLAYER
 10
47.7496511318
 20
102.1400044626
 11
32.9003469037
 21
110.7130603076
  0
LINE
  5
26C
100
AcDbEntity
  8
0
100
AcDbLine
 62
7
  6
BYLAYER
 10
69.1721084606
 20
95.6916785341
 11
68.7051396605
 21
97.2394490164
  0
LINE
  5
26D
100
AcDbEntity
  8
0
100
AcDbLine
 62
7
  6
BYLAYER
 10
67.6100500371
 20
113.0318773418
 11
67.5159371287
 21
113.6786754134
  0
LINE
  5
26E
100
AcDbEntity
  8
0
100
AcDbLine
 62
7
  6
BYLAYER
 10
76.8309371287
 20
93.6962976811
 11
76.8309371287
 21
90.5365432884
  0
LINE
  5
26F
100
AcDbEntity
  8
0
100
AcDbLine
 62
7
  6
BYLAYER
 10
76.8309371287
 20
85.9941403326
 11
76.8309371287
 21
88.087036037
  0
LINE
  5
270
100
AcDbEntity
  8
0
100
AcDbLine
 62
7
  6
BYLAYER
 10
77.2309371287
 20
74.6554200815
 11
77.2309371287
 21
85.9941403326
  0
LINE
  5
271
100
AcDbEntity
  8
0
100
AcDbLine
 62
7
  6
BYLAYER
 10
79.2079371287
 20
132.9430293176
 11
79.2079371287
 21
131.9224012962
  0
LINE
  5
272
100
AcDbEntity
  8
0
100
AcDbLine
 62
7
  6
BYLAYER
 10
79.8399371287
 20
131.9224012962
 11
79.8399371287
 21
124.2676911356
  0
LINE
  5
273
100
AcDbEntity
  8
0
100
AcDbLine
 62
7
  6
BYLAYER
 10
79.8399371287
 20
109.5792806586
 11
79.8399371287
 21
105.7688082475
  0
LINE
  5
274
100
AcDbEntity
  8
0
100
AcDbLine
 62
7
  6
BYLAYER
 10
79.8399371287
 20
104.174076964
 11
79.8399371287
 21
102.5793456806
  0
LINE
  5
275
100
AcDbEntity
  8
0
100
AcDbLine
 62
7
  6
BYLAYER
 10
79.8399371287
 20
100.9846143971
 11
79.8399371287
 21
99.3898831137
  0
LINE
  5
276
100
AcDbEntity
  8
0
100
AcDbLine
 62
7
  6
BYLAYER
 10
79.9231524579
 20
12.1211148962
 11
79.9231524579
 21
17.8366318161
  0
LINE
  5
277
100
AcDbEntity
  8
0
100
AcDbLine
 62
7
  6
BYLAYER
 10
79.9231524579
 20
74.9918010152
 11
79.9231524579
 21
80.7073179351
  0
LINE
  5
278
100
AcDbEntity
  8
0
100
AcDbLine
 62
7
  6
BYLAYER
 10
49.8709744193
 20
40.0858346142
 11
50.5780782565
 21
40.4940787681
  0
LINE
  5
279
100
AcDbEntity
  8
0
100
AcDbLine
 62
7
  6
BYLAYER
 10
80.9837964379
 20
84.585658817
 11
76.8309371287
 21
86.9832590161
  0
LINE
  5
27A
100
AcDbEntity
  8
0
100
AcDbLine
 62
7
  6
BYLAYER
 10
71.6968236903
 20
89.9473737345
 11
66.1344922098
 21
93.1587146619
  0
LINE
  5
27B
100
AcDbEntity
  8
0
100
AcDbLine
 62
7
  6
BYLAYER
 10
34.3145545782
 20
111.5295486153
 11
49.1638588062
 21
102.9564927704
  0
LINE
  5
27C
100
AcDbEntity
  8
0
100
AcDbLine
 62
7
  6
BYLAYER
 10
68.7005490875
 20
109.3110537086
 11
67.6100500371
 21
113.0318773418
  0
LINE
  5
27D
100
AcDbEntity
  8
0
100
AcDbLine
 62
7
  6
BYLAYER
 10
80.9459371287
 20
117.1855842743
 11
80.9459371287
 21
113.6786754134
  0
LINE
  5
27E
100
AcDbEntity
  8
0
100
AcDbLine
 62
7
  6
BYLAYER
 10
81.8149371287
 20
124.2676911356
 11
81.8149371287
 21
119.1645510285
  0
LINE
  5
27F
100
AcDbEntity
  8
0
100
AcDbLine
 62
7
  6
BYLAYER
 10
82.3980158882
 20
13.5499694348
 11
82.3980158882
 21
82.1361724737
  0
LINE
  5
280
100
AcDbEntity
  8
0
100
AcDbLine
 62
7
  6
BYLAYER
 10
50.5780782565
 20
31.9208033882
 11
46.6890071519
 21
29.6754605419
  0
LINE
  5
281
100
AcDbEntity
  8
0
100
AcDbLine
 62
7
  6
BYLAYER
 10
50.1638543294
 20
31.005231505
 11
47.2747877014
 21
29.3372380662
  0
LINE
  5
282
100
AcDbEntity
  8
0
100
AcDbLine
 62
7
  6
BYLAYER
 10
64.2809544914
 20
20.2363678417
 11
63.8060747792
 21
19.9621975486
  0
LINE
  5
283
100
AcDbEntity
  8
0
100
AcDbLine
 62
7
  6
BYLAYER
 10
78.8624967021
 20
18.449019211
 11
73.559217923
 21
15.387188057
  0
LINE
  5
284
100
AcDbEntity
  8
0
100
AcDbLine
 62
7
  6
BYLAYER
 10
82.3980158882
 20
13.5499694348
 11
79.9231524579
 21
12.1211148962
  0
LINE
  5
285
100
AcDbEntity
  8
0
100
AcDbLine
 62
7
  6
BYLAYER
 10
81.983791961
 20
12.6343975515
 11
79.7286980145
 21
11.3324262262
  0
SPLINE
  5
286
100
AcDbEntity
  8
0
100
AcDbSpline
 62
7
  6
BYLAYER
 70
0
 71
3
 72
11
 73
7
 74
0
 42
0.0000001
 43
0.0000001
 44
0.0000000001
 40
0.0
 40
0.0
 40
0.0
 40
0.0
 40
0.2546331
 40
0.5029108546
 40
0.7496996646
 40
1.0
 40
1.0
 40
1.0
 40
1.0
 10
68.7730708972
 20
98.5418101306
 30
0.0
 10
68.73023838
 20
98.4374578173
 30
0.0
 10
68.6616224255
 20
98.2242588013
 30
0.0
 10
68.6148090544
 20
97.8938054514
 30
0.0
 10
68.6267507231
 20
97.5621606913
 30
0.0
 10
68.6731151157
 20
97.345602797
 30
0.0
 10
68.7051514932
 20
97.2394502303
 30
0.0
  0
SPLINE
  5
287
100
AcDbEntity
  8
0
100
AcDbSpline
 62
7
  6
BYLAYER
 70
0
 71
3
 72
23
 73
19
 74
0
 42
0.0000001
 43
0.0000001
 44
0.0000000001
 40
0.0
 40
0.0
 40
0.0
 40
0.0
 40
0.0623863522
 40
0.1287465122
 40
0.1983453914
 40
0.2703345009
 40
0.3437224085
 40
0.41746678
 40
0.4905039848
 40
0.5618027394
 40
0.6304118982
 40
0.6955105435
 40
0.7564677516
 40
0.812913627
 40
0.8648222462
 40
0.9126047327
 40
0.9571861965
 40
1.0
 40
1.0
 40
1.0
 40
1.0
 10
78.197115577
 20
97.1000607216
 30
0.0
 10
77.995617263
 20
96.9837263101
 30
0.0
 10
77.563736027
 20
96.770810764
 30
0.0
 10
76.8671069703
 20
96.5183558976
 30
0.0
 10
76.1142448065
 20
96.3272699993
 30
0.0
 10
75.3213604708
 20
96.2015166202
 30
0.0
 10
74.5051870395
 20
96.1438195937
 30
0.0
 10
73.6831673348
 20
96.1553905261
 30
0.0
 10
72.8728260194
 20
96.2359786442
 30
0.0
 10
72.091437333
 20
96.3838662118
 30
0.0
 10
71.3556011668
 20
96.5959250252
 30
0.0
 10
70.6808766669
 20
96.8677418973
 30
0.0
 10
70.0814465558
 20
97.1937763034
 30
0.0
 10
69.5698573855
 20
97.5676097819
 30
0.0
 10
69.1569907068
 20
97.982207973
 30
0.0
 10
68.8523695696
 20
98.4302483513
 30
0.0
 10
68.6646215805
 20
98.902878352
 30
0.0
 10
68.6219678468
 20
99.2302091291
 30
0.0
 10
68.6219528759
 20
99.3898831835
 30
0.0
  0
SPLINE
  5
288
100
AcDbEntity
  8
0
100
AcDbSpline
 62
7
  6
BYLAYER
 70
0
 71
3
 72
9
 73
5
 74
0
 42
0.0000001
 43
0.0000001
 44
0.0000000001
 40
0.0
 40
0.0
 40
0.0
 40
0.0
 40
0.5064746114
 40
1.0
 40
1.0
 40
1.0
 40
1.0
 10
68.7730708972
 20
101.7312726975
 30
0.0
 10
68.7240002898
 20
101.6117226049
 30
0.0
 10
68.648072765
 20
101.3663248615
 30
0.0
 10
68.6219412862
 20
101.1105394926
 30
0.0
 10
68.6219530864
 20
100.9846144831
 30
0.0
  0
SPLINE
  5
289
100
AcDbEntity
  8
0
100
AcDbSpline
 62
7
  6
BYLAYER
 70
0
 71
3
 72
14
 73
10
 74
0
 42
0.0000001
 43
0.0000001
 44
0.0000000001
 40
0.0
 40
0.0
 40
0.0
 40
0.0
 40
0.1080437006
 40
0.2181253226
 40
0.3321056724
 40
0.4514949982
 40
0.5774401166
 40
0.7107255259
 40
1.0
 40
1.0
 40
1.0
 40
1.0
 10
78.1809323364
 20
132.9430293173
 30
0.0
 10
78.1809326759
 20
132.8682535685
 30
0.0
 10
78.1679222308
 20
132.716991793
 30
0.0
 10
78.110000449
 20
132.4935504457
 30
0.0
 10
78.0142770019
 20
132.2749547262
 30
0.0
 10
77.882153753
 20
132.0633549872
 30
0.0
 10
77.714938615
 20
131.8606961456
 30
0.0
 10
77.4402297224
 20
131.5977645341
 30
0.0
 10
77.1974020256
 20
131.4305795854
 30
0.0
 10
77.024020543
 20
131.3304783372
 30
0.0
  0
SPLINE
  5
28A
100
AcDbEntity
  8
0
100
AcDbSpline
 62
7
  6
BYLAYER
 70
0
 71
3
 72
23
 73
19
 74
0
 42
0.0000001
 43
0.0000001
 44
0.0000000001
 40
0.0
 40
0.0
 40
0.0
 40
0.0
 40
0.0623863522
 40
0.1287465122
 40
0.1983453914
 40
0.2703345009
 40
0.3437224085
 40
0.41746678
 40
0.4905039848
 40
0.5618027394
 40
0.6304118982
 40
0.6955105435
 40
0.7564677516
 40
0.812913627
 40
0.8648222462
 40
0.9126047327
 40
0.9571861965
 40
1.0
 40
1.0
 40
1.0
 40
1.0
 10
78.197115577
 20
100.2895232885
 30
0.0
 10
77.995617263
 20
100.1731888771
 30
0.0
 10
77.563736027
 20
99.960273331
 30
0.0
 10
76.8671069703
 20
99.7078184645
 30
0.0
 10
76.1142448065
 20
99.5167325663
 30
0.0
 10
75.3213604708
 20
99.3909791871
 30
0.0
 10
74.5051870395
 20
99.3332821607
 30
0.0
 10
73.6831673348
 20
99.344853093
 30
0.0
 10
72.8728260194
 20
99.4254412111
 30
0.0
 10
72.091437333
 20
99.5733287787
 30
0.0
 10
71.3556011668
 20
99.7853875921
 30
0.0
 10
70.6808766669
 20
100.0572044642
 30
0.0
 10
70.0814465558
 20
100.3832388703
 30
0.0
 10
69.5698573855
 20
100.7570723489
 30
0.0
 10
69.1569907068
 20
101.17167054
 30
0.0
 10
68.8523695696
 20
101.6197109182
 30
0.0
 10
68.6646215805
 20
102.0923409189
 30
0.0
 10
68.6219678468
 20
102.419671696
 30
0.0
 10
68.6219528759
 20
102.5793457505
 30
0.0
  0
SPLINE
  5
28B
100
AcDbEntity
  8
0
100
AcDbSpline
 62
7
  6
BYLAYER
 70
0
 71
3
 72
23
 73
19
 74
0
 42
0.0000001
 43
0.0000001
 44
0.0000000001
 40
0.0
 40
0.0
 40
0.0
 40
0.0
 40
0.0428139518
 40
0.0873959668
 40
0.1351791714
 40
0.1870884226
 40
0.2435347076
 40
0.3044920112
 40
0.369590318
 40
0.4381986352
 40
0.5094962754
 40
0.5825322051
 40
0.656275375
 40
0.7296628993
 40
0.8016522911
 40
0.871251586
 40
0.937612975
 40
1.0
 40
1.0
 40
1.0
 40
1.0
 10
79.2079231362
 20
132.9430292643
 30
0.0
 10
79.2079100728
 20
133.0847123645
 30
0.0
 10
79.1700618448
 20
133.3751631269
 30
0.0
 10
79.0034661135
 20
133.7945432719
 30
0.0
 10
78.7331623769
 20
134.1921038395
 30
0.0
 10
78.3668097977
 20
134.559988846
 30
0.0
 10
77.9128597526
 20
134.8917001817
 30
0.0
 10
77.3809690589
 20
135.1809957606
 30
0.0
 10
76.7822722106
 20
135.4221814405
 30
0.0
 10
76.1293541745
 20
135.610343004
 30
0.0
 10
75.4360196464
 20
135.74156424
 30
0.0
 10
74.7169962765
 20
135.8130707907
 30
0.0
 10
73.9876080704
 20
135.823339095
 30
0.0
 10
73.2634019593
 20
135.7721460667
 30
0.0
 10
72.5598554733
 20
135.6605633964
 30
0.0
 10
71.8918159375
 20
135.4910094306
 30
0.0
 10
71.2736731624
 20
135.2669973665
 30
0.0
 10
70.8904482305
 20
135.0780709731
 30
0.0
 10
70.7116520266
 20
134.9748435528
 30
0.0
  0
SPLINE
  5
28C
100
AcDbEntity
  8
0
100
AcDbSpline
 62
7
  6
BYLAYER
 70
0
 71
3
 72
9
 73
5
 74
0
 42
0.0000001
 43
0.0000001
 44
0.0000000001
 40
0.0
 40
0.0
 40
0.0
 40
0.0
 40
0.5064746114
 40
1.0
 40
1.0
 40
1.0
 40
1.0
 10
68.7730708972
 20
104.9207352645
 30
0.0
 10
68.7240002898
 20
104.8011851718
 30
0.0
 10
68.648072765
 20
104.5557874284
 30
0.0
 10
68.6219412862
 20
104.3000020595
 30
0.0
 10
68.6219530864
 20
104.17407705
 30
0.0
  0
SPLINE
  5
28D
100
AcDbEntity
  8
0
100
AcDbSpline
 62
7
  6
BYLAYER
 70
0
 71
3
 72
23
 73
19
 74
0
 42
0.0000001
 43
0.0000001
 44
0.0000000001
 40
0.0
 40
0.0
 40
0.0
 40
0.0
 40
0.0623863522
 40
0.1287465122
 40
0.1983453914
 40
0.2703345009
 40
0.3437224085
 40
0.41746678
 40
0.4905039848
 40
0.5618027394
 40
0.6304118982
 40
0.6955105435
 40
0.7564677516
 40
0.812913627
 40
0.8648222462
 40
0.9126047327
 40
0.9571861965
 40
1.0
 40
1.0
 40
1.0
 40
1.0
 10
78.197115577
 20
103.4789858554
 30
0.0
 10
77.995617263
 20
103.362651444
 30
0.0
 10
77.563736027
 20
103.1497358979
 30
0.0
 10
76.8671069703
 20
102.8972810314
 30
0.0
 10
76.1142448065
 20
102.7061951332
 30
0.0
 10
75.3213604708
 20
102.580441754
 30
0.0
 10
74.5051870395
 20
102.5227447276
 30
0.0
 10
73.6831673348
 20
102.5343156599
 30
0.0
 10
72.8728260194
 20
102.6149037781
 30
0.0
 10
72.091437333
 20
102.7627913456
 30
0.0
 10
71.3556011668
 20
102.974850159
 30
0.0
 10
70.6808766669
 20
103.2466670311
 30
0.0
 10
70.0814465558
 20
103.5727014372
 30
0.0
 10
69.5698573855
 20
103.9465349158
 30
0.0
 10
69.1569907068
 20
104.3611331069
 30
0.0
 10
68.8523695696
 20
104.8091734851
 30
0.0
 10
68.6646215805
 20
105.2818034858
 30
0.0
 10
68.6219678468
 20
105.609134263
 30
0.0
 10
68.6219528759
 20
105.7688083174
 30
0.0
  0
SPLINE
  5
28E
100
AcDbEntity
  8
0
100
AcDbSpline
 62
7
  6
BYLAYER
 70
0
 71
3
 72
11
 73
7
 74
0
 42
0.0000001
 43
0.0000001
 44
0.0000000001
 40
0.0
 40
0.0
 40
0.0
 40
0.0
 40
0.2336570903
 40
0.4744214686
 40
0.7283824465
 40
1.0
 40
1.0
 40
1.0
 40
1.0
 10
79.8399211709
 20
131.9224012102
 30
0.0
 10
79.8399084294
 20
132.0583705751
 30
0.0
 10
79.8093448232
 20
132.3353272235
 30
0.0
 10
79.6736595987
 20
132.7398794436
 30
0.0
 10
79.4516937509
 20
133.1294760438
 30
0.0
 10
79.256266963
 20
133.3666820687
 30
0.0
 10
79.1473328736
 20
133.4812075824
 30
0.0
  0
SPLINE
  5
28F
100
AcDbEntity
  8
0
100
AcDbSpline
 62
7
  6
BYLAYER
 70
0
 71
3
 72
25
 73
21
 74
0
 42
0.0000001
 43
0.0000001
 44
0.0000000001
 40
0.0
 40
0.0
 40
0.0
 40
0.0
 40
0.0623789516
 40
0.1287248216
 40
0.1983144738
 40
0.2702918044
 40
0.3436684249
 40
0.4174017278
 40
0.4904273418
 40
0.561714534
 40
0.6303119207
 40
0.6953993354
 40
0.7563467502
 40
0.812783921
 40
0.8646842137
 40
0.9124585036
 40
0.9351027574
 40
0.9571077915
 40
0.9786680906
 40
1.0
 40
1.0
 40
1.0
 40
1.0
 10
79.5936572842
 20
116.0684531462
 30
0.0
 10
79.3211972995
 20
115.9111492397
 30
0.0
 10
78.7372547607
 20
115.6232538778
 30
0.0
 10
77.795321888
 20
115.281923784
 30
0.0
 10
76.7773796213
 20
115.0235446295
 30
0.0
 10
75.7052962167
 20
114.8535234117
 30
0.0
 10
74.6017323581
 20
114.7755159387
 30
0.0
 10
73.4902612978
 20
114.7911447979
 30
0.0
 10
72.3945833812
 20
114.9001075033
 30
0.0
 10
71.3380621024
 20
115.1000762061
 30
0.0
 10
70.3431412621
 20
115.3868167014
 30
0.0
 10
69.4308472973
 20
115.7543543099
 30
0.0
 10
68.6203509618
 20
116.1951611938
 30
0.0
 10
67.9285961623
 20
116.7006654426
 30
0.0
 10
67.3704097932
 20
117.261082493
 30
0.0
 10
67.0209991325
 20
117.7752590749
 30
0.0
 10
66.8262837354
 20
118.199779839
 30
0.0
 10
66.723072879
 20
118.518225097
 30
0.0
 10
66.6608185965
 20
118.8403834158
 30
0.0
 10
66.6469632002
 20
119.0569631893
 30
0.0
 10
66.6469629504
 20
119.1645510093
 30
0.0
  0
SPLINE
  5
290
100
AcDbEntity
  8
0
100
AcDbSpline
 62
7
  6
BYLAYER
 70
0
 71
3
 72
15
 73
11
 74
0
 42
0.0000001
 43
0.0000001
 44
0.0000000001
 40
0.0
 40
0.0
 40
0.0
 40
0.0
 40
0.1080112821
 40
0.2180578065
 40
0.3319949952
 40
0.4513552375
 40
0.5772629873
 40
0.7104878363
 40
0.8514445099
 40
1.0
 40
1.0
 40
1.0
 40
1.0
 10
81.8149113069
 20
119.1645510478
 30
0.0
 10
81.8149116402
 20
119.0209784644
 30
0.0
 10
81.7900103634
 20
118.7305417215
 30
0.0
 10
81.6786960702
 20
118.3015658356
 30
0.0
 10
81.4950126987
 20
117.881816706
 30
0.0
 10
81.2412269489
 20
117.4755838169
 30
0.0
 10
80.9202490973
 20
117.0864949454
 30
0.0
 10
80.5352834418
 20
116.7179883909
 30
0.0
 10
80.0901870812
 20
116.3735546048
 30
0.0
 10
79.7646676279
 20
116.1671854249
 30
0.0
 10
79.5936572842
 20
116.0684531462
 30
0.0
  0
SPLINE
  5
291
100
AcDbEntity
  8
0
100
AcDbSpline
 62
7
  6
BYLAYER
 70
0
 71
3
 72
14
 73
10
 74
0
 42
0.0000001
 43
0.0000001
 44
0.0000000001
 40
0.0
 40
0.0
 40
0.0
 40
0.0
 40
0.1098797425
 40
0.2215242922
 40
0.3365583519
 40
0.4563722073
 40
0.5820410745
 40
0.7143330791
 40
1.0
 40
1.0
 40
1.0
 40
1.0
 10
81.8149110995
 20
124.2676911782
 30
0.0
 10
81.8149109546
 20
124.3999304775
 30
0.0
 10
81.7938555799
 20
124.6669955736
 30
0.0
 10
81.6995273231
 20
125.0624272264
 30
0.0
 10
81.5436744513
 20
125.4507590987
 30
0.0
 10
81.3277762772
 20
125.8285292214
 30
0.0
 10
81.0540258948
 20
126.1929185673
 30
0.0
 10
80.6036802247
 20
126.6689441679
 30
0.0
 10
80.2023626631
 20
126.9785882524
 30
0.0
 10
79.9145741628
 20
127.1666695634
 30
0.0
  0
SPLINE
  5
292
100
AcDbEntity
  8
0
100
AcDbSpline
 62
7
  6
BYLAYER
 70
0
 71
3
 72
14
 73
10
 74
0
 42
0.0000001
 43
0.0000001
 44
0.0000000001
 40
0.0
 40
0.0
 40
0.0
 40
0.0
 40
0.2860609654
 40
0.4184192516
 40
0.5440974561
 40
0.663867317
 40
0.7787971826
 40
0.89029174
 40
1.0
 40
1.0
 40
1.0
 40
1.0
 10
68.5751809425
 20
127.1847842597
 30
0.0
 10
68.2833906396
 20
126.9961820546
 30
0.0
 10
67.8763345763
 20
126.6854025751
 30
0.0
 10
67.4193076167
 20
126.2066139837
 30
0.0
 10
67.1415142161
 20
125.8399683339
 30
0.0
 10
66.9223577185
 20
125.4596367931
 30
0.0
 10
66.7641169119
 20
125.0684912075
 30
0.0
 10
66.6683459488
 20
124.6700734671
 30
0.0
 10
66.6469630118
 20
124.4009378415
 30
0.0
 10
66.6469631578
 20
124.267691093
 30
0.0
  0
SPLINE
  5
293
100
AcDbEntity
  8
0
100
AcDbSpline
 62
7
  6
BYLAYER
 70
0
 71
3
 72
11
 73
7
 74
0
 42
0.0000001
 43
0.0000001
 44
0.0000000001
 40
0.0
 40
0.0
 40
0.0
 40
0.0
 40
0.272948423
 40
0.527236995
 40
0.7674326094
 40
1.0
 40
1.0
 40
1.0
 40
1.0
 10
69.3696011335
 20
133.5377516097
 30
0.0
 10
69.2524152735
 20
133.4201950564
 30
0.0
 10
69.0419705705
 20
133.1761448246
 30
0.0
 10
68.8020318877
 20
132.7727036613
 30
0.0
 10
68.6551536788
 20
132.3523168102
 30
0.0
 10
68.6219398331
 20
132.0638326184
 30
0.0
 10
68.6219530864
 20
131.9224013821
 30
0.0
  0
SPLINE
  5
294
100
AcDbEntity
  8
0
100
AcDbSpline
 62
7
  6
BYLAYER
 70
0
 71
3
 72
14
 73
10
 74
0
 42
0.0000001
 43
0.0000001
 44
0.0000000001
 40
0.0
 40
0.0
 40
0.0
 40
0.0
 40
0.2892798478
 40
0.4225530633
 40
0.5484990294
 40
0.6678947591
 40
0.7818722531
 40
0.891954558
 40
1.0
 40
1.0
 40
1.0
 40
1.0
 10
70.7116520266
 20
134.9748435528
 30
0.0
 10
70.4931871223
 20
134.8487135344
 30
0.0
 10
70.1872279783
 20
134.6380660016
 30
0.0
 10
69.8410963936
 20
134.3067752965
 30
0.0
 10
69.6304226171
 20
134.0514188332
 30
0.0
 10
69.463910073
 20
133.7848197581
 30
0.0
 10
69.3433301263
 20
133.5093712664
 30
0.0
 10
69.2703170079
 20
133.2278444637
 30
0.0
 10
69.2539424341
 20
133.0372484092
 30
0.0
 10
69.2539511212
 20
132.9430293709
 30
0.0
  0
SPLINE
  5
295
100
AcDbEntity
  8
0
100
AcDbSpline
 62
7
  6
BYLAYER
 70
0
 71
3
 72
22
 73
18
 74
0
 42
0.0000001
 43
0.0000001
 44
0.0000000001
 40
0.0
 40
0.0
 40
0.0
 40
0.0
 40
0.0623917049
 40
0.1287663218
 40
0.1983731461
 40
0.270372665
 40
0.4173899696
 40
0.490436848
 40
0.5617456925
 40
0.6303635409
 40
0.6954699032
 40
0.756435392
 40
0.8128895895
 40
0.8648048426
 40
0.9125930513
 40
0.9571804571
 40
1.0
 40
1.0
 40
1.0
 40
1.0
 10
77.024020543
 20
131.3304783372
 30
0.0
 10
76.8821272294
 20
131.2485566834
 30
0.0
 10
76.5779732439
 20
131.0986214572
 30
0.0
 10
76.0874023736
 20
130.9208267212
 30
0.0
 10
75.5571621704
 20
130.7862426883
 30
0.0
 10
74.8078239801
 20
130.6674509864
 30
0.0
 10
74.036651648
 20
130.6462355075
 30
0.0
 10
73.2745519318
 20
130.7219572134
 30
0.0
 10
72.7242281335
 20
130.8261115066
 30
0.0
 10
72.2060523557
 20
130.9754582854
 30
0.0
 10
71.7308992079
 20
131.166887494
 30
0.0
 10
71.3087625763
 20
131.3964792716
 30
0.0
 10
70.9484767898
 20
131.6597302347
 30
0.0
 10
70.657733929
 20
131.9517087559
 30
0.0
 10
70.4432245992
 20
132.2672367221
 30
0.0
 10
70.3110188754
 20
132.6000709281
 30
0.0
 10
70.2809424316
 20
132.8305828482
 30
0.0
 10
70.280941921
 20
132.9430293179
 30
0.0
  0
SPLINE
  5
296
100
AcDbEntity
  8
0
100
AcDbSpline
 62
7
  6
BYLAYER
 70
0
 71
3
 72
21
 73
17
 74
0
 42
0.0000001
 43
0.0000001
 44
0.0000000001
 40
0.0
 40
0.0
 40
0.0
 40
0.0
 40
0.060742643
 40
0.1251283435
 40
0.1925425153
 40
0.2623048047
 40
0.405456299
 40
0.547741213
 40
0.6164490522
 40
0.6824533467
 40
0.745109049
 40
0.8039308969
 40
0.8586478627
 40
0.9092660488
 40
0.9561342289
 40
1.0
 40
1.0
 40
1.0
 40
1.0
 10
77.8619455673
 20
94.1041042723
 30
0.0
 10
77.6913886251
 20
94.0056337636
 30
0.0
 10
77.3274979245
 20
93.8240343139
 30
0.0
 10
76.7423048776
 20
93.6040314533
 30
0.0
 10
76.1109491766
 20
93.4317943117
 30
0.0
 10
75.2158837288
 20
93.2686876744
 30
0.0
 10
74.0611247785
 20
93.2015721132
 30
0.0
 10
72.9130177044
 20
93.3124168574
 30
0.0
 10
72.0359619728
 20
93.5101605729
 30
0.0
 10
71.4258548166
 20
93.7063050642
 30
0.0
 10
70.8670990835
 20
93.9483581401
 30
0.0
 10
70.3697899337
 20
94.2321218478
 30
0.0
 10
69.9429380698
 20
94.5527246953
 30
0.0
 10
69.5943581808
 20
94.9049939268
 30
0.0
 10
69.330949798
 20
95.2830361216
 30
0.0
 10
69.2132106432
 20
95.55552197
 30
0.0
 10
69.1721191779
 20
95.6916796275
 30
0.0
  0
SPLINE
  5
297
100
AcDbEntity
  8
0
100
AcDbSpline
 62
7
  6
BYLAYER
 70
0
 71
3
 72
9
 73
5
 74
0
 42
0.0000001
 43
0.0000001
 44
0.0000000001
 40
0.0
 40
0.0
 40
0.0
 40
0.0
 40
0.4965674549
 40
1.0
 40
1.0
 40
1.0
 40
1.0
 10
80.9459199228
 20
113.6786754134
 30
0.0
 10
80.9459197893
 20
113.5702112053
 30
0.0
 10
80.929971981
 20
113.3514939652
 30
0.0
 10
80.8827390688
 20
113.1374033567
 30
0.0
 10
80.8518107462
 20
113.0318786581
 30
0.0
  0
SPLINE
  5
298
100
AcDbEntity
  8
0
100
AcDbSpline
 62
7
  6
BYLAYER
 70
0
 71
3
 72
11
 73
7
 74
0
 42
0.0000001
 43
0.0000001
 44
0.0000000001
 40
0.0
 40
0.0
 40
0.0
 40
0.0
 40
0.2202294625
 40
0.4579132474
 40
0.7173828299
 40
1.0
 40
1.0
 40
1.0
 40
1.0
 10
79.289754386
 20
95.6916796795
 30
0.0
 10
79.2434879194
 20
95.5382933054
 30
0.0
 10
79.1052900509
 20
95.2310856149
 30
0.0
 10
78.7899374479
 20
94.8110786808
 30
0.0
 10
78.3696792451
 20
94.4260822235
 30
0.0
 10
78.0399989092
 20
94.2069028035
 30
0.0
 10
77.8619455673
 20
94.1041042723
 30
0.0
  0
SPLINE
  5
299
100
AcDbEntity
  8
0
100
AcDbSpline
 62
7
  6
BYLAYER
 70
0
 71
3
 72
11
 73
7
 74
0
 42
0.0000001
 43
0.0000001
 44
0.0000000001
 40
0.0
 40
0.0
 40
0.0
 40
0.0
 40
0.2491718416
 40
0.4950109488
 40
0.743417995
 40
1.0
 40
1.0
 40
1.0
 40
1.0
 10
79.7567222605
 20
97.2394502506
 30
0.0
 10
79.7915019316
 20
97.3547536639
 30
0.0
 10
79.8403179293
 20
97.5906416337
 30
0.0
 10
79.8448406333
 20
97.9520916248
 30
0.0
 10
79.7799106279
 20
98.3112676209
 30
0.0
 10
79.6928695289
 20
98.5408698217
 30
0.0
 10
79.6395977415
 20
98.6528615671
 30
0.0
  0
SPLINE
  5
29A
100
AcDbEntity
  8
0
100
AcDbSpline
 62
7
  6
BYLAYER
 70
0
 71
3
 72
9
 73
5
 74
0
 42
0.0000001
 43
0.0000001
 44
0.0000000001
 40
0.0
 40
0.0
 40
0.0
 40
0.0
 40
0.4913398955
 40
1.0
 40
1.0
 40
1.0
 40
1.0
 10
79.8399211709
 20
100.9846143112
 30
0.0
 10
79.8399074065
 20
101.1314990004
 30
0.0
 10
79.8041036487
 20
101.4314420916
 30
0.0
 10
79.7009878654
 20
101.7148482774
 30
0.0
 10
79.6350332527
 20
101.8518628694
 30
0.0
  0
SPLINE
  5
29B
100
AcDbEntity
  8
0
100
AcDbSpline
 62
7
  6
BYLAYER
 70
0
 71
3
 72
14
 73
10
 74
0
 42
0.0000001
 43
0.0000001
 44
0.0000000001
 40
0.0
 40
0.0
 40
0.0
 40
0.0
 40
0.1080444652
 40
0.2181259661
 40
0.3321030651
 40
0.4514981285
 40
0.5774441583
 40
0.7107186717
 40
1.0
 40
1.0
 40
1.0
 40
1.0
 10
79.8399213814
 20
99.3898830438
 30
0.0
 10
79.839931337
 20
99.283700658
 30
0.0
 10
79.8214755729
 20
99.0689039943
 30
0.0
 10
79.7391949907
 20
98.7516290018
 30
0.0
 10
79.6033020374
 20
98.4412054876
 30
0.0
 10
79.4156492334
 20
98.140751315
 30
0.0
 10
79.1782221569
 20
97.8529684852
 30
0.0
 10
78.7881366526
 20
97.4796060837
 30
0.0
 10
78.4433232818
 20
97.2422079577
 30
0.0
 10
78.197115577
 20
97.1000607216
 30
0.0
  0
SPLINE
  5
29C
100
AcDbEntity
  8
0
100
AcDbSpline
 62
7
  6
BYLAYER
 70
0
 71
3
 72
9
 73
5
 74
0
 42
0.0000001
 43
0.0000001
 44
0.0000000001
 40
0.0
 40
0.0
 40
0.0
 40
0.0
 40
0.4913398955
 40
1.0
 40
1.0
 40
1.0
 40
1.0
 10
79.8399211709
 20
104.1740768781
 30
0.0
 10
79.8399074065
 20
104.3209615673
 30
0.0
 10
79.8041036487
 20
104.6209046585
 30
0.0
 10
79.7009878654
 20
104.9043108443
 30
0.0
 10
79.6350332527
 20
105.0413254363
 30
0.0
  0
SPLINE
  5
29D
100
AcDbEntity
  8
0
100
AcDbSpline
 62
7
  6
BYLAYER
 70
0
 71
3
 72
14
 73
10
 74
0
 42
0.0000001
 43
0.0000001
 44
0.0000000001
 40
0.0
 40
0.0
 40
0.0
 40
0.0
 40
0.1080444652
 40
0.2181259661
 40
0.3321030651
 40
0.4514981285
 40
0.5774441583
 40
0.7107186717
 40
1.0
 40
1.0
 40
1.0
 40
1.0
 10
79.8399213814
 20
102.5793456107
 30
0.0
 10
79.839931337
 20
102.4731632249
 30
0.0
 10
79.8214755729
 20
102.2583665612
 30
0.0
 10
79.7391949907
 20
101.9410915688
 30
0.0
 10
79.6033020374
 20
101.6306680545
 30
0.0
 10
79.4156492334
 20
101.3302138819
 30
0.0
 10
79.1782221569
 20
101.0424310521
 30
0.0
 10
78.7881366526
 20
100.6690686506
 30
0.0
 10
78.4433232818
 20
100.4316705246
 30
0.0
 10
78.197115577
 20
100.2895232885
 30
0.0
  0
SPLINE
  5
29E
100
AcDbEntity
  8
0
100
AcDbSpline
 62
7
  6
BYLAYER
 70
0
 71
3
 72
14
 73
10
 74
0
 42
0.0000001
 43
0.0000001
 44
0.0000000001
 40
0.0
 40
0.0
 40
0.0
 40
0.0
 40
0.1080444652
 40
0.2181259661
 40
0.3321030651
 40
0.4514981285
 40
0.5774441583
 40
0.7107186717
 40
1.0
 40
1.0
 40
1.0
 40
1.0
 10
79.8399213814
 20
105.7688081776
 30
0.0
 10
79.839931337
 20
105.6626257918
 30
0.0
 10
79.8214755729
 20
105.4478291281
 30
0.0
 10
79.7391949907
 20
105.1305541357
 30
0.0
 10
79.6033020374
 20
104.8201306214
 30
0.0
 10
79.4156492334
 20
104.5196764488
 30
0.0
 10
79.1782221569
 20
104.231893619
 30
0.0
 10
78.7881366526
 20
103.8585312175
 30
0.0
 10
78.4433232818
 20
103.6211330915
 30
0.0
 10
78.197115577
 20
103.4789858554
 30
0.0
  0
SPLINE
  5
29F
100
AcDbEntity
  8
0
100
AcDbSpline
 62
7
  6
BYLAYER
 70
0
 71
3
 72
15
 73
11
 74
0
 42
0.0000001
 43
0.0000001
 44
0.0000000001
 40
0.0
 40
0.0
 40
0.0
 40
0.0
 40
0.1485547558
 40
0.2895089542
 40
0.4227327179
 40
0.548640728
 40
0.6680016211
 40
0.7819394882
 40
0.8919871943
 40
1.0
 40
1.0
 40
1.0
 40
1.0
 10
79.5936572842
 20
121.1715932533
 30
0.0
 10
79.7646667982
 20
121.2703250529
 30
0.0
 10
80.0901836784
 20
121.4766904709
 30
0.0
 10
80.5352746262
 20
121.8211219124
 30
0.0
 10
80.9202391422
 20
122.1896233773
 30
0.0
 10
81.2412170891
 20
122.5787117718
 30
0.0
 10
81.4950084112
 20
122.9849438479
 30
0.0
 10
81.6786921237
 20
123.4046965384
 30
0.0
 10
81.7900109179
 20
123.8336759697
 30
0.0
 10
81.8149112568
 20
124.1241165565
 30
0.0
 10
81.8149110995
 20
124.2676911782
 30
0.0
  0
SPLINE
  5
2A0
100
AcDbEntity
  8
0
100
AcDbSpline
 62
7
  6
BYLAYER
 70
0
 71
3
 72
23
 73
19
 74
0
 42
0.0000001
 43
0.0000001
 44
0.0000000001
 40
0.0
 40
0.0
 40
0.0
 40
0.0
 40
0.0623863522
 40
0.1287465122
 40
0.1983453914
 40
0.2703345009
 40
0.3437224085
 40
0.41746678
 40
0.4905039848
 40
0.5618027394
 40
0.6304118982
 40
0.6955105435
 40
0.7564677516
 40
0.812913627
 40
0.8648222462
 40
0.9126047327
 40
0.9571861965
 40
1.0
 40
1.0
 40
1.0
 40
1.0
 10
78.197115577
 20
121.9778687435
 30
0.0
 10
77.995617263
 20
121.8615343321
 30
0.0
 10
77.563736027
 20
121.648618786
 30
0.0
 10
76.8671069703
 20
121.3961639195
 30
0.0
 10
76.1142448065
 20
121.2050780213
 30
0.0
 10
75.3213604708
 20
121.0793246421
 30
0.0
 10
74.5051870395
 20
121.0216276157
 30
0.0
 10
73.6831673348
 20
121.033198548
 30
0.0
 10
72.8728260194
 20
121.1137866662
 30
0.0
 10
72.091437333
 20
121.2616742337
 30
0.0
 10
71.3556011668
 20
121.4737330471
 30
0.0
 10
70.6808766669
 20
121.7455499192
 30
0.0
 10
70.0814465558
 20
122.0715843253
 30
0.0
 10
69.5698573855
 20
122.4454178039
 30
0.0
 10
69.1569907068
 20
122.860015995
 30
0.0
 10
68.8523695696
 20
123.3080563732
 30
0.0
 10
68.6646215805
 20
123.7806863739
 30
0.0
 10
68.6219678468
 20
124.108017151
 30
0.0
 10
68.6219528759
 20
124.2676912055
 30
0.0
  0
SPLINE
  5
2A1
100
AcDbEntity
  8
0
100
AcDbSpline
 62
7
  6
BYLAYER
 70
0
 71
3
 72
14
 73
10
 74
0
 42
0.0000001
 43
0.0000001
 44
0.0000000001
 40
0.0
 40
0.0
 40
0.0
 40
0.0
 40
0.1080437006
 40
0.2181253226
 40
0.3321056724
 40
0.4514949982
 40
0.5774401166
 40
0.7107255259
 40
1.0
 40
1.0
 40
1.0
 40
1.0
 10
70.280941921
 20
132.9430293179
 30
0.0
 10
70.2809415814
 20
133.0178050667
 30
0.0
 10
70.2939520266
 20
133.1690668422
 30
0.0
 10
70.3518738083
 20
133.3925081895
 30
0.0
 10
70.4475972554
 20
133.6111039089
 30
0.0
 10
70.5797205043
 20
133.822703648
 30
0.0
 10
70.7469356424
 20
134.0253624895
 30
0.0
 10
71.021644535
 20
134.288294101
 30
0.0
 10
71.2644722317
 20
134.4554790498
 30
0.0
 10
71.4378537143
 20
134.5555802979
 30
0.0
  0
SPLINE
  5
2A2
100
AcDbEntity
  8
0
100
AcDbSpline
 62
7
  6
BYLAYER
 70
0
 71
3
 72
14
 73
10
 74
0
 42
0.0000001
 43
0.0000001
 44
0.0000000001
 40
0.0
 40
0.0
 40
0.0
 40
0.0
 40
0.1080441412
 40
0.2181255858
 40
0.3321028415
 40
0.4514980315
 40
0.5774440386
 40
0.7107185458
 40
1.0
 40
1.0
 40
1.0
 40
1.0
 10
79.2079232864
 20
131.9224012528
 30
0.0
 10
79.2079320412
 20
131.8281833629
 30
0.0
 10
79.1915554963
 20
131.6375895347
 30
0.0
 10
79.1185466197
 20
131.3560638768
 30
0.0
 10
78.9979651843
 20
131.0806175828
 30
0.0
 10
78.8314565778
 20
130.8140170286
 30
0.0
 10
78.6207818304
 20
130.5586603123
 30
0.0
 10
78.2746495137
 20
130.2273669213
 30
0.0
 10
77.9686883153
 20
130.0167177608
 30
0.0
 10
77.7502222307
 20
129.8905870609
 30
0.0
  0
SPLINE
  5
2A3
100
AcDbEntity
  8
0
100
AcDbSpline
 62
7
  6
BYLAYER
 70
0
 71
3
 72
14
 73
10
 74
0
 42
0.0000001
 43
0.0000001
 44
0.0000000001
 40
0.0
 40
0.0
 40
0.0
 40
0.0
 40
0.289279205
 40
0.422552385
 40
0.5484984344
 40
0.6678941162
 40
0.7818716056
 40
0.8919541087
 40
1.0
 40
1.0
 40
1.0
 40
1.0
 10
78.197115577
 20
129.6325789041
 30
0.0
 10
78.4433215059
 20
129.7747251149
 30
0.0
 10
78.7881321514
 20
130.0121210042
 30
0.0
 10
79.1782165452
 20
130.385479928
 30
0.0
 10
79.4156428651
 20
130.6732623279
 30
0.0
 10
79.6033001415
 20
130.9737151192
 30
0.0
 10
79.7391920325
 20
131.2841412578
 30
0.0
 10
79.8214771014
 20
131.6014180209
 30
0.0
 10
79.8399311212
 20
131.8162174094
 30
0.0
 10
79.8399211709
 20
131.9224012102
 30
0.0
  0
SPLINE
  5
2A4
100
AcDbEntity
  8
0
100
AcDbSpline
 62
7
  6
BYLAYER
 70
0
 71
3
 72
23
 73
19
 74
0
 42
0.0000001
 43
0.0000001
 44
0.0000000001
 40
0.0
 40
0.0
 40
0.0
 40
0.0
 40
0.0623864643
 40
0.1287466524
 40
0.1983454967
 40
0.2703345904
 40
0.3437222823
 40
0.4174662266
 40
0.4905032857
 40
0.561802118
 40
0.6304113837
 40
0.695510186
 40
0.7564675472
 40
0.8129135527
 40
0.8648222715
 40
0.9126048342
 40
0.9571863292
 40
1.0
 40
1.0
 40
1.0
 40
1.0
 10
77.7502222307
 20
129.8905870609
 30
0.0
 10
77.5714276312
 20
129.7873605669
 30
0.0
 10
77.1882085423
 20
129.5984355313
 30
0.0
 10
76.5700726575
 20
129.3744259397
 30
0.0
 10
75.9020400049
 20
129.2048712386
 30
0.0
 10
75.1984956398
 20
129.093287313
 30
0.0
 10
74.4742875923
 20
129.0420916339
 30
0.0
 10
73.744892436
 20
129.0523580433
 30
0.0
 10
73.0258587983
 20
129.1238654885
 30
0.0
 10
72.332513664
 20
129.2550890442
 30
0.0
 10
71.6795874216
 20
129.4432538523
 30
0.0
 10
71.080886696
 20
129.6844433809
 30
0.0
 10
70.5489965318
 20
129.9737418967
 30
0.0
 10
70.0950501431
 20
130.3054539896
 30
0.0
 10
69.7287028524
 20
130.6733375282
 30
0.0
 10
69.4584049373
 20
131.0708951659
 30
0.0
 10
69.2918120342
 20
131.4902710991
 30
0.0
 10
69.2539641361
 20
131.780719167
 30
0.0
 10
69.2539509709
 20
131.9224013395
 30
0.0
  0
SPLINE
  5
2A5
100
AcDbEntity
  8
0
100
AcDbSpline
 62
7
  6
BYLAYER
 70
0
 71
3
 72
25
 73
21
 74
0
 42
0.0000001
 43
0.0000001
 44
0.0000000001
 40
0.0
 40
0.0
 40
0.0
 40
0.0
 40
0.0213321943
 40
0.0428928239
 40
0.0648982261
 40
0.0875428571
 40
0.1353179572
 40
0.1872189795
 40
0.2436566142
 40
0.3046041412
 40
0.3696912575
 40
0.4382879121
 40
0.5095740192
 40
0.5825984105
 40
0.6563306415
 40
0.7297065727
 40
0.8016837098
 40
0.8712734509
 40
0.9376203204
 40
1.0
 40
1.0
 40
1.0
 40
1.0
 10
66.6469631578
 20
124.267691093
 30
0.0
 10
66.6469632757
 20
124.160101839
 30
0.0
 10
66.6608186172
 20
123.9435189017
 30
0.0
 10
66.7230755632
 20
123.6213559828
 30
0.0
 10
66.8262897646
 20
123.3029061397
 30
0.0
 10
67.021009881
 20
122.8783788809
 30
0.0
 10
67.3704305103
 20
122.3641970389
 30
0.0
 10
67.9286293611
 20
121.8037782208
 30
0.0
 10
68.620393342
 20
121.298275505
 30
0.0
 10
69.4308935427
 20
120.857472958
 30
0.0
 10
70.343184905
 20
120.4899414873
 30
0.0
 10
71.3380965304
 20
120.203207806
 30
0.0
 10
72.3946032397
 20
120.0032450781
 30
0.0
 10
73.4902642031
 20
119.8942853313
 30
0.0
 10
74.6017201063
 20
119.8786558802
 30
0.0
 10
75.7052742145
 20
119.9566610796
 30
0.0
 10
76.7773537867
 20
120.1266802793
 30
0.0
 10
77.7953013246
 20
120.3850570908
 30
0.0
 10
78.7372428747
 20
120.7263900838
 30
0.0
 10
79.3211941273
 20
121.0142875153
 30
0.0
 10
79.5936572842
 20
121.1715932533
 30
0.0
  0
SPLINE
  5
2A6
100
AcDbEntity
  8
0
100
AcDbSpline
 62
7
  6
BYLAYER
 70
0
 71
3
 72
14
 73
10
 74
0
 42
0.0000001
 43
0.0000001
 44
0.0000000001
 40
0.0
 40
0.0
 40
0.0
 40
0.0
 40
0.2892798478
 40
0.4225530633
 40
0.5484990294
 40
0.6678947591
 40
0.7818722531
 40
0.891954558
 40
1.0
 40
1.0
 40
1.0
 40
1.0
 10
77.7502222307
 20
130.9112150823
 30
0.0
 10
77.968687135
 20
131.0373451007
 30
0.0
 10
78.274646279
 20
131.2479926336
 30
0.0
 10
78.6207778637
 20
131.5792833387
 30
0.0
 10
78.8314516402
 20
131.8346398019
 30
0.0
 10
78.9979641843
 20
132.1012388771
 30
0.0
 10
79.1185441311
 20
132.3766873688
 30
0.0
 10
79.1915572494
 20
132.6582141715
 30
0.0
 10
79.2079318233
 20
132.848810226
 30
0.0
 10
79.2079231362
 20
132.9430292643
 30
0.0
  0
SPLINE
  5
2A7
100
AcDbEntity
  8
0
100
AcDbSpline
 62
7
  6
BYLAYER
 70
0
 71
3
 72
22
 73
18
 74
0
 42
0.0000001
 43
0.0000001
 44
0.0000000001
 40
0.0
 40
0.0
 40
0.0
 40
0.0
 40
0.0623917049
 40
0.1287663218
 40
0.1983731461
 40
0.270372665
 40
0.4173899696
 40
0.490436848
 40
0.5617456925
 40
0.6303635409
 40
0.6954699032
 40
0.756435392
 40
0.8128895895
 40
0.8648048426
 40
0.9125930513
 40
0.9571804571
 40
1.0
 40
1.0
 40
1.0
 40
1.0
 10
71.4378537143
 20
134.5555802979
 30
0.0
 10
71.5797470279
 20
134.6375019517
 30
0.0
 10
71.8839010134
 20
134.7874371779
 30
0.0
 10
72.3744718837
 20
134.965231914
 30
0.0
 10
72.9047120869
 20
135.0998159469
 30
0.0
 10
73.6540502772
 20
135.2186076488
 30
0.0
 10
74.4252226094
 20
135.2398231277
 30
0.0
 10
75.1873223255
 20
135.1641014218
 30
0.0
 10
75.7376461239
 20
135.0599471286
 30
0.0
 10
76.2558219016
 20
134.9106003497
 30
0.0
 10
76.7309750495
 20
134.7191711412
 30
0.0
 10
77.1531116811
 20
134.4895793635
 30
0.0
 10
77.5133974675
 20
134.2263284004
 30
0.0
 10
77.8041403283
 20
133.9343498793
 30
0.0
 10
78.0186496581
 20
133.6188219131
 30
0.0
 10
78.1508553819
 20
133.2859877071
 30
0.0
 10
78.1809318258
 20
133.055475787
 30
0.0
 10
78.1809323364
 20
132.9430293173
 30
0.0
  0
SPLINE
  5
2A8
100
AcDbEntity
  8
0
100
AcDbSpline
 62
7
  6
BYLAYER
 70
0
 71
3
 72
11
 73
7
 74
0
 42
0.0000001
 43
0.0000001
 44
0.0000000001
 40
0.0
 40
0.0
 40
0.0
 40
0.0
 40
0.2826169256
 40
0.5420842541
 40
0.7797692499
 40
1.0
 40
1.0
 40
1.0
 40
1.0
 10
78.197115577
 20
95.5053294381
 30
0.0
 10
78.3916044755
 20
95.6176169857
 30
0.0
 10
78.7517162306
 20
95.8570259973
 30
0.0
 10
79.2107656949
 20
96.2775609425
 30
0.0
 10
79.5552303169
 20
96.7363363746
 30
0.0
 10
79.706184339
 20
97.0719042482
 30
0.0
 10
79.7567222605
 20
97.2394502506
 30
0.0
  0
SPLINE
  5
2A9
100
AcDbEntity
  8
0
100
AcDbSpline
 62
7
  6
BYLAYER
 70
0
 71
3
 72
14
 73
10
 74
0
 42
0.0000001
 43
0.0000001
 44
0.0000000001
 40
0.0
 40
0.0
 40
0.0
 40
0.0
 40
0.289279205
 40
0.422552385
 40
0.5484984344
 40
0.6678941162
 40
0.7818716056
 40
0.8919541087
 40
1.0
 40
1.0
 40
1.0
 40
1.0
 10
78.197115577
 20
101.8842545719
 30
0.0
 10
78.4433215059
 20
102.0264007828
 30
0.0
 10
78.7881321514
 20
102.263796672
 30
0.0
 10
79.1782165452
 20
102.6371555959
 30
0.0
 10
79.4156428651
 20
102.9249379957
 30
0.0
 10
79.6033001415
 20
103.2253907871
 30
0.0
 10
79.7391920325
 20
103.5358169257
 30
0.0
 10
79.8214771014
 20
103.8530936888
 30
0.0
 10
79.8399311212
 20
104.0678930773
 30
0.0
 10
79.8399211709
 20
104.1740768781
 30
0.0
  0
SPLINE
  5
2AA
100
AcDbEntity
  8
0
100
AcDbSpline
 62
7
  6
BYLAYER
 70
0
 71
3
 72
21
 73
17
 74
0
 42
0.0000001
 43
0.0000001
 44
0.0000000001
 40
0.0
 40
0.0
 40
0.0
 40
0.0
 40
0.0601442808
 40
0.1238233521
 40
0.1904471046
 40
0.2593942481
 40
0.4010882155
 40
0.5425233625
 40
0.6111543714
 40
0.6773576936
 40
0.7404956919
 40
0.8000670211
 40
0.8557455794
 40
0.9074379502
 40
0.9553421949
 40
1.0
 40
1.0
 40
1.0
 40
1.0
 10
77.3033288844
 20
102.4002708856
 30
0.0
 10
77.1632087308
 20
102.3193729601
 30
0.0
 10
76.8647230711
 20
102.1697798207
 30
0.0
 10
76.3852792934
 20
101.9871648381
 30
0.0
 10
75.8683890661
 20
101.8425860468
 30
0.0
 10
75.1350155732
 20
101.7026743721
 30
0.0
 10
74.1861744026
 20
101.6369770099
 30
0.0
 10
73.2389958926
 20
101.7138887923
 30
0.0
 10
72.5100870359
 20
101.862692379
 30
0.0
 10
71.9985484528
 20
102.0134379226
 30
0.0
 10
71.5256718033
 20
102.2017509783
 30
0.0
 10
71.0995243851
 20
102.4244764989
 30
0.0
 10
70.7274259171
 20
102.6779924732
 30
0.0
 10
70.4157658794
 20
102.9583493415
 30
0.0
 10
70.1701499969
 20
103.2610179128
 30
0.0
 10
70.0502094644
 20
103.4814050931
 30
0.0
 10
70.004354381
 20
103.5924452495
 30
0.0
  0
SPLINE
  5
2AB
100
AcDbEntity
  8
0
100
AcDbSpline
 62
7
  6
BYLAYER
 70
0
 71
3
 72
21
 73
17
 74
0
 42
0.0000001
 43
0.0000001
 44
0.0000000001
 40
0.0
 40
0.0
 40
0.0
 40
0.0
 40
0.0601442808
 40
0.1238233521
 40
0.1904471046
 40
0.2593942481
 40
0.4010882155
 40
0.5425233625
 40
0.6111543714
 40
0.6773576936
 40
0.7404956919
 40
0.8000670211
 40
0.8557455794
 40
0.9074379502
 40
0.9553421949
 40
1.0
 40
1.0
 40
1.0
 40
1.0
 10
77.3033288844
 20
96.0213457518
 30
0.0
 10
77.1632087308
 20
95.9404478263
 30
0.0
 10
76.8647230711
 20
95.7908546869
 30
0.0
 10
76.3852792934
 20
95.6082397043
 30
0.0
 10
75.8683890661
 20
95.4636609129
 30
0.0
 10
75.1350155732
 20
95.3237492383
 30
0.0
 10
74.1861744026
 20
95.2580518761
 30
0.0
 10
73.2389958926
 20
95.3349636585
 30
0.0
 10
72.5100870359
 20
95.4837672451
 30
0.0
 10
71.9985484528
 20
95.6345127887
 30
0.0
 10
71.5256718033
 20
95.8228258445
 30
0.0
 10
71.0995243851
 20
96.0455513651
 30
0.0
 10
70.7274259171
 20
96.2990673394
 30
0.0
 10
70.4157658794
 20
96.5794242077
 30
0.0
 10
70.1701499969
 20
96.882092779
 30
0.0
 10
70.0502094644
 20
97.1024799592
 30
0.0
 10
70.004354381
 20
97.2135201157
 30
0.0
  0
SPLINE
  5
2AC
100
AcDbEntity
  8
0
100
AcDbSpline
 62
7
  6
BYLAYER
 70
0
 71
3
 72
23
 73
19
 74
0
 42
0.0000001
 43
0.0000001
 44
0.0000000001
 40
0.0
 40
0.0
 40
0.0
 40
0.0
 40
0.0438563472
 40
0.090714483
 40
0.1413216397
 40
0.1960264162
 40
0.2548348504
 40
0.3174758497
 40
0.3834642872
 40
0.4521553356
 40
0.5227875925
 40
0.5945209306
 40
0.6664719215
 40
0.737752358
 40
0.8074990106
 40
0.8748983676
 40
0.9392706489
 40
1.0
 40
1.0
 40
1.0
 40
1.0
 10
68.7051514932
 20
97.2394502303
 30
0.0
 10
68.7500369259
 20
97.0907223069
 30
0.0
 10
68.8786455753
 20
96.7930796594
 30
0.0
 10
69.1663747736
 20
96.3801378453
 30
0.0
 10
69.5471360448
 20
95.9953492437
 30
0.0
 10
70.0133937442
 20
95.6451522205
 30
0.0
 10
70.5566081526
 20
95.3351990944
 30
0.0
 10
71.1669433606
 20
95.0708009686
 30
0.0
 10
71.8333385038
 20
94.8565737085
 30
0.0
 10
72.5436734056
 20
94.6963632262
 30
0.0
 10
73.2849737539
 20
94.5931006146
 30
0.0
 10
74.0436424084
 20
94.5486714334
 30
0.0
 10
74.8057474545
 20
94.5638597088
 30
0.0
 10
75.5573041094
 20
94.6384053989
 30
0.0
 10
76.2844842744
 20
94.7709687481
 30
0.0
 10
76.974102531
 20
94.9590868944
 30
0.0
 10
77.6133274198
 20
95.1994052602
 30
0.0
 10
78.0108132017
 20
95.3977683536
 30
0.0
 10
78.197115577
 20
95.5053294381
 30
0.0
  0
SPLINE
  5
2AD
100
AcDbEntity
  8
0
100
AcDbSpline
 62
7
  6
BYLAYER
 70
0
 71
3
 72
23
 73
19
 74
0
 42
0.0000001
 43
0.0000001
 44
0.0000000001
 40
0.0
 40
0.0
 40
0.0
 40
0.0
 40
0.0428139518
 40
0.0873959668
 40
0.1351791714
 40
0.1870884226
 40
0.2435347076
 40
0.3044920112
 40
0.369590318
 40
0.4381986352
 40
0.5094962754
 40
0.5825322051
 40
0.656275375
 40
0.7296628993
 40
0.8016522911
 40
0.871251586
 40
0.937612975
 40
1.0
 40
1.0
 40
1.0
 40
1.0
 10
69.2539511212
 20
132.9430293709
 30
0.0
 10
69.2539641845
 20
132.8013462707
 30
0.0
 10
69.2918124125
 20
132.5108955083
 30
0.0
 10
69.4584081438
 20
132.0915153632
 30
0.0
 10
69.7287118804
 20
131.6939547957
 30
0.0
 10
70.0950644596
 20
131.3260697891
 30
0.0
 10
70.5490145048
 20
130.9943584535
 30
0.0
 10
71.0809051984
 20
130.7050628746
 30
0.0
 10
71.6796020467
 20
130.4638771947
 30
0.0
 10
72.3325200828
 20
130.2757156311
 30
0.0
 10
73.0258546109
 20
130.1444943952
 30
0.0
 10
73.7448779809
 20
130.0729878445
 30
0.0
 10
74.4742661869
 20
130.0627195401
 30
0.0
 10
75.198472298
 20
130.1139125685
 30
0.0
 10
75.902018784
 20
130.2254952388
 30
0.0
 10
76.5700583199
 20
130.3950492046
 30
0.0
 10
77.1882010949
 20
130.6190612687
 30
0.0
 10
77.5714260268
 20
130.8079876621
 30
0.0
 10
77.7502222307
 20
130.9112150823
 30
0.0
  0
SPLINE
  5
2AE
100
AcDbEntity
  8
0
100
AcDbSpline
 62
7
  6
BYLAYER
 70
0
 71
3
 72
14
 73
10
 74
0
 42
0.0000001
 43
0.0000001
 44
0.0000000001
 40
0.0
 40
0.0
 40
0.0
 40
0.0
 40
0.1080444652
 40
0.2181259661
 40
0.3321030651
 40
0.4514981285
 40
0.5774441583
 40
0.7107186717
 40
1.0
 40
1.0
 40
1.0
 40
1.0
 10
79.8399213814
 20
124.2676910657
 30
0.0
 10
79.839931337
 20
124.1615086799
 30
0.0
 10
79.8214755729
 20
123.9467120162
 30
0.0
 10
79.7391949907
 20
123.6294370238
 30
0.0
 10
79.6033020374
 20
123.3190135095
 30
0.0
 10
79.4156492334
 20
123.0185593369
 30
0.0
 10
79.1782221569
 20
122.7307765071
 30
0.0
 10
78.7881366526
 20
122.3574141056
 30
0.0
 10
78.4433232818
 20
122.1200159796
 30
0.0
 10
78.197115577
 20
121.9778687435
 30
0.0
  0
SPLINE
  5
2AF
100
AcDbEntity
  8
0
100
AcDbSpline
 62
7
  6
BYLAYER
 70
0
 71
3
 72
23
 73
19
 74
0
 42
0.0000001
 43
0.0000001
 44
0.0000000001
 40
0.0
 40
0.0
 40
0.0
 40
0.0
 40
0.044508824
 40
0.0922298744
 40
0.1437377374
 40
0.1992519914
 40
0.2586929071
 40
0.3217433329
 40
0.3879031192
 40
0.4565337291
 40
0.5268960518
 40
0.5981859836
 40
0.66956499
 40
0.7401923425
 40
0.8092566087
 40
0.8759946021
 40
0.9397658517
 40
1.0
 40
1.0
 40
1.0
 40
1.0
 10
67.6838166709
 20
117.0273356224
 30
0.0
 10
67.7519809871
 20
116.8546178961
 30
0.0
 10
67.9325466323
 20
116.5114245014
 30
0.0
 10
68.3066850515
 20
116.0393128519
 30
0.0
 10
68.7844327289
 20
115.6016168666
 30
0.0
 10
69.3569961944
 20
115.2054122493
 30
0.0
 10
70.0144351889
 20
114.8568806657
 30
0.0
 10
70.7453872025
 20
114.5617790689
 30
0.0
 10
71.5372133273
 20
114.3250850108
 30
0.0
 10
72.3761556038
 20
114.1508833749
 30
0.0
 10
73.2475735793
 20
114.0421973451
 30
0.0
 10
74.1362158992
 20
114.0009132824
 30
0.0
 10
75.0265140197
 20
114.0277436458
 30
0.0
 10
75.9028836332
 20
114.1222347374
 30
0.0
 10
76.7499451025
 20
114.282760973
 30
0.0
 10
77.5530406628
 20
114.5064734344
 30
0.0
 10
78.2979339144
 20
114.7895622219
 30
0.0
 10
78.7615595247
 20
115.0217874612
 30
0.0
 10
78.979178933
 20
115.1474293352
 30
0.0
  0
SPLINE
  5
2B0
100
AcDbEntity
  8
0
100
AcDbSpline
 62
7
  6
BYLAYER
 70
0
 71
3
 72
11
 73
7
 74
0
 42
0.0000001
 43
0.0000001
 44
0.0000000001
 40
0.0
 40
0.0
 40
0.0
 40
0.0
 40
0.2828528754
 40
0.5423460507
 40
0.779909001
 40
1.0
 40
1.0
 40
1.0
 40
1.0
 10
78.197115577
 20
107.561497941
 30
0.0
 10
78.3930738298
 20
107.6746338157
 30
0.0
 10
78.7556908161
 20
107.9159502775
 30
0.0
 10
79.2171485393
 20
108.3402950692
 30
0.0
 10
79.5620846364
 20
108.8033979543
 30
0.0
 10
79.7118057117
 20
109.1420934493
 30
0.0
 10
79.7613141323
 20
109.3110547866
 30
0.0
  0
SPLINE
  5
2B1
100
AcDbEntity
  8
0
100
AcDbSpline
 62
7
  6
BYLAYER
 70
0
 71
3
 72
9
 73
5
 74
0
 42
0.0000001
 43
0.0000001
 44
0.0000000001
 40
0.0
 40
0.0
 40
0.0
 40
0.0
 40
0.2465909781
 40
1.0
 40
1.0
 40
1.0
 40
1.0
 10
78.4748011188
 20
97.2570866508
 30
0.0
 10
78.4680380293
 20
97.2393124764
 30
0.0
 10
78.4393684003
 20
97.1677100721
 30
0.0
 10
78.405814184
 20
97.0980801657
 30
0.0
 10
78.3781591668
 20
97.0469797998
 30
0.0
  0
SPLINE
  5
2B2
100
AcDbEntity
  8
0
100
AcDbSpline
 62
7
  6
BYLAYER
 70
0
 71
3
 72
10
 73
6
 74
0
 42
0.0000001
 43
0.0000001
 44
0.0000000001
 40
0.0
 40
0.0
 40
0.0
 40
0.0
 40
0.4652181052
 40
0.7238517893
 40
1.0
 40
1.0
 40
1.0
 40
1.0
 10
78.3781591668
 20
97.0469797998
 30
0.0
 10
78.2673761054
 20
96.8422771617
 30
0.0
 10
78.0339884035
 20
96.5553675662
 30
0.0
 10
77.6482948697
 20
96.2362269042
 30
0.0
 10
77.4229810603
 20
96.0904265554
 30
0.0
 10
77.3033288844
 20
96.0213457518
 30
0.0
  0
SPLINE
  5
2B3
100
AcDbEntity
  8
0
100
AcDbSpline
 62
7
  6
BYLAYER
 70
0
 71
3
 72
23
 73
19
 74
0
 42
0.0000001
 43
0.0000001
 44
0.0000000001
 40
0.0
 40
0.0
 40
0.0
 40
0.0
 40
0.0428142077
 40
0.087396292
 40
0.1351794976
 40
0.1870887149
 40
0.2435349369
 40
0.3044921602
 40
0.3695903701
 40
0.4381986054
 40
0.5094961545
 40
0.5825321589
 40
0.6562756166
 40
0.7296631801
 40
0.8016524378
 40
0.871251675
 40
0.937613025
 40
1.0
 40
1.0
 40
1.0
 40
1.0
 10
68.6219530864
 20
100.9846144831
 30
0.0
 10
68.6219680494
 20
100.8249389243
 30
0.0
 10
68.664622197
 20
100.497604242
 30
0.0
 10
68.8523746657
 20
100.0249687549
 30
0.0
 10
69.1570032143
 20
99.5769246061
 30
0.0
 10
69.5698767216
 20
99.1623245054
 30
0.0
 10
70.0814709362
 20
98.788491842
 30
0.0
 10
70.6809026712
 20
98.4624610581
 30
0.0
 10
71.3556236582
 20
98.1906491073
 30
0.0
 10
72.0914509585
 20
97.9785943615
 30
0.0
 10
72.8728275534
 20
97.8307098996
 30
0.0
 10
73.6831565067
 20
97.7501233002
 30
0.0
 10
74.5051669358
 20
97.7385508736
 30
0.0
 10
75.3213364132
 20
97.79624508
 30
0.0
 10
76.1142215699
 20
97.9219968867
 30
0.0
 10
76.8670905703
 20
98.1130817216
 30
0.0
 10
77.5637272248
 20
98.3655393559
 30
0.0
 10
77.9956152559
 20
98.5784564348
 30
0.0
 10
78.197115577
 20
98.694792005
 30
0.0
  0
SPLINE
  5
2B4
100
AcDbEntity
  8
0
100
AcDbSpline
 62
7
  6
BYLAYER
 70
0
 71
3
 72
23
 73
19
 74
0
 42
0.0000001
 43
0.0000001
 44
0.0000000001
 40
0.0
 40
0.0
 40
0.0
 40
0.0
 40
0.0607786569
 40
0.1252017401
 40
0.1926639501
 40
0.2624744275
 40
0.333816569
 40
0.4058218986
 40
0.4775956322
 40
0.5482519
 40
0.6169479207
 40
0.682918997
 40
0.7455191601
 40
0.8042664408
 40
0.8588952508
 40
0.9094188436
 40
0.9561984325
 40
1.0
 40
1.0
 40
1.0
 40
1.0
 10
78.979178933
 20
110.9373387468
 30
0.0
 10
78.7556225561
 20
110.8082691829
 30
0.0
 10
78.278627604
 20
110.5702931623
 30
0.0
 10
77.511445694
 20
110.2821825644
 30
0.0
 10
76.6837556631
 20
110.0568412925
 30
0.0
 10
75.810978487
 20
109.898317757
 30
0.0
 10
74.9090335857
 20
109.8095715985
 30
0.0
 10
73.9945894362
 20
109.7922181745
 30
0.0
 10
73.0845051728
 20
109.8465663288
 30
0.0
 10
72.195562558
 20
109.9716149882
 30
0.0
 10
71.344126909
 20
110.1650684416
 30
0.0
 10
70.5458322669
 20
110.4234177893
 30
0.0
 10
69.8152668952
 20
110.741999975
 30
0.0
 10
69.165705294
 20
111.1151964039
 30
0.0
 10
68.6089511661
 20
111.5365919079
 30
0.0
 10
68.1552784245
 20
111.9993982005
 30
0.0
 10
67.8137834183
 20
112.4958564204
 30
0.0
 10
67.6623905634
 20
112.8533541463
 30
0.0
 10
67.6100656854
 20
113.0318788705
 30
0.0
  0
SPLINE
  5
2B5
100
AcDbEntity
  8
0
100
AcDbSpline
 62
7
  6
BYLAYER
 70
0
 71
3
 72
23
 73
19
 74
0
 42
0.0000001
 43
0.0000001
 44
0.0000000001
 40
0.0
 40
0.0
 40
0.0
 40
0.0
 40
0.043801826
 40
0.0905819929
 40
0.1411051583
 40
0.1957331966
 40
0.2544808203
 40
0.3170816484
 40
0.3830524265
 40
0.4517479266
 40
0.5224044775
 40
0.5941783635
 40
0.6661832245
 40
0.7375258431
 40
0.8073362255
 40
0.874797037
 40
0.939224261
 40
1.0
 40
1.0
 40
1.0
 40
1.0
 10
68.7005536389
 20
109.3110541533
 30
0.0
 10
68.7442699378
 20
109.1619353757
 30
0.0
 10
68.8707139988
 20
108.8633111651
 30
0.0
 10
69.1559938011
 20
108.448639768
 30
0.0
 10
69.5349323129
 20
108.0620565613
 30
0.0
 10
69.9999718683
 20
107.7100522755
 30
0.0
 10
70.5425501301
 20
107.3983257174
 30
0.0
 10
71.1527968172
 20
107.1322321091
 30
0.0
 10
71.8196064621
 20
106.9164355582
 30
0.0
 10
72.5307995975
 20
106.754826807
 30
0.0
 10
73.2733286985
 20
106.6503759326
 30
0.0
 10
74.0335172707
 20
106.6049919108
 30
0.0
 10
74.7973471755
 20
106.6194877702
 30
0.0
 10
75.5507371124
 20
106.6936079573
 30
0.0
 10
76.2797591075
 20
106.8260214993
 30
0.0
 10
76.9711336696
 20
107.0142484665
 30
0.0
 10
77.6119499935
 20
107.2549193841
 30
0.0
 10
78.0103892213
 20
107.4536920728
 30
0.0
 10
78.197115577
 20
107.561497941
 30
0.0
  0
SPLINE
  5
2B6
100
AcDbEntity
  8
0
100
AcDbSpline
 62
7
  6
BYLAYER
 70
0
 71
3
 72
14
 73
10
 74
0
 42
0.0000001
 43
0.0000001
 44
0.0000000001
 40
0.0
 40
0.0
 40
0.0
 40
0.0
 40
0.289279205
 40
0.422552385
 40
0.5484984344
 40
0.6678941162
 40
0.7818716056
 40
0.8919541087
 40
1.0
 40
1.0
 40
1.0
 40
1.0
 10
78.197115577
 20
98.694792005
 30
0.0
 10
78.4433215059
 20
98.8369382159
 30
0.0
 10
78.7881321514
 20
99.0743341051
 30
0.0
 10
79.1782165452
 20
99.447693029
 30
0.0
 10
79.4156428651
 20
99.7354754288
 30
0.0
 10
79.6033001415
 20
100.0359282202
 30
0.0
 10
79.7391920325
 20
100.3463543588
 30
0.0
 10
79.8214771014
 20
100.6636311218
 30
0.0
 10
79.8399311212
 20
100.8784305104
 30
0.0
 10
79.8399211709
 20
100.9846143112
 30
0.0
  0
SPLINE
  5
2B7
100
AcDbEntity
  8
0
100
AcDbSpline
 62
7
  6
BYLAYER
 70
0
 71
3
 72
11
 73
7
 74
0
 42
0.0000001
 43
0.0000001
 44
0.0000000001
 40
0.0
 40
0.0
 40
0.0
 40
0.0
 40
0.2783825205
 40
0.5371525187
 40
0.7768577426
 40
1.0
 40
1.0
 40
1.0
 40
1.0
 10
78.979178933
 20
115.1474293352
 30
0.0
 10
79.1817282769
 20
115.2643705553
 30
0.0
 10
79.5606218294
 20
115.5118971681
 30
0.0
 10
80.0573043195
 20
115.9386450598
 30
0.0
 10
80.4533132016
 20
116.4010928606
 30
0.0
 10
80.6511961055
 20
116.7391450566
 30
0.0
 10
80.7284027218
 20
116.909982336
 30
0.0
  0
SPLINE
  5
2B8
100
AcDbEntity
  8
0
100
AcDbSpline
 62
7
  6
BYLAYER
 70
0
 71
3
 72
12
 73
8
 74
0
 42
0.0000001
 43
0.0000001
 44
0.0000000001
 40
0.0
 40
0.0
 40
0.0
 40
0.0
 40
0.1084103167
 40
0.2203962115
 40
0.4578731202
 40
0.7172471558
 40
1.0
 40
1.0
 40
1.0
 40
1.0
 10
80.8518107462
 20
113.0318786581
 30
0.0
 10
80.8225973721
 20
112.9322052123
 30
0.0
 10
80.7501099835
 20
112.7331845908
 30
0.0
 10
80.5512632996
 20
112.3412053862
 30
0.0
 10
80.2002776638
 20
111.8694725474
 30
0.0
 10
79.6479327928
 20
111.3617542278
 30
0.0
 10
79.2137867541
 20
111.072788827
 30
0.0
 10
78.979178933
 20
110.9373387468
 30
0.0
  0
SPLINE
  5
2B9
100
AcDbEntity
  8
0
100
AcDbSpline
 62
7
  6
BYLAYER
 70
0
 71
3
 72
9
 73
5
 74
0
 42
0.0000001
 43
0.0000001
 44
0.0000000001
 40
0.0
 40
0.0
 40
0.0
 40
0.0
 40
0.2465909781
 40
1.0
 40
1.0
 40
1.0
 40
1.0
 10
78.4748011188
 20
100.4465492177
 30
0.0
 10
78.4680380293
 20
100.4287750433
 30
0.0
 10
78.4393684003
 20
100.357172639
 30
0.0
 10
78.405814184
 20
100.2875427326
 30
0.0
 10
78.3781591668
 20
100.2364423667
 30
0.0
  0
SPLINE
  5
2BA
100
AcDbEntity
  8
0
100
AcDbSpline
 62
7
  6
BYLAYER
 70
0
 71
3
 72
10
 73
6
 74
0
 42
0.0000001
 43
0.0000001
 44
0.0000000001
 40
0.0
 40
0.0
 40
0.0
 40
0.0
 40
0.4652181052
 40
0.7238517893
 40
1.0
 40
1.0
 40
1.0
 40
1.0
 10
78.3781591668
 20
100.2364423667
 30
0.0
 10
78.2673761054
 20
100.0317397287
 30
0.0
 10
78.0339884035
 20
99.7448301332
 30
0.0
 10
77.6482948697
 20
99.4256894712
 30
0.0
 10
77.4229810603
 20
99.2798891223
 30
0.0
 10
77.3033288844
 20
99.2108083187
 30
0.0
  0
SPLINE
  5
2BB
100
AcDbEntity
  8
0
100
AcDbSpline
 62
7
  6
BYLAYER
 70
0
 71
3
 72
23
 73
19
 74
0
 42
0.0000001
 43
0.0000001
 44
0.0000000001
 40
0.0
 40
0.0
 40
0.0
 40
0.0
 40
0.0428142077
 40
0.087396292
 40
0.1351794976
 40
0.1870887149
 40
0.2435349369
 40
0.3044921602
 40
0.3695903701
 40
0.4381986054
 40
0.5094961545
 40
0.5825321589
 40
0.6562756166
 40
0.7296631801
 40
0.8016524378
 40
0.871251675
 40
0.937613025
 40
1.0
 40
1.0
 40
1.0
 40
1.0
 10
68.6219530864
 20
104.17407705
 30
0.0
 10
68.6219680494
 20
104.0144014912
 30
0.0
 10
68.664622197
 20
103.6870668089
 30
0.0
 10
68.8523746657
 20
103.2144313218
 30
0.0
 10
69.1570032143
 20
102.766387173
 30
0.0
 10
69.5698767216
 20
102.3517870723
 30
0.0
 10
70.0814709362
 20
101.9779544089
 30
0.0
 10
70.6809026712
 20
101.651923625
 30
0.0
 10
71.3556236582
 20
101.3801116742
 30
0.0
 10
72.0914509585
 20
101.1680569284
 30
0.0
 10
72.8728275534
 20
101.0201724665
 30
0.0
 10
73.6831565067
 20
100.9395858671
 30
0.0
 10
74.5051669358
 20
100.9280134405
 30
0.0
 10
75.3213364132
 20
100.9857076469
 30
0.0
 10
76.1142215699
 20
101.1114594536
 30
0.0
 10
76.8670905703
 20
101.3025442885
 30
0.0
 10
77.5637272248
 20
101.5550019228
 30
0.0
 10
77.9956152559
 20
101.7679190017
 30
0.0
 10
78.197115577
 20
101.8842545719
 30
0.0
  0
SPLINE
  5
2BC
100
AcDbEntity
  8
0
100
AcDbSpline
 62
7
  6
BYLAYER
 70
0
 71
3
 72
23
 73
19
 74
0
 42
0.0000001
 43
0.0000001
 44
0.0000000001
 40
0.0
 40
0.0
 40
0.0
 40
0.0
 40
0.0428142077
 40
0.087396292
 40
0.1351794976
 40
0.1870887149
 40
0.2435349369
 40
0.3044921602
 40
0.3695903701
 40
0.4381986054
 40
0.5094961545
 40
0.5825321589
 40
0.6562756166
 40
0.7296631801
 40
0.8016524378
 40
0.871251675
 40
0.937613025
 40
1.0
 40
1.0
 40
1.0
 40
1.0
 10
68.6219530864
 20
131.9224013821
 30
0.0
 10
68.6219680494
 20
131.7627258233
 30
0.0
 10
68.664622197
 20
131.4353911411
 30
0.0
 10
68.8523746657
 20
130.9627556539
 30
0.0
 10
69.1570032143
 20
130.5147115052
 30
0.0
 10
69.5698767216
 20
130.1001114044
 30
0.0
 10
70.0814709362
 20
129.7262787411
 30
0.0
 10
70.6809026712
 20
129.4002479572
 30
0.0
 10
71.3556236582
 20
129.1284360064
 30
0.0
 10
72.0914509585
 20
128.9163812605
 30
0.0
 10
72.8728275534
 20
128.7684967987
 30
0.0
 10
73.6831565067
 20
128.6879101993
 30
0.0
 10
74.5051669358
 20
128.6763377727
 30
0.0
 10
75.3213364132
 20
128.734031979
 30
0.0
 10
76.1142215699
 20
128.8597837857
 30
0.0
 10
76.8670905703
 20
129.0508686207
 30
0.0
 10
77.5637272248
 20
129.303326255
 30
0.0
 10
77.9956152559
 20
129.5162433338
 30
0.0
 10
78.197115577
 20
129.6325789041
 30
0.0
  0
SPLINE
  5
2BD
100
AcDbEntity
  8
0
100
AcDbSpline
 62
7
  6
BYLAYER
 70
0
 71
3
 72
21
 73
17
 74
0
 42
0.0000001
 43
0.0000001
 44
0.0000000001
 40
0.0
 40
0.0
 40
0.0
 40
0.0
 40
0.0601442808
 40
0.1238233521
 40
0.1904471046
 40
0.2593942481
 40
0.4010882155
 40
0.5425233625
 40
0.6111543714
 40
0.6773576936
 40
0.7404956919
 40
0.8000670211
 40
0.8557455794
 40
0.9074379502
 40
0.9553421949
 40
1.0
 40
1.0
 40
1.0
 40
1.0
 10
77.3033288844
 20
99.2108083187
 30
0.0
 10
77.1632087308
 20
99.1299103932
 30
0.0
 10
76.8647230711
 20
98.9803172538
 30
0.0
 10
76.3852792934
 20
98.7977022712
 30
0.0
 10
75.8683890661
 20
98.6531234798
 30
0.0
 10
75.1350155732
 20
98.5132118052
 30
0.0
 10
74.1861744026
 20
98.447514443
 30
0.0
 10
73.2389958926
 20
98.5244262254
 30
0.0
 10
72.5100870359
 20
98.673229812
 30
0.0
 10
71.9985484528
 20
98.8239753556
 30
0.0
 10
71.5256718033
 20
99.0122884114
 30
0.0
 10
71.0995243851
 20
99.235013932
 30
0.0
 10
70.7274259171
 20
99.4885299063
 30
0.0
 10
70.4157658794
 20
99.7688867746
 30
0.0
 10
70.1701499969
 20
100.0715553459
 30
0.0
 10
70.0502094644
 20
100.2919425261
 30
0.0
 10
70.004354381
 20
100.4029826826
 30
0.0
  0
SPLINE
  5
2BE
100
AcDbEntity
  8
0
100
AcDbSpline
 62
7
  6
BYLAYER
 70
0
 71
3
 72
9
 73
5
 74
0
 42
0.0000001
 43
0.0000001
 44
0.0000000001
 40
0.0
 40
0.0
 40
0.0
 40
0.0
 40
0.2465909781
 40
1.0
 40
1.0
 40
1.0
 40
1.0
 10
78.4748011188
 20
103.6360117847
 30
0.0
 10
78.4680380293
 20
103.6182376102
 30
0.0
 10
78.4393684003
 20
103.5466352059
 30
0.0
 10
78.405814184
 20
103.4770052995
 30
0.0
 10
78.3781591668
 20
103.4259049336
 30
0.0
  0
SPLINE
  5
2BF
100
AcDbEntity
  8
0
100
AcDbSpline
 62
7
  6
BYLAYER
 70
0
 71
3
 72
10
 73
6
 74
0
 42
0.0000001
 43
0.0000001
 44
0.0000000001
 40
0.0
 40
0.0
 40
0.0
 40
0.0
 40
0.4652181052
 40
0.7238517893
 40
1.0
 40
1.0
 40
1.0
 40
1.0
 10
78.3781591668
 20
103.4259049336
 30
0.0
 10
78.2673761054
 20
103.2212022956
 30
0.0
 10
78.0339884035
 20
102.9342927001
 30
0.0
 10
77.6482948697
 20
102.6151520381
 30
0.0
 10
77.4229810603
 20
102.4693516892
 30
0.0
 10
77.3033288844
 20
102.4002708856
 30
0.0
  0
SPLINE
  5
2C0
100
AcDbEntity
  8
0
100
AcDbSpline
 62
7
  6
BYLAYER
 70
0
 71
3
 72
11
 73
7
 74
0
 42
0.0000001
 43
0.0000001
 44
0.0000000001
 40
0.0
 40
0.0
 40
0.0
 40
0.0
 40
0.2177825102
 40
0.4509091639
 40
0.7102957096
 40
1.0
 40
1.0
 40
1.0
 40
1.0
 10
23.3115536303
 20
43.8897555286
 30
0.0
 10
23.2620736683
 20
43.9183221575
 30
0.0
 10
23.1694985651
 20
43.9961491375
 30
0.0
 10
23.0709415266
 20
44.1572940552
 30
0.0
 10
23.0124044751
 20
44.3558850842
 30
0.0
 10
23.0008814069
 20
44.5004257087
 30
0.0
 10
23.0008814069
 20
44.5764282683
 30
0.0
  0
SPLINE
  5
2C1
100
AcDbEntity
  8
0
100
AcDbSpline
 62
7
  6
BYLAYER
 70
0
 71
3
 72
17
 73
13
 74
0
 42
0.0000001
 43
0.0000001
 44
0.0000000001
 40
0.0
 40
0.0
 40
0.0
 40
0.0
 40
0.0428592926
 40
0.087485474
 40
0.1353198781
 40
0.1872819044
 40
0.3045421965
 40
0.4382074305
 40
0.582548911
 40
0.7297129633
 40
0.8713059682
 40
1.0
 40
1.0
 40
1.0
 40
1.0
 10
33.8966937858
 20
106.1296520226
 30
0.0
 10
33.9521612238
 20
106.1616815603
 30
0.0
 10
34.0744491125
 20
106.2124598136
 30
0.0
 10
34.2762744125
 20
106.2420838472
 30
0.0
 10
34.4930285515
 20
106.2261139248
 30
0.0
 10
34.807967224
 20
106.1423506107
 30
0.0
 10
35.2105674564
 20
105.9222063569
 30
0.0
 10
35.6553767426
 20
105.5282816626
 30
0.0
 10
36.0485868912
 20
105.025009731
 30
0.0
 10
36.3580384348
 20
104.4530354298
 30
0.0
 10
36.5588818228
 20
103.8592757236
 30
0.0
 10
36.6126817926
 20
103.4548834222
 30
0.0
 10
36.6126817926
 20
103.2625568981
 30
0.0
  0
SPLINE
  5
2C2
100
AcDbEntity
  8
0
100
AcDbSpline
 62
7
  6
BYLAYER
 70
0
 71
3
 72
11
 73
7
 74
0
 42
0.0000001
 43
0.0000001
 44
0.0000000001
 40
0.0
 40
0.0
 40
0.0
 40
0.0
 40
0.2177167293
 40
0.4509418166
 40
0.7102950539
 40
1.0
 40
1.0
 40
1.0
 40
1.0
 10
39.3679580447
 20
33.9023492502
 30
0.0
 10
39.3514701586
 20
33.9118688079
 30
0.0
 10
39.3206201223
 20
33.9378216822
 30
0.0
 10
39.2877471497
 20
33.9915228104
 30
0.0
 10
39.2682526049
 20
34.0577320485
 30
0.0
 10
39.2644050852
 20
34.1059066047
 30
0.0
 10
39.2644050852
 20
34.1312404761
 30
0.0
  0
SPLINE
  5
2C3
100
AcDbEntity
  8
0
100
AcDbSpline
 62
7
  6
BYLAYER
 70
0
 71
3
 72
11
 73
7
 74
0
 42
0.0000001
 43
0.0000001
 44
0.0000000001
 40
0.0
 40
0.0
 40
0.0
 40
0.0
 40
0.2177843137
 40
0.4509117637
 40
0.7102976701
 40
1.0
 40
1.0
 40
1.0
 40
1.0
 10
39.5535733623
 20
102.8637229029
 30
0.0
 10
39.6277915561
 20
102.9065725085
 30
0.0
 10
39.7983193948
 20
102.9684584578
 30
0.0
 10
40.081563229
 20
102.975630137
 30
0.0
 10
40.383434775
 20
102.9027335402
 30
0.0
 10
40.5798353581
 20
102.8093019732
 30
0.0
 10
40.6785627122
 20
102.7523029982
 30
0.0
  0
SPLINE
  5
2C4
100
AcDbEntity
  8
0
100
AcDbSpline
 62
7
  6
BYLAYER
 70
0
 71
3
 72
11
 73
7
 74
0
 42
0.0000001
 43
0.0000001
 44
0.0000000001
 40
0.0
 40
0.0
 40
0.0
 40
0.0
 40
0.2716626682
 40
0.5303227605
 40
0.7733665082
 40
1.0
 40
1.0
 40
1.0
 40
1.0
 10
31.0594832532
 20
110.3265715735
 30
0.0
 10
30.9884555419
 20
110.2855078265
 30
0.0
 10
30.8543141831
 20
110.197059133
 30
0.0
 10
30.6792669889
 20
110.0408257447
 30
0.0
 10
30.5446305286
 20
109.8649439198
 30
0.0
 10
30.487400254
 20
109.7327896517
 30
0.0
 10
30.4703790532
 20
109.6664952728
 30
0.0
  0
SPLINE
  5
2C5
100
AcDbEntity
  8
0
100
AcDbSpline
 62
7
  6
BYLAYER
 70
0
 71
3
 72
11
 73
7
 74
0
 42
0.0000001
 43
0.0000001
 44
0.0000000001
 40
0.0
 40
0.0
 40
0.0
 40
0.0
 40
0.2177843137
 40
0.4509117637
 40
0.7102976701
 40
1.0
 40
1.0
 40
1.0
 40
1.0
 10
33.3145640449
 20
111.6285885306
 30
0.0
 10
33.3805357727
 20
111.6666770689
 30
0.0
 10
33.5321160738
 20
111.7216868016
 30
0.0
 10
33.7838883708
 20
111.7280616277
 30
0.0
 10
34.052218634
 20
111.6632646527
 30
0.0
 10
34.22679693
 20
111.5802143709
 30
0.0
 10
34.3145545782
 20
111.5295486153
 30
0.0
  0
SPLINE
  5
2C6
100
AcDbEntity
  8
0
100
AcDbSpline
 62
7
  6
BYLAYER
 70
0
 71
3
 72
13
 73
9
 74
0
 42
0.0000001
 43
0.0000001
 44
0.0000000001
 40
0.0
 40
0.0
 40
0.0
 40
0.0
 40
0.1142247162
 40
0.2375579183
 40
0.4999983243
 40
0.7624396433
 40
0.8857739388
 40
1.0
 40
1.0
 40
1.0
 40
1.0
 10
29.3648159418
 20
101.7315339751
 30
0.0
 10
29.4374061038
 20
101.7734436745
 30
0.0
 10
29.5808361128
 20
101.874009746
 30
0.0
 10
29.8493801397
 20
102.1253064061
 30
0.0
 10
30.1330079811
 20
102.5127600215
 30
0.0
 10
30.3267367881
 20
102.952117395
 30
0.0
 10
30.4100937069
 20
103.3103342566
 30
0.0
 10
30.4254716976
 20
103.4848330706
 30
0.0
 10
30.4254716976
 20
103.5686538316
 30
0.0
  0
SPLINE
  5
2C7
100
AcDbEntity
  8
0
100
AcDbSpline
 62
7
  6
BYLAYER
 70
0
 71
3
 72
13
 73
9
 74
0
 42
0.0000001
 43
0.0000001
 44
0.0000000001
 40
0.0
 40
0.0
 40
0.0
 40
0.0
 40
0.1142260229
 40
0.2375602528
 40
0.5000015383
 40
0.7624419778
 40
0.8857752456
 40
1.0
 40
1.0
 40
1.0
 40
1.0
 10
23.0008814069
 20
96.8325829646
 30
0.0
 10
23.0008814069
 20
96.9164036976
 30
0.0
 10
23.0162593649
 20
97.0909024374
 30
0.0
 10
23.0996162638
 20
97.449119201
 30
0.0
 10
23.2933449928
 20
97.8884765487
 30
0.0
 10
23.5769728176
 20
98.2759302444
 30
0.0
 10
23.8455169195
 20
98.5272269708
 30
0.0
 10
23.9889469764
 20
98.6277931077
 30
0.0
 10
24.0615371627
 20
98.6697028211
 30
0.0
  0
SPLINE
  5
2C8
100
AcDbEntity
  8
0
100
AcDbSpline
 62
7
  6
BYLAYER
 70
0
 71
3
 72
11
 73
7
 74
0
 42
0.0000001
 43
0.0000001
 44
0.0000000001
 40
0.0
 40
0.0
 40
0.0
 40
0.0
 40
0.2897033281
 40
0.5490895198
 40
0.7822165953
 40
1.0
 40
1.0
 40
1.0
 40
1.0
 10
50.5780782565
 20
31.9208033882
 30
0.0
 10
50.5780782565
 20
31.8194670994
 30
0.0
 10
50.5627141842
 20
31.6267469554
 30
0.0
 10
50.4846648381
 20
31.3619595768
 30
0.0
 10
50.3532556604
 20
31.1470995931
 30
0.0
 10
50.2298225558
 20
31.0433295453
 30
0.0
 10
50.1638493395
 20
31.0052401477
 30
0.0
  0
SPLINE
  5
2C9
100
AcDbEntity
  8
0
100
AcDbSpline
 62
7
  6
BYLAYER
 70
0
 71
3
 72
9
 73
5
 74
0
 42
0.0000001
 43
0.0000001
 44
0.0000000001
 40
0.0
 40
0.0
 40
0.0
 40
0.0
 40
0.5255663614
 40
1.0
 40
1.0
 40
1.0
 40
1.0
 10
46.5854424165
 20
101.3482782491
 30
0.0
 10
46.6175423229
 20
101.4038772265
 30
0.0
 10
46.6902823147
 20
101.5033117229
 30
0.0
 10
46.7852516569
 20
101.5832114898
 30
0.0
 10
46.8354413757
 20
101.6121883645
 30
0.0
  0
SPLINE
  5
2CA
100
AcDbEntity
  8
0
100
AcDbSpline
 62
7
  6
BYLAYER
 70
0
 71
3
 72
9
 73
5
 74
0
 42
0.0000001
 43
0.0000001
 44
0.0000000001
 40
0.0
 40
0.0
 40
0.0
 40
0.0
 40
0.4744352788
 40
1.0
 40
1.0
 40
1.0
 40
1.0
 10
39.2644050852
 20
88.4986960489
 30
0.0
 10
39.2644050852
 20
88.5566506331
 30
0.0
 10
39.2861154982
 20
88.6788471357
 30
0.0
 10
39.3358580308
 20
88.7915600554
 30
0.0
 10
39.3679580447
 20
88.847159219
 30
0.0
  0
SPLINE
  5
2CB
100
AcDbEntity
  8
0
100
AcDbSpline
 62
7
  6
BYLAYER
 70
0
 71
3
 72
9
 73
5
 74
0
 42
0.0000001
 43
0.0000001
 44
0.0000000001
 40
0.0
 40
0.0
 40
0.0
 40
0.0
 40
0.2371754943
 40
1.0
 40
1.0
 40
1.0
 40
1.0
 10
30.4703790532
 20
109.6664952728
 30
0.0
 10
30.4627990785
 20
109.6369726957
 30
0.0
 10
30.4354188176
 20
109.5113282464
 30
0.0
 10
30.4254716976
 20
109.3822036165
 30
0.0
 10
30.4254716976
 20
109.2841707515
 30
0.0
  0
SPLINE
  5
2CC
100
AcDbEntity
  8
0
100
AcDbSpline
 62
7
  6
BYLAYER
 70
0
 71
3
 72
9
 73
5
 74
0
 42
0.0000001
 43
0.0000001
 44
0.0000000001
 40
0.0
 40
0.0
 40
0.0
 40
0.0
 40
0.2782769365
 40
1.0
 40
1.0
 40
1.0
 40
1.0
 10
44.7444436318
 20
98.5677882211
 30
0.0
 10
44.7444436318
 20
98.4933615685
 30
0.0
 10
44.7306668883
 20
98.2270215106
 30
0.0
 10
44.6534049964
 20
97.9572485695
 30
0.0
 10
44.5473712428
 20
97.7959509651
 30
0.0
  0
SPLINE
  5
2CD
100
AcDbEntity
  8
0
100
AcDbSpline
 62
7
  6
BYLAYER
 70
0
 71
3
 72
9
 73
5
 74
0
 42
0.0000001
 43
0.0000001
 44
0.0000000001
 40
0.0
 40
0.0
 40
0.0
 40
0.0
 40
0.5067482793
 40
1.0
 40
1.0
 40
1.0
 40
1.0
 10
44.5122858711
 20
97.7462796631
 30
0.0
 10
44.4801378394
 20
97.7039075111
 30
0.0
 10
44.408863275
 20
97.625863982
 30
0.0
 10
44.3232709912
 20
97.5636648376
 30
0.0
 10
44.2784361002
 20
97.5377795755
 30
0.0
  0
SPLINE
  5
2CE
100
AcDbEntity
  8
0
100
AcDbSpline
 62
7
  6
BYLAYER
 70
0
 71
3
 72
15
 73
11
 74
0
 42
0.0000001
 43
0.0000001
 44
0.0000000001
 40
0.0
 40
0.0
 40
0.0
 40
0.0
 40
0.1141232787
 40
0.2373467935
 40
0.3669716251
 40
0.4999988493
 40
0.6330262331
 40
0.7626515288
 40
0.885875802
 40
1.0
 40
1.0
 40
1.0
 40
1.0
 10
43.1534467503
 20
101.3234603573
 30
0.0
 10
43.2623328153
 20
101.2605963805
 30
0.0
 10
43.4774505703
 20
101.109743361
 30
0.0
 10
43.7735027074
 20
100.8328660882
 30
0.0
 10
44.0462697186
 20
100.5054481895
 30
0.0
 10
44.2855860036
 20
100.1399894755
 30
0.0
 10
44.4824265158
 20
99.7500066394
 30
0.0
 10
44.6295978984
 20
99.3500738982
 30
0.0
 10
44.7213576136
 20
98.9552448893
 30
0.0
 10
44.7444436318
 20
98.6935193208
 30
0.0
 10
44.7444436318
 20
98.5677882211
 30
0.0
  0
SPLINE
  5
2CF
100
AcDbEntity
  8
0
100
AcDbSpline
 62
7
  6
BYLAYER
 70
0
 71
3
 72
11
 73
7
 74
0
 42
0.0000001
 43
0.0000001
 44
0.0000000001
 40
0.0
 40
0.0
 40
0.0
 40
0.0
 40
0.2897016594
 40
0.5490895814
 40
0.7822189142
 40
1.0
 40
1.0
 40
1.0
 40
1.0
 10
36.6126817926
 20
103.2625568981
 30
0.0
 10
36.6126817926
 20
103.1485539747
 30
0.0
 10
36.5953973941
 20
102.9317434633
 30
0.0
 10
36.5075963314
 20
102.6338549862
 30
0.0
 10
36.3597577308
 20
102.3921355427
 30
0.0
 10
36.2208920281
 20
102.2754010137
 30
0.0
 10
36.1466760363
 20
102.232545169
 30
0.0
  0
SPLINE
  5
2D0
100
AcDbEntity
  8
0
100
AcDbSpline
 62
7
  6
BYLAYER
 70
0
 71
3
 72
15
 73
11
 74
0
 42
0.0000001
 43
0.0000001
 44
0.0000000001
 40
0.0
 40
0.0
 40
0.0
 40
0.0
 40
0.1141232787
 40
0.2373467935
 40
0.3669716251
 40
0.4999988493
 40
0.6330262331
 40
0.7626515288
 40
0.885875802
 40
1.0
 40
1.0
 40
1.0
 40
1.0
 10
49.1638588062
 20
102.9564927704
 30
0.0
 10
49.2606464196
 20
102.9006136799
 30
0.0
 10
49.4518622019
 20
102.766522107
 30
0.0
 10
49.715019657
 20
102.5204089756
 30
0.0
 10
49.9574792225
 20
102.2293708434
 30
0.0
 10
50.1702048092
 20
101.9045186532
 30
0.0
 10
50.3451741533
 20
101.5578672433
 30
0.0
 10
50.4759931602
 20
101.2023714734
 30
0.0
 10
50.5575573514
 20
100.8514123543
 30
0.0
 10
50.5780782565
 20
100.6187674045
 30
0.0
 10
50.5780782565
 20
100.5070064271
 30
0.0
  0
SPLINE
  5
2D1
100
AcDbEntity
  8
0
100
AcDbSpline
 62
7
  6
BYLAYER
 70
0
 71
3
 72
11
 73
7
 74
0
 42
0.0000001
 43
0.0000001
 44
0.0000000001
 40
0.0
 40
0.0
 40
0.0
 40
0.0
 40
0.2631804984
 40
0.5238872608
 40
0.7722901012
 40
1.0
 40
1.0
 40
1.0
 40
1.0
 10
41.8410044247
 20
102.0633145854
 30
0.0
 10
41.914271539
 20
101.8975869886
 30
0.0
 10
42.0838893725
 20
101.5777001241
 30
0.0
 10
42.3963450546
 20
101.14533041
 30
0.0
 10
42.751376517
 20
100.7804039769
 30
0.0
 10
43.0176506933
 20
100.5852848784
 30
0.0
 10
43.1534261425
 20
100.5068966596
 30
0.0
  0
SPLINE
  5
2D2
100
AcDbEntity
  8
0
100
AcDbSpline
 62
7
  6
BYLAYER
 70
0
 71
3
 72
11
 73
7
 74
0
 42
0.0000001
 43
0.0000001
 44
0.0000000001
 40
0.0
 40
0.0
 40
0.0
 40
0.0
 40
0.2897049461
 40
0.5490581834
 40
0.7822832707
 40
1.0
 40
1.0
 40
1.0
 40
1.0
 10
40.6786245355
 20
33.314758967
 30
0.0
 10
40.6786245355
 20
33.2894250957
 30
0.0
 10
40.6824720552
 20
33.2412505394
 30
0.0
 10
40.7019666
 20
33.1750413013
 30
0.0
 10
40.7348395726
 20
33.1213401731
 30
0.0
 10
40.7656896089
 20
33.0953872989
 30
0.0
 10
40.782177495
 20
33.0858677412
 30
0.0
  0
SPLINE
  5
2D3
100
AcDbEntity
  8
0
100
AcDbSpline
 62
7
  6
BYLAYER
 70
0
 71
3
 72
9
 73
5
 74
0
 42
0.0000001
 43
0.0000001
 44
0.0000000001
 40
0.0
 40
0.0
 40
0.0
 40
0.0
 40
0.5255647212
 40
1.0
 40
1.0
 40
1.0
 40
1.0
 10
40.782177495
 20
88.03067771
 30
0.0
 10
40.7500774811
 20
87.9750785463
 30
0.0
 10
40.7003349485
 20
87.8623656266
 30
0.0
 10
40.6786245355
 20
87.7401691241
 30
0.0
 10
40.6786245355
 20
87.6822145398
 30
0.0
  0
SPLINE
  5
2D4
100
AcDbEntity
  8
0
100
AcDbSpline
 62
7
  6
BYLAYER
 70
0
 71
3
 72
11
 73
7
 74
0
 42
0.0000001
 43
0.0000001
 44
0.0000000001
 40
0.0
 40
0.0
 40
0.0
 40
0.0
 40
0.2897033281
 40
0.5490895198
 40
0.7822165953
 40
1.0
 40
1.0
 40
1.0
 40
1.0
 10
39.0875658307
 20
101.8337142573
 30
0.0
 10
39.0875658307
 20
101.9477175822
 30
0.0
 10
39.104850412
 20
102.1645277442
 30
0.0
 10
39.1926559264
 20
102.4624135452
 30
0.0
 10
39.3404912514
 20
102.7041310267
 30
0.0
 10
39.479353494
 20
102.8208723305
 30
0.0
 10
39.5535733623
 20
102.8637229029
 30
0.0
  0
SPLINE
  5
2D5
100
AcDbEntity
  8
0
100
AcDbSpline
 62
7
  6
BYLAYER
 70
0
 71
3
 72
15
 73
11
 74
0
 42
0.0000001
 43
0.0000001
 44
0.0000000001
 40
0.0
 40
0.0
 40
0.0
 40
0.0
 40
0.1141232787
 40
0.2373467935
 40
0.3669716251
 40
0.4999988493
 40
0.6330262331
 40
0.7626515288
 40
0.885875802
 40
1.0
 40
1.0
 40
1.0
 40
1.0
 10
40.6785627122
 20
99.0780421211
 30
0.0
 10
40.5696766472
 20
99.1409060979
 30
0.0
 10
40.3545588922
 20
99.2917591174
 30
0.0
 10
40.0585067551
 20
99.5686363902
 30
0.0
 10
39.7857397439
 20
99.8960542889
 30
0.0
 10
39.5464234589
 20
100.2615130029
 30
0.0
 10
39.3495829467
 20
100.651495839
 30
0.0
 10
39.2024115641
 20
101.0514285802
 30
0.0
 10
39.1106518489
 20
101.4462575891
 30
0.0
 10
39.0875658307
 20
101.7079831577
 30
0.0
 10
39.0875658307
 20
101.8337142573
 30
0.0
  0
SPLINE
  5
2D6
100
AcDbEntity
  8
0
100
AcDbSpline
 62
7
  6
BYLAYER
 70
0
 71
3
 72
11
 73
7
 74
0
 42
0.0000001
 43
0.0000001
 44
0.0000000001
 40
0.0
 40
0.0
 40
0.0
 40
0.0
 40
0.2177843137
 40
0.4509117637
 40
0.7102976701
 40
1.0
 40
1.0
 40
1.0
 40
1.0
 10
44.2784361002
 20
97.5377795755
 30
0.0
 10
44.2042179064
 20
97.4949299699
 30
0.0
 10
44.0336900677
 20
97.4330440206
 30
0.0
 10
43.7504462335
 20
97.4258723414
 30
0.0
 10
43.4485746875
 20
97.4987689382
 30
0.0
 10
43.2521741044
 20
97.5922005053
 30
0.0
 10
43.1534467503
 20
97.6491994803
 30
0.0
  0
SPLINE
  5
2D7
100
AcDbEntity
  8
0
100
AcDbSpline
 62
7
  6
BYLAYER
 70
0
 71
3
 72
11
 73
7
 74
0
 42
0.0000001
 43
0.0000001
 44
0.0000000001
 40
0.0
 40
0.0
 40
0.0
 40
0.0
 40
0.2897016594
 40
0.5490895814
 40
0.7822189142
 40
1.0
 40
1.0
 40
1.0
 40
1.0
 10
33.4306880295
 20
105.0996402934
 30
0.0
 10
33.4306880295
 20
105.2136432168
 30
0.0
 10
33.447972428
 20
105.4304537282
 30
0.0
 10
33.5357734907
 20
105.7283422053
 30
0.0
 10
33.6836120913
 20
105.9700616489
 30
0.0
 10
33.822477794
 20
106.0867961779
 30
0.0
 10
33.8966937858
 20
106.1296520226
 30
0.0
  0
SPLINE
  5
2D8
100
AcDbEntity
  8
0
100
AcDbSpline
 62
7
  6
BYLAYER
 70
0
 71
3
 72
12
 73
8
 74
0
 42
0.0000001
 43
0.0000001
 44
0.0000000001
 40
0.0
 40
0.0
 40
0.0
 40
0.0
 40
0.2337622767
 40
0.356983769
 40
0.4829080261
 40
0.7397228193
 40
1.0
 40
1.0
 40
1.0
 40
1.0
 10
47.1166413093
 20
101.0415973634
 30
0.0
 10
47.2120012023
 20
100.8364645522
 30
0.0
 10
47.2811024806
 20
100.4870758553
 30
0.0
 10
47.2737888141
 20
100.019963162
 30
0.0
 10
47.2083120591
 20
99.533456788
 30
0.0
 10
47.0323641756
 20
98.9329917987
 30
0.0
 10
46.8149432442
 20
98.4797925021
 30
0.0
 10
46.6890071519
 20
98.2616635808
 30
0.0
  0
SPLINE
  5
2D9
100
AcDbEntity
  8
0
100
AcDbSpline
 62
7
  6
BYLAYER
 70
0
 71
3
 72
9
 73
5
 74
0
 42
0.0000001
 43
0.0000001
 44
0.0000000001
 40
0.0
 40
0.0
 40
0.0
 40
0.0
 40
0.4609348444
 40
1.0
 40
1.0
 40
1.0
 40
1.0
 10
46.8354413757
 20
101.6121883645
 30
0.0
 10
46.8843210331
 20
101.5275286996
 30
0.0
 10
46.9798812841
 20
101.3379225235
 30
0.0
 10
47.0684446875
 20
101.1452699576
 30
0.0
 10
47.1166390341
 20
101.0415970037
 30
0.0
  0
SPLINE
  5
2DA
100
AcDbEntity
  8
0
100
AcDbSpline
 62
7
  6
BYLAYER
 70
0
 71
3
 72
10
 73
6
 74
0
 42
0.0000001
 43
0.0000001
 44
0.0000000001
 40
0.0
 40
0.0
 40
0.0
 40
0.0
 40
0.5119303133
 40
0.7608273065
 40
1.0
 40
1.0
 40
1.0
 40
1.0
 10
32.9003469037
 20
110.7130603076
 30
0.0
 10
32.5761899431
 20
110.7264962491
 30
0.0
 10
32.0889750361
 20
110.6927258831
 30
0.0
 10
31.4755079899
 20
110.528519966
 30
0.0
 10
31.1907067104
 20
110.4024367077
 30
0.0
 10
31.0594832532
 20
110.3265715735
 30
0.0
  0
SPLINE
  5
2DB
100
AcDbEntity
  8
0
100
AcDbSpline
 62
7
  6
BYLAYER
 70
0
 71
3
 72
17
 73
13
 74
0
 42
0.0000001
 43
0.0000001
 44
0.0000000001
 40
0.0
 40
0.0
 40
0.0
 40
0.0
 40
0.0428592926
 40
0.087485474
 40
0.1353198781
 40
0.1872819044
 40
0.3045421965
 40
0.4382074305
 40
0.582548911
 40
0.7297129633
 40
0.8713059682
 40
1.0
 40
1.0
 40
1.0
 40
1.0
 10
36.1466760363
 20
102.232545169
 30
0.0
 10
36.0912085984
 20
102.2005156313
 30
0.0
 10
35.9689207097
 20
102.1497373779
 30
0.0
 10
35.7670954096
 20
102.1201133443
 30
0.0
 10
35.5503412706
 20
102.1360832668
 30
0.0
 10
35.2354025981
 20
102.2198465809
 30
0.0
 10
34.8328023658
 20
102.4399908347
 30
0.0
 10
34.3879930795
 20
102.8339155289
 30
0.0
 10
33.9947829309
 20
103.3371874605
 30
0.0
 10
33.6853313874
 20
103.9091617617
 30
0.0
 10
33.4844879994
 20
104.5029214679
 30
0.0
 10
33.4306880295
 20
104.9073137694
 30
0.0
 10
33.4306880295
 20
105.0996402934
 30
0.0
  0
SPLINE
  5
2DC
100
AcDbEntity
  8
0
100
AcDbSpline
 62
7
  6
BYLAYER
 70
0
 71
3
 72
11
 73
7
 74
0
 42
0.0000001
 43
0.0000001
 44
0.0000000001
 40
0.0
 40
0.0
 40
0.0
 40
0.0
 40
0.2856499752
 40
0.543404436
 40
0.7782375001
 40
1.0
 40
1.0
 40
1.0
 40
1.0
 10
71.2569308421
 20
83.1293225854
 30
0.0
 10
71.2504439299
 20
83.0293880932
 30
0.0
 10
71.2232715589
 20
82.8396140277
 30
0.0
 10
71.1304437527
 20
82.5806555962
 30
0.0
 10
70.9889350172
 20
82.3704343636
 30
0.0
 10
70.8623815852
 20
82.2676244701
 30
0.0
 10
70.7950507932
 20
82.228751281
 30
0.0
  0
SPLINE
  5
2DD
100
AcDbEntity
  8
0
100
AcDbSpline
 62
7
  6
BYLAYER
 70
0
 71
3
 72
12
 73
8
 74
0
 42
0.0000001
 43
0.0000001
 44
0.0000000001
 40
0.0
 40
0.0
 40
0.0
 40
0.0
 40
0.1134272731
 40
0.235617501
 40
0.4958921206
 40
0.7585255818
 40
1.0
 40
1.0
 40
1.0
 40
1.0
 10
69.6700614433
 20
86.0144320628
 30
0.0
 10
69.7737610978
 20
85.9545623938
 30
0.0
 10
69.9789150542
 20
85.8119498345
 30
0.0
 10
70.3653681902
 20
85.4571627433
 30
0.0
 10
70.7800553922
 20
84.9088613031
 30
0.0
 10
71.1259012748
 20
84.1743143029
 30
0.0
 10
71.2415669555
 20
83.6474076231
 30
0.0
 10
71.256931352
 20
83.3929546198
 30
0.0
  0
SPLINE
  5
2DE
100
AcDbEntity
  8
0
100
AcDbSpline
 62
7
  6
BYLAYER
 70
0
 71
3
 72
11
 73
7
 74
0
 42
0.0000001
 43
0.0000001
 44
0.0000000001
 40
0.0
 40
0.0
 40
0.0
 40
0.0
 40
0.2177843137
 40
0.4509117637
 40
0.7102976701
 40
1.0
 40
1.0
 40
1.0
 40
1.0
 10
66.0701880553
 20
87.5546946084
 30
0.0
 10
66.1444062491
 20
87.597544214
 30
0.0
 10
66.3149340878
 20
87.6594301633
 30
0.0
 10
66.598177922
 20
87.6666018425
 30
0.0
 10
66.900049468
 20
87.5937052457
 30
0.0
 10
67.0964500511
 20
87.5002736786
 30
0.0
 10
67.1951774053
 20
87.4432747036
 30
0.0
  0
SPLINE
  5
2DF
100
AcDbEntity
  8
0
100
AcDbSpline
 62
7
  6
BYLAYER
 70
0
 71
3
 72
11
 73
7
 74
0
 42
0.0000001
 43
0.0000001
 44
0.0000000001
 40
0.0
 40
0.0
 40
0.0
 40
0.0
 40
0.289702809
 40
0.549088757
 40
0.7822160314
 40
1.0
 40
1.0
 40
1.0
 40
1.0
 10
78.8624967021
 20
18.449019211
 30
0.0
 10
78.9283140041
 20
18.4870186212
 30
0.0
 10
79.0592458232
 20
18.5493066899
 30
0.0
 10
79.2604908516
 20
18.5979055424
 30
0.0
 10
79.4493177761
 20
18.5931260928
 30
0.0
 10
79.563001901
 20
18.5518702444
 30
0.0
 10
79.6124802345
 20
18.5233045558
 30
0.0
  0
SPLINE
  5
2E0
100
AcDbEntity
  8
0
100
AcDbSpline
 62
7
  6
BYLAYER
 70
0
 71
3
 72
10
 73
6
 74
0
 42
0.0000001
 43
0.0000001
 44
0.0000000001
 40
0.0
 40
0.0
 40
0.0
 40
0.0
 40
0.5222432744
 40
0.7643097231
 40
1.0
 40
1.0
 40
1.0
 40
1.0
 10
71.5593785255
 20
86.7821215511
 30
0.0
 10
71.4589892598
 20
86.6686593876
 30
0.0
 10
71.3327448109
 20
86.4797172429
 30
0.0
 10
71.2454192026
 20
86.2015304966
 30
0.0
 10
71.2309427819
 20
86.0625119594
 30
0.0
 10
71.230954274
 20
85.994140331
 30
0.0
  0
SPLINE
  5
2E1
100
AcDbEntity
  8
0
100
AcDbSpline
 62
7
  6
BYLAYER
 70
0
 71
3
 72
15
 73
11
 74
0
 42
0.0000001
 43
0.0000001
 44
0.0000000001
 40
0.0
 40
0.0
 40
0.0
 40
0.0
 40
0.1141232787
 40
0.2373467935
 40
0.3669716251
 40
0.4999988493
 40
0.6330262331
 40
0.7626515288
 40
0.885875802
 40
1.0
 40
1.0
 40
1.0
 40
1.0
 10
80.9837964379
 20
84.585658817
 30
0.0
 10
81.0805840512
 20
84.5297797265
 30
0.0
 10
81.2717998335
 20
84.3956881536
 30
0.0
 10
81.5349572887
 20
84.1495750222
 30
0.0
 10
81.7774168541
 20
83.85853689
 30
0.0
 10
81.9901424408
 20
83.5336846998
 30
0.0
 10
82.165111785
 20
83.1870332899
 30
0.0
 10
82.2959307918
 20
82.83153752
 30
0.0
 10
82.3774949831
 20
82.4805784009
 30
0.0
 10
82.3980158882
 20
82.2479334511
 30
0.0
 10
82.3980158882
 20
82.1361724737
 30
0.0
  0
SPLINE
  5
2E2
100
AcDbEntity
  8
0
100
AcDbSpline
 62
7
  6
BYLAYER
 70
0
 71
3
 72
11
 73
7
 74
0
 42
0.0000001
 43
0.0000001
 44
0.0000000001
 40
0.0
 40
0.0
 40
0.0
 40
0.0
 40
0.2897033281
 40
0.5490895198
 40
0.7822165953
 40
1.0
 40
1.0
 40
1.0
 40
1.0
 10
82.3980158882
 20
13.5499694348
 30
0.0
 10
82.3980158882
 20
13.448633146
 30
0.0
 10
82.3826518158
 20
13.255913002
 30
0.0
 10
82.3046024697
 20
12.9911256234
 30
0.0
 10
82.173193292
 20
12.7762656397
 30
0.0
 10
82.0497601874
 20
12.6724955919
 30
0.0
 10
81.9837869711
 20
12.6344061943
 30
0.0
  0
SPLINE
  5
2E3
100
AcDbEntity
  8
0
100
AcDbSpline
 62
7
  6
BYLAYER
 70
0
 71
3
 72
11
 73
7
 74
0
 42
0.0000001
 43
0.0000001
 44
0.0000000001
 40
0.0
 40
0.0
 40
0.0
 40
0.0
 40
0.2631804984
 40
0.5238872608
 40
0.7722901012
 40
1.0
 40
1.0
 40
1.0
 40
1.0
 10
68.3576191177
 20
86.7542862909
 30
0.0
 10
68.430886232
 20
86.5885586941
 30
0.0
 10
68.6005040655
 20
86.2686718296
 30
0.0
 10
68.9129597477
 20
85.8363021155
 30
0.0
 10
69.26799121
 20
85.4713756824
 30
0.0
 10
69.5342653863
 20
85.2762565839
 30
0.0
 10
69.6700408355
 20
85.1978683651
 30
0.0
  0
SPLINE
  5
2E4
100
AcDbEntity
  8
0
100
AcDbSpline
 62
7
  6
BYLAYER
 70
0
 71
3
 72
9
 73
5
 74
0
 42
0.0000001
 43
0.0000001
 44
0.0000000001
 40
0.0
 40
0.0
 40
0.0
 40
0.0
 40
0.5211251756
 40
1.0
 40
1.0
 40
1.0
 40
1.0
 10
76.7522513609
 20
17.2175940444
 30
0.0
 10
76.8048223801
 20
17.0648408481
 30
0.0
 10
76.8858079228
 20
16.7643651807
 30
0.0
 10
76.917936126
 20
16.4540943736
 30
0.0
 10
76.917936126
 20
16.3056453543
 30
0.0
  0
SPLINE
  5
2E5
100
AcDbEntity
  8
0
100
AcDbSpline
 62
7
  6
BYLAYER
 70
0
 71
3
 72
9
 73
5
 74
0
 42
0.0000001
 43
0.0000001
 44
0.0000000001
 40
0.0
 40
0.0
 40
0.0
 40
0.0
 40
0.4744352788
 40
1.0
 40
1.0
 40
1.0
 40
1.0
 10
54.8208190385
 20
79.5173994494
 30
0.0
 10
54.8208190385
 20
79.5753540337
 30
0.0
 10
54.8425294514
 20
79.6975505362
 30
0.0
 10
54.892271984
 20
79.8102634559
 30
0.0
 10
54.9243719979
 20
79.8658626196
 30
0.0
  0
SPLINE
  5
2E6
100
AcDbEntity
  8
0
100
AcDbSpline
 62
7
  6
BYLAYER
 70
0
 71
3
 72
11
 73
7
 74
0
 42
0.0000001
 43
0.0000001
 44
0.0000000001
 40
0.0
 40
0.0
 40
0.0
 40
0.0
 40
0.2177167293
 40
0.4509418166
 40
0.7102950539
 40
1.0
 40
1.0
 40
1.0
 40
1.0
 10
54.9243719979
 20
24.9210526508
 30
0.0
 10
54.9078841118
 20
24.9305722085
 30
0.0
 10
54.8770340756
 20
24.9565250827
 30
0.0
 10
54.8441611029
 20
25.0102262109
 30
0.0
 10
54.8246665581
 20
25.076435449
 30
0.0
 10
54.8208190385
 20
25.1246100053
 30
0.0
 10
54.8208190385
 20
25.1499438766
 30
0.0
  0
SPLINE
  5
2E7
100
AcDbEntity
  8
0
100
AcDbSpline
 62
7
  6
BYLAYER
 70
0
 71
3
 72
11
 73
7
 74
0
 42
0.0000001
 43
0.0000001
 44
0.0000000001
 40
0.0
 40
0.0
 40
0.0
 40
0.0
 40
0.2177182217
 40
0.4509432136
 40
0.7102956781
 40
1.0
 40
1.0
 40
1.0
 40
1.0
 10
63.5560758201
 20
19.9374354544
 30
0.0
 10
63.5725636253
 20
19.9279159434
 30
0.0
 10
63.6104638315
 20
19.9141746159
 30
0.0
 10
63.6734061931
 20
19.912555187
 30
0.0
 10
63.7404916411
 20
19.9287761042
 30
0.0
 10
63.7841352756
 20
19.9495308459
 30
0.0
 10
63.8060747792
 20
19.9621975486
 30
0.0
  0
SPLINE
  5
2E8
100
AcDbEntity
  8
0
100
AcDbSpline
 62
7
  6
BYLAYER
 70
0
 71
3
 72
11
 73
7
 74
0
 42
0.0000001
 43
0.0000001
 44
0.0000000001
 40
0.0
 40
0.0
 40
0.0
 40
0.0
 40
0.2897016594
 40
0.5490895814
 40
0.7822189142
 40
1.0
 40
1.0
 40
1.0
 40
1.0
 10
76.917936126
 20
16.3056453543
 30
0.0
 10
76.917936126
 20
16.191642431
 30
0.0
 10
76.9006517275
 20
15.9748319196
 30
0.0
 10
76.8128506648
 20
15.6769434425
 30
0.0
 10
76.6650120642
 20
15.4352239989
 30
0.0
 10
76.5261463615
 20
15.3184894699
 30
0.0
 10
76.4519303697
 20
15.2756336252
 30
0.0
  0
SPLINE
  5
2E9
100
AcDbEntity
  8
0
100
AcDbSpline
 62
7
  6
BYLAYER
 70
0
 71
3
 72
10
 73
6
 74
0
 42
0.0000001
 43
0.0000001
 44
0.0000000001
 40
0.0
 40
0.0
 40
0.0
 40
0.0
 40
0.2357625487
 40
0.4778448105
 40
1.0
 40
1.0
 40
1.0
 40
1.0
 10
77.2309199833
 20
85.9941403343
 30
0.0
 10
77.2309085343
 20
86.062255826
 30
0.0
 10
77.2165880558
 20
86.2007351747
 30
0.0
 10
77.1299077899
 20
86.477879977
 30
0.0
 10
77.0045777137
 20
86.6662693403
 30
0.0
 10
76.9048296963
 20
86.7794449302
 30
0.0
  0
SPLINE
  5
2EA
100
AcDbEntity
  8
0
100
AcDbSpline
 62
7
  6
BYLAYER
 70
0
 71
3
 72
11
 73
7
 74
0
 42
0.0000001
 43
0.0000001
 44
0.0000000001
 40
0.0
 40
0.0
 40
0.0
 40
0.0
 40
0.2177839237
 40
0.4509111717
 40
0.7102971901
 40
1.0
 40
1.0
 40
1.0
 40
1.0
 10
72.8092343906
 20
15.3129027122
 30
0.0
 10
72.858712727
 20
15.2843370526
 30
0.0
 10
72.9723968093
 20
15.243081169
 30
0.0
 10
73.1612237438
 20
15.2383017213
 30
0.0
 10
73.3624687749
 20
15.2869005925
 30
0.0
 10
73.493400621
 20
15.3491886468
 30
0.0
 10
73.559217923
 20
15.387188057
 30
0.0
  0
SPLINE
  5
2EB
100
AcDbEntity
  8
0
100
AcDbSpline
 62
7
  6
BYLAYER
 70
0
 71
3
 72
11
 73
7
 74
0
 42
0.0000001
 43
0.0000001
 44
0.0000000001
 40
0.0
 40
0.0
 40
0.0
 40
0.0
 40
0.2177843137
 40
0.4509117637
 40
0.7102976701
 40
1.0
 40
1.0
 40
1.0
 40
1.0
 10
65.1345016765
 20
93.2577545772
 30
0.0
 10
65.2004734043
 20
93.2958431155
 30
0.0
 10
65.3520537054
 20
93.3508528482
 30
0.0
 10
65.6038260025
 20
93.3572276742
 30
0.0
 10
65.8721562656
 20
93.2924306993
 30
0.0
 10
66.0467345616
 20
93.2093804175
 30
0.0
 10
66.1344922098
 20
93.1587146619
 30
0.0
  0
SPLINE
  5
2EC
100
AcDbEntity
  8
0
100
AcDbSpline
 62
7
  6
BYLAYER
 70
0
 71
3
 72
9
 73
5
 74
0
 42
0.0000001
 43
0.0000001
 44
0.0000000001
 40
0.0
 40
0.0
 40
0.0
 40
0.0
 40
0.2397657511
 40
1.0
 40
1.0
 40
1.0
 40
1.0
 10
79.9231524579
 20
80.7073179351
 30
0.0
 10
79.9231524579
 20
80.74223527
 30
0.0
 10
79.9191042521
 20
80.8878576512
 30
0.0
 10
79.899753123
 20
81.0328913707
 30
0.0
 10
79.8782451023
 20
81.141495831
 30
0.0
  0
SPLINE
  5
2ED
100
AcDbEntity
  8
0
100
AcDbSpline
 62
7
  6
BYLAYER
 70
0
 71
3
 72
12
 73
8
 74
0
 42
0.0000001
 43
0.0000001
 44
0.0000000001
 40
0.0
 40
0.0
 40
0.0
 40
0.0
 40
0.1401486274
 40
0.2861158956
 40
0.56461708
 40
0.8053765987
 40
1.0
 40
1.0
 40
1.0
 40
1.0
 10
79.8782451023
 20
81.141495831
 30
0.0
 10
79.8542278578
 20
81.2627705831
 30
0.0
 10
79.8139061577
 20
81.512056087
 30
0.0
 10
79.7502571871
 20
82.0060583844
 30
0.0
 10
79.6910379472
 20
82.5899542157
 30
0.0
 10
79.6306622744
 20
83.2167617305
 30
0.0
 10
79.5907769873
 20
83.5987987928
 30
0.0
 10
79.5695887634
 20
83.7691705092
 30
0.0
  0
SPLINE
  5
2EE
100
AcDbEntity
  8
0
100
AcDbSpline
 62
7
  6
BYLAYER
 70
0
 71
3
 72
14
 73
10
 74
0
 42
0.0000001
 43
0.0000001
 44
0.0000000001
 40
0.0
 40
0.0
 40
0.0
 40
0.0
 40
0.096271589
 40
0.19696412
 40
0.3055906023
 40
0.4242780101
 40
0.5538142053
 40
0.6939006896
 40
1.0
 40
1.0
 40
1.0
 40
1.0
 10
76.4519303697
 20
15.2756336252
 30
0.0
 10
76.3931983232
 20
15.2417189472
 30
0.0
 10
76.2628040627
 20
15.1887627469
 30
0.0
 10
76.0471416344
 20
15.1618233479
 30
0.0
 10
75.8156062692
 20
15.1859015924
 30
0.0
 10
75.5738665598
 20
15.2592975853
 30
0.0
 10
75.3270661809
 20
15.3795850241
 30
0.0
 10
74.9889578465
 20
15.6051588835
 30
0.0
 10
74.7601304286
 20
15.8252311061
 30
0.0
 10
74.6187130154
 20
15.9880230905
 30
0.0
  0
SPLINE
  5
2EF
100
AcDbEntity
  8
0
100
AcDbSpline
 62
7
  6
BYLAYER
 70
0
 71
3
 72
13
 73
9
 74
0
 42
0.0000001
 43
0.0000001
 44
0.0000000001
 40
0.0
 40
0.0
 40
0.0
 40
0.0
 40
0.1142260229
 40
0.2375602528
 40
0.5000015383
 40
0.7624419778
 40
0.8857752456
 40
1.0
 40
1.0
 40
1.0
 40
1.0
 10
63.6596287795
 20
90.5051064977
 30
0.0
 10
63.6596287795
 20
90.5889272306
 30
0.0
 10
63.6750067376
 20
90.7634259705
 30
0.0
 10
63.7583636364
 20
91.121642734
 30
0.0
 10
63.9520923655
 20
91.5610000818
 30
0.0
 10
64.2357201903
 20
91.9484537775
 30
0.0
 10
64.5042642921
 20
92.1997505038
 30
0.0
 10
64.647694349
 20
92.3003166407
 30
0.0
 10
64.7202845353
 20
92.3422263542
 30
0.0
  0
SPLINE
  5
2F0
100
AcDbEntity
  8
0
100
AcDbSpline
 62
7
  6
BYLAYER
 70
0
 71
3
 72
13
 73
9
 74
0
 42
0.0000001
 43
0.0000001
 44
0.0000000001
 40
0.0
 40
0.0
 40
0.0
 40
0.0
 40
0.1142247162
 40
0.2375579183
 40
0.4999983243
 40
0.7624396433
 40
0.8857739388
 40
1.0
 40
1.0
 40
1.0
 40
1.0
 10
62.5989730237
 20
82.5442185127
 30
0.0
 10
62.6715631857
 20
82.5861282121
 30
0.0
 10
62.8149931947
 20
82.6866942836
 30
0.0
 10
63.0835372217
 20
82.9379909436
 30
0.0
 10
63.3671650631
 20
83.325444559
 30
0.0
 10
63.56089387
 20
83.7648019326
 30
0.0
 10
63.6442507888
 20
84.1230187941
 30
0.0
 10
63.6596287795
 20
84.2975176081
 30
0.0
 10
63.6596287795
 20
84.3813383692
 30
0.0
  0
SPLINE
  5
2F1
100
AcDbEntity
  8
0
100
AcDbSpline
 62
7
  6
BYLAYER
 70
0
 71
3
 72
13
 73
9
 74
0
 42
0.0000001
 43
0.0000001
 44
0.0000000001
 40
0.0
 40
0.0
 40
0.0
 40
0.0
 40
0.1142260229
 40
0.2375602528
 40
0.5000015383
 40
0.7624419778
 40
0.8857752456
 40
1.0
 40
1.0
 40
1.0
 40
1.0
 10
56.2350384888
 20
77.6452675021
 30
0.0
 10
56.2350384888
 20
77.7290882351
 30
0.0
 10
56.2504164468
 20
77.903586975
 30
0.0
 10
56.3337733457
 20
78.2618037385
 30
0.0
 10
56.5275020748
 20
78.7011610863
 30
0.0
 10
56.8111298995
 20
79.088614782
 30
0.0
 10
57.0796740014
 20
79.3399115083
 30
0.0
 10
57.2231040583
 20
79.4404776452
 30
0.0
 10
57.2956942446
 20
79.4823873586
 30
0.0
  0
SPLINE
  5
2F2
100
AcDbEntity
  8
0
100
AcDbSpline
 62
7
  6
BYLAYER
 70
0
 71
3
 72
9
 73
5
 74
0
 42
0.0000001
 43
0.0000001
 44
0.0000000001
 40
0.0
 40
0.0
 40
0.0
 40
0.0
 40
0.5255647212
 40
1.0
 40
1.0
 40
1.0
 40
1.0
 10
56.3385914482
 20
79.0493811105
 30
0.0
 10
56.3064914343
 20
78.9937819469
 30
0.0
 10
56.2567489017
 20
78.8810690272
 30
0.0
 10
56.2350384888
 20
78.7588725247
 30
0.0
 10
56.2350384888
 20
78.7009179404
 30
0.0
  0
SPLINE
  5
2F3
100
AcDbEntity
  8
0
100
AcDbSpline
 62
7
  6
BYLAYER
 70
0
 71
3
 72
9
 73
5
 74
0
 42
0.0000001
 43
0.0000001
 44
0.0000000001
 40
0.0
 40
0.0
 40
0.0
 40
0.0
 40
0.4744336386
 40
1.0
 40
1.0
 40
1.0
 40
1.0
 10
63.8060747792
 20
91.814410256
 30
0.0
 10
63.7558850604
 20
91.7854333813
 30
0.0
 10
63.6609157182
 20
91.7055336144
 30
0.0
 10
63.5881757264
 20
91.606099118
 30
0.0
 10
63.5560758201
 20
91.5505001406
 30
0.0
  0
SPLINE
  5
2F4
100
AcDbEntity
  8
0
100
AcDbSpline
 62
7
  6
BYLAYER
 70
0
 71
3
 72
9
 73
5
 74
0
 42
0.0000001
 43
0.0000001
 44
0.0000000001
 40
0.0
 40
0.0
 40
0.0
 40
0.0
 40
0.4868932099
 40
1.0
 40
1.0
 40
1.0
 40
1.0
 10
63.0248769273
 20
91.8571810263
 30
0.0
 10
63.1516560604
 20
91.8684257774
 30
0.0
 10
63.4140125412
 20
91.8716274686
 30
0.0
 10
63.6743623625
 20
91.8397576083
 30
0.0
 10
63.8060747792
 20
91.814410256
 30
0.0
  0
SPLINE
  5
2F5
100
AcDbEntity
  8
0
100
AcDbSpline
 62
7
  6
BYLAYER
 70
0
 71
3
 72
11
 73
7
 74
0
 42
0.0000001
 43
0.0000001
 44
0.0000000001
 40
0.0
 40
0.0
 40
0.0
 40
0.0
 40
0.2897033281
 40
0.5490895198
 40
0.7822165953
 40
1.0
 40
1.0
 40
1.0
 40
1.0
 10
65.6041805237
 20
86.5246859628
 30
0.0
 10
65.6041805237
 20
86.6386892877
 30
0.0
 10
65.621465105
 20
86.8554994497
 30
0.0
 10
65.7092706194
 20
87.1533852506
 30
0.0
 10
65.8571059444
 20
87.3951027322
 30
0.0
 10
65.9959681871
 20
87.511844036
 30
0.0
 10
66.0701880553
 20
87.5546946084
 30
0.0
  0
SPLINE
  5
2F6
100
AcDbEntity
  8
0
100
AcDbSpline
 62
7
  6
BYLAYER
 70
0
 71
3
 72
12
 73
8
 74
0
 42
0.0000001
 43
0.0000001
 44
0.0000000001
 40
0.0
 40
0.0
 40
0.0
 40
0.0
 40
0.0445894636
 40
0.1075122593
 40
0.3007123655
 40
0.5966776548
 40
1.0
 40
1.0
 40
1.0
 40
1.0
 10
79.7286445955
 20
11.3324628394
 30
0.0
 10
79.7342571313
 20
11.3357353451
 30
0.0
 10
79.7456620537
 20
11.347002647
 30
0.0
 10
79.7692752488
 20
11.3839732048
 30
0.0
 10
79.7993964009
 20
11.4591265472
 30
0.0
 10
79.8377719326
 20
11.5832370503
 30
0.0
 10
79.8636308086
 20
11.6818704469
 30
0.0
 10
79.8782451023
 20
11.738790375
 30
0.0
  0
SPLINE
  5
2F7
100
AcDbEntity
  8
0
100
AcDbSpline
 62
7
  6
BYLAYER
 70
0
 71
3
 72
11
 73
7
 74
0
 42
0.0000001
 43
0.0000001
 44
0.0000000001
 40
0.0
 40
0.0
 40
0.0
 40
0.0
 40
0.2897042895
 40
0.5490907647
 40
0.7822174449
 40
1.0
 40
1.0
 40
1.0
 40
1.0
 10
72.4985621672
 20
15.9995754519
 30
0.0
 10
72.4985621672
 20
15.9235728922
 30
0.0
 10
72.5100852095
 20
15.779032284
 30
0.0
 10
72.5686222758
 20
15.5804412666
 30
0.0
 10
72.667179311
 20
15.4192963585
 30
0.0
 10
72.7597544049
 20
15.341469324
 30
0.0
 10
72.8092343906
 20
15.3129027122
 30
0.0
  0
SPLINE
  5
2F8
100
AcDbEntity
  8
0
100
AcDbSpline
 62
7
  6
BYLAYER
 70
0
 71
3
 72
11
 73
7
 74
0
 42
0.0000001
 43
0.0000001
 44
0.0000000001
 40
0.0
 40
0.0
 40
0.0
 40
0.0
 40
0.2897049461
 40
0.5490581834
 40
0.7822832707
 40
1.0
 40
1.0
 40
1.0
 40
1.0
 10
56.2350384888
 20
24.3334623676
 30
0.0
 10
56.2350384888
 20
24.3081284962
 30
0.0
 10
56.2388860084
 20
24.25995394
 30
0.0
 10
56.2583805532
 20
24.1937447019
 30
0.0
 10
56.2912535259
 20
24.1400435737
 30
0.0
 10
56.3221035621
 20
24.1140906994
 30
0.0
 10
56.3385914482
 20
24.1045711417
 30
0.0
  0
SPLINE
  5
2F9
100
AcDbEntity
  8
0
100
AcDbSpline
 62
7
  6
BYLAYER
 70
0
 71
3
 72
13
 73
9
 74
0
 42
0.0000001
 43
0.0000001
 44
0.0000000001
 40
0.0
 40
0.0
 40
0.0
 40
0.0
 40
0.1142247162
 40
0.2375579183
 40
0.4999983243
 40
0.7624396433
 40
0.8857739388
 40
1.0
 40
1.0
 40
1.0
 40
1.0
 10
73.559217923
 20
70.0928500047
 30
0.0
 10
73.486627761
 20
70.0509403053
 30
0.0
 10
73.343197752
 20
69.9503742338
 30
0.0
 10
73.074653725
 20
69.6990775737
 30
0.0
 10
72.7910258836
 20
69.3116239583
 30
0.0
 10
72.5972970767
 20
68.8722665848
 30
0.0
 10
72.5139401579
 20
68.5140497233
 30
0.0
 10
72.4985621672
 20
68.3395509092
 30
0.0
 10
72.4985621672
 20
68.2557301482
 30
0.0
  0
SPLINE
  5
2FA
100
AcDbEntity
  8
0
100
AcDbSpline
 62
7
  6
BYLAYER
 70
0
 71
3
 72
11
 73
7
 74
0
 42
0.0000001
 43
0.0000001
 44
0.0000000001
 40
0.0
 40
0.0
 40
0.0
 40
0.0
 40
0.2177825102
 40
0.4509091639
 40
0.7102957096
 40
1.0
 40
1.0
 40
1.0
 40
1.0
 10
79.6124802345
 20
18.5233045558
 30
0.0
 10
79.6619601965
 20
18.494737927
 30
0.0
 10
79.7545352997
 20
18.416910947
 30
0.0
 10
79.8530923382
 20
18.2557660292
 30
0.0
 10
79.9116293897
 20
18.0571750002
 30
0.0
 10
79.9231524579
 20
17.9126343758
 30
0.0
 10
79.9231524579
 20
17.8366318161
 30
0.0
  0
SPLINE
  5
2FB
100
AcDbEntity
  8
0
100
AcDbSpline
 62
7
  6
BYLAYER
 70
0
 71
3
 72
13
 73
9
 74
0
 42
0.0000001
 43
0.0000001
 44
0.0000000001
 40
0.0
 40
0.0
 40
0.0
 40
0.0
 40
0.1142260229
 40
0.2375602528
 40
0.5000015383
 40
0.7624419778
 40
0.8857752456
 40
1.0
 40
1.0
 40
1.0
 40
1.0
 10
79.9231524579
 20
74.9918010152
 30
0.0
 10
79.9231524579
 20
74.9079802822
 30
0.0
 10
79.9077744999
 20
74.7334815424
 30
0.0
 10
79.824417601
 20
74.3752647788
 30
0.0
 10
79.6306888719
 20
73.9359074311
 30
0.0
 10
79.3470610471
 20
73.5484537354
 30
0.0
 10
79.0785169453
 20
73.2971570091
 30
0.0
 10
78.9350868884
 20
73.1965908722
 30
0.0
 10
78.8624967021
 20
73.1546811587
 30
0.0
  0
SPLINE
  5
2FC
100
AcDbEntity
  8
0
100
AcDbSpline
 62
7
  6
BYLAYER
 70
0
 71
3
 72
15
 73
11
 74
0
 42
0.0000001
 43
0.0000001
 44
0.0000000001
 40
0.0
 40
0.0
 40
0.0
 40
0.0
 40
0.1141232787
 40
0.2373467935
 40
0.3669716251
 40
0.4999988493
 40
0.6330262331
 40
0.7626515288
 40
0.885875802
 40
1.0
 40
1.0
 40
1.0
 40
1.0
 10
67.1951774053
 20
83.7690138266
 30
0.0
 10
67.0862913402
 20
83.8318778034
 30
0.0
 10
66.8711735852
 20
83.9827308229
 30
0.0
 10
66.5751214481
 20
84.2596080957
 30
0.0
 10
66.3023544369
 20
84.5870259944
 30
0.0
 10
66.0630381519
 20
84.9524847084
 30
0.0
 10
65.8661976398
 20
85.3424675445
 30
0.0
 10
65.7190262571
 20
85.7424002856
 30
0.0
 10
65.6272665419
 20
86.1372292946
 30
0.0
 10
65.6041805237
 20
86.3989548631
 30
0.0
 10
65.6041805237
 20
86.5246859628
 30
0.0
  0
SPLINE
  5
2FD
100
AcDbEntity
  8
0
100
AcDbSpline
 62
7
  6
BYLAYER
 70
0
 71
3
 72
11
 73
7
 74
0
 42
0.0000001
 43
0.0000001
 44
0.0000000001
 40
0.0
 40
0.0
 40
0.0
 40
0.0
 40
0.2177827477
 40
0.4509152641
 40
0.7103063952
 40
1.0
 40
1.0
 40
1.0
 40
1.0
 10
76.8309251743
 20
85.9941403623
 30
0.0
 10
76.8309116434
 20
85.8951111499
 30
0.0
 10
76.7943370684
 20
85.6887005577
 30
0.0
 10
76.6378491068
 20
85.401102959
 30
0.0
 10
76.3904786144
 20
85.1411362144
 30
0.0
 10
76.1835025537
 20
84.9985781771
 30
0.0
 10
76.069422414
 20
84.9327143709
 30
0.0
  0
SPLINE
  5
2FE
100
AcDbEntity
  8
0
100
AcDbSpline
 62
7
  6
BYLAYER
 70
0
 71
3
 72
9
 73
5
 74
0
 42
0.0000001
 43
0.0000001
 44
0.0000000001
 40
0.0
 40
0.0
 40
0.0
 40
0.0
 40
0.2371754943
 40
1.0
 40
1.0
 40
1.0
 40
1.0
 10
79.8782451023
 20
11.738790375
 30
0.0
 10
79.885825077
 20
11.7683129521
 30
0.0
 10
79.9132053379
 20
11.8939574014
 30
0.0
 10
79.9231524579
 20
12.0230820312
 30
0.0
 10
79.9231524579
 20
12.1211148962
 30
0.0
  0
SPLINE
  5
2FF
100
AcDbEntity
  8
0
100
AcDbSpline
 62
7
  6
BYLAYER
 70
0
 71
3
 72
11
 73
7
 74
0
 42
0.0000001
 43
0.0000001
 44
0.0000000001
 40
0.0
 40
0.0
 40
0.0
 40
0.0
 40
0.2226159856
 40
0.4620374602
 40
0.7209464308
 40
1.0
 40
1.0
 40
1.0
 40
1.0
 10
77.1432017668
 20
74.1472940965
 30
0.0
 10
77.1095155547
 20
74.0689370101
 30
0.0
 10
77.0219426363
 20
73.9135225243
 30
0.0
 10
76.8435653766
 20
73.7009679689
 30
0.0
 10
76.6177696639
 20
73.5051457265
 30
0.0
 10
76.4448569025
 20
73.3918411171
 30
0.0
 10
76.3522663041
 20
73.3383842293
 30
0.0
  0
SPLINE
  5
300
100
AcDbEntity
  8
0
100
AcDbSpline
 62
7
  6
BYLAYER
 70
0
 71
3
 72
18
 73
14
 74
0
 42
0.0000001
 43
0.0000001
 44
0.0000000001
 40
0.0
 40
0.0
 40
0.0
 40
0.0
 40
0.0428458794
 40
0.0874620481
 40
0.1352804242
 40
0.1872316842
 40
0.243721678
 40
0.3047256576
 40
0.4383581826
 40
0.5826639784
 40
0.7297863217
 40
0.8713389719
 40
1.0
 40
1.0
 40
1.0
 40
1.0
 10
71.230954274
 20
85.994140331
 30
0.0
 10
71.2309686278
 20
85.9087429366
 30
0.0
 10
71.2537615077
 20
85.7336719237
 30
0.0
 10
71.3542198488
 20
85.4809154611
 30
0.0
 10
71.5170852414
 20
85.2412465288
 30
0.0
 10
71.7379297044
 20
85.0195264652
 30
0.0
 10
72.0115469422
 20
84.8195572854
 30
0.0
 10
72.4523225076
 20
84.579908324
 30
0.0
 10
73.0982052487
 20
84.3641863013
 30
0.0
 10
73.9410009681
 20
84.245843607
 30
0.0
 10
74.8078898551
 20
84.2698034776
 30
0.0
 10
75.6273586743
 20
84.4337341743
 30
0.0
 10
76.1301840477
 20
84.6411995839
 30
0.0
 10
76.3522663041
 20
84.7694180691
 30
0.0
  0
SPLINE
  5
301
100
AcDbEntity
  8
0
100
AcDbSpline
 62
7
  6
BYLAYER
 70
0
 71
3
 72
11
 73
7
 74
0
 42
0.0000001
 43
0.0000001
 44
0.0000000001
 40
0.0
 40
0.0
 40
0.0
 40
0.0
 40
0.2177843137
 40
0.4509117637
 40
0.7102976701
 40
1.0
 40
1.0
 40
1.0
 40
1.0
 10
70.7950507932
 20
82.228751281
 30
0.0
 10
70.7208325994
 20
82.1859016754
 30
0.0
 10
70.5503047607
 20
82.1240157261
 30
0.0
 10
70.2670609265
 20
82.1168440469
 30
0.0
 10
69.9651893805
 20
82.1897406437
 30
0.0
 10
69.7687887974
 20
82.2831722107
 30
0.0
 10
69.6700614433
 20
82.3401711857
 30
0.0
  0
SPLINE
  5
302
100
AcDbEntity
  8
0
100
AcDbSpline
 62
7
  6
BYLAYER
 70
0
 71
3
 72
18
 73
14
 74
0
 42
0.0000001
 43
0.0000001
 44
0.0000000001
 40
0.0
 40
0.0
 40
0.0
 40
0.0
 40
0.1286599206
 40
0.2702074932
 40
0.4173248874
 40
0.5616309674
 40
0.6952666251
 40
0.7562722457
 40
0.8127628518
 40
0.8647150007
 40
0.912534412
 40
0.9571518612
 40
1.0
 40
1.0
 40
1.0
 40
1.0
 10
76.3522663041
 20
73.3383842293
 30
0.0
 10
76.1301859714
 20
73.2101668547
 30
0.0
 10
75.6273725918
 20
73.0027054132
 30
0.0
 10
74.8079268734
 20
72.8387741395
 30
0.0
 10
73.9410584272
 20
72.8148054307
 30
0.0
 10
73.0982629007
 20
72.9331338792
 30
0.0
 10
72.4523714038
 20
73.1488582712
 30
0.0
 10
72.0115785804
 20
73.3884987312
 30
0.0
 10
71.7379580753
 20
73.5884739137
 30
0.0
 10
71.5171024814
 20
73.8101894528
 30
0.0
 10
71.3542300819
 20
74.0498623974
 30
0.0
 10
71.2537699028
 20
74.3026273339
 30
0.0
 10
71.2309697605
 20
74.4777045938
 30
0.0
 10
71.230954833
 20
74.5631064866
 30
0.0
  0
SPLINE
  5
303
100
AcDbEntity
  8
0
100
AcDbSpline
 62
7
  6
BYLAYER
 70
0
 71
3
 72
11
 73
7
 74
0
 42
0.0000001
 43
0.0000001
 44
0.0000000001
 40
0.0
 40
0.0
 40
0.0
 40
0.0
 40
0.2177825102
 40
0.4509091639
 40
0.7102957096
 40
1.0
 40
1.0
 40
1.0
 40
1.0
 10
56.5457107122
 20
24.7024400662
 30
0.0
 10
56.4962307502
 20
24.731006695
 30
0.0
 10
56.403655647
 20
24.808833675
 30
0.0
 10
56.3050986085
 20
24.9699785928
 30
0.0
 10
56.246561557
 20
25.1685696218
 30
0.0
 10
56.2350384888
 20
25.3131102462
 30
0.0
 10
56.2350384888
 20
25.3891128059
 30
0.0
  0
SPLINE
  5
304
100
AcDbEntity
  8
0
100
AcDbSpline
 62
7
  6
BYLAYER
 70
0
 71
3
 72
9
 73
5
 74
0
 42
0.0000001
 43
0.0000001
 44
0.0000000001
 40
0.0
 40
0.0
 40
0.0
 40
0.0
 40
0.4686909929
 40
1.0
 40
1.0
 40
1.0
 40
1.0
 10
77.1425915643
 20
74.1458721403
 30
0.0
 10
77.1746590918
 20
74.220464024
 30
0.0
 10
77.2192810672
 20
74.3898495004
 30
0.0
 10
77.230934072
 20
74.5633811226
 30
0.0
 10
77.2309353113
 20
74.6554214686
 30
0.0
  0
SPLINE
  5
305
100
AcDbEntity
  8
0
100
AcDbSpline
 62
7
  6
BYLAYER
 70
0
 71
3
 72
11
 73
7
 74
0
 42
0.0000001
 43
0.0000001
 44
0.0000000001
 40
0.0
 40
0.0
 40
0.0
 40
0.0
 40
0.2897486888
 40
0.5490824072
 40
0.7822237318
 40
1.0
 40
1.0
 40
1.0
 40
1.0
 10
76.3522663041
 20
84.7694180691
 30
0.0
 10
76.4839226091
 20
84.8454294185
 30
0.0
 10
76.7227605296
 20
85.0098933644
 30
0.0
 10
77.0081611911
 20
85.3098941615
 30
0.0
 10
77.1886876127
 20
85.6417103213
 30
0.0
 10
77.2309391887
 20
85.8798789586
 30
0.0
 10
77.2309199833
 20
85.9941403343
 30
0.0
  0
SPLINE
  5
306
100
AcDbEntity
  8
0
100
AcDbSpline
 62
7
  6
BYLAYER
 70
0
 71
3
 72
17
 73
13
 74
0
 42
0.0000001
 43
0.0000001
 44
0.0000000001
 40
0.0
 40
0.0
 40
0.0
 40
0.0
 40
0.1286926208
 40
0.2702795078
 40
0.4174383051
 40
0.5617803148
 40
0.6954501289
 40
0.8127134773
 40
0.8646759206
 40
0.9125113962
 40
0.9571388332
 40
1.0
 40
1.0
 40
1.0
 40
1.0
 10
76.069422414
 20
84.9327143709
 30
0.0
 10
75.8769553899
 20
84.821594146
 30
0.0
 10
75.4411914144
 20
84.6417906161
 30
0.0
 10
74.730972142
 20
84.4997237375
 30
0.0
 10
73.9798001748
 20
84.4789196037
 30
0.0
 10
73.2489654971
 20
84.5816256509
 30
0.0
 10
72.5977313726
 20
84.7991508411
 30
0.0
 10
72.1447833484
 20
85.0748412568
 30
0.0
 10
71.8789894324
 20
85.3416216134
 30
0.0
 10
71.7377512022
 20
85.5493017086
 30
0.0
 10
71.6507902209
 20
85.7684011258
 30
0.0
 10
71.6309389697
 20
85.920122636
 30
0.0
 10
71.6309490831
 20
85.994140303
 30
0.0
  0
ELLIPSE
  5
307
100
AcDbEntity
  8
0
100
AcDbEllipse
 62
7
  6
BYLAYER
 10
74.2309371287
 20
91.301406044
 30
0.0
 11
2.2797774639
 21
-1.7600972616
 31
0.0
 40
0.7102140958
 41
-2.6400407319
 42
0.5015519217
  0
ELLIPSE
  5
308
100
AcDbEntity
  8
0
100
AcDbEllipse
 62
7
  6
BYLAYER
 10
62.2454211051
 20
89.2803669814
 30
0.0
 11
1.4142167279
 21
2.449487915
 31
0.0
 40
0.5773494077
 41
0.3850642777
 42
1.5708027286
  0
ELLIPSE
  5
309
100
AcDbEntity
  8
0
100
AcDbEllipse
 62
7
  6
BYLAYER
 10
74.2309371287
 20
88.8518987926
 30
0.0
 11
2.2797774639
 21
-1.7600972616
 31
0.0
 40
0.7102140958
 41
3.0789911107
 42
7.3738515903
  0
ENDSEC
  0
SECTION
  2
OBJECTS
  0
DICTIONARY
  5
C
100
AcDbDictionary
280
0
281
1
  3
ACAD_GROUP
350
D
  3
ACAD_MLINESTYLE
350
17
  3
ACAD_LAYOUT
350
1A
  3
ACAD_PLOTSETTINGS
350
19
  3
ACAD_PLOTSTYLENAME
350
E
  0
DICTIONARY
  5
D
102
{ACAD_REACTORS
330
C
102
}
100
AcDbDictionary
280
0
281
1
  0
ACDBDICTIONARYWDFLT
  5
E
102
{ACAD_REACTORS
330
C
102
}
100
AcDbDictionary
281
1
  3
Normal
350
F
100
AcDbDictionaryWithDefault
340
F
  0
DICTIONARY
  5
17
102
{ACAD_REACTORS
330
C
102
}
100
AcDbDictionary
280
0
281
1
  3
Standard
350
18
  0
DICTIONARY
  5
19
102
{ACAD_REACTORS
330
C
102
}
100
AcDbDictionary
281
1
  0
DICTIONARY
  5
1A
102
{ACAD_REACTORS
330
C
102
}
100
AcDbDictionary
281
1
  3
Model
350
30A
  3
Layout1
350
30B
  0
ACDBPLACEHOLDER
  5
F
102
{ACAD_REACTORS
330
E
102
}
  0
MLINESTYLE
  5
18
102
{ACAD_REACTORS
330
17
102
}
100
AcDbMlineStyle
  2
STANDARD
 70
0
  3

 62
256
 51
90.0
 52
90.0
 71
2
 49
0.5
 62
256
  6
BYLAYER
 49
-0.5
 62
256
  6
BYLAYER
  0
LAYOUT
  5
30A
102
{ACAD_REACTORS
330
1A
102
}
100
AcDbPlotSettings
  1

  2
none_device
  4

  6

 40
0.0
 41
0.0
 42
0.0
 43
0.0
 44
210.0
 45
297.0
 46
0.0
 47
0.0
 48
0.0
 49
0.0
140
0.0
141
0.0
142
1.0
143
1.0
 70
1024
 72
1
 73
0
 74
0
  7

 75
0
147
1.0
148
0.0
149
0.0
100
AcDbLayout
  1
Model
 70
0
 71
0
 10
0.0
 20
0.0
 11
210.0
 21
297.0
 12
0.0
 22
0.0
 32
0.0
 14
0.0
 24
0.0
 34
0.0
 15
0.0
 25
0.0
 35
0.0
146
0.0
 13
0.0
 23
0.0
 33
0.0
 16
1.0
 26
0.0
 36
0.0
 17
0.0
 27
1.0
 37
0.0
 76
0
330
210
345
0
346
0
  0
LAYOUT
  5
30B
102
{ACAD_REACTORS
330
1A
102
}
100
AcDbPlotSettings
  1

  2
none_device
  4

  6

 40
0.0
 41
0.0
 42
0.0
 43
0.0
 44
210.0
 45
297.0
 46
0.0
 47
0.0
 48
0.0
 49
0.0
140
0.0
141
0.0
142
1.0
143
1.0
 70
0
 72
1
 73
0
 74
0
  7

 75
0
147
1.0
148
0.0
149
0.0
100
AcDbLayout
  1
Layout1
 70
0
 71
1
 10
0.0
 20
0.0
 11
210.0
 21
297.0
 12
0.0
 22
0.0
 32
0.0
 14
0.0
 24
0.0
 34
0.0
 15
0.0
 25
0.0
 35
0.0
146
0.0
 13
0.0
 23
0.0
 33
0.0
 16
1.0
 26
0.0
 36
0.0
 17
0.0
 27
1.0
 37
0.0
 76
0
330
211
345
0
346
0
  0
ENDSEC
  0
EOF
