999
DXF file: C:\Users\sesa63760\Dev\_Creo\CAD\MCADID0004795_3D-CAD\drw0001_4.dxf
999
Pro/ENGINEER 2019471 by Parametric Technology Corporation
  0
SECTION
  2
HEADER
  9
$ACADVER
  1
AC1024
  9
$DWGCODEPAGE
  3
ANSI_1252
  9
$EXTMAX
 10
65.4146210304
 20
92.5149640288
 30
0.0
  9
$EXTMIN
 10
0.0
 20
0.0
 30
0.0
  9
$LIMMIN
 10
0.0
 20
0.0
  9
$LIMMAX
 10
65.4146210304
 20
92.5149640288
  9
$VIEWCTR
 10
32.7073105152
 20
46.2574820144
  9
$VIEWSIZE
 40
92.5149640288
  9
$CLAYER
  8
0
  9
$LTSCALE
 40
6.0306050626
  9
$CELTYPE
  6
BYLAYER
  9
$DIMSCALE
 40
1.0
  9
$DIMASZ
 40
0.7787454885
  9
$DIMEXO
 40
1.0
  9
$DIMDLI
 40
4.1665998614
  9
$DIMEXE
 40
1.0
  9
$DIMCEN
 40
0.986826283
  9
$DIMLFAC
 40
1.0
  9
$DIMBLK
  1
_FILLED
  9
$DIMALT
 70
0
  9
$DIMALTF
 40
0.0393700787
  9
$DIMTXT
 40
1.0902436838
  9
$DIMTOL
 70
1
  9
$DIMLIM
 70
0
  9
$DIMTFAC
 40
1.0
  9
$DIMTP
 40
0.01
  9
$DIMTM
 40
0.01
  9
$DIMGAP
 40
0.625
  9
$DIMDSEP
 70
46
  9
$AUNITS
 70
0
  9
$PDMODE
 70
3
  9
$PDSIZE
 40
0.3125
  9
$HANDSEED
  5
3CB
  9
$TILEMODE
 70
1
  9
$MEASUREMENT
 70
1
  9
$INSUNITS
 70
4
  0
ENDSEC
  0
SECTION
  2
CLASSES
  0
CLASS
  1
ACDBDICTIONARYWDFLT
  2
AcDbDictionaryWithDefault
  3
AutoCAD 2000
 90
0
 91
1
280
0
281
0
  0
CLASS
  1
ACDBPLACEHOLDER
  2
AcDbPlaceHolder
  3
AutoCAD 2000
 90
0
 91
1
280
0
281
0
  0
CLASS
  1
LAYOUT
  2
AcDbLayout
  3
AutoCAD 2000
 90
0
 91
0
280
0
281
0
  0
ENDSEC
  0
SECTION
  2
TABLES
  0
TABLE
  2
VPORT
  5
8
100
AcDbSymbolTable
 70
2
  0
VPORT
  5
1F4
100
AcDbSymbolTableRecord
100
AcDbViewportTableRecord
  2
*ACTIVE
 70
0
 10
0.0
 20
0.0
 11
1.0
 21
1.0
 12
32.7073105152
 22
46.2574820144
 13
0.0
 23
0.0
 14
1.0
 24
1.0
 15
0.0
 25
0.0
 16
0.0
 26
0.0
 36
1.0
 17
0.0
 27
0.0
 37
0.0
 40
92.5149640288
 41
0.7070707071
 42
50.0
 43
0.0
 44
0.0
 50
0.0
 51
0.0
 71
0
 72
100
 73
1
 74
1
 75
0
 76
0
 77
0
 78
0
  0
ENDTAB
  0
TABLE
  2
LTYPE
  5
5
100
AcDbSymbolTable
 70
6
  0
LTYPE
  5
14
100
AcDbSymbolTableRecord
100
AcDbLinetypeTableRecord
  2
BYBLOCK
 70
0
  3

 72
65
 73
0
 40
0.0
  0
LTYPE
  5
15
100
AcDbSymbolTableRecord
100
AcDbLinetypeTableRecord
  2
BYLAYER
 70
0
  3

 72
65
 73
0
 40
0.0
  0
LTYPE
  5
16
100
AcDbSymbolTableRecord
100
AcDbLinetypeTableRecord
  2
CONTINUOUS
 70
64
  3
Solid line
 72
65
 73
0
 40
0.0
  0
LTYPE
  5
1F5
100
AcDbSymbolTableRecord
100
AcDbLinetypeTableRecord
  2
CENTER
 70
64
  3
____ _ ____ _ ____ _ ____ _ ____ _ ____ _ ____
 72
65
 73
4
 40
0.6
 49
0.375
 74
0
 49
-0.075
 74
0
 49
0.075
 74
0
 49
-0.075
 74
0
  0
LTYPE
  5
1F6
100
AcDbSymbolTableRecord
100
AcDbLinetypeTableRecord
  2
HIDDEN
 70
64
  3
- - - - - - - - - - - - - - - - - - - -
 72
65
 73
2
 40
0.2
 49
0.1
 74
0
 49
-0.1
 74
0
  0
LTYPE
  5
1F7
100
AcDbSymbolTableRecord
100
AcDbLinetypeTableRecord
  2
PHANTOM
 70
64
  3
_____ _ _ _____ _ _ _____ _ _ _____
 72
65
 73
6
 40
0.8
 49
0.45
 74
0
 49
-0.05
 74
0
 49
0.1
 74
0
 49
-0.05
 74
0
 49
0.1
 74
0
 49
-0.05
 74
0
  0
LTYPE
  5
1F8
100
AcDbSymbolTableRecord
100
AcDbLinetypeTableRecord
  2
DOT
 70
64
  3
. . . . . . . . . . . . . . . . . . . .
 72
65
 73
2
 40
0.2
 49
0.1
 74
0
 49
-0.1
 74
0
  0
LTYPE
  5
1F9
100
AcDbSymbolTableRecord
100
AcDbLinetypeTableRecord
  2
DASHED
 70
64
  3
- - - - - - - - - - - - - - - - - - - -
 72
65
 73
2
 40
0.2
 49
0.1
 74
0
 49
-0.1
 74
0
  0
ENDTAB
  0
TABLE
  2
LAYER
  5
2
100
AcDbSymbolTable
 70
36
  0
LAYER
  5
10
100
AcDbSymbolTableRecord
100
AcDbLayerTableRecord
  2
0
 70
0
 62
7
  6
CONTINUOUS
370
-3
390
F
  0
LAYER
  5
1FA
100
AcDbSymbolTableRecord
100
AcDbLayerTableRecord
  2
DEFAULT_1
 70
0
 62
7
  6
CENTER
370
-3
390
F
  0
LAYER
  5
1FB
100
AcDbSymbolTableRecord
100
AcDbLayerTableRecord
  2
DEFAULT_2
 70
0
 62
7
  6
HIDDEN
370
-3
390
F
  0
LAYER
  5
1FC
100
AcDbSymbolTableRecord
100
AcDbLayerTableRecord
  2
DEFAULT_3
 70
0
 62
7
  6
PHANTOM
370
-3
390
F
  0
LAYER
  5
1FD
100
AcDbSymbolTableRecord
100
AcDbLayerTableRecord
  2
00_COMPONENTS
 70
0
 62
7
  6
CONTINUOUS
370
-3
390
F
  0
LAYER
  5
1FE
100
AcDbSymbolTableRecord
100
AcDbLayerTableRecord
  2
01_1_DEFAULT_DATUMS
 70
0
 62
7
  6
CONTINUOUS
370
-3
390
F
  0
LAYER
  5
1FF
100
AcDbSymbolTableRecord
100
AcDbLayerTableRecord
  2
01_PLANES
 70
0
 62
7
  6
CONTINUOUS
370
-3
390
F
  0
LAYER
  5
200
100
AcDbSymbolTableRecord
100
AcDbLayerTableRecord
  2
02_COORD_SYS
 70
0
 62
7
  6
CONTINUOUS
370
-3
390
F
  0
LAYER
  5
201
100
AcDbSymbolTableRecord
100
AcDbLayerTableRecord
  2
03_AXES
 70
0
 62
7
  6
CONTINUOUS
370
-3
390
F
  0
LAYER
  5
202
100
AcDbSymbolTableRecord
100
AcDbLayerTableRecord
  2
04_POINTS
 70
0
 62
7
  6
CONTINUOUS
370
-3
390
F
  0
LAYER
  5
203
100
AcDbSymbolTableRecord
100
AcDbLayerTableRecord
  2
05_CURVES
 70
0
 62
7
  6
CONTINUOUS
370
-3
390
F
  0
LAYER
  5
204
100
AcDbSymbolTableRecord
100
AcDbLayerTableRecord
  2
06_SURFS
 70
0
 62
7
  6
CONTINUOUS
370
-3
390
F
  0
LAYER
  5
205
100
AcDbSymbolTableRecord
100
AcDbLayerTableRecord
  2
07_COSMETICS
 70
0
 62
7
  6
CONTINUOUS
370
-3
390
F
  0
LAYER
  5
206
100
AcDbSymbolTableRecord
100
AcDbLayerTableRecord
  2
10_NOTES
 70
0
 62
7
  6
CONTINUOUS
370
-3
390
F
  0
LAYER
  5
207
100
AcDbSymbolTableRecord
100
AcDbLayerTableRecord
  2
11_NOTES_PUB
 70
0
 62
7
  6
CONTINUOUS
370
-3
390
F
  0
LAYER
  5
208
100
AcDbSymbolTableRecord
100
AcDbLayerTableRecord
  2
13_REF_GTOL
 70
0
 62
7
  6
CONTINUOUS
370
-3
390
F
  0
LAYER
  5
209
100
AcDbSymbolTableRecord
100
AcDbLayerTableRecord
  2
16_MISC
 70
0
 62
7
  6
CONTINUOUS
370
-3
390
F
  0
LAYER
  5
20A
100
AcDbSymbolTableRecord
100
AcDbLayerTableRecord
  2
17_NO_PRINT
 70
0
 62
7
  6
CONTINUOUS
370
-3
390
F
  0
LAYER
  5
20B
100
AcDbSymbolTableRecord
100
AcDbLayerTableRecord
  2
18_DATUM_CAMS_JOINTS
 70
0
 62
7
  6
CONTINUOUS
370
-3
390
F
  0
LAYER
  5
20C
100
AcDbSymbolTableRecord
100
AcDbLayerTableRecord
  2
19_DATUM_FUNCTIONAL
 70
0
 62
7
  6
CONTINUOUS
370
-3
390
F
  0
LAYER
  5
20D
100
AcDbSymbolTableRecord
100
AcDbLayerTableRecord
  2
20_DATUM_KINEMATIC_SCHEME
 70
0
 62
7
  6
CONTINUOUS
370
-3
390
F
  0
ENDTAB
  0
TABLE
  2
STYLE
  5
3
100
AcDbSymbolTable
 70
1
  0
STYLE
  5
11
100
AcDbSymbolTableRecord
100
AcDbTextStyleTableRecord
  2
STANDARD
 70
0
 40
0.0
 41
1.0
 50
0.0
 71
0
 42
0.2
  3
ARIAL.TTF
  4

  0
STYLE
  5
20E
100
AcDbSymbolTableRecord
100
AcDbTextStyleTableRecord
  2
TEXTSTYLE_1
 70
0
 40
0.0
 41
0.8
 50
0.0
 71
0
 42
0.2
  3
gdt
  4

  0
ENDTAB
  0
TABLE
  2
VIEW
  5
6
100
AcDbSymbolTable
 70
0
  0
ENDTAB
  0
TABLE
  2
UCS
  5
7
100
AcDbSymbolTable
 70
0
  0
ENDTAB
  0
TABLE
  2
APPID
  5
9
100
AcDbSymbolTable
 70
1
  0
APPID
  5
20F
100
AcDbSymbolTableRecord
100
AcDbRegAppTableRecord
  2
ACAD
 70
0
  0
ENDTAB
  0
TABLE
  2
BLOCK_RECORD
  5
1
100
AcDbSymbolTable
 70
0
  0
BLOCK_RECORD
  5
210
100
AcDbSymbolTableRecord
100
AcDbBlockTableRecord
  2
*Model_Space
  0
BLOCK_RECORD
  5
211
100
AcDbSymbolTableRecord
100
AcDbBlockTableRecord
  2
*Paper_Space
  0
BLOCK_RECORD
  5
212
100
AcDbSymbolTableRecord
100
AcDbBlockTableRecord
  2
_FILLED
  0
ENDTAB
  0
TABLE
  2
DIMSTYLE
  5
A
100
AcDbSymbolTable
 70
1
100
AcDbDimStyleTable
 71
0
  0
DIMSTYLE
105
213
100
AcDbSymbolTableRecord
100
AcDbDimStyleTableRecord
  2
STANDARD
 70
0
  3

  4

 40
1.0
 41
0.7787454885
 42
1.0
 43
0.38
 44
1.0
 45
0.0
 46
0.0
 47
0.01
 48
0.01
140
1.0902436838
141
0.09
142
0.0
143
25.4
144
1.0
145
0.0
146
1.0
147
0.625
 71
1
 72
0
 73
0
 74
0
 75
0
 76
0
 77
1
 78
8
 79
2
170
0
171
1
172
0
173
0
174
0
175
0
176
0
177
0
178
0
270
2
179
2
271
2
272
2
273
2
274
2
275
0
280
0
281
0
282
0
283
1
284
8
285
0
286
0
287
3
288
0
340
11
278
46
341
212
342
212
343
212
344
212
  0
ENDTAB
  0
ENDSEC
  0
SECTION
  2
BLOCKS
  0
BLOCK
  5
20
100
AcDbEntity
  8
0
100
AcDbBlockBegin
  2
*Model_Space
 70
0
 10
0.0
 20
0.0
 30
0.0
  3
*Model_Space
  1

  0
ENDBLK
  5
21
100
AcDbEntity
  8
0
100
AcDbBlockEnd
  0
BLOCK
  5
1C
100
AcDbEntity
  8
0
100
AcDbBlockBegin
  2
*Paper_Space
 70
0
 10
0.0
 20
0.0
 30
0.0
  3
*Paper_Space
  1

  0
ENDBLK
  5
1D
100
AcDbEntity
  8
0
100
AcDbBlockEnd
  0
BLOCK
  5
214
100
AcDbEntity
  8
0
100
AcDbBlockBegin
  2
_FILLED
 70
64
 10
0.0
 20
0.0
  3
_FILLED
  1

  0
SOLID
  5
215
100
AcDbEntity
  8
0
  6
BYBLOCK
 62
0
100
AcDbTrace
 10
0.0
 20
0.0
 11
-1.0
 21
0.25
 12
-1.0
 22
-0.25
 13
-1.0
 23
-0.25
  0
ENDBLK
  5
216
100
AcDbEntity
  8
0
  6
BYBLOCK
 62
0
100
AcDbBlockEnd
  0
ENDSEC
  0
SECTION
  2
ENTITIES
  0
LINE
  5
217
100
AcDbEntity
  8
0
100
AcDbLine
 62
7
  6
BYLAYER
 10
44.5565910908
 20
6.6243884892
 11
22.5565910908
 21
6.6243884892
  0
LINE
  5
218
100
AcDbEntity
  8
0
100
AcDbLine
 62
7
  6
BYLAYER
 10
44.5565910908
 20
7.1243884892
 11
43.2099030222
 21
7.1243884892
  0
LINE
  5
219
100
AcDbEntity
  8
0
100
AcDbLine
 62
7
  6
BYLAYER
 10
34.9032791593
 20
7.1243884892
 11
32.2099030222
 21
7.1243884892
  0
LINE
  5
21A
100
AcDbEntity
  8
0
100
AcDbLine
 62
7
  6
BYLAYER
 10
23.9032791593
 20
7.1243884892
 11
22.5565910908
 21
7.1243884892
  0
LINE
  5
21B
100
AcDbEntity
  8
0
100
AcDbLine
 62
7
  6
BYLAYER
 10
22.5565910908
 20
9.6243884892
 11
44.5565910908
 21
9.6243884892
  0
LINE
  5
21C
100
AcDbEntity
  8
0
100
AcDbLine
 62
7
  6
BYLAYER
 10
43.7565910908
 20
11.6243884892
 11
23.3565910908
 21
11.6243884892
  0
LINE
  5
21D
100
AcDbEntity
  8
0
100
AcDbLine
 62
7
  6
BYLAYER
 10
11.2136443019
 20
67.8814417003
 11
11.0483442272
 21
67.7161416256
  0
LINE
  5
21E
100
AcDbEntity
  8
0
100
AcDbLine
 62
7
  6
BYLAYER
 10
11.8995378796
 20
68.5673352781
 11
12.0648379543
 21
68.7326353528
  0
LINE
  5
21F
100
AcDbEntity
  8
0
100
AcDbLine
 62
7
  6
BYLAYER
 10
21.307055814
 20
13.3243884892
 11
45.8061417256
 21
13.3243884892
  0
LINE
  5
220
100
AcDbEntity
  8
0
100
AcDbLine
 62
7
  6
BYLAYER
 10
46.8065910908
 20
14.3243884892
 11
20.3065910908
 21
14.3243884892
  0
LINE
  5
221
100
AcDbEntity
  8
0
100
AcDbLine
 62
7
  6
BYLAYER
 10
11.040216915
 20
68.740762665
 11
11.089323155
 21
68.8510570857
  0
LINE
  5
222
100
AcDbEntity
  8
0
100
AcDbLine
 62
7
  6
BYLAYER
 10
12.0238590266
 20
67.5977198927
 11
12.0729652665
 21
67.7080143135
  0
LINE
  5
223
100
AcDbEntity
  8
0
100
AcDbLine
 62
7
  6
BYLAYER
 10
10.9299224942
 20
68.691656425
 11
11.040216915
 21
68.740762665
  0
LINE
  5
224
100
AcDbEntity
  8
0
100
AcDbLine
 62
7
  6
BYLAYER
 10
12.0729652665
 20
67.7080143135
 11
12.1832596873
 21
67.7571205534
  0
LINE
  5
225
100
AcDbEntity
  8
0
100
AcDbLine
 62
7
  6
BYLAYER
 10
7.5565910908
 20
27.7243884892
 11
7.5565910908
 21
81.2243884892
  0
LINE
  5
226
100
AcDbEntity
  8
0
100
AcDbLine
 62
7
  6
BYLAYER
 10
10.973005083
 20
67.9579757411
 11
10.9371668926
 21
67.7571205534
  0
LINE
  5
227
100
AcDbEntity
  8
0
100
AcDbLine
 62
7
  6
BYLAYER
 10
12.1401770986
 20
68.4908012373
 11
12.176015289
 21
68.691656425
  0
LINE
  5
228
100
AcDbEntity
  8
0
100
AcDbLine
 62
7
  6
BYLAYER
 10
11.089323155
 20
69.9218674371
 11
11.089323155
 21
68.8510570857
  0
LINE
  5
229
100
AcDbEntity
  8
0
100
AcDbLine
 62
7
  6
BYLAYER
 10
11.089323155
 20
67.604964291
 11
11.089323155
 21
66.5269095413
  0
LINE
  5
22A
100
AcDbEntity
  8
0
100
AcDbLine
 62
7
  6
BYLAYER
 10
20.3065910908
 20
22.7243884892
 11
27.9385398272
 21
22.7243884892
  0
LINE
  5
22B
100
AcDbEntity
  8
0
100
AcDbLine
 62
7
  6
BYLAYER
 10
39.1746423543
 20
22.7243884892
 11
46.8065910908
 21
22.7243884892
  0
LINE
  5
22C
100
AcDbEntity
  8
0
100
AcDbLine
 62
7
  6
BYLAYER
 10
55.5565910908
 20
23.7243884892
 11
11.5565910908
 21
23.7243884892
  0
LINE
  5
22D
100
AcDbEntity
  8
0
100
AcDbLine
 62
7
  6
BYLAYER
 10
21.8231075482
 20
26.1403909367
 11
22.0238590266
 21
26.0977198927
  0
LINE
  5
22E
100
AcDbEntity
  8
0
100
AcDbLine
 62
7
  6
BYLAYER
 10
20.9371668926
 20
26.2571205534
 11
21.0483442272
 21
26.2161416256
  0
LINE
  5
22F
100
AcDbEntity
  8
0
100
AcDbLine
 62
7
  6
BYLAYER
 10
21.2000402608
 20
27.0809393191
 11
21.040216915
 21
27.240762665
  0
LINE
  5
230
100
AcDbEntity
  8
0
100
AcDbLine
 62
7
  6
BYLAYER
 10
21.9131419207
 20
26.3678376593
 11
22.0729652665
 21
26.2080143135
  0
LINE
  5
231
100
AcDbEntity
  8
0
100
AcDbLine
 62
7
  6
BYLAYER
 10
12.0238590266
 20
66.5269095413
 11
12.0238590266
 21
67.5977198927
  0
LINE
  5
232
100
AcDbEntity
  8
0
100
AcDbLine
 62
7
  6
BYLAYER
 10
12.0238590266
 20
68.8438126874
 11
12.0238590266
 21
69.9218674371
  0
LINE
  5
233
100
AcDbEntity
  8
0
100
AcDbLine
 62
7
  6
BYLAYER
 10
45.2901717475
 20
26.1408013046
 11
45.089323155
 21
26.104964291
  0
LINE
  5
234
100
AcDbEntity
  8
0
100
AcDbLine
 62
7
  6
BYLAYER
 10
45.823010434
 20
27.3079756738
 11
46.0238590266
 21
27.3438126874
  0
LINE
  5
235
100
AcDbEntity
  8
0
100
AcDbLine
 62
7
  6
BYLAYER
 10
48.0635393605
 20
26.2571205534
 11
46.1832596873
 21
26.2571205534
  0
LINE
  5
236
100
AcDbEntity
  8
0
100
AcDbLine
 62
7
  6
BYLAYER
 10
44.9371668926
 20
26.2571205534
 11
43.049642821
 21
26.2571205534
  0
LINE
  5
237
100
AcDbEntity
  8
0
100
AcDbLine
 62
7
  6
BYLAYER
 10
24.0635393605
 20
26.2571205534
 11
22.1832596873
 21
26.2571205534
  0
LINE
  5
238
100
AcDbEntity
  8
0
100
AcDbLine
 62
7
  6
BYLAYER
 10
20.9371668926
 20
26.2571205534
 11
19.049642821
 21
26.2571205534
  0
LINE
  5
239
100
AcDbEntity
  8
0
100
AcDbLine
 62
7
  6
BYLAYER
 10
48.4331782718
 20
26.3614874302
 11
46.52041063
 21
26.3614874302
  0
LINE
  5
23A
100
AcDbEntity
  8
0
100
AcDbLine
 62
7
  6
BYLAYER
 10
44.592735573
 20
26.3614874302
 11
42.6800039097
 21
26.3614874302
  0
LINE
  5
23B
100
AcDbEntity
  8
0
100
AcDbLine
 62
7
  6
BYLAYER
 10
24.4331782718
 20
26.3614874302
 11
22.52041063
 21
26.3614874302
  0
LINE
  5
23C
100
AcDbEntity
  8
0
100
AcDbLine
 62
7
  6
BYLAYER
 10
20.592735573
 20
26.3614874302
 11
18.6800039097
 21
26.3614874302
  0
LINE
  5
23D
100
AcDbEntity
  8
0
100
AcDbLine
 62
7
  6
BYLAYER
 10
18.6800039097
 20
27.0872895482
 11
20.5927715515
 21
27.0872895482
  0
LINE
  5
23E
100
AcDbEntity
  8
0
100
AcDbLine
 62
7
  6
BYLAYER
 10
22.5204466085
 20
27.0872895482
 11
24.4331782718
 21
27.0872895482
  0
LINE
  5
23F
100
AcDbEntity
  8
0
100
AcDbLine
 62
7
  6
BYLAYER
 10
42.6800039097
 20
27.0872895482
 11
44.5927715515
 21
27.0872895482
  0
LINE
  5
240
100
AcDbEntity
  8
0
100
AcDbLine
 62
7
  6
BYLAYER
 10
46.5204466085
 20
27.0872895482
 11
48.4331782718
 21
27.0872895482
  0
LINE
  5
241
100
AcDbEntity
  8
0
100
AcDbLine
 62
7
  6
BYLAYER
 10
19.049642821
 20
27.191656425
 11
20.9299224942
 21
27.191656425
  0
LINE
  5
242
100
AcDbEntity
  8
0
100
AcDbLine
 62
7
  6
BYLAYER
 10
22.176015289
 20
27.191656425
 11
24.0635393605
 21
27.191656425
  0
LINE
  5
243
100
AcDbEntity
  8
0
100
AcDbLine
 62
7
  6
BYLAYER
 10
43.049642821
 20
27.191656425
 11
44.9299224942
 21
27.191656425
  0
LINE
  5
244
100
AcDbEntity
  8
0
100
AcDbLine
 62
7
  6
BYLAYER
 10
46.176015289
 20
27.191656425
 11
48.0635393605
 21
27.191656425
  0
LINE
  5
245
100
AcDbEntity
  8
0
100
AcDbLine
 62
7
  6
BYLAYER
 10
21.2900746334
 20
27.3083860417
 11
21.089323155
 21
27.3510570857
  0
LINE
  5
246
100
AcDbEntity
  8
0
100
AcDbLine
 62
7
  6
BYLAYER
 10
22.176015289
 20
27.191656425
 11
22.0648379543
 21
27.2326353528
  0
LINE
  5
247
100
AcDbEntity
  8
0
100
AcDbLine
 62
7
  6
BYLAYER
 10
21.0483442272
 20
26.2161416256
 11
21.089323155
 21
26.104964291
  0
LINE
  5
248
100
AcDbEntity
  8
0
100
AcDbLine
 62
7
  6
BYLAYER
 10
16.3065910908
 20
66.2243884892
 11
16.3065910908
 21
31.7243884892
  0
LINE
  5
249
100
AcDbEntity
  8
0
100
AcDbLine
 62
7
  6
BYLAYER
 10
21.2901717475
 20
26.1408013046
 11
21.089323155
 21
26.104964291
  0
LINE
  5
24A
100
AcDbEntity
  8
0
100
AcDbLine
 62
7
  6
BYLAYER
 10
21.823010434
 20
27.3079756738
 11
22.0238590266
 21
27.3438126874
  0
LINE
  5
24B
100
AcDbEntity
  8
0
100
AcDbLine
 62
7
  6
BYLAYER
 10
45.8231075482
 20
26.1403909367
 11
46.0238590266
 21
26.0977198927
  0
LINE
  5
24C
100
AcDbEntity
  8
0
100
AcDbLine
 62
7
  6
BYLAYER
 10
45.2900746334
 20
27.3083860417
 11
45.089323155
 21
27.3510570857
  0
LINE
  5
24D
100
AcDbEntity
  8
0
100
AcDbLine
 62
7
  6
BYLAYER
 10
22.0648379543
 20
27.2326353528
 11
22.0238590266
 21
27.3438126874
  0
LINE
  5
24E
100
AcDbEntity
  8
0
100
AcDbLine
 62
7
  6
BYLAYER
 10
10.9725930869
 20
68.4909070699
 11
10.9299224942
 21
68.691656425
  0
LINE
  5
24F
100
AcDbEntity
  8
0
100
AcDbLine
 62
7
  6
BYLAYER
 10
12.1405890946
 20
67.9578699085
 11
12.1832596873
 21
67.7571205534
  0
LINE
  5
250
100
AcDbEntity
  8
0
100
AcDbLine
 62
7
  6
BYLAYER
 10
20.9725930869
 20
26.9909070699
 11
20.9299224942
 21
27.191656425
  0
LINE
  5
251
100
AcDbEntity
  8
0
100
AcDbLine
 62
7
  6
BYLAYER
 10
18.3065910908
 20
33.7243884892
 11
18.3065910908
 21
64.2243884892
  0
LINE
  5
252
100
AcDbEntity
  8
0
100
AcDbLine
 62
7
  6
BYLAYER
 10
20.0565910908
 20
78.2243884892
 11
20.0565910908
 21
85.3243884892
  0
LINE
  5
253
100
AcDbEntity
  8
0
100
AcDbLine
 62
7
  6
BYLAYER
 10
20.3065910908
 20
22.7243884892
 11
20.3065910908
 21
14.3243884892
  0
LINE
  5
254
100
AcDbEntity
  8
0
100
AcDbLine
 62
7
  6
BYLAYER
 10
20.5565910908
 20
78.2864058565
 11
20.5565910908
 21
84.8864058565
  0
LINE
  5
255
100
AcDbEntity
  8
0
100
AcDbLine
 62
7
  6
BYLAYER
 10
21.089323155
 20
28.4218674371
 11
21.089323155
 21
27.3510570857
  0
LINE
  5
256
100
AcDbEntity
  8
0
100
AcDbLine
 62
7
  6
BYLAYER
 10
21.089323155
 20
26.104964291
 11
21.089323155
 21
25.0269095413
  0
LINE
  5
257
100
AcDbEntity
  8
0
100
AcDbLine
 62
7
  6
BYLAYER
 10
16.3065910908
 20
31.7243884892
 11
50.8065910908
 21
31.7243884892
  0
LINE
  5
258
100
AcDbEntity
  8
0
100
AcDbLine
 62
7
  6
BYLAYER
 10
48.8065910908
 20
33.7243884892
 11
18.3065910908
 21
33.7243884892
  0
LINE
  5
259
100
AcDbEntity
  8
0
100
AcDbLine
 62
7
  6
BYLAYER
 10
44.9371668926
 20
26.2571205534
 11
45.0483442272
 21
26.2161416256
  0
LINE
  5
25A
100
AcDbEntity
  8
0
100
AcDbLine
 62
7
  6
BYLAYER
 10
46.176015289
 20
27.191656425
 11
46.0648379543
 21
27.2326353528
  0
LINE
  5
25B
100
AcDbEntity
  8
0
100
AcDbLine
 62
7
  6
BYLAYER
 10
11.0483442272
 20
67.7161416256
 11
11.089323155
 21
67.604964291
  0
LINE
  5
25C
100
AcDbEntity
  8
0
100
AcDbLine
 62
7
  6
BYLAYER
 10
12.0648379543
 20
68.7326353528
 11
12.0238590266
 21
68.8438126874
  0
LINE
  5
25D
100
AcDbEntity
  8
0
100
AcDbLine
 62
7
  6
BYLAYER
 10
22.1405890946
 20
26.4578699085
 11
22.1832596873
 21
26.2571205534
  0
LINE
  5
25E
100
AcDbEntity
  8
0
100
AcDbLine
 62
7
  6
BYLAYER
 10
21.4769085826
 20
76.8243884892
 11
21.4769085826
 21
77.3243884892
  0
LINE
  5
25F
100
AcDbEntity
  8
0
100
AcDbLine
 62
7
  6
BYLAYER
 10
21.8662208948
 20
77.3243884892
 11
21.8662208948
 21
76.8243884892
  0
LINE
  5
260
100
AcDbEntity
  8
0
100
AcDbLine
 62
7
  6
BYLAYER
 10
22.0238590266
 20
25.0269095413
 11
22.0238590266
 21
26.0977198927
  0
LINE
  5
261
100
AcDbEntity
  8
0
100
AcDbLine
 62
7
  6
BYLAYER
 10
22.0238590266
 20
27.3438126874
 11
22.0238590266
 21
28.4218674371
  0
LINE
  5
262
100
AcDbEntity
  8
0
100
AcDbLine
 62
7
  6
BYLAYER
 10
22.5565910908
 20
9.6243884892
 11
22.5565910908
 21
6.6243884892
  0
LINE
  5
263
100
AcDbEntity
  8
0
100
AcDbLine
 62
7
  6
BYLAYER
 10
23.3565910908
 20
11.6243884892
 11
23.3565910908
 21
13.3243884892
  0
LINE
  5
264
100
AcDbEntity
  8
0
100
AcDbLine
 62
7
  6
BYLAYER
 10
23.9032791593
 20
7.1243884892
 11
23.9032791593
 21
9.6243884892
  0
LINE
  5
265
100
AcDbEntity
  8
0
100
AcDbLine
 62
7
  6
BYLAYER
 10
24.1065910908
 20
9.6243884892
 11
24.1065910908
 21
11.6243884892
  0
LINE
  5
266
100
AcDbEntity
  8
0
100
AcDbLine
 62
7
  6
BYLAYER
 10
24.4315910908
 20
76.8243884892
 11
24.4315910908
 21
77.3243884892
  0
LINE
  5
267
100
AcDbEntity
  8
0
100
AcDbLine
 62
7
  6
BYLAYER
 10
54.9299224942
 20
68.691656425
 11
55.040216915
 21
68.740762665
  0
LINE
  5
268
100
AcDbEntity
  8
0
100
AcDbLine
 62
7
  6
BYLAYER
 10
56.0729652665
 20
67.7080143135
 11
56.1832596873
 21
67.7571205534
  0
LINE
  5
269
100
AcDbEntity
  8
0
100
AcDbLine
 62
7
  6
BYLAYER
 10
20.973005083
 20
26.4579757411
 11
20.9371668926
 21
26.2571205534
  0
LINE
  5
26A
100
AcDbEntity
  8
0
100
AcDbLine
 62
7
  6
BYLAYER
 10
22.1401770986
 20
26.9908012373
 11
22.176015289
 21
27.191656425
  0
LINE
  5
26B
100
AcDbEntity
  8
0
100
AcDbLine
 62
7
  6
BYLAYER
 10
27.9385398272
 20
14.3243884892
 11
27.9385398272
 21
22.7243884892
  0
LINE
  5
26C
100
AcDbEntity
  8
0
100
AcDbLine
 62
7
  6
BYLAYER
 10
28.7886418983
 20
76.8243884892
 11
28.7886418983
 21
77.3243884892
  0
LINE
  5
26D
100
AcDbEntity
  8
0
100
AcDbLine
 62
7
  6
BYLAYER
 10
21.040216915
 20
27.240762665
 11
21.089323155
 21
27.3510570857
  0
LINE
  5
26E
100
AcDbEntity
  8
0
100
AcDbLine
 62
7
  6
BYLAYER
 10
45.2000402608
 20
27.0809393191
 11
45.040216915
 21
27.240762665
  0
LINE
  5
26F
100
AcDbEntity
  8
0
100
AcDbLine
 62
7
  6
BYLAYER
 10
45.9131419207
 20
26.3678376593
 11
46.0729652665
 21
26.2080143135
  0
LINE
  5
270
100
AcDbEntity
  8
0
100
AcDbLine
 62
7
  6
BYLAYER
 10
32.2099030222
 20
9.6243884892
 11
32.2099030222
 21
7.1243884892
  0
LINE
  5
271
100
AcDbEntity
  8
0
100
AcDbLine
 62
7
  6
BYLAYER
 10
22.0238590266
 20
26.0977198927
 11
22.0729652665
 21
26.2080143135
  0
LINE
  5
272
100
AcDbEntity
  8
0
100
AcDbLine
 62
7
  6
BYLAYER
 10
55.2136443019
 20
67.8814417003
 11
55.0483442272
 21
67.7161416256
  0
LINE
  5
273
100
AcDbEntity
  8
0
100
AcDbLine
 62
7
  6
BYLAYER
 10
55.8995378796
 20
68.5673352781
 11
56.0648379543
 21
68.7326353528
  0
LINE
  5
274
100
AcDbEntity
  8
0
100
AcDbLine
 62
7
  6
BYLAYER
 10
11.9131419207
 20
67.8678376593
 11
12.0729652665
 21
67.7080143135
  0
LINE
  5
275
100
AcDbEntity
  8
0
100
AcDbLine
 62
7
  6
BYLAYER
 10
11.2000402608
 20
68.5809393191
 11
11.040216915
 21
68.740762665
  0
LINE
  5
276
100
AcDbEntity
  8
0
100
AcDbLine
 62
7
  6
BYLAYER
 10
34.9032791593
 20
7.1243884892
 11
34.9032791593
 21
9.6243884892
  0
LINE
  5
277
100
AcDbEntity
  8
0
100
AcDbLine
 62
7
  6
BYLAYER
 10
38.3245402832
 20
76.8243884892
 11
38.3245402832
 21
77.3243884892
  0
LINE
  5
278
100
AcDbEntity
  8
0
100
AcDbLine
 62
7
  6
BYLAYER
 10
39.1746423543
 20
22.7243884892
 11
39.1746423543
 21
14.3243884892
  0
LINE
  5
279
100
AcDbEntity
  8
0
100
AcDbLine
 62
7
  6
BYLAYER
 10
21.2136443019
 20
26.3814417003
 11
21.0483442272
 21
26.2161416256
  0
LINE
  5
27A
100
AcDbEntity
  8
0
100
AcDbLine
 62
7
  6
BYLAYER
 10
21.8995378796
 20
27.0673352781
 11
22.0648379543
 21
27.2326353528
  0
LINE
  5
27B
100
AcDbEntity
  8
0
100
AcDbLine
 62
7
  6
BYLAYER
 10
45.0483442272
 20
26.2161416256
 11
45.089323155
 21
26.104964291
  0
LINE
  5
27C
100
AcDbEntity
  8
0
100
AcDbLine
 62
7
  6
BYLAYER
 10
46.0648379543
 20
27.2326353528
 11
46.0238590266
 21
27.3438126874
  0
LINE
  5
27D
100
AcDbEntity
  8
0
100
AcDbLine
 62
7
  6
BYLAYER
 10
42.6815910908
 20
77.3243884892
 11
42.6815910908
 21
76.8243884892
  0
LINE
  5
27E
100
AcDbEntity
  8
0
100
AcDbLine
 62
7
  6
BYLAYER
 10
43.0065910908
 20
11.6243884892
 11
43.0065910908
 21
9.6243884892
  0
LINE
  5
27F
100
AcDbEntity
  8
0
100
AcDbLine
 62
7
  6
BYLAYER
 10
43.2099030222
 20
9.6243884892
 11
43.2099030222
 21
7.1243884892
  0
LINE
  5
280
100
AcDbEntity
  8
0
100
AcDbLine
 62
7
  6
BYLAYER
 10
44.9725930869
 20
26.9909070699
 11
44.9299224942
 21
27.191656425
  0
LINE
  5
281
100
AcDbEntity
  8
0
100
AcDbLine
 62
7
  6
BYLAYER
 10
46.1405890946
 20
26.4578699085
 11
46.1832596873
 21
26.2571205534
  0
LINE
  5
282
100
AcDbEntity
  8
0
100
AcDbLine
 62
7
  6
BYLAYER
 10
43.7565910908
 20
13.3243884892
 11
43.7565910908
 21
11.6243884892
  0
LINE
  5
283
100
AcDbEntity
  8
0
100
AcDbLine
 62
7
  6
BYLAYER
 10
44.5565910908
 20
6.6243884892
 11
44.5565910908
 21
9.6243884892
  0
LINE
  5
284
100
AcDbEntity
  8
0
100
AcDbLine
 62
7
  6
BYLAYER
 10
45.089323155
 20
28.4218674371
 11
45.089323155
 21
27.3510570857
  0
LINE
  5
285
100
AcDbEntity
  8
0
100
AcDbLine
 62
7
  6
BYLAYER
 10
45.089323155
 20
26.104964291
 11
45.089323155
 21
25.0269095413
  0
LINE
  5
286
100
AcDbEntity
  8
0
100
AcDbLine
 62
7
  6
BYLAYER
 10
45.2469612868
 20
76.8243884892
 11
45.2469612868
 21
77.3243884892
  0
LINE
  5
287
100
AcDbEntity
  8
0
100
AcDbLine
 62
7
  6
BYLAYER
 10
45.6362735989
 20
76.8243884892
 11
45.6362735989
 21
77.3243884892
  0
LINE
  5
288
100
AcDbEntity
  8
0
100
AcDbLine
 62
7
  6
BYLAYER
 10
46.0238590266
 20
25.0269095413
 11
46.0238590266
 21
26.0977198927
  0
LINE
  5
289
100
AcDbEntity
  8
0
100
AcDbLine
 62
7
  6
BYLAYER
 10
46.0238590266
 20
27.3438126874
 11
46.0238590266
 21
28.4218674371
  0
LINE
  5
28A
100
AcDbEntity
  8
0
100
AcDbLine
 62
7
  6
BYLAYER
 10
55.040216915
 20
68.740762665
 11
55.089323155
 21
68.8510570857
  0
LINE
  5
28B
100
AcDbEntity
  8
0
100
AcDbLine
 62
7
  6
BYLAYER
 10
56.0238590266
 20
67.5977198927
 11
56.0729652665
 21
67.7080143135
  0
LINE
  5
28C
100
AcDbEntity
  8
0
100
AcDbLine
 62
7
  6
BYLAYER
 10
20.9299224942
 20
27.191656425
 11
21.040216915
 21
27.240762665
  0
LINE
  5
28D
100
AcDbEntity
  8
0
100
AcDbLine
 62
7
  6
BYLAYER
 10
10.9371668926
 20
67.7571205534
 11
11.0483442272
 21
67.7161416256
  0
LINE
  5
28E
100
AcDbEntity
  8
0
100
AcDbLine
 62
7
  6
BYLAYER
 10
46.5565910908
 20
84.8864058565
 11
46.5565910908
 21
78.2864058565
  0
LINE
  5
28F
100
AcDbEntity
  8
0
100
AcDbLine
 62
7
  6
BYLAYER
 10
46.8065910908
 20
14.3243884892
 11
46.8065910908
 21
22.7243884892
  0
LINE
  5
290
100
AcDbEntity
  8
0
100
AcDbLine
 62
7
  6
BYLAYER
 10
47.0565910908
 20
85.3243884892
 11
47.0565910908
 21
78.2243884892
  0
LINE
  5
291
100
AcDbEntity
  8
0
100
AcDbLine
 62
7
  6
BYLAYER
 10
48.8065910908
 20
64.2243884892
 11
48.8065910908
 21
33.7243884892
  0
LINE
  5
292
100
AcDbEntity
  8
0
100
AcDbLine
 62
7
  6
BYLAYER
 10
44.973005083
 20
26.4579757411
 11
44.9371668926
 21
26.2571205534
  0
LINE
  5
293
100
AcDbEntity
  8
0
100
AcDbLine
 62
7
  6
BYLAYER
 10
46.1401770986
 20
26.9908012373
 11
46.176015289
 21
27.191656425
  0
LINE
  5
294
100
AcDbEntity
  8
0
100
AcDbLine
 62
7
  6
BYLAYER
 10
22.0729652665
 20
26.2080143135
 11
22.1832596873
 21
26.2571205534
  0
LINE
  5
295
100
AcDbEntity
  8
0
100
AcDbLine
 62
7
  6
BYLAYER
 10
12.176015289
 20
68.691656425
 11
12.0648379543
 21
68.7326353528
  0
LINE
  5
296
100
AcDbEntity
  8
0
100
AcDbLine
 62
7
  6
BYLAYER
 10
50.8065910908
 20
31.7243884892
 11
50.8065910908
 21
66.2243884892
  0
LINE
  5
297
100
AcDbEntity
  8
0
100
AcDbLine
 62
7
  6
BYLAYER
 10
54.973005083
 20
67.9579757411
 11
54.9371668926
 21
67.7571205534
  0
LINE
  5
298
100
AcDbEntity
  8
0
100
AcDbLine
 62
7
  6
BYLAYER
 10
56.1401770986
 20
68.4908012373
 11
56.176015289
 21
68.691656425
  0
LINE
  5
299
100
AcDbEntity
  8
0
100
AcDbLine
 62
7
  6
BYLAYER
 10
45.040216915
 20
27.240762665
 11
45.089323155
 21
27.3510570857
  0
LINE
  5
29A
100
AcDbEntity
  8
0
100
AcDbLine
 62
7
  6
BYLAYER
 10
55.2901717475
 20
67.6408013046
 11
55.089323155
 21
67.604964291
  0
LINE
  5
29B
100
AcDbEntity
  8
0
100
AcDbLine
 62
7
  6
BYLAYER
 10
55.823010434
 20
68.8079756738
 11
56.0238590266
 21
68.8438126874
  0
LINE
  5
29C
100
AcDbEntity
  8
0
100
AcDbLine
 62
7
  6
BYLAYER
 10
18.3065910908
 20
64.2243884892
 11
48.8065910908
 21
64.2243884892
  0
LINE
  5
29D
100
AcDbEntity
  8
0
100
AcDbLine
 62
7
  6
BYLAYER
 10
11.8231075482
 20
67.6403909367
 11
12.0238590266
 21
67.5977198927
  0
LINE
  5
29E
100
AcDbEntity
  8
0
100
AcDbLine
 62
7
  6
BYLAYER
 10
11.2900746334
 20
68.8083860417
 11
11.089323155
 21
68.8510570857
  0
LINE
  5
29F
100
AcDbEntity
  8
0
100
AcDbLine
 62
7
  6
BYLAYER
 10
55.089323155
 20
69.9218674371
 11
55.089323155
 21
68.8510570857
  0
LINE
  5
2A0
100
AcDbEntity
  8
0
100
AcDbLine
 62
7
  6
BYLAYER
 10
55.089323155
 20
67.604964291
 11
55.089323155
 21
66.5269095413
  0
LINE
  5
2A1
100
AcDbEntity
  8
0
100
AcDbLine
 62
7
  6
BYLAYER
 10
46.0238590266
 20
26.0977198927
 11
46.0729652665
 21
26.2080143135
  0
LINE
  5
2A2
100
AcDbEntity
  8
0
100
AcDbLine
 62
7
  6
BYLAYER
 10
45.2136443019
 20
26.3814417003
 11
45.0483442272
 21
26.2161416256
  0
LINE
  5
2A3
100
AcDbEntity
  8
0
100
AcDbLine
 62
7
  6
BYLAYER
 10
45.8995378796
 20
27.0673352781
 11
46.0648379543
 21
27.2326353528
  0
LINE
  5
2A4
100
AcDbEntity
  8
0
100
AcDbLine
 62
7
  6
BYLAYER
 10
44.9299224942
 20
27.191656425
 11
45.040216915
 21
27.240762665
  0
LINE
  5
2A5
100
AcDbEntity
  8
0
100
AcDbLine
 62
7
  6
BYLAYER
 10
50.8065910908
 20
66.2243884892
 11
16.3065910908
 21
66.2243884892
  0
LINE
  5
2A6
100
AcDbEntity
  8
0
100
AcDbLine
 62
7
  6
BYLAYER
 10
58.0635393605
 20
67.7571205534
 11
56.1832596873
 21
67.7571205534
  0
LINE
  5
2A7
100
AcDbEntity
  8
0
100
AcDbLine
 62
7
  6
BYLAYER
 10
54.9371668926
 20
67.7571205534
 11
53.049642821
 21
67.7571205534
  0
LINE
  5
2A8
100
AcDbEntity
  8
0
100
AcDbLine
 62
7
  6
BYLAYER
 10
14.0635393605
 20
67.7571205534
 11
12.1832596873
 21
67.7571205534
  0
LINE
  5
2A9
100
AcDbEntity
  8
0
100
AcDbLine
 62
7
  6
BYLAYER
 10
10.9371668926
 20
67.7571205534
 11
9.049642821
 21
67.7571205534
  0
LINE
  5
2AA
100
AcDbEntity
  8
0
100
AcDbLine
 62
7
  6
BYLAYER
 10
58.4331782718
 20
67.8614874302
 11
56.5204106301
 21
67.8614874302
  0
LINE
  5
2AB
100
AcDbEntity
  8
0
100
AcDbLine
 62
7
  6
BYLAYER
 10
54.592735573
 20
67.8614874302
 11
52.6800039097
 21
67.8614874302
  0
LINE
  5
2AC
100
AcDbEntity
  8
0
100
AcDbLine
 62
7
  6
BYLAYER
 10
14.4331782718
 20
67.8614874302
 11
12.5204106301
 21
67.8614874302
  0
LINE
  5
2AD
100
AcDbEntity
  8
0
100
AcDbLine
 62
7
  6
BYLAYER
 10
10.592735573
 20
67.8614874302
 11
8.6800039097
 21
67.8614874302
  0
LINE
  5
2AE
100
AcDbEntity
  8
0
100
AcDbLine
 62
7
  6
BYLAYER
 10
56.0238590266
 20
66.5269095413
 11
56.0238590266
 21
67.5977198927
  0
LINE
  5
2AF
100
AcDbEntity
  8
0
100
AcDbLine
 62
7
  6
BYLAYER
 10
56.0238590266
 20
68.8438126874
 11
56.0238590266
 21
69.9218674371
  0
LINE
  5
2B0
100
AcDbEntity
  8
0
100
AcDbLine
 62
7
  6
BYLAYER
 10
46.0729652665
 20
26.2080143135
 11
46.1832596873
 21
26.2571205534
  0
LINE
  5
2B1
100
AcDbEntity
  8
0
100
AcDbLine
 62
7
  6
BYLAYER
 10
11.2901717475
 20
67.6408013046
 11
11.089323155
 21
67.604964291
  0
LINE
  5
2B2
100
AcDbEntity
  8
0
100
AcDbLine
 62
7
  6
BYLAYER
 10
8.6800039097
 20
68.5872895482
 11
10.5927715515
 21
68.5872895482
  0
LINE
  5
2B3
100
AcDbEntity
  8
0
100
AcDbLine
 62
7
  6
BYLAYER
 10
12.5204466086
 20
68.5872895482
 11
14.4331782718
 21
68.5872895482
  0
LINE
  5
2B4
100
AcDbEntity
  8
0
100
AcDbLine
 62
7
  6
BYLAYER
 10
52.6800039097
 20
68.5872895482
 11
54.5927715515
 21
68.5872895482
  0
LINE
  5
2B5
100
AcDbEntity
  8
0
100
AcDbLine
 62
7
  6
BYLAYER
 10
56.5204466086
 20
68.5872895482
 11
58.4331782718
 21
68.5872895482
  0
LINE
  5
2B6
100
AcDbEntity
  8
0
100
AcDbLine
 62
7
  6
BYLAYER
 10
9.049642821
 20
68.691656425
 11
10.9299224942
 21
68.691656425
  0
LINE
  5
2B7
100
AcDbEntity
  8
0
100
AcDbLine
 62
7
  6
BYLAYER
 10
12.176015289
 20
68.691656425
 11
14.0635393605
 21
68.691656425
  0
LINE
  5
2B8
100
AcDbEntity
  8
0
100
AcDbLine
 62
7
  6
BYLAYER
 10
53.049642821
 20
68.691656425
 11
54.9299224942
 21
68.691656425
  0
LINE
  5
2B9
100
AcDbEntity
  8
0
100
AcDbLine
 62
7
  6
BYLAYER
 10
56.176015289
 20
68.691656425
 11
58.0635393605
 21
68.691656425
  0
LINE
  5
2BA
100
AcDbEntity
  8
0
100
AcDbLine
 62
7
  6
BYLAYER
 10
59.5565910908
 20
27.7243884892
 11
59.5565910908
 21
81.2243884892
  0
LINE
  5
2BB
100
AcDbEntity
  8
0
100
AcDbLine
 62
7
  6
BYLAYER
 10
11.823010434
 20
68.8079756738
 11
12.0238590266
 21
68.8438126874
  0
LINE
  5
2BC
100
AcDbEntity
  8
0
100
AcDbLine
 62
7
  6
BYLAYER
 10
11.5565910908
 20
72.2243884892
 11
14.0565910908
 21
72.2243884892
  0
LINE
  5
2BD
100
AcDbEntity
  8
0
100
AcDbLine
 62
7
  6
BYLAYER
 10
53.0565910908
 20
72.2243884892
 11
55.5565910908
 21
72.2243884892
  0
LINE
  5
2BE
100
AcDbEntity
  8
0
100
AcDbLine
 62
7
  6
BYLAYER
 10
55.8231075482
 20
67.6403909367
 11
56.0238590266
 21
67.5977198927
  0
LINE
  5
2BF
100
AcDbEntity
  8
0
100
AcDbLine
 62
7
  6
BYLAYER
 10
55.2900746334
 20
68.8083860417
 11
55.089323155
 21
68.8510570857
  0
LINE
  5
2C0
100
AcDbEntity
  8
0
100
AcDbLine
 62
7
  6
BYLAYER
 10
54.9371668926
 20
67.7571205534
 11
55.0483442272
 21
67.7161416256
  0
LINE
  5
2C1
100
AcDbEntity
  8
0
100
AcDbLine
 62
7
  6
BYLAYER
 10
55.0483442272
 20
67.7161416256
 11
55.089323155
 21
67.604964291
  0
LINE
  5
2C2
100
AcDbEntity
  8
0
100
AcDbLine
 62
7
  6
BYLAYER
 10
54.9725930869
 20
68.4909070699
 11
54.9299224942
 21
68.691656425
  0
LINE
  5
2C3
100
AcDbEntity
  8
0
100
AcDbLine
 62
7
  6
BYLAYER
 10
56.1405890946
 20
67.9578699085
 11
56.1832596873
 21
67.7571205534
  0
LINE
  5
2C4
100
AcDbEntity
  8
0
100
AcDbLine
 62
7
  6
BYLAYER
 10
21.2981378869
 20
76.8243884892
 11
45.8150442947
 21
76.8243884892
  0
LINE
  5
2C5
100
AcDbEntity
  8
0
100
AcDbLine
 62
7
  6
BYLAYER
 10
19.9887070708
 20
77.3243884892
 11
47.1244751108
 21
77.3243884892
  0
LINE
  5
2C6
100
AcDbEntity
  8
0
100
AcDbLine
 62
7
  6
BYLAYER
 10
11.3683967892
 20
77.5243884892
 11
14.7447853924
 21
77.5243884892
  0
LINE
  5
2C7
100
AcDbEntity
  8
0
100
AcDbLine
 62
7
  6
BYLAYER
 10
52.3683967892
 20
77.5243884892
 11
55.7447853924
 21
77.5243884892
  0
LINE
  5
2C8
100
AcDbEntity
  8
0
100
AcDbLine
 62
7
  6
BYLAYER
 10
56.176015289
 20
68.691656425
 11
56.0648379543
 21
68.7326353528
  0
LINE
  5
2C9
100
AcDbEntity
  8
0
100
AcDbLine
 62
7
  6
BYLAYER
 10
55.2000402608
 20
68.5809393191
 11
55.040216915
 21
68.740762665
  0
LINE
  5
2CA
100
AcDbEntity
  8
0
100
AcDbLine
 62
7
  6
BYLAYER
 10
55.9131419207
 20
67.8678376593
 11
56.0729652665
 21
67.7080143135
  0
LINE
  5
2CB
100
AcDbEntity
  8
0
100
AcDbLine
 62
7
  6
BYLAYER
 10
56.0648379543
 20
68.7326353528
 11
56.0238590266
 21
68.8438126874
  0
LINE
  5
2CC
100
AcDbEntity
  8
0
100
AcDbLine
 62
7
  6
BYLAYER
 10
20.5442720017
 20
77.8864058708
 11
46.5689101346
 21
77.8864058687
  0
LINE
  5
2CD
100
AcDbEntity
  8
0
100
AcDbLine
 62
7
  6
BYLAYER
 10
55.7447853924
 20
82.7243884892
 11
52.3683967892
 21
82.7243884892
  0
LINE
  5
2CE
100
AcDbEntity
  8
0
100
AcDbLine
 62
7
  6
BYLAYER
 10
14.7447853924
 20
82.7243884892
 11
11.3683967892
 21
82.7243884892
  0
LINE
  5
2CF
100
AcDbEntity
  8
0
100
AcDbLine
 62
7
  6
BYLAYER
 10
20.5565910908
 20
84.8864058565
 11
46.5565910908
 21
84.8864058565
  0
LINE
  5
2D0
100
AcDbEntity
  8
0
100
AcDbLine
 62
7
  6
BYLAYER
 10
11.5565910908
 20
85.2243884892
 11
20.0565910908
 21
85.2243884892
  0
LINE
  5
2D1
100
AcDbEntity
  8
0
100
AcDbLine
 62
7
  6
BYLAYER
 10
47.0565910908
 20
85.2243884892
 11
55.5565910908
 21
85.2243884892
  0
LINE
  5
2D2
100
AcDbEntity
  8
0
100
AcDbLine
 62
7
  6
BYLAYER
 10
47.0527300291
 20
85.3243884892
 11
20.0604521524
 21
85.3243884892
  0
ARC
  5
2D3
100
AcDbEntity
  8
0
100
AcDbCircle
 62
7
  6
BYLAYER
 10
-174.7959158848
 20
10.6358847192
 40
237.3259424135
100
AcDbArc
 50
14.1887178613
 51
14.3518496499
  0
ARC
  5
2D4
100
AcDbEntity
  8
0
100
AcDbCircle
 62
7
  6
BYLAYER
 10
-208.7959158715
 20
-30.8641152775
 40
237.3259423998
100
AcDbArc
 50
14.1887178613
 51
14.3518496499
  0
ARC
  5
2D5
100
AcDbEntity
  8
0
100
AcDbCircle
 62
7
  6
BYLAYER
 10
-184.7959158693
 20
-30.8641152769
 40
237.3259423975
100
AcDbArc
 50
14.1887178613
 51
14.3518496499
  0
ARC
  5
2D6
100
AcDbEntity
  8
0
100
AcDbCircle
 62
7
  6
BYLAYER
 10
-218.7959158675
 20
10.6358847235
 40
237.3259423957
100
AcDbArc
 50
14.1887178613
 51
14.3518496499
  0
ARC
  5
2D7
100
AcDbEntity
  8
0
100
AcDbCircle
 62
7
  6
BYLAYER
 10
22.9749840692
 20
-63.5368606149
 40
135.6127630872
100
AcDbArc
 50
75.6785440677
 51
75.8441030541
  0
ARC
  5
2D8
100
AcDbEntity
  8
0
100
AcDbCircle
 62
7
  6
BYLAYER
 10
-21.0250159302
 20
-63.5368606126
 40
135.6127630847
100
AcDbArc
 50
75.6785440677
 51
75.8441030541
  0
ARC
  5
2D9
100
AcDbEntity
  8
0
100
AcDbCircle
 62
7
  6
BYLAYER
 10
-11.0250152669
 20
-105.0368579983
 40
135.6127603876
100
AcDbArc
 50
75.6785440661
 51
75.8441030557
  0
ARC
  5
2DA
100
AcDbEntity
  8
0
100
AcDbCircle
 62
7
  6
BYLAYER
 10
12.9749847352
 20
-105.0368579898
 40
135.6127603789
100
AcDbArc
 50
75.678544066
 51
75.8441030557
  0
ARC
  5
2DB
100
AcDbEntity
  8
0
100
AcDbCircle
 62
7
  6
BYLAYER
 10
11.5565910908
 20
27.7243884892
 40
4.0
100
AcDbArc
 50
180.0
 51
270.0
  0
CIRCLE
  5
2DC
100
AcDbEntity
  8
0
100
AcDbCircle
 62
7
  6
BYLAYER
 10
21.5565910908
 20
26.7243884892
 40
3.0
  0
ARC
  5
2DD
100
AcDbEntity
  8
0
100
AcDbCircle
 62
7
  6
BYLAYER
 10
21.5565910908
 20
26.7243884892
 40
2.8993880369
100
AcDbArc
 50
172.8097324032
 51
187.1902675968
  0
ARC
  5
2DE
100
AcDbEntity
  8
0
100
AcDbCircle
 62
7
  6
BYLAYER
 10
21.5565910908
 20
26.7243884892
 40
2.8993880369
100
AcDbArc
 50
352.8097324032
 51
7.1902675968
  0
ARC
  5
2DF
100
AcDbEntity
  8
0
100
AcDbCircle
 62
7
  6
BYLAYER
 10
21.5565910908
 20
26.7243884892
 40
2.8489817302
100
AcDbArc
 50
8.7550103386
 51
171.2449896614
  0
ARC
  5
2E0
100
AcDbEntity
  8
0
100
AcDbCircle
 62
7
  6
BYLAYER
 10
21.5565910908
 20
26.7243884892
 40
2.8489817302
100
AcDbArc
 50
188.7550103386
 51
351.2449896614
  0
ARC
  5
2E1
100
AcDbEntity
  8
0
100
AcDbCircle
 62
7
  6
BYLAYER
 10
21.5565910908
 20
26.7243884892
 40
2.5501233207
100
AcDbArc
 50
190.5581570357
 51
349.4418429643
  0
ARC
  5
2E2
100
AcDbEntity
  8
0
100
AcDbCircle
 62
7
  6
BYLAYER
 10
21.5565910908
 20
26.7243884892
 40
2.5501233207
100
AcDbArc
 50
10.5581570357
 51
169.4418429643
  0
ARC
  5
2E3
100
AcDbEntity
  8
0
100
AcDbCircle
 62
7
  6
BYLAYER
 10
21.5565910908
 20
26.7243884892
 40
1.7606175344
100
AcDbArc
 50
74.6092763651
 51
105.3907236349
  0
ARC
  5
2E4
100
AcDbEntity
  8
0
100
AcDbCircle
 62
7
  6
BYLAYER
 10
21.5565910908
 20
26.7243884892
 40
1.7606175344
100
AcDbArc
 50
254.6092763651
 51
285.3907236349
  0
ARC
  5
2E5
100
AcDbEntity
  8
0
100
AcDbCircle
 62
7
  6
BYLAYER
 10
21.5565910908
 20
26.7243884892
 40
1.3123743192
100
AcDbArc
 50
70.7303350158
 51
109.2684647375
  0
ARC
  5
2E6
100
AcDbEntity
  8
0
100
AcDbCircle
 62
7
  6
BYLAYER
 10
21.5565910908
 20
26.7243884892
 40
1.3123743192
100
AcDbArc
 50
250.7303350176
 51
289.2684647375
  0
ARC
  5
2E7
100
AcDbEntity
  8
0
100
AcDbCircle
 62
7
  6
BYLAYER
 10
21.5565910908
 20
26.7243884892
 40
1.0299038341
100
AcDbArc
 50
159.3680222874
 51
200.6319777126
  0
ARC
  5
2E8
100
AcDbEntity
  8
0
100
AcDbCircle
 62
7
  6
BYLAYER
 10
21.5565910908
 20
26.7243884892
 40
1.0299038341
100
AcDbArc
 50
339.3680222874
 51
20.6319777126
  0
ARC
  5
2E9
100
AcDbEntity
  8
0
100
AcDbCircle
 62
7
  6
BYLAYER
 10
19.3065910908
 20
22.7243884892
 40
1.0
100
AcDbArc
 50
0.0
 51
90.0
  0
ARC
  5
2EA
100
AcDbEntity
  8
0
100
AcDbCircle
 62
7
  6
BYLAYER
 10
21.3065910908
 20
14.3243884892
 40
1.0
100
AcDbArc
 50
180.0
 51
270.0
  0
ARC
  5
2EB
100
AcDbEntity
  8
0
100
AcDbCircle
 62
7
  6
BYLAYER
 10
21.5565910908
 20
26.7243884892
 40
0.635
100
AcDbArc
 50
245.0838345996
 51
295.0060406168
  0
ARC
  5
2EC
100
AcDbEntity
  8
0
100
AcDbCircle
 62
7
  6
BYLAYER
 10
21.5565910908
 20
26.7243884892
 40
0.635
100
AcDbArc
 50
334.9939604507
 51
24.9161654004
  0
ARC
  5
2ED
100
AcDbEntity
  8
0
100
AcDbCircle
 62
7
  6
BYLAYER
 10
21.5565910908
 20
26.7243884892
 40
0.635
100
AcDbArc
 50
65.0838345996
 51
115.0060395494
  0
ARC
  5
2EE
100
AcDbEntity
  8
0
100
AcDbCircle
 62
7
  6
BYLAYER
 10
21.5565910908
 20
26.7243884892
 40
0.635
100
AcDbArc
 50
154.9939593832
 51
204.9161654004
  0
ARC
  5
2EF
100
AcDbEntity
  8
0
100
AcDbCircle
 62
7
  6
BYLAYER
 10
-126.7586566383
 20
113.5993774872
 40
187.7603968929
100
AcDbArc
 50
345.6254004267
 51
345.8316121627
  0
ARC
  5
2F0
100
AcDbEntity
  8
0
100
AcDbCircle
 62
7
  6
BYLAYER
 10
-170.7586566286
 20
113.5993774848
 40
187.760396883
100
AcDbArc
 50
345.6254004267
 51
345.8316121627
  0
ARC
  5
2F1
100
AcDbEntity
  8
0
100
AcDbCircle
 62
7
  6
BYLAYER
 10
-160.7586551134
 20
72.0993770995
 40
187.7603953195
100
AcDbArc
 50
345.6254004258
 51
345.8316121635
  0
ARC
  5
2F2
100
AcDbEntity
  8
0
100
AcDbCircle
 62
7
  6
BYLAYER
 10
-136.758655105
 20
72.0993770973
 40
187.7603953108
100
AcDbArc
 50
345.6254004258
 51
345.8316121635
  0
ARC
  5
2F3
100
AcDbEntity
  8
0
100
AcDbCircle
 62
7
  6
BYLAYER
 10
14.0545486906
 20
78.2864642698
 40
6.5020424004
100
AcDbArc
 50
356.4724707164
 51
359.9994852638
  0
ARC
  5
2F4
100
AcDbEntity
  8
0
100
AcDbCircle
 62
7
  6
BYLAYER
 10
14.0565910908
 20
78.2243884892
 40
6.0
100
AcDbArc
 50
270.0
 51
360.0
  0
ARC
  5
2F5
100
AcDbEntity
  8
0
100
AcDbCircle
 62
7
  6
BYLAYER
 10
11.5565910908
 20
68.2243884892
 40
4.0
100
AcDbArc
 50
90.0
 51
180.0
  0
ARC
  5
2F6
100
AcDbEntity
  8
0
100
AcDbCircle
 62
7
  6
BYLAYER
 10
11.5565910908
 20
81.2243884892
 40
4.0
100
AcDbArc
 50
90.0
 51
180.0
  0
ARC
  5
2F7
100
AcDbEntity
  8
0
100
AcDbCircle
 62
7
  6
BYLAYER
 10
13.0565910908
 20
80.1243884892
 40
3.1
100
AcDbArc
 50
302.9958854736
 51
57.0041145264
  0
ARC
  5
2F8
100
AcDbEntity
  8
0
100
AcDbCircle
 62
7
  6
BYLAYER
 10
13.0565910908
 20
80.1243884892
 40
3.1
100
AcDbArc
 50
122.9958854736
 51
237.0041145264
  0
CIRCLE
  5
2F9
100
AcDbEntity
  8
0
100
AcDbCircle
 62
7
  6
BYLAYER
 10
11.5565910908
 20
68.2243884892
 40
3.0
  0
ARC
  5
2FA
100
AcDbEntity
  8
0
100
AcDbCircle
 62
7
  6
BYLAYER
 10
11.5565910908
 20
68.2243884892
 40
2.8993880369
100
AcDbArc
 50
172.8097324032
 51
187.1902675968
  0
ARC
  5
2FB
100
AcDbEntity
  8
0
100
AcDbCircle
 62
7
  6
BYLAYER
 10
11.5565910908
 20
68.2243884892
 40
2.8993880369
100
AcDbArc
 50
352.8097324032
 51
7.1902675968
  0
ARC
  5
2FC
100
AcDbEntity
  8
0
100
AcDbCircle
 62
7
  6
BYLAYER
 10
11.5565910908
 20
68.2243884892
 40
2.8489817302
100
AcDbArc
 50
8.7550103386
 51
171.2449896614
  0
ARC
  5
2FD
100
AcDbEntity
  8
0
100
AcDbCircle
 62
7
  6
BYLAYER
 10
11.5565910908
 20
68.2243884892
 40
2.8489817302
100
AcDbArc
 50
188.7550103386
 51
351.2449896614
  0
ARC
  5
2FE
100
AcDbEntity
  8
0
100
AcDbCircle
 62
7
  6
BYLAYER
 10
11.5565910908
 20
68.2243884892
 40
2.5501233207
100
AcDbArc
 50
190.5581570357
 51
349.4418429643
  0
ARC
  5
2FF
100
AcDbEntity
  8
0
100
AcDbCircle
 62
7
  6
BYLAYER
 10
11.5565910908
 20
68.2243884892
 40
2.5501233207
100
AcDbArc
 50
10.5581570357
 51
169.4418429643
  0
ARC
  5
300
100
AcDbEntity
  8
0
100
AcDbCircle
 62
7
  6
BYLAYER
 10
21.2981378869
 20
74.8243884892
 40
2.0
100
AcDbArc
 50
90.0
 51
154.8493365838
  0
ARC
  5
301
100
AcDbEntity
  8
0
100
AcDbCircle
 62
7
  6
BYLAYER
 10
11.5565910908
 20
68.2243884892
 40
1.7606175344
100
AcDbArc
 50
74.6092763651
 51
105.3907236349
  0
ARC
  5
302
100
AcDbEntity
  8
0
100
AcDbCircle
 62
7
  6
BYLAYER
 10
11.5565910908
 20
68.2243884892
 40
1.7606175344
100
AcDbArc
 50
254.6092763651
 51
285.3907236349
  0
ARC
  5
303
100
AcDbEntity
  8
0
100
AcDbCircle
 62
7
  6
BYLAYER
 10
11.5565910908
 20
68.2243884892
 40
1.3123743192
100
AcDbArc
 50
70.7303350173
 51
109.2684647375
  0
ARC
  5
304
100
AcDbEntity
  8
0
100
AcDbCircle
 62
7
  6
BYLAYER
 10
11.5565910908
 20
68.2243884892
 40
1.3123743192
100
AcDbArc
 50
250.7303350178
 51
289.2684647375
  0
ARC
  5
305
100
AcDbEntity
  8
0
100
AcDbCircle
 62
7
  6
BYLAYER
 10
11.5565910908
 20
68.2243884892
 40
1.0299038341
100
AcDbArc
 50
159.3680222874
 51
200.6319777126
  0
ARC
  5
306
100
AcDbEntity
  8
0
100
AcDbCircle
 62
7
  6
BYLAYER
 10
11.5565910908
 20
68.2243884892
 40
1.0299038341
100
AcDbArc
 50
339.3680222874
 51
20.6319777126
  0
ARC
  5
307
100
AcDbEntity
  8
0
100
AcDbCircle
 62
7
  6
BYLAYER
 10
11.5565910908
 20
68.2243884892
 40
0.635
100
AcDbArc
 50
245.0838345996
 51
295.0060406168
  0
ARC
  5
308
100
AcDbEntity
  8
0
100
AcDbCircle
 62
7
  6
BYLAYER
 10
11.5565910908
 20
68.2243884892
 40
0.635
100
AcDbArc
 50
334.9939604507
 51
24.9161654004
  0
ARC
  5
309
100
AcDbEntity
  8
0
100
AcDbCircle
 62
7
  6
BYLAYER
 10
11.5565910908
 20
68.2243884892
 40
0.635
100
AcDbArc
 50
65.0838345996
 51
115.0060395494
  0
ARC
  5
30A
100
AcDbEntity
  8
0
100
AcDbCircle
 62
7
  6
BYLAYER
 10
11.5565910908
 20
68.2243884892
 40
0.635
100
AcDbArc
 50
154.9939593832
 51
204.9161654004
  0
ARC
  5
30B
100
AcDbEntity
  8
0
100
AcDbCircle
 62
7
  6
BYLAYER
 10
11.9088065859
 20
243.5950602675
 40
180.6043140062
100
AcDbArc
 50
284.1763732594
 51
284.3008357495
  0
ARC
  5
30C
100
AcDbEntity
  8
0
100
AcDbCircle
 62
7
  6
BYLAYER
 10
-32.0911934132
 20
243.5950602642
 40
180.6043140027
100
AcDbArc
 50
284.1763732594
 51
284.3008357495
  0
ARC
  5
30D
100
AcDbEntity
  8
0
100
AcDbCircle
 62
7
  6
BYLAYER
 10
1.9088126753
 20
202.0950362691
 40
180.6042892472
100
AcDbArc
 50
284.176373251
 51
284.3008357581
  0
ARC
  5
30E
100
AcDbEntity
  8
0
100
AcDbCircle
 62
7
  6
BYLAYER
 10
-22.0911873239
 20
202.0950362658
 40
180.6042892439
100
AcDbArc
 50
284.176373251
 51
284.3008357581
  0
ARC
  5
30F
100
AcDbEntity
  8
0
100
AcDbCircle
 62
7
  6
BYLAYER
 10
237.8718348384
 20
22.8494005037
 40
187.7603927848
100
AcDbArc
 50
165.6254004244
 51
165.8316121649
  0
ARC
  5
310
100
AcDbEntity
  8
0
100
AcDbCircle
 62
7
  6
BYLAYER
 10
193.8718348251
 20
22.849400507
 40
187.7603927711
100
AcDbArc
 50
165.6254004244
 51
165.8316121649
  0
ARC
  5
311
100
AcDbEntity
  8
0
100
AcDbCircle
 62
7
  6
BYLAYER
 10
227.8718215137
 20
-18.6505961078
 40
187.7603790359
100
AcDbArc
 50
165.6254004168
 51
165.8316121722
  0
ARC
  5
312
100
AcDbEntity
  8
0
100
AcDbCircle
 62
7
  6
BYLAYER
 10
203.8718215004
 20
-18.6505961044
 40
187.7603790222
100
AcDbArc
 50
165.6254004168
 51
165.8316121722
  0
ARC
  5
313
100
AcDbEntity
  8
0
100
AcDbCircle
 62
7
  6
BYLAYER
 10
89.2043695084
 20
-148.6462592992
 40
180.6042892561
100
AcDbArc
 50
104.176373251
 51
104.3008357581
  0
ARC
  5
314
100
AcDbEntity
  8
0
100
AcDbCircle
 62
7
  6
BYLAYER
 10
65.2043695068
 20
-148.6462592926
 40
180.6042892492
100
AcDbArc
 50
104.176373251
 51
104.3008357581
  0
ARC
  5
315
100
AcDbEntity
  8
0
100
AcDbCircle
 62
7
  6
BYLAYER
 10
99.2043695059
 20
-107.1462592891
 40
180.6042892456
100
AcDbArc
 50
104.176373251
 51
104.3008357581
  0
ARC
  5
316
100
AcDbEntity
  8
0
100
AcDbCircle
 62
7
  6
BYLAYER
 10
55.2043694987
 20
-107.1462592609
 40
180.6042892165
100
AcDbArc
 50
104.176373251
 51
104.3008357581
  0
ARC
  5
317
100
AcDbEntity
  8
0
100
AcDbCircle
 62
7
  6
BYLAYER
 10
55.5565910908
 20
27.7243884892
 40
4.0
100
AcDbArc
 50
270.0
 51
360.0
  0
CIRCLE
  5
318
100
AcDbEntity
  8
0
100
AcDbCircle
 62
7
  6
BYLAYER
 10
45.5565910908
 20
26.7243884892
 40
3.0
  0
ARC
  5
319
100
AcDbEntity
  8
0
100
AcDbCircle
 62
7
  6
BYLAYER
 10
45.5565910908
 20
26.7243884892
 40
2.8993880369
100
AcDbArc
 50
172.8097324032
 51
187.1902675968
  0
ARC
  5
31A
100
AcDbEntity
  8
0
100
AcDbCircle
 62
7
  6
BYLAYER
 10
45.5565910908
 20
26.7243884892
 40
2.8993880369
100
AcDbArc
 50
352.8097324032
 51
7.1902675968
  0
ARC
  5
31B
100
AcDbEntity
  8
0
100
AcDbCircle
 62
7
  6
BYLAYER
 10
45.5565910908
 20
26.7243884892
 40
2.8489817302
100
AcDbArc
 50
8.7550103386
 51
171.2449896614
  0
ARC
  5
31C
100
AcDbEntity
  8
0
100
AcDbCircle
 62
7
  6
BYLAYER
 10
45.5565910908
 20
26.7243884892
 40
2.8489817302
100
AcDbArc
 50
188.7550103386
 51
351.2449896614
  0
ARC
  5
31D
100
AcDbEntity
  8
0
100
AcDbCircle
 62
7
  6
BYLAYER
 10
45.5565910908
 20
26.7243884892
 40
2.5501233207
100
AcDbArc
 50
190.5581570357
 51
349.4418429643
  0
ARC
  5
31E
100
AcDbEntity
  8
0
100
AcDbCircle
 62
7
  6
BYLAYER
 10
45.5565910908
 20
26.7243884892
 40
2.5501233207
100
AcDbArc
 50
10.5581570357
 51
169.4418429643
  0
ARC
  5
31F
100
AcDbEntity
  8
0
100
AcDbCircle
 62
7
  6
BYLAYER
 10
45.5565910908
 20
26.7243884892
 40
1.7606175344
100
AcDbArc
 50
74.6092763651
 51
105.3907236349
  0
ARC
  5
320
100
AcDbEntity
  8
0
100
AcDbCircle
 62
7
  6
BYLAYER
 10
45.5565910908
 20
26.7243884892
 40
1.7606175344
100
AcDbArc
 50
254.6092763651
 51
285.3907236349
  0
ARC
  5
321
100
AcDbEntity
  8
0
100
AcDbCircle
 62
7
  6
BYLAYER
 10
45.5565910908
 20
26.7243884892
 40
1.3123743192
100
AcDbArc
 50
70.7303350158
 51
109.2684647375
  0
ARC
  5
322
100
AcDbEntity
  8
0
100
AcDbCircle
 62
7
  6
BYLAYER
 10
45.5565910908
 20
26.7243884892
 40
1.3123743192
100
AcDbArc
 50
250.7303350176
 51
289.2684647375
  0
ARC
  5
323
100
AcDbEntity
  8
0
100
AcDbCircle
 62
7
  6
BYLAYER
 10
45.5565910908
 20
26.7243884892
 40
1.0299038341
100
AcDbArc
 50
159.3680222874
 51
200.6319777126
  0
ARC
  5
324
100
AcDbEntity
  8
0
100
AcDbCircle
 62
7
  6
BYLAYER
 10
45.5565910908
 20
26.7243884892
 40
1.0299038341
100
AcDbArc
 50
339.3680222874
 51
20.6319777126
  0
ARC
  5
325
100
AcDbEntity
  8
0
100
AcDbCircle
 62
7
  6
BYLAYER
 10
45.8065910908
 20
14.3243884892
 40
1.0
100
AcDbArc
 50
270.0
 51
360.0
  0
ARC
  5
326
100
AcDbEntity
  8
0
100
AcDbCircle
 62
7
  6
BYLAYER
 10
47.8065910908
 20
22.7243884892
 40
1.0
100
AcDbArc
 50
90.0
 51
180.0
  0
ARC
  5
327
100
AcDbEntity
  8
0
100
AcDbCircle
 62
7
  6
BYLAYER
 10
45.5565910908
 20
26.7243884892
 40
0.635
100
AcDbArc
 50
245.0838345996
 51
295.0060406168
  0
ARC
  5
328
100
AcDbEntity
  8
0
100
AcDbCircle
 62
7
  6
BYLAYER
 10
45.5565910908
 20
26.7243884892
 40
0.635
100
AcDbArc
 50
334.9939604507
 51
24.9161654004
  0
ARC
  5
329
100
AcDbEntity
  8
0
100
AcDbCircle
 62
7
  6
BYLAYER
 10
45.5565910908
 20
26.7243884892
 40
0.635
100
AcDbArc
 50
65.0838345996
 51
115.0060395494
  0
ARC
  5
32A
100
AcDbEntity
  8
0
100
AcDbCircle
 62
7
  6
BYLAYER
 10
45.5565910908
 20
26.7243884892
 40
0.635
100
AcDbArc
 50
154.9939593832
 51
204.9161654004
  0
ARC
  5
32B
100
AcDbEntity
  8
0
100
AcDbCircle
 62
7
  6
BYLAYER
 10
53.0581843107
 20
78.2864497
 40
6.5015932201
100
AcDbArc
 50
180.0003863744
 51
183.5276446786
  0
ARC
  5
32C
100
AcDbEntity
  8
0
100
AcDbCircle
 62
7
  6
BYLAYER
 10
53.0565910908
 20
78.2243884892
 40
6.0
100
AcDbArc
 50
180.0
 51
270.0
  0
ARC
  5
32D
100
AcDbEntity
  8
0
100
AcDbCircle
 62
7
  6
BYLAYER
 10
55.5565910908
 20
68.2243884892
 40
4.0
100
AcDbArc
 50
0.0
 51
90.0
  0
ARC
  5
32E
100
AcDbEntity
  8
0
100
AcDbCircle
 62
7
  6
BYLAYER
 10
55.5565910908
 20
81.2243884892
 40
4.0
100
AcDbArc
 50
0.0
 51
90.0
  0
ARC
  5
32F
100
AcDbEntity
  8
0
100
AcDbCircle
 62
7
  6
BYLAYER
 10
54.0565910908
 20
80.1243884892
 40
3.1
100
AcDbArc
 50
122.9958854736
 51
237.0041145264
  0
ARC
  5
330
100
AcDbEntity
  8
0
100
AcDbCircle
 62
7
  6
BYLAYER
 10
54.0565910908
 20
80.1243884892
 40
3.1
100
AcDbArc
 50
302.9958854736
 51
57.0041145264
  0
CIRCLE
  5
331
100
AcDbEntity
  8
0
100
AcDbCircle
 62
7
  6
BYLAYER
 10
55.5565910908
 20
68.2243884892
 40
3.0
  0
ARC
  5
332
100
AcDbEntity
  8
0
100
AcDbCircle
 62
7
  6
BYLAYER
 10
55.5565910908
 20
68.2243884892
 40
2.8993880369
100
AcDbArc
 50
172.8097324032
 51
187.1902675968
  0
ARC
  5
333
100
AcDbEntity
  8
0
100
AcDbCircle
 62
7
  6
BYLAYER
 10
55.5565910908
 20
68.2243884892
 40
2.8993880369
100
AcDbArc
 50
352.8097324032
 51
7.1902675968
  0
ARC
  5
334
100
AcDbEntity
  8
0
100
AcDbCircle
 62
7
  6
BYLAYER
 10
55.5565910908
 20
68.2243884892
 40
2.8489817302
100
AcDbArc
 50
8.7550103386
 51
171.2449896614
  0
ARC
  5
335
100
AcDbEntity
  8
0
100
AcDbCircle
 62
7
  6
BYLAYER
 10
55.5565910908
 20
68.2243884892
 40
2.8489817302
100
AcDbArc
 50
188.7550103386
 51
351.2449896614
  0
ARC
  5
336
100
AcDbEntity
  8
0
100
AcDbCircle
 62
7
  6
BYLAYER
 10
55.5565910908
 20
68.2243884892
 40
2.5501233207
100
AcDbArc
 50
190.5581570357
 51
349.4418429643
  0
ARC
  5
337
100
AcDbEntity
  8
0
100
AcDbCircle
 62
7
  6
BYLAYER
 10
55.5565910908
 20
68.2243884892
 40
2.5501233207
100
AcDbArc
 50
10.5581570357
 51
169.4418429643
  0
ARC
  5
338
100
AcDbEntity
  8
0
100
AcDbCircle
 62
7
  6
BYLAYER
 10
45.8150442947
 20
74.8243884892
 40
2.0
100
AcDbArc
 50
25.150663416
 51
90.0
  0
ARC
  5
339
100
AcDbEntity
  8
0
100
AcDbCircle
 62
7
  6
BYLAYER
 10
55.5565910908
 20
68.2243884892
 40
1.7606175344
100
AcDbArc
 50
74.6092763651
 51
105.3907236349
  0
ARC
  5
33A
100
AcDbEntity
  8
0
100
AcDbCircle
 62
7
  6
BYLAYER
 10
55.5565910908
 20
68.2243884892
 40
1.7606175344
100
AcDbArc
 50
254.6092763651
 51
285.3907236349
  0
ARC
  5
33B
100
AcDbEntity
  8
0
100
AcDbCircle
 62
7
  6
BYLAYER
 10
55.5565910908
 20
68.2243884892
 40
1.3123743192
100
AcDbArc
 50
70.7303350173
 51
109.2684647375
  0
ARC
  5
33C
100
AcDbEntity
  8
0
100
AcDbCircle
 62
7
  6
BYLAYER
 10
55.5565910908
 20
68.2243884892
 40
1.3123743192
100
AcDbArc
 50
250.7303350178
 51
289.2684647375
  0
ARC
  5
33D
100
AcDbEntity
  8
0
100
AcDbCircle
 62
7
  6
BYLAYER
 10
55.5565910908
 20
68.2243884892
 40
1.0299038341
100
AcDbArc
 50
159.3680222874
 51
200.6319777126
  0
ARC
  5
33E
100
AcDbEntity
  8
0
100
AcDbCircle
 62
7
  6
BYLAYER
 10
55.5565910908
 20
68.2243884892
 40
1.0299038341
100
AcDbArc
 50
339.3680222874
 51
20.6319777126
  0
ARC
  5
33F
100
AcDbEntity
  8
0
100
AcDbCircle
 62
7
  6
BYLAYER
 10
55.5565910908
 20
68.2243884892
 40
0.635
100
AcDbArc
 50
245.0838345996
 51
295.0060406168
  0
ARC
  5
340
100
AcDbEntity
  8
0
100
AcDbCircle
 62
7
  6
BYLAYER
 10
55.5565910908
 20
68.2243884892
 40
0.635
100
AcDbArc
 50
334.9939604507
 51
24.9161654004
  0
ARC
  5
341
100
AcDbEntity
  8
0
100
AcDbCircle
 62
7
  6
BYLAYER
 10
55.5565910908
 20
68.2243884892
 40
0.635
100
AcDbArc
 50
65.0838345996
 51
115.0060395494
  0
ARC
  5
342
100
AcDbEntity
  8
0
100
AcDbCircle
 62
7
  6
BYLAYER
 10
55.5565910908
 20
68.2243884892
 40
0.635
100
AcDbArc
 50
154.9939593832
 51
204.9161654004
  0
ARC
  5
343
100
AcDbEntity
  8
0
100
AcDbCircle
 62
7
  6
BYLAYER
 10
88.1381982583
 20
199.9856381687
 40
135.6127636808
100
AcDbArc
 50
255.6785440681
 51
255.8441030538
  0
ARC
  5
344
100
AcDbEntity
  8
0
100
AcDbCircle
 62
7
  6
BYLAYER
 10
44.1381982544
 20
199.9856381533
 40
135.6127636649
100
AcDbArc
 50
255.6785440681
 51
255.8441030538
  0
ARC
  5
345
100
AcDbEntity
  8
0
100
AcDbCircle
 62
7
  6
BYLAYER
 10
54.1381977067
 20
158.4856359948
 40
135.6127614379
100
AcDbArc
 50
255.6785440667
 51
255.8441030551
  0
ARC
  5
346
100
AcDbEntity
  8
0
100
AcDbCircle
 62
7
  6
BYLAYER
 10
78.1381977061
 20
158.4856359925
 40
135.6127614355
100
AcDbArc
 50
255.6785440667
 51
255.8441030551
  0
ARC
  5
347
100
AcDbEntity
  8
0
100
AcDbCircle
 62
7
  6
BYLAYER
 10
285.9090979901
 20
125.8128922399
 40
237.3259423349
100
AcDbArc
 50
194.1887178613
 51
194.3518496499
  0
ARC
  5
348
100
AcDbEntity
  8
0
100
AcDbCircle
 62
7
  6
BYLAYER
 10
275.9090979702
 20
84.3128922349
 40
237.3259423143
100
AcDbArc
 50
194.1887178612
 51
194.3518496499
  0
ARC
  5
349
100
AcDbEntity
  8
0
100
AcDbCircle
 62
7
  6
BYLAYER
 10
241.9090979612
 20
125.8128922326
 40
237.3259423051
100
AcDbArc
 50
194.1887178612
 51
194.3518496499
  0
ARC
  5
34A
100
AcDbEntity
  8
0
100
AcDbCircle
 62
7
  6
BYLAYER
 10
251.9090979586
 20
84.3128922319
 40
237.3259423024
100
AcDbArc
 50
194.1887178612
 51
194.3518496499
  0
SPLINE
  5
34B
100
AcDbEntity
  8
0
100
AcDbSpline
 62
7
  6
BYLAYER
 70
0
 71
3
 72
9
 73
5
 74
0
 42
0.0000001
 43
0.0000001
 44
0.0000000001
 40
0.0
 40
0.0
 40
0.0
 40
0.0
 40
0.2544124182
 40
1.0
 40
1.0
 40
1.0
 40
1.0
 10
21.8995378796
 20
27.0673352781
 30
0.0
 10
21.8929255997
 20
27.0870194981
 30
0.0
 10
21.8672132415
 20
27.1644842782
 30
0.0
 10
21.8423797771
 20
27.2422379464
 30
0.0
 10
21.8241113263
 20
27.3002859832
 30
0.0
  0
SPLINE
  5
34C
100
AcDbEntity
  8
0
100
AcDbSpline
 62
7
  6
BYLAYER
 70
0
 71
3
 72
9
 73
5
 74
0
 42
0.0000001
 43
0.0000001
 44
0.0000000001
 40
0.0
 40
0.0
 40
0.0
 40
0.0
 40
0.2459824255
 40
1.0
 40
1.0
 40
1.0
 40
1.0
 10
22.1324885847
 20
26.9919087248
 30
0.0
 10
22.1133375686
 20
26.9979357916
 30
0.0
 10
22.0355190631
 20
27.0225531218
 30
0.0
 10
21.9578770496
 20
27.0477381123
 30
0.0
 10
21.8995378796
 20
27.0673352781
 30
0.0
  0
SPLINE
  5
34D
100
AcDbEntity
  8
0
100
AcDbSpline
 62
7
  6
BYLAYER
 70
0
 71
3
 72
9
 73
5
 74
0
 42
0.0000001
 43
0.0000001
 44
0.0000000001
 40
0.0
 40
0.0
 40
0.0
 40
0.0
 40
0.2544124182
 40
1.0
 40
1.0
 40
1.0
 40
1.0
 10
21.2136443019
 20
26.3814417003
 30
0.0
 10
21.2202565818
 20
26.3617574803
 30
0.0
 10
21.24596894
 20
26.2842927003
 30
0.0
 10
21.2708024044
 20
26.206539032
 30
0.0
 10
21.2890708552
 20
26.1484909952
 30
0.0
  0
SPLINE
  5
34E
100
AcDbEntity
  8
0
100
AcDbSpline
 62
7
  6
BYLAYER
 70
0
 71
3
 72
9
 73
5
 74
0
 42
0.0000001
 43
0.0000001
 44
0.0000000001
 40
0.0
 40
0.0
 40
0.0
 40
0.0
 40
0.2459824255
 40
1.0
 40
1.0
 40
1.0
 40
1.0
 10
20.9806935968
 20
26.4568682537
 30
0.0
 10
20.9998446129
 20
26.4508411869
 30
0.0
 10
21.0776631184
 20
26.4262238567
 30
0.0
 10
21.1553051319
 20
26.4010388661
 30
0.0
 10
21.2136443019
 20
26.3814417003
 30
0.0
  0
LINE
  5
34F
100
AcDbEntity
  8
0
100
AcDbLine
 62
7
  6
BYLAYER
 10
22.1401770986
 20
26.9908012373
 11
22.1324885847
 21
26.9919087248
  0
SPLINE
  5
350
100
AcDbEntity
  8
0
100
AcDbSpline
 62
7
  6
BYLAYER
 70
0
 71
3
 72
12
 73
8
 74
0
 42
0.0000001
 43
0.0000001
 44
0.0000000001
 40
0.0
 40
0.0
 40
0.0
 40
0.0
 40
0.3011555666
 40
0.4640090751
 40
0.5775251531
 40
0.7752125248
 40
1.0
 40
1.0
 40
1.0
 40
1.0
 10
21.8241113263
 20
27.3002859832
 30
0.0
 10
21.8239994376
 20
27.301059826
 30
0.0
 10
21.8237028641
 20
27.3022269264
 30
0.0
 10
21.823489947
 20
27.3037222703
 30
0.0
 10
21.8236428404
 20
27.3049550507
 30
0.0
 10
21.8233053944
 20
27.3063265334
 30
0.0
 10
21.8230867441
 20
27.3073968001
 30
0.0
 10
21.8230038389
 20
27.307974497
 30
0.0
  0
LINE
  5
351
100
AcDbEntity
  8
0
100
AcDbLine
 62
7
  6
BYLAYER
 10
21.2900746334
 20
27.3083860417
 11
21.2881678297
 21
27.299865659
  0
LINE
  5
352
100
AcDbEntity
  8
0
100
AcDbLine
 62
7
  6
BYLAYER
 10
20.9725935382
 20
26.9909049466
 11
20.981113921
 21
26.9928117503
  0
SPLINE
  5
353
100
AcDbEntity
  8
0
100
AcDbSpline
 62
7
  6
BYLAYER
 70
0
 71
3
 72
13
 73
9
 74
0
 42
0.0000001
 43
0.0000001
 44
0.0000000001
 40
0.0
 40
0.0
 40
0.0
 40
0.0
 40
0.078089668
 40
0.1745486834
 40
0.2871301146
 40
0.4133513729
 40
0.6957897273
 40
1.0
 40
1.0
 40
1.0
 40
1.0
 10
21.98959745
 20
27.9628837599
 30
0.0
 10
21.992567826
 20
27.974511207
 30
0.0
 10
21.9979318565
 20
28.0008224422
 30
0.0
 10
22.0044999372
 20
28.0444655297
 30
0.0
 10
22.0102716622
 20
28.0956750318
 30
0.0
 10
22.0170046309
 20
28.1755033252
 30
0.0
 10
22.0224359813
 20
28.2849545607
 30
0.0
 10
22.0238590266
 20
28.3751162443
 30
0.0
 10
22.0238590266
 20
28.4218674371
 30
0.0
  0
SPLINE
  5
354
100
AcDbEntity
  8
0
100
AcDbSpline
 62
7
  6
BYLAYER
 70
0
 71
3
 72
13
 73
9
 74
0
 42
0.0000001
 43
0.0000001
 44
0.0000000001
 40
0.0
 40
0.0
 40
0.0
 40
0.0
 40
0.3040834017
 40
0.5864774408
 40
0.7127235784
 40
0.8253673602
 40
0.9218930726
 40
1.0
 40
1.0
 40
1.0
 40
1.0
 10
21.089323155
 20
28.4218674371
 30
0.0
 10
21.089323155
 20
28.3751732754
 30
0.0
 10
21.0907428653
 20
28.2851103022
 30
0.0
 10
21.0961622081
 20
28.1757691947
 30
0.0
 10
21.1028797347
 20
28.0959976142
 30
0.0
 10
21.1086380018
 20
28.0448044858
 30
0.0
 10
21.1151907495
 20
28.0011723338
 30
0.0
 10
21.1205456383
 20
27.9748678471
 30
0.0
 10
21.1235142846
 20
27.9632471711
 30
0.0
  0
SPLINE
  5
355
100
AcDbEntity
  8
0
100
AcDbSpline
 62
7
  6
BYLAYER
 70
0
 71
3
 72
17
 73
13
 74
0
 42
0.0000001
 43
0.0000001
 44
0.0000000001
 40
0.0
 40
0.0
 40
0.0
 40
0.0
 40
0.1800318635
 40
0.3542997836
 40
0.5169581248
 40
0.6629405863
 40
0.7875456577
 40
0.886817177
 40
0.9260080412
 40
0.9578867593
 40
0.9824245822
 40
1.0
 40
1.0
 40
1.0
 40
1.0
 10
24.0635393605
 20
27.191656425
 30
0.0
 10
24.0823183932
 20
27.191656425
 30
0.0
 10
24.1192765219
 20
27.1912470048
 30
0.0
 10
24.1731746085
 20
27.1894327294
 30
0.0
 10
24.2234655497
 20
27.1864857675
 30
0.0
 10
24.268493924
 20
27.1825290329
 30
0.0
 10
24.3067756206
 20
27.1776946175
 30
0.0
 10
24.3338151038
 20
27.1728331202
 30
0.0
 10
24.351024001
 20
27.168390159
 30
0.0
 10
24.3605011497
 20
27.1652186925
 30
0.0
 10
24.3675140162
 20
27.161997851
 30
0.0
 10
24.3711698866
 20
27.159411196
 30
0.0
 10
24.3723770669
 20
27.1580314706
 30
0.0
  0
SPLINE
  5
356
100
AcDbEntity
  8
0
100
AcDbSpline
 62
7
  6
BYLAYER
 70
0
 71
3
 72
9
 73
5
 74
0
 42
0.0000001
 43
0.0000001
 44
0.0000000001
 40
0.0
 40
0.0
 40
0.0
 40
0.0
 40
0.2542038863
 40
1.0
 40
1.0
 40
1.0
 40
1.0
 10
21.2000402608
 20
27.0809393191
 30
0.0
 10
21.1815747673
 20
27.0732631668
 30
0.0
 10
21.1088270035
 20
27.0433242183
 30
0.0
 10
21.0357307252
 20
27.0142387297
 30
0.0
 10
20.981113921
 20
26.9928117503
 30
0.0
  0
SPLINE
  5
357
100
AcDbEntity
  8
0
100
AcDbSpline
 62
7
  6
BYLAYER
 70
0
 71
3
 72
9
 73
5
 74
0
 42
0.0000001
 43
0.0000001
 44
0.0000000001
 40
0.0
 40
0.0
 40
0.0
 40
0.0
 40
0.2460388638
 40
1.0
 40
1.0
 40
1.0
 40
1.0
 10
21.2881678297
 20
27.299865659
 30
0.0
 10
21.281099066
 20
27.2818475671
 30
0.0
 10
21.2522483273
 20
27.2086625302
 30
0.0
 10
21.2228074425
 20
27.1357072849
 30
0.0
 10
21.2000402608
 20
27.0809393191
 30
0.0
  0
SPLINE
  5
358
100
AcDbEntity
  8
0
100
AcDbSpline
 62
7
  6
BYLAYER
 70
0
 71
3
 72
17
 73
13
 74
0
 42
0.0000001
 43
0.0000001
 44
0.0000000001
 40
0.0
 40
0.0
 40
0.0
 40
0.0
 40
0.0175753679
 40
0.0421130052
 40
0.0739913459
 40
0.1131814747
 40
0.2124512873
 40
0.3370542949
 40
0.4830348768
 40
0.6456926451
 40
0.8199649731
 40
1.0
 40
1.0
 40
1.0
 40
1.0
 10
18.7408051146
 20
27.1580314706
 30
0.0
 10
18.7420122915
 20
27.1594111921
 30
0.0
 10
18.7456681343
 20
27.161997841
 30
0.0
 10
18.7526809388
 20
27.1652186677
 30
0.0
 10
18.7621579596
 20
27.168390088
 30
0.0
 10
18.7793665608
 20
27.1728330178
 30
0.0
 10
18.8064055786
 20
27.1776944523
 30
0.0
 10
18.8446866811
 20
27.1825288627
 30
0.0
 10
18.8897145807
 20
27.1864856255
 30
0.0
 10
18.9400057224
 20
27.1894326682
 30
0.0
 10
18.9939045401
 20
27.1912469466
 30
0.0
 10
19.0308634582
 20
27.191656425
 30
0.0
 10
19.049642821
 20
27.191656425
 30
0.0
  0
SPLINE
  5
359
100
AcDbEntity
  8
0
100
AcDbSpline
 62
7
  6
BYLAYER
 70
0
 71
3
 72
12
 73
8
 74
0
 42
0.0000001
 43
0.0000001
 44
0.0000000001
 40
0.0
 40
0.0
 40
0.0
 40
0.0
 40
0.301041753
 40
0.4640909988
 40
0.577568552
 40
0.775023956
 40
1.0
 40
1.0
 40
1.0
 40
1.0
 10
20.973005083
 20
26.4579757411
 30
0.0
 10
20.973778752
 20
26.4578647171
 30
0.0
 10
20.9749460025
 20
26.4575677918
 30
0.0
 10
20.9764413947
 20
26.4573538913
 30
0.0
 10
20.9776739621
 20
26.4575070918
 30
0.0
 10
20.9790453551
 20
26.4571702716
 30
0.0
 10
20.9801155031
 20
26.4569518393
 30
0.0
 10
20.9806935968
 20
26.4568682537
 30
0.0
  0
LINE
  5
35A
100
AcDbEntity
  8
0
100
AcDbLine
 62
7
  6
BYLAYER
 10
21.2890708552
 20
26.1484909952
 11
21.2901783427
 21
26.1408024814
  0
LINE
  5
35B
100
AcDbEntity
  8
0
100
AcDbLine
 62
7
  6
BYLAYER
 10
21.8231075482
 20
26.1403909367
 11
21.8250143518
 21
26.1489113194
  0
SPLINE
  5
35C
100
AcDbEntity
  8
0
100
AcDbSpline
 62
7
  6
BYLAYER
 70
0
 71
3
 72
9
 73
5
 74
0
 42
0.0000001
 43
0.0000001
 44
0.0000000001
 40
0.0
 40
0.0
 40
0.0
 40
0.0
 40
0.2542068433
 40
1.0
 40
1.0
 40
1.0
 40
1.0
 10
21.9131419207
 20
26.3678376593
 30
0.0
 10
21.905465679
 20
26.3493719508
 30
0.0
 10
21.8755263235
 20
26.2766243536
 30
0.0
 10
21.8464412464
 20
26.2035279074
 30
0.0
 10
21.8250143518
 20
26.1489113194
 30
0.0
  0
SPLINE
  5
35D
100
AcDbEntity
  8
0
100
AcDbSpline
 62
7
  6
BYLAYER
 70
0
 71
3
 72
9
 73
5
 74
0
 42
0.0000001
 43
0.0000001
 44
0.0000000001
 40
0.0
 40
0.0
 40
0.0
 40
0.0
 40
0.2460382598
 40
1.0
 40
1.0
 40
1.0
 40
1.0
 10
22.1320682606
 20
26.4559652282
 30
0.0
 10
22.1140502131
 20
26.4488964819
 30
0.0
 10
22.0408653595
 20
26.4200452805
 30
0.0
 10
21.9679099299
 20
26.390604859
 30
0.0
 10
21.9131419207
 20
26.3678376593
 30
0.0
  0
LINE
  5
35E
100
AcDbEntity
  8
0
100
AcDbLine
 62
7
  6
BYLAYER
 10
22.1405886433
 20
26.4578720318
 11
22.1320682606
 21
26.4559652282
  0
SPLINE
  5
35F
100
AcDbEntity
  8
0
100
AcDbSpline
 62
7
  6
BYLAYER
 70
0
 71
3
 72
17
 73
13
 74
0
 42
0.0000001
 43
0.0000001
 44
0.0000000001
 40
0.0
 40
0.0
 40
0.0
 40
0.0
 40
0.0175753679
 40
0.0421130052
 40
0.0739913459
 40
0.1131814747
 40
0.2124512873
 40
0.3370542949
 40
0.4830348768
 40
0.6456926451
 40
0.8199649731
 40
1.0
 40
1.0
 40
1.0
 40
1.0
 10
24.3723770669
 20
26.2907455078
 30
0.0
 10
24.37116989
 20
26.2893657863
 30
0.0
 10
24.3675140472
 20
26.2867791374
 30
0.0
 10
24.3605012427
 20
26.2835583107
 30
0.0
 10
24.3510242219
 20
26.2803868904
 30
0.0
 10
24.3338156207
 20
26.2759439606
 30
0.0
 10
24.3067766029
 20
26.2710825262
 30
0.0
 10
24.2684955004
 20
26.2662481157
 30
0.0
 10
24.2234676008
 20
26.2622913529
 30
0.0
 10
24.1731764591
 20
26.2593443102
 30
0.0
 10
24.1192776415
 20
26.2575300318
 30
0.0
 10
24.0823187233
 20
26.2571205534
 30
0.0
 10
24.0635393605
 20
26.2571205534
 30
0.0
  0
SPLINE
  5
360
100
AcDbEntity
  8
0
100
AcDbSpline
 62
7
  6
BYLAYER
 70
0
 71
3
 72
17
 73
13
 74
0
 42
0.0000001
 43
0.0000001
 44
0.0000000001
 40
0.0
 40
0.0
 40
0.0
 40
0.0
 40
0.1800318635
 40
0.3542997836
 40
0.5169581248
 40
0.6629405863
 40
0.7875456577
 40
0.886817177
 40
0.9260080412
 40
0.9578867593
 40
0.9824245822
 40
1.0
 40
1.0
 40
1.0
 40
1.0
 10
19.049642821
 20
26.2571205534
 30
0.0
 10
19.0308637883
 20
26.2571205534
 30
0.0
 10
18.9939056597
 20
26.2575299736
 30
0.0
 10
18.940007573
 20
26.259344249
 30
0.0
 10
18.8897166318
 20
26.2622912109
 30
0.0
 10
18.8446882575
 20
26.2662479455
 30
0.0
 10
18.8064065609
 20
26.2710823609
 30
0.0
 10
18.7793670778
 20
26.2759438582
 30
0.0
 10
18.7621581805
 20
26.2803868194
 30
0.0
 10
18.7526810318
 20
26.2835582859
 30
0.0
 10
18.7456681653
 20
26.2867791274
 30
0.0
 10
18.7420122949
 20
26.2893657824
 30
0.0
 10
18.7408051146
 20
26.2907455078
 30
0.0
  0
SPLINE
  5
361
100
AcDbEntity
  8
0
100
AcDbSpline
 62
7
  6
BYLAYER
 70
0
 71
3
 72
13
 73
9
 74
0
 42
0.0000001
 43
0.0000001
 44
0.0000000001
 40
0.0
 40
0.0
 40
0.0
 40
0.0
 40
0.3040834018
 40
0.5864774407
 40
0.7127235784
 40
0.8253673602
 40
0.9218930726
 40
1.0
 40
1.0
 40
1.0
 40
1.0
 10
22.0238590266
 20
25.0269095413
 30
0.0
 10
22.0238590266
 20
25.073603703
 30
0.0
 10
22.0224393162
 20
25.1636666762
 30
0.0
 10
22.0170199735
 20
25.2730077837
 30
0.0
 10
22.0103024468
 20
25.3527793642
 30
0.0
 10
22.0045441797
 20
25.4039724926
 30
0.0
 10
21.997991432
 20
25.4476046446
 30
0.0
 10
21.9926365432
 20
25.4739091313
 30
0.0
 10
21.9896678969
 20
25.4855298074
 30
0.0
  0
SPLINE
  5
362
100
AcDbEntity
  8
0
100
AcDbSpline
 62
7
  6
BYLAYER
 70
0
 71
3
 72
13
 73
9
 74
0
 42
0.0000001
 43
0.0000001
 44
0.0000000001
 40
0.0
 40
0.0
 40
0.0
 40
0.0
 40
0.0780896679
 40
0.1745486834
 40
0.2871301148
 40
0.4133513732
 40
0.6957897275
 40
1.0
 40
1.0
 40
1.0
 40
1.0
 10
21.1235847314
 20
25.485893218
 30
0.0
 10
21.1206143554
 20
25.4742657709
 30
0.0
 10
21.115250325
 20
25.4479545357
 30
0.0
 10
21.1086822443
 20
25.4043114483
 30
0.0
 10
21.1029105193
 20
25.3531019461
 30
0.0
 10
21.0961775506
 20
25.2732736528
 30
0.0
 10
21.0907462002
 20
25.1638224175
 30
0.0
 10
21.089323155
 20
25.073660734
 30
0.0
 10
21.089323155
 20
25.0269095413
 30
0.0
  0
SPLINE
  5
363
100
AcDbEntity
  8
0
100
AcDbSpline
 62
7
  6
BYLAYER
 70
0
 71
3
 72
9
 73
5
 74
0
 42
0.0000001
 43
0.0000001
 44
0.0000000001
 40
0.0
 40
0.0
 40
0.0
 40
0.0
 40
0.2544124182
 40
1.0
 40
1.0
 40
1.0
 40
1.0
 10
11.8995378796
 20
68.5673352781
 30
0.0
 10
11.8929255997
 20
68.5870194981
 30
0.0
 10
11.8672132415
 20
68.6644842782
 30
0.0
 10
11.8423797771
 20
68.7422379464
 30
0.0
 10
11.8241113263
 20
68.8002859832
 30
0.0
  0
SPLINE
  5
364
100
AcDbEntity
  8
0
100
AcDbSpline
 62
7
  6
BYLAYER
 70
0
 71
3
 72
9
 73
5
 74
0
 42
0.0000001
 43
0.0000001
 44
0.0000000001
 40
0.0
 40
0.0
 40
0.0
 40
0.0
 40
0.2459824255
 40
1.0
 40
1.0
 40
1.0
 40
1.0
 10
12.1324885847
 20
68.4919087248
 30
0.0
 10
12.1133375686
 20
68.4979357916
 30
0.0
 10
12.0355190631
 20
68.5225531218
 30
0.0
 10
11.9578770496
 20
68.5477381123
 30
0.0
 10
11.8995378796
 20
68.5673352781
 30
0.0
  0
SPLINE
  5
365
100
AcDbEntity
  8
0
100
AcDbSpline
 62
7
  6
BYLAYER
 70
0
 71
3
 72
9
 73
5
 74
0
 42
0.0000001
 43
0.0000001
 44
0.0000000001
 40
0.0
 40
0.0
 40
0.0
 40
0.0
 40
0.2544124182
 40
1.0
 40
1.0
 40
1.0
 40
1.0
 10
11.2136443019
 20
67.8814417003
 30
0.0
 10
11.2202565818
 20
67.8617574803
 30
0.0
 10
11.24596894
 20
67.7842927003
 30
0.0
 10
11.2708024044
 20
67.706539032
 30
0.0
 10
11.2890708552
 20
67.6484909952
 30
0.0
  0
SPLINE
  5
366
100
AcDbEntity
  8
0
100
AcDbSpline
 62
7
  6
BYLAYER
 70
0
 71
3
 72
9
 73
5
 74
0
 42
0.0000001
 43
0.0000001
 44
0.0000000001
 40
0.0
 40
0.0
 40
0.0
 40
0.0
 40
0.2459824255
 40
1.0
 40
1.0
 40
1.0
 40
1.0
 10
10.9806935968
 20
67.9568682537
 30
0.0
 10
10.9998446129
 20
67.9508411869
 30
0.0
 10
11.0776631184
 20
67.9262238567
 30
0.0
 10
11.1553051319
 20
67.9010388661
 30
0.0
 10
11.2136443019
 20
67.8814417003
 30
0.0
  0
LINE
  5
367
100
AcDbEntity
  8
0
100
AcDbLine
 62
7
  6
BYLAYER
 10
12.1401770986
 20
68.4908012373
 11
12.1324885847
 21
68.4919087248
  0
SPLINE
  5
368
100
AcDbEntity
  8
0
100
AcDbSpline
 62
7
  6
BYLAYER
 70
0
 71
3
 72
12
 73
8
 74
0
 42
0.0000001
 43
0.0000001
 44
0.0000000001
 40
0.0
 40
0.0
 40
0.0
 40
0.0
 40
0.3011555666
 40
0.4640090751
 40
0.5775251531
 40
0.7752125248
 40
1.0
 40
1.0
 40
1.0
 40
1.0
 10
11.8241113263
 20
68.8002859832
 30
0.0
 10
11.8239994376
 20
68.801059826
 30
0.0
 10
11.8237028641
 20
68.8022269264
 30
0.0
 10
11.823489947
 20
68.8037222703
 30
0.0
 10
11.8236428404
 20
68.8049550507
 30
0.0
 10
11.8233053944
 20
68.8063265334
 30
0.0
 10
11.8230867441
 20
68.8073968001
 30
0.0
 10
11.8230038389
 20
68.807974497
 30
0.0
  0
LINE
  5
369
100
AcDbEntity
  8
0
100
AcDbLine
 62
7
  6
BYLAYER
 10
11.2900746334
 20
68.8083860417
 11
11.2881678297
 21
68.799865659
  0
LINE
  5
36A
100
AcDbEntity
  8
0
100
AcDbLine
 62
7
  6
BYLAYER
 10
10.9725935382
 20
68.4909049466
 11
10.981113921
 21
68.4928117503
  0
SPLINE
  5
36B
100
AcDbEntity
  8
0
100
AcDbSpline
 62
7
  6
BYLAYER
 70
0
 71
3
 72
13
 73
9
 74
0
 42
0.0000001
 43
0.0000001
 44
0.0000000001
 40
0.0
 40
0.0
 40
0.0
 40
0.0
 40
0.078089668
 40
0.1745486835
 40
0.2871301148
 40
0.4133513731
 40
0.6957897275
 40
1.0
 40
1.0
 40
1.0
 40
1.0
 10
11.9895974501
 20
69.4628837604
 30
0.0
 10
11.9925678261
 20
69.4745112074
 30
0.0
 10
11.9979318565
 20
69.5008224427
 30
0.0
 10
12.0044999372
 20
69.5444655301
 30
0.0
 10
12.0102716622
 20
69.5956750323
 30
0.0
 10
12.0170046309
 20
69.6755033255
 30
0.0
 10
12.0224359813
 20
69.7849545609
 30
0.0
 10
12.0238590266
 20
69.8751162444
 30
0.0
 10
12.0238590266
 20
69.9218674371
 30
0.0
  0
SPLINE
  5
36C
100
AcDbEntity
  8
0
100
AcDbSpline
 62
7
  6
BYLAYER
 70
0
 71
3
 72
13
 73
9
 74
0
 42
0.0000001
 43
0.0000001
 44
0.0000000001
 40
0.0
 40
0.0
 40
0.0
 40
0.0
 40
0.3040834017
 40
0.5864774408
 40
0.7127235784
 40
0.8253673602
 40
0.9218930726
 40
1.0
 40
1.0
 40
1.0
 40
1.0
 10
11.089323155
 20
69.9218674371
 30
0.0
 10
11.089323155
 20
69.8751732754
 30
0.0
 10
11.0907428653
 20
69.7851103022
 30
0.0
 10
11.0961622081
 20
69.6757691947
 30
0.0
 10
11.1028797347
 20
69.5959976142
 30
0.0
 10
11.1086380018
 20
69.5448044858
 30
0.0
 10
11.1151907495
 20
69.5011723338
 30
0.0
 10
11.1205456383
 20
69.4748678471
 30
0.0
 10
11.1235142846
 20
69.4632471711
 30
0.0
  0
SPLINE
  5
36D
100
AcDbEntity
  8
0
100
AcDbSpline
 62
7
  6
BYLAYER
 70
0
 71
3
 72
17
 73
13
 74
0
 42
0.0000001
 43
0.0000001
 44
0.0000000001
 40
0.0
 40
0.0
 40
0.0
 40
0.0
 40
0.1800318635
 40
0.3542997836
 40
0.5169581248
 40
0.6629405863
 40
0.7875456577
 40
0.886817177
 40
0.9260080412
 40
0.9578867593
 40
0.9824245822
 40
1.0
 40
1.0
 40
1.0
 40
1.0
 10
14.0635393605
 20
68.691656425
 30
0.0
 10
14.0823183932
 20
68.691656425
 30
0.0
 10
14.1192765219
 20
68.6912470048
 30
0.0
 10
14.1731746085
 20
68.6894327294
 30
0.0
 10
14.2234655497
 20
68.6864857675
 30
0.0
 10
14.268493924
 20
68.6825290329
 30
0.0
 10
14.3067756206
 20
68.6776946175
 30
0.0
 10
14.3338151038
 20
68.6728331202
 30
0.0
 10
14.351024001
 20
68.668390159
 30
0.0
 10
14.3605011497
 20
68.6652186925
 30
0.0
 10
14.3675140162
 20
68.661997851
 30
0.0
 10
14.3711698866
 20
68.659411196
 30
0.0
 10
14.3723770669
 20
68.6580314706
 30
0.0
  0
SPLINE
  5
36E
100
AcDbEntity
  8
0
100
AcDbSpline
 62
7
  6
BYLAYER
 70
0
 71
3
 72
9
 73
5
 74
0
 42
0.0000001
 43
0.0000001
 44
0.0000000001
 40
0.0
 40
0.0
 40
0.0
 40
0.0
 40
0.2542038863
 40
1.0
 40
1.0
 40
1.0
 40
1.0
 10
11.2000402608
 20
68.5809393191
 30
0.0
 10
11.1815747673
 20
68.5732631668
 30
0.0
 10
11.1088270035
 20
68.5433242183
 30
0.0
 10
11.0357307252
 20
68.5142387297
 30
0.0
 10
10.981113921
 20
68.4928117503
 30
0.0
  0
SPLINE
  5
36F
100
AcDbEntity
  8
0
100
AcDbSpline
 62
7
  6
BYLAYER
 70
0
 71
3
 72
9
 73
5
 74
0
 42
0.0000001
 43
0.0000001
 44
0.0000000001
 40
0.0
 40
0.0
 40
0.0
 40
0.0
 40
0.2460388638
 40
1.0
 40
1.0
 40
1.0
 40
1.0
 10
11.2881678297
 20
68.799865659
 30
0.0
 10
11.281099066
 20
68.7818475671
 30
0.0
 10
11.2522483273
 20
68.7086625302
 30
0.0
 10
11.2228074425
 20
68.6357072849
 30
0.0
 10
11.2000402608
 20
68.5809393191
 30
0.0
  0
SPLINE
  5
370
100
AcDbEntity
  8
0
100
AcDbSpline
 62
7
  6
BYLAYER
 70
0
 71
3
 72
17
 73
13
 74
0
 42
0.0000001
 43
0.0000001
 44
0.0000000001
 40
0.0
 40
0.0
 40
0.0
 40
0.0
 40
0.0175753679
 40
0.0421130052
 40
0.0739913459
 40
0.1131814747
 40
0.2124512873
 40
0.3370542949
 40
0.4830348768
 40
0.6456926451
 40
0.8199649731
 40
1.0
 40
1.0
 40
1.0
 40
1.0
 10
8.7408051146
 20
68.6580314706
 30
0.0
 10
8.7420122915
 20
68.6594111921
 30
0.0
 10
8.7456681343
 20
68.661997841
 30
0.0
 10
8.7526809388
 20
68.6652186677
 30
0.0
 10
8.7621579596
 20
68.668390088
 30
0.0
 10
8.7793665608
 20
68.6728330178
 30
0.0
 10
8.8064055786
 20
68.6776944523
 30
0.0
 10
8.8446866811
 20
68.6825288627
 30
0.0
 10
8.8897145807
 20
68.6864856255
 30
0.0
 10
8.9400057224
 20
68.6894326682
 30
0.0
 10
8.9939045401
 20
68.6912469466
 30
0.0
 10
9.0308634582
 20
68.691656425
 30
0.0
 10
9.049642821
 20
68.691656425
 30
0.0
  0
SPLINE
  5
371
100
AcDbEntity
  8
0
100
AcDbSpline
 62
7
  6
BYLAYER
 70
0
 71
3
 72
12
 73
8
 74
0
 42
0.0000001
 43
0.0000001
 44
0.0000000001
 40
0.0
 40
0.0
 40
0.0
 40
0.0
 40
0.301041753
 40
0.4640909988
 40
0.577568552
 40
0.775023956
 40
1.0
 40
1.0
 40
1.0
 40
1.0
 10
10.973005083
 20
67.9579757411
 30
0.0
 10
10.973778752
 20
67.9578647171
 30
0.0
 10
10.9749460025
 20
67.9575677918
 30
0.0
 10
10.9764413947
 20
67.9573538913
 30
0.0
 10
10.9776739621
 20
67.9575070918
 30
0.0
 10
10.9790453551
 20
67.9571702716
 30
0.0
 10
10.9801155031
 20
67.9569518393
 30
0.0
 10
10.9806935968
 20
67.9568682537
 30
0.0
  0
LINE
  5
372
100
AcDbEntity
  8
0
100
AcDbLine
 62
7
  6
BYLAYER
 10
11.2890708552
 20
67.6484909952
 11
11.2901783427
 21
67.6408024814
  0
LINE
  5
373
100
AcDbEntity
  8
0
100
AcDbLine
 62
7
  6
BYLAYER
 10
11.8231075482
 20
67.6403909367
 11
11.8250143518
 21
67.6489113194
  0
SPLINE
  5
374
100
AcDbEntity
  8
0
100
AcDbSpline
 62
7
  6
BYLAYER
 70
0
 71
3
 72
9
 73
5
 74
0
 42
0.0000001
 43
0.0000001
 44
0.0000000001
 40
0.0
 40
0.0
 40
0.0
 40
0.0
 40
0.2542068433
 40
1.0
 40
1.0
 40
1.0
 40
1.0
 10
11.9131419207
 20
67.8678376593
 30
0.0
 10
11.905465679
 20
67.8493719508
 30
0.0
 10
11.8755263235
 20
67.7766243536
 30
0.0
 10
11.8464412464
 20
67.7035279074
 30
0.0
 10
11.8250143518
 20
67.6489113194
 30
0.0
  0
SPLINE
  5
375
100
AcDbEntity
  8
0
100
AcDbSpline
 62
7
  6
BYLAYER
 70
0
 71
3
 72
9
 73
5
 74
0
 42
0.0000001
 43
0.0000001
 44
0.0000000001
 40
0.0
 40
0.0
 40
0.0
 40
0.0
 40
0.2460382598
 40
1.0
 40
1.0
 40
1.0
 40
1.0
 10
12.1320682606
 20
67.9559652282
 30
0.0
 10
12.1140502131
 20
67.9488964819
 30
0.0
 10
12.0408653595
 20
67.9200452805
 30
0.0
 10
11.9679099299
 20
67.890604859
 30
0.0
 10
11.9131419207
 20
67.8678376593
 30
0.0
  0
LINE
  5
376
100
AcDbEntity
  8
0
100
AcDbLine
 62
7
  6
BYLAYER
 10
12.1405886433
 20
67.9578720318
 11
12.1320682606
 21
67.9559652282
  0
SPLINE
  5
377
100
AcDbEntity
  8
0
100
AcDbSpline
 62
7
  6
BYLAYER
 70
0
 71
3
 72
17
 73
13
 74
0
 42
0.0000001
 43
0.0000001
 44
0.0000000001
 40
0.0
 40
0.0
 40
0.0
 40
0.0
 40
0.0175753679
 40
0.0421130052
 40
0.0739913459
 40
0.1131814747
 40
0.2124512873
 40
0.3370542949
 40
0.4830348768
 40
0.6456926451
 40
0.8199649731
 40
1.0
 40
1.0
 40
1.0
 40
1.0
 10
14.3723770669
 20
67.7907455078
 30
0.0
 10
14.37116989
 20
67.7893657863
 30
0.0
 10
14.3675140472
 20
67.7867791374
 30
0.0
 10
14.3605012427
 20
67.7835583107
 30
0.0
 10
14.3510242219
 20
67.7803868904
 30
0.0
 10
14.3338156207
 20
67.7759439606
 30
0.0
 10
14.3067766029
 20
67.7710825262
 30
0.0
 10
14.2684955004
 20
67.7662481157
 30
0.0
 10
14.2234676008
 20
67.7622913529
 30
0.0
 10
14.1731764591
 20
67.7593443102
 30
0.0
 10
14.1192776415
 20
67.7575300318
 30
0.0
 10
14.0823187233
 20
67.7571205534
 30
0.0
 10
14.0635393605
 20
67.7571205534
 30
0.0
  0
SPLINE
  5
378
100
AcDbEntity
  8
0
100
AcDbSpline
 62
7
  6
BYLAYER
 70
0
 71
3
 72
17
 73
13
 74
0
 42
0.0000001
 43
0.0000001
 44
0.0000000001
 40
0.0
 40
0.0
 40
0.0
 40
0.0
 40
0.1800318635
 40
0.3542997836
 40
0.5169581248
 40
0.6629405863
 40
0.7875456577
 40
0.886817177
 40
0.9260080412
 40
0.9578867593
 40
0.9824245822
 40
1.0
 40
1.0
 40
1.0
 40
1.0
 10
9.049642821
 20
67.7571205534
 30
0.0
 10
9.0308637883
 20
67.7571205534
 30
0.0
 10
8.9939056597
 20
67.7575299736
 30
0.0
 10
8.940007573
 20
67.759344249
 30
0.0
 10
8.8897166318
 20
67.7622912109
 30
0.0
 10
8.8446882575
 20
67.7662479455
 30
0.0
 10
8.8064065609
 20
67.7710823609
 30
0.0
 10
8.7793670778
 20
67.7759438582
 30
0.0
 10
8.7621581805
 20
67.7803868194
 30
0.0
 10
8.7526810318
 20
67.7835582859
 30
0.0
 10
8.7456681653
 20
67.7867791274
 30
0.0
 10
8.7420122949
 20
67.7893657824
 30
0.0
 10
8.7408051146
 20
67.7907455078
 30
0.0
  0
SPLINE
  5
379
100
AcDbEntity
  8
0
100
AcDbSpline
 62
7
  6
BYLAYER
 70
0
 71
3
 72
13
 73
9
 74
0
 42
0.0000001
 43
0.0000001
 44
0.0000000001
 40
0.0
 40
0.0
 40
0.0
 40
0.0
 40
0.3040834018
 40
0.5864774407
 40
0.7127235784
 40
0.8253673602
 40
0.9218930726
 40
1.0
 40
1.0
 40
1.0
 40
1.0
 10
12.0238590266
 20
66.5269095413
 30
0.0
 10
12.0238590266
 20
66.573603703
 30
0.0
 10
12.0224393162
 20
66.6636666762
 30
0.0
 10
12.0170199735
 20
66.7730077837
 30
0.0
 10
12.0103024468
 20
66.8527793642
 30
0.0
 10
12.0045441797
 20
66.9039724926
 30
0.0
 10
11.997991432
 20
66.9476046446
 30
0.0
 10
11.9926365432
 20
66.9739091313
 30
0.0
 10
11.9896678969
 20
66.9855298074
 30
0.0
  0
SPLINE
  5
37A
100
AcDbEntity
  8
0
100
AcDbSpline
 62
7
  6
BYLAYER
 70
0
 71
3
 72
13
 73
9
 74
0
 42
0.0000001
 43
0.0000001
 44
0.0000000001
 40
0.0
 40
0.0
 40
0.0
 40
0.0
 40
0.0780896679
 40
0.1745486835
 40
0.2871301149
 40
0.4133513732
 40
0.6957897275
 40
1.0
 40
1.0
 40
1.0
 40
1.0
 10
11.1235847314
 20
66.9858932179
 30
0.0
 10
11.1206143554
 20
66.9742657709
 30
0.0
 10
11.115250325
 20
66.9479545357
 30
0.0
 10
11.1086822443
 20
66.9043114482
 30
0.0
 10
11.1029105193
 20
66.8531019461
 30
0.0
 10
11.0961775506
 20
66.7732736528
 30
0.0
 10
11.0907462002
 20
66.6638224175
 30
0.0
 10
11.089323155
 20
66.573660734
 30
0.0
 10
11.089323155
 20
66.5269095413
 30
0.0
  0
SPLINE
  5
37B
100
AcDbEntity
  8
0
100
AcDbSpline
 62
7
  6
BYLAYER
 70
0
 71
3
 72
9
 73
5
 74
0
 42
0.0000001
 43
0.0000001
 44
0.0000000001
 40
0.0
 40
0.0
 40
0.0
 40
0.0
 40
0.2544124182
 40
1.0
 40
1.0
 40
1.0
 40
1.0
 10
55.8995378796
 20
68.5673352781
 30
0.0
 10
55.8929255997
 20
68.5870194981
 30
0.0
 10
55.8672132415
 20
68.6644842782
 30
0.0
 10
55.8423797771
 20
68.7422379464
 30
0.0
 10
55.8241113263
 20
68.8002859832
 30
0.0
  0
SPLINE
  5
37C
100
AcDbEntity
  8
0
100
AcDbSpline
 62
7
  6
BYLAYER
 70
0
 71
3
 72
9
 73
5
 74
0
 42
0.0000001
 43
0.0000001
 44
0.0000000001
 40
0.0
 40
0.0
 40
0.0
 40
0.0
 40
0.2459824255
 40
1.0
 40
1.0
 40
1.0
 40
1.0
 10
56.1324885847
 20
68.4919087248
 30
0.0
 10
56.1133375686
 20
68.4979357916
 30
0.0
 10
56.0355190631
 20
68.5225531218
 30
0.0
 10
55.9578770496
 20
68.5477381123
 30
0.0
 10
55.8995378796
 20
68.5673352781
 30
0.0
  0
SPLINE
  5
37D
100
AcDbEntity
  8
0
100
AcDbSpline
 62
7
  6
BYLAYER
 70
0
 71
3
 72
9
 73
5
 74
0
 42
0.0000001
 43
0.0000001
 44
0.0000000001
 40
0.0
 40
0.0
 40
0.0
 40
0.0
 40
0.2544124182
 40
1.0
 40
1.0
 40
1.0
 40
1.0
 10
55.2136443019
 20
67.8814417003
 30
0.0
 10
55.2202565818
 20
67.8617574803
 30
0.0
 10
55.24596894
 20
67.7842927003
 30
0.0
 10
55.2708024044
 20
67.706539032
 30
0.0
 10
55.2890708552
 20
67.6484909952
 30
0.0
  0
SPLINE
  5
37E
100
AcDbEntity
  8
0
100
AcDbSpline
 62
7
  6
BYLAYER
 70
0
 71
3
 72
9
 73
5
 74
0
 42
0.0000001
 43
0.0000001
 44
0.0000000001
 40
0.0
 40
0.0
 40
0.0
 40
0.0
 40
0.2459824255
 40
1.0
 40
1.0
 40
1.0
 40
1.0
 10
54.9806935968
 20
67.9568682537
 30
0.0
 10
54.9998446129
 20
67.9508411869
 30
0.0
 10
55.0776631184
 20
67.9262238567
 30
0.0
 10
55.1553051319
 20
67.9010388661
 30
0.0
 10
55.2136443019
 20
67.8814417003
 30
0.0
  0
LINE
  5
37F
100
AcDbEntity
  8
0
100
AcDbLine
 62
7
  6
BYLAYER
 10
56.1401770986
 20
68.4908012373
 11
56.1324885847
 21
68.4919087248
  0
SPLINE
  5
380
100
AcDbEntity
  8
0
100
AcDbSpline
 62
7
  6
BYLAYER
 70
0
 71
3
 72
12
 73
8
 74
0
 42
0.0000001
 43
0.0000001
 44
0.0000000001
 40
0.0
 40
0.0
 40
0.0
 40
0.0
 40
0.3011555666
 40
0.4640090751
 40
0.5775251531
 40
0.7752125248
 40
1.0
 40
1.0
 40
1.0
 40
1.0
 10
55.8241113263
 20
68.8002859832
 30
0.0
 10
55.8239994376
 20
68.801059826
 30
0.0
 10
55.8237028641
 20
68.8022269264
 30
0.0
 10
55.823489947
 20
68.8037222703
 30
0.0
 10
55.8236428404
 20
68.8049550507
 30
0.0
 10
55.8233053944
 20
68.8063265334
 30
0.0
 10
55.8230867441
 20
68.8073968001
 30
0.0
 10
55.8230038389
 20
68.807974497
 30
0.0
  0
LINE
  5
381
100
AcDbEntity
  8
0
100
AcDbLine
 62
7
  6
BYLAYER
 10
55.2900746334
 20
68.8083860417
 11
55.2881678297
 21
68.799865659
  0
LINE
  5
382
100
AcDbEntity
  8
0
100
AcDbLine
 62
7
  6
BYLAYER
 10
54.9725935382
 20
68.4909049466
 11
54.981113921
 21
68.4928117503
  0
SPLINE
  5
383
100
AcDbEntity
  8
0
100
AcDbSpline
 62
7
  6
BYLAYER
 70
0
 71
3
 72
13
 73
9
 74
0
 42
0.0000001
 43
0.0000001
 44
0.0000000001
 40
0.0
 40
0.0
 40
0.0
 40
0.0
 40
0.078089668
 40
0.1745486835
 40
0.2871301148
 40
0.4133513731
 40
0.6957897275
 40
1.0
 40
1.0
 40
1.0
 40
1.0
 10
55.9895974501
 20
69.4628837604
 30
0.0
 10
55.9925678261
 20
69.4745112074
 30
0.0
 10
55.9979318565
 20
69.5008224427
 30
0.0
 10
56.0044999372
 20
69.5444655301
 30
0.0
 10
56.0102716622
 20
69.5956750323
 30
0.0
 10
56.0170046309
 20
69.6755033255
 30
0.0
 10
56.0224359813
 20
69.7849545609
 30
0.0
 10
56.0238590266
 20
69.8751162444
 30
0.0
 10
56.0238590266
 20
69.9218674371
 30
0.0
  0
SPLINE
  5
384
100
AcDbEntity
  8
0
100
AcDbSpline
 62
7
  6
BYLAYER
 70
0
 71
3
 72
13
 73
9
 74
0
 42
0.0000001
 43
0.0000001
 44
0.0000000001
 40
0.0
 40
0.0
 40
0.0
 40
0.0
 40
0.3040834017
 40
0.5864774408
 40
0.7127235784
 40
0.8253673602
 40
0.9218930726
 40
1.0
 40
1.0
 40
1.0
 40
1.0
 10
55.089323155
 20
69.9218674371
 30
0.0
 10
55.089323155
 20
69.8751732754
 30
0.0
 10
55.0907428653
 20
69.7851103022
 30
0.0
 10
55.0961622081
 20
69.6757691947
 30
0.0
 10
55.1028797347
 20
69.5959976142
 30
0.0
 10
55.1086380018
 20
69.5448044858
 30
0.0
 10
55.1151907495
 20
69.5011723338
 30
0.0
 10
55.1205456383
 20
69.4748678471
 30
0.0
 10
55.1235142846
 20
69.4632471711
 30
0.0
  0
SPLINE
  5
385
100
AcDbEntity
  8
0
100
AcDbSpline
 62
7
  6
BYLAYER
 70
0
 71
3
 72
17
 73
13
 74
0
 42
0.0000001
 43
0.0000001
 44
0.0000000001
 40
0.0
 40
0.0
 40
0.0
 40
0.0
 40
0.1800318635
 40
0.3542997836
 40
0.5169581248
 40
0.6629405863
 40
0.7875456577
 40
0.886817177
 40
0.9260080412
 40
0.9578867593
 40
0.9824245822
 40
1.0
 40
1.0
 40
1.0
 40
1.0
 10
58.0635393605
 20
68.691656425
 30
0.0
 10
58.0823183932
 20
68.691656425
 30
0.0
 10
58.1192765219
 20
68.6912470048
 30
0.0
 10
58.1731746085
 20
68.6894327294
 30
0.0
 10
58.2234655497
 20
68.6864857675
 30
0.0
 10
58.268493924
 20
68.6825290329
 30
0.0
 10
58.3067756206
 20
68.6776946175
 30
0.0
 10
58.3338151038
 20
68.6728331202
 30
0.0
 10
58.351024001
 20
68.668390159
 30
0.0
 10
58.3605011497
 20
68.6652186925
 30
0.0
 10
58.3675140162
 20
68.661997851
 30
0.0
 10
58.3711698866
 20
68.659411196
 30
0.0
 10
58.3723770669
 20
68.6580314706
 30
0.0
  0
SPLINE
  5
386
100
AcDbEntity
  8
0
100
AcDbSpline
 62
7
  6
BYLAYER
 70
0
 71
3
 72
9
 73
5
 74
0
 42
0.0000001
 43
0.0000001
 44
0.0000000001
 40
0.0
 40
0.0
 40
0.0
 40
0.0
 40
0.2542038863
 40
1.0
 40
1.0
 40
1.0
 40
1.0
 10
55.2000402608
 20
68.5809393191
 30
0.0
 10
55.1815747673
 20
68.5732631668
 30
0.0
 10
55.1088270035
 20
68.5433242183
 30
0.0
 10
55.0357307252
 20
68.5142387297
 30
0.0
 10
54.981113921
 20
68.4928117503
 30
0.0
  0
SPLINE
  5
387
100
AcDbEntity
  8
0
100
AcDbSpline
 62
7
  6
BYLAYER
 70
0
 71
3
 72
9
 73
5
 74
0
 42
0.0000001
 43
0.0000001
 44
0.0000000001
 40
0.0
 40
0.0
 40
0.0
 40
0.0
 40
0.2460388638
 40
1.0
 40
1.0
 40
1.0
 40
1.0
 10
55.2881678297
 20
68.799865659
 30
0.0
 10
55.281099066
 20
68.7818475671
 30
0.0
 10
55.2522483273
 20
68.7086625302
 30
0.0
 10
55.2228074425
 20
68.6357072849
 30
0.0
 10
55.2000402608
 20
68.5809393191
 30
0.0
  0
SPLINE
  5
388
100
AcDbEntity
  8
0
100
AcDbSpline
 62
7
  6
BYLAYER
 70
0
 71
3
 72
17
 73
13
 74
0
 42
0.0000001
 43
0.0000001
 44
0.0000000001
 40
0.0
 40
0.0
 40
0.0
 40
0.0
 40
0.0175753679
 40
0.0421130052
 40
0.0739913459
 40
0.1131814747
 40
0.2124512873
 40
0.3370542949
 40
0.4830348768
 40
0.6456926451
 40
0.8199649731
 40
1.0
 40
1.0
 40
1.0
 40
1.0
 10
52.7408051146
 20
68.6580314706
 30
0.0
 10
52.7420122915
 20
68.6594111921
 30
0.0
 10
52.7456681343
 20
68.661997841
 30
0.0
 10
52.7526809388
 20
68.6652186677
 30
0.0
 10
52.7621579596
 20
68.668390088
 30
0.0
 10
52.7793665608
 20
68.6728330178
 30
0.0
 10
52.8064055786
 20
68.6776944523
 30
0.0
 10
52.8446866811
 20
68.6825288627
 30
0.0
 10
52.8897145807
 20
68.6864856255
 30
0.0
 10
52.9400057224
 20
68.6894326682
 30
0.0
 10
52.9939045401
 20
68.6912469466
 30
0.0
 10
53.0308634582
 20
68.691656425
 30
0.0
 10
53.049642821
 20
68.691656425
 30
0.0
  0
SPLINE
  5
389
100
AcDbEntity
  8
0
100
AcDbSpline
 62
7
  6
BYLAYER
 70
0
 71
3
 72
12
 73
8
 74
0
 42
0.0000001
 43
0.0000001
 44
0.0000000001
 40
0.0
 40
0.0
 40
0.0
 40
0.0
 40
0.301041753
 40
0.4640909988
 40
0.577568552
 40
0.775023956
 40
1.0
 40
1.0
 40
1.0
 40
1.0
 10
54.973005083
 20
67.9579757411
 30
0.0
 10
54.973778752
 20
67.9578647171
 30
0.0
 10
54.9749460025
 20
67.9575677918
 30
0.0
 10
54.9764413947
 20
67.9573538913
 30
0.0
 10
54.9776739621
 20
67.9575070918
 30
0.0
 10
54.9790453551
 20
67.9571702716
 30
0.0
 10
54.9801155031
 20
67.9569518393
 30
0.0
 10
54.9806935968
 20
67.9568682537
 30
0.0
  0
LINE
  5
38A
100
AcDbEntity
  8
0
100
AcDbLine
 62
7
  6
BYLAYER
 10
55.2890708552
 20
67.6484909952
 11
55.2901783427
 21
67.6408024814
  0
LINE
  5
38B
100
AcDbEntity
  8
0
100
AcDbLine
 62
7
  6
BYLAYER
 10
55.8231075482
 20
67.6403909367
 11
55.8250143518
 21
67.6489113194
  0
SPLINE
  5
38C
100
AcDbEntity
  8
0
100
AcDbSpline
 62
7
  6
BYLAYER
 70
0
 71
3
 72
9
 73
5
 74
0
 42
0.0000001
 43
0.0000001
 44
0.0000000001
 40
0.0
 40
0.0
 40
0.0
 40
0.0
 40
0.2542068433
 40
1.0
 40
1.0
 40
1.0
 40
1.0
 10
55.9131419207
 20
67.8678376593
 30
0.0
 10
55.905465679
 20
67.8493719508
 30
0.0
 10
55.8755263235
 20
67.7766243536
 30
0.0
 10
55.8464412464
 20
67.7035279074
 30
0.0
 10
55.8250143518
 20
67.6489113194
 30
0.0
  0
SPLINE
  5
38D
100
AcDbEntity
  8
0
100
AcDbSpline
 62
7
  6
BYLAYER
 70
0
 71
3
 72
9
 73
5
 74
0
 42
0.0000001
 43
0.0000001
 44
0.0000000001
 40
0.0
 40
0.0
 40
0.0
 40
0.0
 40
0.2460382598
 40
1.0
 40
1.0
 40
1.0
 40
1.0
 10
56.1320682606
 20
67.9559652282
 30
0.0
 10
56.1140502131
 20
67.9488964819
 30
0.0
 10
56.0408653595
 20
67.9200452805
 30
0.0
 10
55.9679099299
 20
67.890604859
 30
0.0
 10
55.9131419207
 20
67.8678376593
 30
0.0
  0
LINE
  5
38E
100
AcDbEntity
  8
0
100
AcDbLine
 62
7
  6
BYLAYER
 10
56.1405886433
 20
67.9578720318
 11
56.1320682606
 21
67.9559652282
  0
SPLINE
  5
38F
100
AcDbEntity
  8
0
100
AcDbSpline
 62
7
  6
BYLAYER
 70
0
 71
3
 72
17
 73
13
 74
0
 42
0.0000001
 43
0.0000001
 44
0.0000000001
 40
0.0
 40
0.0
 40
0.0
 40
0.0
 40
0.0175753679
 40
0.0421130052
 40
0.0739913459
 40
0.1131814747
 40
0.2124512873
 40
0.3370542949
 40
0.4830348768
 40
0.6456926451
 40
0.8199649731
 40
1.0
 40
1.0
 40
1.0
 40
1.0
 10
58.3723770669
 20
67.7907455078
 30
0.0
 10
58.37116989
 20
67.7893657863
 30
0.0
 10
58.3675140472
 20
67.7867791374
 30
0.0
 10
58.3605012427
 20
67.7835583107
 30
0.0
 10
58.3510242219
 20
67.7803868904
 30
0.0
 10
58.3338156207
 20
67.7759439606
 30
0.0
 10
58.3067766029
 20
67.7710825262
 30
0.0
 10
58.2684955004
 20
67.7662481157
 30
0.0
 10
58.2234676008
 20
67.7622913529
 30
0.0
 10
58.1731764591
 20
67.7593443102
 30
0.0
 10
58.1192776415
 20
67.7575300318
 30
0.0
 10
58.0823187233
 20
67.7571205534
 30
0.0
 10
58.0635393605
 20
67.7571205534
 30
0.0
  0
SPLINE
  5
390
100
AcDbEntity
  8
0
100
AcDbSpline
 62
7
  6
BYLAYER
 70
0
 71
3
 72
17
 73
13
 74
0
 42
0.0000001
 43
0.0000001
 44
0.0000000001
 40
0.0
 40
0.0
 40
0.0
 40
0.0
 40
0.1800318635
 40
0.3542997836
 40
0.5169581248
 40
0.6629405863
 40
0.7875456577
 40
0.886817177
 40
0.9260080412
 40
0.9578867593
 40
0.9824245822
 40
1.0
 40
1.0
 40
1.0
 40
1.0
 10
53.049642821
 20
67.7571205534
 30
0.0
 10
53.0308637883
 20
67.7571205534
 30
0.0
 10
52.9939056597
 20
67.7575299736
 30
0.0
 10
52.940007573
 20
67.759344249
 30
0.0
 10
52.8897166318
 20
67.7622912109
 30
0.0
 10
52.8446882575
 20
67.7662479455
 30
0.0
 10
52.8064065609
 20
67.7710823609
 30
0.0
 10
52.7793670778
 20
67.7759438582
 30
0.0
 10
52.7621581805
 20
67.7803868194
 30
0.0
 10
52.7526810318
 20
67.7835582859
 30
0.0
 10
52.7456681653
 20
67.7867791274
 30
0.0
 10
52.7420122949
 20
67.7893657824
 30
0.0
 10
52.7408051146
 20
67.7907455078
 30
0.0
  0
SPLINE
  5
391
100
AcDbEntity
  8
0
100
AcDbSpline
 62
7
  6
BYLAYER
 70
0
 71
3
 72
13
 73
9
 74
0
 42
0.0000001
 43
0.0000001
 44
0.0000000001
 40
0.0
 40
0.0
 40
0.0
 40
0.0
 40
0.3040834018
 40
0.5864774407
 40
0.7127235784
 40
0.8253673602
 40
0.9218930726
 40
1.0
 40
1.0
 40
1.0
 40
1.0
 10
56.0238590266
 20
66.5269095413
 30
0.0
 10
56.0238590266
 20
66.573603703
 30
0.0
 10
56.0224393162
 20
66.6636666762
 30
0.0
 10
56.0170199735
 20
66.7730077837
 30
0.0
 10
56.0103024468
 20
66.8527793642
 30
0.0
 10
56.0045441797
 20
66.9039724926
 30
0.0
 10
55.997991432
 20
66.9476046446
 30
0.0
 10
55.9926365432
 20
66.9739091313
 30
0.0
 10
55.9896678969
 20
66.9855298074
 30
0.0
  0
SPLINE
  5
392
100
AcDbEntity
  8
0
100
AcDbSpline
 62
7
  6
BYLAYER
 70
0
 71
3
 72
13
 73
9
 74
0
 42
0.0000001
 43
0.0000001
 44
0.0000000001
 40
0.0
 40
0.0
 40
0.0
 40
0.0
 40
0.0780896679
 40
0.1745486835
 40
0.2871301149
 40
0.4133513732
 40
0.6957897275
 40
1.0
 40
1.0
 40
1.0
 40
1.0
 10
55.1235847314
 20
66.9858932179
 30
0.0
 10
55.1206143554
 20
66.9742657709
 30
0.0
 10
55.115250325
 20
66.9479545357
 30
0.0
 10
55.1086822443
 20
66.9043114482
 30
0.0
 10
55.1029105193
 20
66.8531019461
 30
0.0
 10
55.0961775506
 20
66.7732736528
 30
0.0
 10
55.0907462002
 20
66.6638224175
 30
0.0
 10
55.089323155
 20
66.573660734
 30
0.0
 10
55.089323155
 20
66.5269095413
 30
0.0
  0
SPLINE
  5
393
100
AcDbEntity
  8
0
100
AcDbSpline
 62
7
  6
BYLAYER
 70
0
 71
3
 72
9
 73
5
 74
0
 42
0.0000001
 43
0.0000001
 44
0.0000000001
 40
0.0
 40
0.0
 40
0.0
 40
0.0
 40
0.2544124182
 40
1.0
 40
1.0
 40
1.0
 40
1.0
 10
45.8995378796
 20
27.0673352781
 30
0.0
 10
45.8929255997
 20
27.0870194981
 30
0.0
 10
45.8672132415
 20
27.1644842782
 30
0.0
 10
45.8423797771
 20
27.2422379464
 30
0.0
 10
45.8241113263
 20
27.3002859832
 30
0.0
  0
SPLINE
  5
394
100
AcDbEntity
  8
0
100
AcDbSpline
 62
7
  6
BYLAYER
 70
0
 71
3
 72
9
 73
5
 74
0
 42
0.0000001
 43
0.0000001
 44
0.0000000001
 40
0.0
 40
0.0
 40
0.0
 40
0.0
 40
0.2459824255
 40
1.0
 40
1.0
 40
1.0
 40
1.0
 10
46.1324885847
 20
26.9919087248
 30
0.0
 10
46.1133375686
 20
26.9979357916
 30
0.0
 10
46.0355190631
 20
27.0225531218
 30
0.0
 10
45.9578770496
 20
27.0477381123
 30
0.0
 10
45.8995378796
 20
27.0673352781
 30
0.0
  0
SPLINE
  5
395
100
AcDbEntity
  8
0
100
AcDbSpline
 62
7
  6
BYLAYER
 70
0
 71
3
 72
9
 73
5
 74
0
 42
0.0000001
 43
0.0000001
 44
0.0000000001
 40
0.0
 40
0.0
 40
0.0
 40
0.0
 40
0.2544124182
 40
1.0
 40
1.0
 40
1.0
 40
1.0
 10
45.2136443019
 20
26.3814417003
 30
0.0
 10
45.2202565818
 20
26.3617574803
 30
0.0
 10
45.24596894
 20
26.2842927003
 30
0.0
 10
45.2708024044
 20
26.206539032
 30
0.0
 10
45.2890708552
 20
26.1484909952
 30
0.0
  0
SPLINE
  5
396
100
AcDbEntity
  8
0
100
AcDbSpline
 62
7
  6
BYLAYER
 70
0
 71
3
 72
9
 73
5
 74
0
 42
0.0000001
 43
0.0000001
 44
0.0000000001
 40
0.0
 40
0.0
 40
0.0
 40
0.0
 40
0.2459824255
 40
1.0
 40
1.0
 40
1.0
 40
1.0
 10
44.9806935968
 20
26.4568682537
 30
0.0
 10
44.9998446129
 20
26.4508411869
 30
0.0
 10
45.0776631184
 20
26.4262238567
 30
0.0
 10
45.1553051319
 20
26.4010388661
 30
0.0
 10
45.2136443019
 20
26.3814417003
 30
0.0
  0
LINE
  5
397
100
AcDbEntity
  8
0
100
AcDbLine
 62
7
  6
BYLAYER
 10
46.1401770986
 20
26.9908012373
 11
46.1324885847
 21
26.9919087248
  0
SPLINE
  5
398
100
AcDbEntity
  8
0
100
AcDbSpline
 62
7
  6
BYLAYER
 70
0
 71
3
 72
12
 73
8
 74
0
 42
0.0000001
 43
0.0000001
 44
0.0000000001
 40
0.0
 40
0.0
 40
0.0
 40
0.0
 40
0.3011555666
 40
0.4640090751
 40
0.5775251531
 40
0.7752125248
 40
1.0
 40
1.0
 40
1.0
 40
1.0
 10
45.8241113263
 20
27.3002859832
 30
0.0
 10
45.8239994376
 20
27.301059826
 30
0.0
 10
45.8237028641
 20
27.3022269264
 30
0.0
 10
45.823489947
 20
27.3037222703
 30
0.0
 10
45.8236428404
 20
27.3049550507
 30
0.0
 10
45.8233053944
 20
27.3063265334
 30
0.0
 10
45.8230867441
 20
27.3073968001
 30
0.0
 10
45.8230038389
 20
27.307974497
 30
0.0
  0
LINE
  5
399
100
AcDbEntity
  8
0
100
AcDbLine
 62
7
  6
BYLAYER
 10
45.2900746334
 20
27.3083860417
 11
45.2881678297
 21
27.299865659
  0
LINE
  5
39A
100
AcDbEntity
  8
0
100
AcDbLine
 62
7
  6
BYLAYER
 10
44.9725935382
 20
26.9909049466
 11
44.981113921
 21
26.9928117503
  0
SPLINE
  5
39B
100
AcDbEntity
  8
0
100
AcDbSpline
 62
7
  6
BYLAYER
 70
0
 71
3
 72
13
 73
9
 74
0
 42
0.0000001
 43
0.0000001
 44
0.0000000001
 40
0.0
 40
0.0
 40
0.0
 40
0.0
 40
0.078089668
 40
0.1745486834
 40
0.2871301146
 40
0.4133513729
 40
0.6957897273
 40
1.0
 40
1.0
 40
1.0
 40
1.0
 10
45.98959745
 20
27.9628837599
 30
0.0
 10
45.992567826
 20
27.974511207
 30
0.0
 10
45.9979318565
 20
28.0008224422
 30
0.0
 10
46.0044999372
 20
28.0444655297
 30
0.0
 10
46.0102716622
 20
28.0956750318
 30
0.0
 10
46.0170046309
 20
28.1755033252
 30
0.0
 10
46.0224359813
 20
28.2849545607
 30
0.0
 10
46.0238590266
 20
28.3751162443
 30
0.0
 10
46.0238590266
 20
28.4218674371
 30
0.0
  0
SPLINE
  5
39C
100
AcDbEntity
  8
0
100
AcDbSpline
 62
7
  6
BYLAYER
 70
0
 71
3
 72
13
 73
9
 74
0
 42
0.0000001
 43
0.0000001
 44
0.0000000001
 40
0.0
 40
0.0
 40
0.0
 40
0.0
 40
0.3040834017
 40
0.5864774408
 40
0.7127235784
 40
0.8253673602
 40
0.9218930726
 40
1.0
 40
1.0
 40
1.0
 40
1.0
 10
45.089323155
 20
28.4218674371
 30
0.0
 10
45.089323155
 20
28.3751732754
 30
0.0
 10
45.0907428653
 20
28.2851103022
 30
0.0
 10
45.0961622081
 20
28.1757691947
 30
0.0
 10
45.1028797347
 20
28.0959976142
 30
0.0
 10
45.1086380018
 20
28.0448044858
 30
0.0
 10
45.1151907495
 20
28.0011723338
 30
0.0
 10
45.1205456383
 20
27.9748678471
 30
0.0
 10
45.1235142846
 20
27.9632471711
 30
0.0
  0
SPLINE
  5
39D
100
AcDbEntity
  8
0
100
AcDbSpline
 62
7
  6
BYLAYER
 70
0
 71
3
 72
17
 73
13
 74
0
 42
0.0000001
 43
0.0000001
 44
0.0000000001
 40
0.0
 40
0.0
 40
0.0
 40
0.0
 40
0.1800318635
 40
0.3542997836
 40
0.5169581248
 40
0.6629405863
 40
0.7875456577
 40
0.886817177
 40
0.9260080412
 40
0.9578867593
 40
0.9824245822
 40
1.0
 40
1.0
 40
1.0
 40
1.0
 10
48.0635393605
 20
27.191656425
 30
0.0
 10
48.0823183932
 20
27.191656425
 30
0.0
 10
48.1192765219
 20
27.1912470048
 30
0.0
 10
48.1731746085
 20
27.1894327294
 30
0.0
 10
48.2234655497
 20
27.1864857675
 30
0.0
 10
48.268493924
 20
27.1825290329
 30
0.0
 10
48.3067756206
 20
27.1776946175
 30
0.0
 10
48.3338151038
 20
27.1728331202
 30
0.0
 10
48.351024001
 20
27.168390159
 30
0.0
 10
48.3605011497
 20
27.1652186925
 30
0.0
 10
48.3675140162
 20
27.161997851
 30
0.0
 10
48.3711698866
 20
27.159411196
 30
0.0
 10
48.3723770669
 20
27.1580314706
 30
0.0
  0
SPLINE
  5
39E
100
AcDbEntity
  8
0
100
AcDbSpline
 62
7
  6
BYLAYER
 70
0
 71
3
 72
9
 73
5
 74
0
 42
0.0000001
 43
0.0000001
 44
0.0000000001
 40
0.0
 40
0.0
 40
0.0
 40
0.0
 40
0.2542038863
 40
1.0
 40
1.0
 40
1.0
 40
1.0
 10
45.2000402608
 20
27.0809393191
 30
0.0
 10
45.1815747673
 20
27.0732631668
 30
0.0
 10
45.1088270035
 20
27.0433242183
 30
0.0
 10
45.0357307252
 20
27.0142387297
 30
0.0
 10
44.981113921
 20
26.9928117503
 30
0.0
  0
SPLINE
  5
39F
100
AcDbEntity
  8
0
100
AcDbSpline
 62
7
  6
BYLAYER
 70
0
 71
3
 72
9
 73
5
 74
0
 42
0.0000001
 43
0.0000001
 44
0.0000000001
 40
0.0
 40
0.0
 40
0.0
 40
0.0
 40
0.2460388638
 40
1.0
 40
1.0
 40
1.0
 40
1.0
 10
45.2881678297
 20
27.299865659
 30
0.0
 10
45.281099066
 20
27.2818475671
 30
0.0
 10
45.2522483273
 20
27.2086625302
 30
0.0
 10
45.2228074425
 20
27.1357072849
 30
0.0
 10
45.2000402608
 20
27.0809393191
 30
0.0
  0
SPLINE
  5
3A0
100
AcDbEntity
  8
0
100
AcDbSpline
 62
7
  6
BYLAYER
 70
0
 71
3
 72
17
 73
13
 74
0
 42
0.0000001
 43
0.0000001
 44
0.0000000001
 40
0.0
 40
0.0
 40
0.0
 40
0.0
 40
0.0175753679
 40
0.0421130052
 40
0.0739913459
 40
0.1131814747
 40
0.2124512873
 40
0.3370542949
 40
0.4830348768
 40
0.6456926451
 40
0.8199649731
 40
1.0
 40
1.0
 40
1.0
 40
1.0
 10
42.7408051146
 20
27.1580314706
 30
0.0
 10
42.7420122915
 20
27.1594111921
 30
0.0
 10
42.7456681343
 20
27.161997841
 30
0.0
 10
42.7526809388
 20
27.1652186677
 30
0.0
 10
42.7621579596
 20
27.168390088
 30
0.0
 10
42.7793665608
 20
27.1728330178
 30
0.0
 10
42.8064055786
 20
27.1776944523
 30
0.0
 10
42.8446866811
 20
27.1825288627
 30
0.0
 10
42.8897145807
 20
27.1864856255
 30
0.0
 10
42.9400057224
 20
27.1894326682
 30
0.0
 10
42.9939045401
 20
27.1912469466
 30
0.0
 10
43.0308634582
 20
27.191656425
 30
0.0
 10
43.049642821
 20
27.191656425
 30
0.0
  0
SPLINE
  5
3A1
100
AcDbEntity
  8
0
100
AcDbSpline
 62
7
  6
BYLAYER
 70
0
 71
3
 72
12
 73
8
 74
0
 42
0.0000001
 43
0.0000001
 44
0.0000000001
 40
0.0
 40
0.0
 40
0.0
 40
0.0
 40
0.301041753
 40
0.4640909988
 40
0.577568552
 40
0.775023956
 40
1.0
 40
1.0
 40
1.0
 40
1.0
 10
44.973005083
 20
26.4579757411
 30
0.0
 10
44.973778752
 20
26.4578647171
 30
0.0
 10
44.9749460025
 20
26.4575677918
 30
0.0
 10
44.9764413947
 20
26.4573538913
 30
0.0
 10
44.9776739621
 20
26.4575070918
 30
0.0
 10
44.9790453551
 20
26.4571702716
 30
0.0
 10
44.9801155031
 20
26.4569518393
 30
0.0
 10
44.9806935968
 20
26.4568682537
 30
0.0
  0
LINE
  5
3A2
100
AcDbEntity
  8
0
100
AcDbLine
 62
7
  6
BYLAYER
 10
45.2890708552
 20
26.1484909952
 11
45.2901783427
 21
26.1408024814
  0
LINE
  5
3A3
100
AcDbEntity
  8
0
100
AcDbLine
 62
7
  6
BYLAYER
 10
45.8231075482
 20
26.1403909367
 11
45.8250143518
 21
26.1489113194
  0
SPLINE
  5
3A4
100
AcDbEntity
  8
0
100
AcDbSpline
 62
7
  6
BYLAYER
 70
0
 71
3
 72
9
 73
5
 74
0
 42
0.0000001
 43
0.0000001
 44
0.0000000001
 40
0.0
 40
0.0
 40
0.0
 40
0.0
 40
0.2542068433
 40
1.0
 40
1.0
 40
1.0
 40
1.0
 10
45.9131419207
 20
26.3678376593
 30
0.0
 10
45.905465679
 20
26.3493719508
 30
0.0
 10
45.8755263235
 20
26.2766243536
 30
0.0
 10
45.8464412464
 20
26.2035279074
 30
0.0
 10
45.8250143518
 20
26.1489113194
 30
0.0
  0
SPLINE
  5
3A5
100
AcDbEntity
  8
0
100
AcDbSpline
 62
7
  6
BYLAYER
 70
0
 71
3
 72
9
 73
5
 74
0
 42
0.0000001
 43
0.0000001
 44
0.0000000001
 40
0.0
 40
0.0
 40
0.0
 40
0.0
 40
0.2460382598
 40
1.0
 40
1.0
 40
1.0
 40
1.0
 10
46.1320682606
 20
26.4559652282
 30
0.0
 10
46.1140502131
 20
26.4488964819
 30
0.0
 10
46.0408653595
 20
26.4200452805
 30
0.0
 10
45.9679099299
 20
26.390604859
 30
0.0
 10
45.9131419207
 20
26.3678376593
 30
0.0
  0
LINE
  5
3A6
100
AcDbEntity
  8
0
100
AcDbLine
 62
7
  6
BYLAYER
 10
46.1405886433
 20
26.4578720318
 11
46.1320682606
 21
26.4559652282
  0
SPLINE
  5
3A7
100
AcDbEntity
  8
0
100
AcDbSpline
 62
7
  6
BYLAYER
 70
0
 71
3
 72
17
 73
13
 74
0
 42
0.0000001
 43
0.0000001
 44
0.0000000001
 40
0.0
 40
0.0
 40
0.0
 40
0.0
 40
0.0175753679
 40
0.0421130052
 40
0.0739913459
 40
0.1131814747
 40
0.2124512873
 40
0.3370542949
 40
0.4830348768
 40
0.6456926451
 40
0.8199649731
 40
1.0
 40
1.0
 40
1.0
 40
1.0
 10
48.3723770669
 20
26.2907455078
 30
0.0
 10
48.37116989
 20
26.2893657863
 30
0.0
 10
48.3675140472
 20
26.2867791374
 30
0.0
 10
48.3605012427
 20
26.2835583107
 30
0.0
 10
48.3510242219
 20
26.2803868904
 30
0.0
 10
48.3338156207
 20
26.2759439606
 30
0.0
 10
48.3067766029
 20
26.2710825262
 30
0.0
 10
48.2684955004
 20
26.2662481157
 30
0.0
 10
48.2234676008
 20
26.2622913529
 30
0.0
 10
48.1731764591
 20
26.2593443102
 30
0.0
 10
48.1192776415
 20
26.2575300318
 30
0.0
 10
48.0823187233
 20
26.2571205534
 30
0.0
 10
48.0635393605
 20
26.2571205534
 30
0.0
  0
SPLINE
  5
3A8
100
AcDbEntity
  8
0
100
AcDbSpline
 62
7
  6
BYLAYER
 70
0
 71
3
 72
17
 73
13
 74
0
 42
0.0000001
 43
0.0000001
 44
0.0000000001
 40
0.0
 40
0.0
 40
0.0
 40
0.0
 40
0.1800318635
 40
0.3542997836
 40
0.5169581248
 40
0.6629405863
 40
0.7875456577
 40
0.886817177
 40
0.9260080412
 40
0.9578867593
 40
0.9824245822
 40
1.0
 40
1.0
 40
1.0
 40
1.0
 10
43.049642821
 20
26.2571205534
 30
0.0
 10
43.0308637883
 20
26.2571205534
 30
0.0
 10
42.9939056597
 20
26.2575299736
 30
0.0
 10
42.940007573
 20
26.259344249
 30
0.0
 10
42.8897166318
 20
26.2622912109
 30
0.0
 10
42.8446882575
 20
26.2662479455
 30
0.0
 10
42.8064065609
 20
26.2710823609
 30
0.0
 10
42.7793670778
 20
26.2759438582
 30
0.0
 10
42.7621581805
 20
26.2803868194
 30
0.0
 10
42.7526810318
 20
26.2835582859
 30
0.0
 10
42.7456681653
 20
26.2867791274
 30
0.0
 10
42.7420122949
 20
26.2893657824
 30
0.0
 10
42.7408051146
 20
26.2907455078
 30
0.0
  0
SPLINE
  5
3A9
100
AcDbEntity
  8
0
100
AcDbSpline
 62
7
  6
BYLAYER
 70
0
 71
3
 72
13
 73
9
 74
0
 42
0.0000001
 43
0.0000001
 44
0.0000000001
 40
0.0
 40
0.0
 40
0.0
 40
0.0
 40
0.3040834018
 40
0.5864774407
 40
0.7127235784
 40
0.8253673602
 40
0.9218930726
 40
1.0
 40
1.0
 40
1.0
 40
1.0
 10
46.0238590266
 20
25.0269095413
 30
0.0
 10
46.0238590266
 20
25.073603703
 30
0.0
 10
46.0224393162
 20
25.1636666762
 30
0.0
 10
46.0170199735
 20
25.2730077837
 30
0.0
 10
46.0103024468
 20
25.3527793642
 30
0.0
 10
46.0045441797
 20
25.4039724926
 30
0.0
 10
45.997991432
 20
25.4476046446
 30
0.0
 10
45.9926365432
 20
25.4739091313
 30
0.0
 10
45.9896678969
 20
25.4855298074
 30
0.0
  0
SPLINE
  5
3AA
100
AcDbEntity
  8
0
100
AcDbSpline
 62
7
  6
BYLAYER
 70
0
 71
3
 72
13
 73
9
 74
0
 42
0.0000001
 43
0.0000001
 44
0.0000000001
 40
0.0
 40
0.0
 40
0.0
 40
0.0
 40
0.0780896679
 40
0.1745486834
 40
0.2871301148
 40
0.4133513732
 40
0.6957897275
 40
1.0
 40
1.0
 40
1.0
 40
1.0
 10
45.1235847314
 20
25.485893218
 30
0.0
 10
45.1206143554
 20
25.4742657709
 30
0.0
 10
45.115250325
 20
25.4479545357
 30
0.0
 10
45.1086822443
 20
25.4043114483
 30
0.0
 10
45.1029105193
 20
25.3531019461
 30
0.0
 10
45.0961775506
 20
25.2732736528
 30
0.0
 10
45.0907462002
 20
25.1638224175
 30
0.0
 10
45.089323155
 20
25.073660734
 30
0.0
 10
45.089323155
 20
25.0269095413
 30
0.0
  0
SPLINE
  5
3AB
100
AcDbEntity
  8
0
100
AcDbSpline
 62
7
  6
BYLAYER
 70
0
 71
3
 72
9
 73
5
 74
0
 42
0.0000001
 43
0.0000001
 44
0.0000000001
 40
0.0
 40
0.0
 40
0.0
 40
0.0
 40
0.5009120891
 40
1.0
 40
1.0
 40
1.0
 40
1.0
 10
43.2099030222
 20
7.1243884892
 30
0.0
 10
42.7725598001
 20
7.0078649108
 30
0.0
 10
41.8914372967
 20
6.803982105
 30
0.0
 10
40.9964871903
 20
6.6706407727
 30
0.0
 10
40.5479135683
 20
6.6243884892
 30
0.0
  0
SPLINE
  5
3AC
100
AcDbEntity
  8
0
100
AcDbSpline
 62
7
  6
BYLAYER
 70
0
 71
3
 72
9
 73
5
 74
0
 42
0.0000001
 43
0.0000001
 44
0.0000000001
 40
0.0
 40
0.0
 40
0.0
 40
0.0
 40
0.4990878688
 40
1.0
 40
1.0
 40
1.0
 40
1.0
 10
37.5652686133
 20
6.6243884892
 30
0.0
 10
37.1166950276
 20
6.6706407689
 30
0.0
 10
36.2217448811
 20
6.8039818774
 30
0.0
 10
35.3406224197
 20
7.0078649006
 30
0.0
 10
34.9032791593
 20
7.1243884892
 30
0.0
  0
SPLINE
  5
3AD
100
AcDbEntity
  8
0
100
AcDbSpline
 62
7
  6
BYLAYER
 70
0
 71
3
 72
9
 73
5
 74
0
 42
0.0000001
 43
0.0000001
 44
0.0000000001
 40
0.0
 40
0.0
 40
0.0
 40
0.0
 40
0.5009120891
 40
1.0
 40
1.0
 40
1.0
 40
1.0
 10
32.2099030222
 20
7.1243884892
 30
0.0
 10
31.7725598001
 20
7.0078649108
 30
0.0
 10
30.8914372967
 20
6.803982105
 30
0.0
 10
29.9964871903
 20
6.6706407727
 30
0.0
 10
29.5479135683
 20
6.6243884892
 30
0.0
  0
SPLINE
  5
3AE
100
AcDbEntity
  8
0
100
AcDbSpline
 62
7
  6
BYLAYER
 70
0
 71
3
 72
9
 73
5
 74
0
 42
0.0000001
 43
0.0000001
 44
0.0000000001
 40
0.0
 40
0.0
 40
0.0
 40
0.0
 40
0.4990878688
 40
1.0
 40
1.0
 40
1.0
 40
1.0
 10
26.5652686133
 20
6.6243884892
 30
0.0
 10
26.1166950276
 20
6.6706407689
 30
0.0
 10
25.2217448811
 20
6.8039818774
 30
0.0
 10
24.3406224197
 20
7.0078649006
 30
0.0
 10
23.9032791593
 20
7.1243884892
 30
0.0
  0
SPLINE
  5
3AF
100
AcDbEntity
  8
0
100
AcDbSpline
 62
7
  6
BYLAYER
 70
0
 71
3
 72
19
 73
15
 74
0
 42
0.0000001
 43
0.0000001
 44
0.0000000001
 40
0.0
 40
0.0
 40
0.0
 40
0.0
 40
0.0312659612
 40
0.0625410843
 40
0.1249545634
 40
0.1874324375
 40
0.2499364715
 40
0.3124487023
 40
0.3749639961
 40
0.4999404595
 40
0.6249401482
 40
0.7499500427
 40
0.874972698
 40
1.0
 40
1.0
 40
1.0
 40
1.0
 10
27.9385398272
 20
22.7243884892
 30
0.0
 10
27.9385398272
 20
22.7500693459
 30
0.0
 10
27.9338029934
 20
22.8015562645
 30
0.0
 10
27.906617555
 20
22.9009711808
 30
0.0
 10
27.844334554
 20
23.0150567232
 30
0.0
 10
27.7426334614
 20
23.1315492843
 30
0.0
 10
27.6248786007
 20
23.2314509737
 30
0.0
 10
27.4970041417
 20
23.3177376674
 30
0.0
 10
27.3174636418
 20
23.417775512
 30
0.0
 10
27.0809308984
 20
23.5191953933
 30
0.0
 10
26.7864210745
 20
23.6107650711
 30
0.0
 10
26.4849116262
 20
23.675730119
 30
0.0
 10
26.1790623457
 20
23.7152639485
 30
0.0
 10
25.9735782173
 20
23.7243884892
 30
0.0
 10
25.8708848057
 20
23.7243884892
 30
0.0
  0
SPLINE
  5
3B0
100
AcDbEntity
  8
0
100
AcDbSpline
 62
7
  6
BYLAYER
 70
0
 71
3
 72
16
 73
12
 74
0
 42
0.0000001
 43
0.0000001
 44
0.0000000001
 40
0.0
 40
0.0
 40
0.0
 40
0.0
 40
0.3603779592
 40
0.5359975084
 40
0.693342673
 40
0.8216415413
 40
0.8730808318
 40
0.9153657561
 40
0.9482657874
 40
0.9724532661
 40
1.0
 40
1.0
 40
1.0
 40
1.0
 10
20.5565910908
 20
78.2864058468
 30
0.0
 10
20.4952247551
 20
78.2864058562
 30
0.0
 10
20.4039242389
 20
78.284439712
 30
0.0
 10
20.2860813132
 20
78.2770019168
 30
0.0
 10
20.2078778635
 20
78.2694208891
 30
0.0
 10
20.1510549736
 20
78.2611502602
 30
0.0
 10
20.1139974142
 20
78.2534166919
 30
0.0
 10
20.0932024108
 20
78.247977448
 30
0.0
 10
20.0770301634
 20
78.2422148065
 30
0.0
 10
20.0645665885
 20
78.2361971241
 30
0.0
 10
20.0565905216
 20
78.2290792392
 30
0.0
 10
20.0565905207
 20
78.2243884914
 30
0.0
  0
SPLINE
  5
3B1
100
AcDbEntity
  8
0
100
AcDbSpline
 62
7
  6
BYLAYER
 70
0
 71
3
 72
19
 73
15
 74
0
 42
0.0000001
 43
0.0000001
 44
0.0000000001
 40
0.0
 40
0.0
 40
0.0
 40
0.0
 40
0.1548416585
 40
0.3092802704
 40
0.4608550034
 40
0.6068176658
 40
0.7429346915
 40
0.8052569797
 40
0.862153949
 40
0.9120392841
 40
0.9528577253
 40
0.9826500216
 40
0.9929254435
 40
1.0
 40
1.0
 40
1.0
 40
1.0
 10
20.5442720005
 20
77.8864058697
 30
0.0
 10
20.5145532467
 20
77.8586655754
 30
0.0
 10
20.4552964808
 20
77.8031463263
 30
0.0
 10
20.3672897436
 20
77.7201082995
 30
0.0
 10
20.281324381
 20
77.6383044658
 30
0.0
 10
20.1994115604
 20
77.559223639
 30
0.0
 10
20.1349702613
 20
77.4957879562
 30
0.0
 10
20.0878677583
 20
77.4480810026
 30
0.0
 10
20.0571723601
 20
77.4160044714
 30
0.0
 10
20.0309952775
 20
77.3874075941
 30
0.0
 10
20.0105177126
 20
77.3633187553
 30
0.0
 10
19.9976451284
 20
77.3463254329
 30
0.0
 10
19.991474094
 20
77.3356172686
 30
0.0
 10
19.9897540505
 20
77.3313179194
 30
0.0
 10
19.9894770248
 20
77.3294812654
 30
0.0
  0
SPLINE
  5
3B2
100
AcDbEntity
  8
0
100
AcDbSpline
 62
7
  6
BYLAYER
 70
0
 71
3
 72
19
 73
15
 74
0
 42
0.0000001
 43
0.0000001
 44
0.0000000001
 40
0.0
 40
0.0
 40
0.0
 40
0.0
 40
0.1250272564
 40
0.2500498902
 40
0.3750597817
 40
0.5000595429
 40
0.6250361114
 40
0.6875514152
 40
0.7500636506
 40
0.8125675388
 40
0.8750453013
 40
0.9374588599
 40
0.9687340849
 40
1.0
 40
1.0
 40
1.0
 40
1.0
 10
41.2422491894
 20
23.7243884892
 30
0.0
 10
41.1395578211
 20
23.7243884892
 30
0.0
 10
40.9340778696
 20
23.7152598016
 30
0.0
 10
40.6282351095
 20
23.6757238581
 30
0.0
 10
40.3267320819
 20
23.6107573105
 30
0.0
 10
40.0322286446
 20
23.5191869505
 30
0.0
 10
39.7957011909
 20
23.4177670795
 30
0.0
 10
39.6161649613
 20
23.3177296181
 30
0.0
 10
39.4882938347
 20
23.2314435524
 30
0.0
 10
39.3705423995
 20
23.1315428255
 30
0.0
 10
39.268844335
 20
23.0150518016
 30
0.0
 10
39.2065635933
 20
22.9009679182
 30
0.0
 10
39.1793789126
 20
22.8015547753
 30
0.0
 10
39.1746423543
 20
22.7500688064
 30
0.0
 10
39.1746423543
 20
22.7243884892
 30
0.0
  0
SPLINE
  5
3B3
100
AcDbEntity
  8
0
100
AcDbSpline
 62
7
  6
BYLAYER
 70
0
 71
3
 72
18
 73
14
 74
0
 42
0.0000001
 43
0.0000001
 44
0.0000000001
 40
0.0
 40
0.0
 40
0.0
 40
0.0
 40
0.185836098
 40
0.3647327784
 40
0.52934727
 40
0.6740506636
 40
0.7943954498
 40
0.8444579201
 40
0.8875935453
 40
0.9238960788
 40
0.9538282842
 40
0.9785032432
 40
1.0
 40
1.0
 40
1.0
 40
1.0
 10
39.1746423543
 20
14.3243884892
 30
0.0
 10
39.1746423543
 20
14.2585858616
 30
0.0
 10
39.1718090497
 20
14.1294183605
 30
0.0
 10
39.1592884963
 20
13.9423375408
 30
0.0
 10
39.1390035846
 20
13.7705593672
 30
0.0
 10
39.1117955989
 20
13.6207799669
 30
0.0
 10
39.0830348602
 20
13.5127253446
 30
0.0
 10
39.0563210882
 20
13.4419164522
 30
0.0
 10
39.0365133063
 20
13.4004809437
 30
0.0
 10
39.0158103956
 20
13.3676071102
 30
0.0
 10
38.9941918762
 20
13.3434728441
 30
0.0
 10
38.9715477746
 20
13.3281525454
 30
0.0
 10
38.9550921318
 20
13.3243884892
 30
0.0
 10
38.947480354
 20
13.3243884892
 30
0.0
  0
SPLINE
  5
3B4
100
AcDbEntity
  8
0
100
AcDbSpline
 62
7
  6
BYLAYER
 70
0
 71
3
 72
19
 73
15
 74
0
 42
0.0000001
 43
0.0000001
 44
0.0000000001
 40
0.0
 40
0.0
 40
0.0
 40
0.0
 40
0.1548404787
 40
0.3092736299
 40
0.4608438961
 40
0.6068189893
 40
0.7429076451
 40
0.8052077291
 40
0.8621132062
 40
0.9120339039
 40
0.952873359
 40
0.9826562184
 40
0.9929263945
 40
1.0
 40
1.0
 40
1.0
 40
1.0
 10
46.5689101335
 20
77.8864058697
 30
0.0
 10
46.5986287056
 20
77.8586657641
 30
0.0
 10
46.6578920392
 20
77.8031559607
 30
0.0
 10
46.7458907439
 20
77.7201133012
 30
0.0
 10
46.8318212024
 20
77.6382718289
 30
0.0
 10
46.9137790917
 20
77.559245508
 30
0.0
 10
46.9782005669
 20
77.4958027898
 30
0.0
 10
47.0252387064
 20
77.4480478036
 30
0.0
 10
47.0559352505
 20
77.4159649948
 30
0.0
 10
47.0821685961
 20
77.3873972631
 30
0.0
 10
47.1026968029
 20
77.3633345486
 30
0.0
 10
47.1155631363
 20
77.3463328746
 30
0.0
 10
47.1217155986
 20
77.335617806
 30
0.0
 10
47.1234277809
 20
77.3313180178
 30
0.0
 10
47.1237047828
 20
77.3294816105
 30
0.0
  0
SPLINE
  5
3B5
100
AcDbEntity
  8
0
100
AcDbSpline
 62
7
  6
BYLAYER
 70
0
 71
3
 72
16
 73
12
 74
0
 42
0.0000001
 43
0.0000001
 44
0.0000000001
 40
0.0
 40
0.0
 40
0.0
 40
0.0
 40
0.0275467397
 40
0.0517342184
 40
0.0846342449
 40
0.1269191615
 40
0.1783584447
 40
0.3066572939
 40
0.4640024375
 40
0.6396219806
 40
1.0
 40
1.0
 40
1.0
 40
1.0
 10
47.0565913354
 20
78.2243884897
 30
0.0
 10
47.0565913355
 20
78.2290792355
 30
0.0
 10
47.0486152742
 20
78.2361971185
 30
0.0
 10
47.0361517081
 20
78.2422147996
 30
0.0
 10
47.0199794741
 20
78.2479774398
 30
0.0
 10
46.9991844878
 20
78.2534166823
 30
0.0
 10
46.9621269584
 20
78.2611502485
 30
0.0
 10
46.9053041132
 20
78.2694208768
 30
0.0
 10
46.8271007216
 20
78.2770019059
 30
0.0
 10
46.7092578654
 20
78.284439706
 30
0.0
 10
46.6179573978
 20
78.2864058563
 30
0.0
 10
46.5565910908
 20
78.2864058523
 30
0.0
  0
SPLINE
  5
3B6
100
AcDbEntity
  8
0
100
AcDbSpline
 62
7
  6
BYLAYER
 70
0
 71
3
 72
18
 73
14
 74
0
 42
0.0000001
 43
0.0000001
 44
0.0000000001
 40
0.0
 40
0.0
 40
0.0
 40
0.0
 40
0.185841769
 40
0.3647441779
 40
0.529363899
 40
0.6740718908
 40
0.7944230351
 40
0.8444898889
 40
0.8876284888
 40
0.9239288137
 40
0.9538505197
 40
0.9785109355
 40
1.0
 40
1.0
 40
1.0
 40
1.0
 10
27.9385398272
 20
14.3243884892
 30
0.0
 10
27.9385398272
 20
14.258586125
 30
0.0
 10
27.9413711375
 20
14.1294190449
 30
0.0
 10
27.953889086
 20
13.9423385653
 30
0.0
 10
27.9741751528
 20
13.7705609907
 30
0.0
 10
28.0013829696
 20
13.6207810485
 30
0.0
 10
28.0301526442
 20
13.5127265965
 30
0.0
 10
28.0568796403
 20
13.4419202559
 30
0.0
 10
28.0766916284
 20
13.4004867262
 30
0.0
 10
28.0973865835
 20
13.3676143205
 30
0.0
 10
28.1189845026
 20
13.343477081
 30
0.0
 10
28.1416106832
 20
13.3281513371
 30
0.0
 10
28.1580586125
 20
13.3243884892
 30
0.0
 10
28.1656674039
 20
13.3243884892
 30
0.0
  0
SPLINE
  5
3B7
100
AcDbEntity
  8
0
100
AcDbSpline
 62
7
  6
BYLAYER
 70
0
 71
3
 72
19
 73
15
 74
0
 42
0.0000001
 43
0.0000001
 44
0.0000000001
 40
0.0
 40
0.0
 40
0.0
 40
0.0
 40
0.1660244136
 40
0.3284584547
 40
0.4845476434
 40
0.6310712165
 40
0.7636391391
 40
0.8227315643
 40
0.8756993251
 40
0.921188566
 40
0.957857162
 40
0.9844164666
 40
0.9935884418
 40
1.0
 40
1.0
 40
1.0
 40
1.0
 10
20.5565910908
 20
84.8864058565
 30
0.0
 10
20.5305177086
 20
84.9122778968
 30
0.0
 10
20.478688139
 20
84.9632147328
 30
0.0
 10
20.4014565696
 20
85.0375640581
 30
0.0
 10
20.3265135094
 20
85.108061256
 30
0.0
 10
20.2554801474
 20
85.1730579376
 30
0.0
 10
20.1993954938
 20
85.222591381
 30
0.0
 10
20.1580394454
 20
85.2575089901
 30
0.0
 10
20.1309741535
 20
85.2794720683
 30
0.0
 10
20.1072604529
 20
85.2977014145
 30
0.0
 10
20.0875855505
 20
85.3115097928
 30
0.0
 10
20.0738409793
 20
85.3198768487
 30
0.0
 10
20.0652815059
 20
85.3235481732
 30
0.0
 10
20.0618706454
 20
85.3243884892
 30
0.0
 10
20.0604521524
 20
85.3243884892
 30
0.0
  0
SPLINE
  5
3B8
100
AcDbEntity
  8
0
100
AcDbSpline
 62
7
  6
BYLAYER
 70
0
 71
3
 72
19
 73
15
 74
0
 42
0.0000001
 43
0.0000001
 44
0.0000000001
 40
0.0
 40
0.0
 40
0.0
 40
0.0
 40
0.166024369
 40
0.3284582279
 40
0.4845466647
 40
0.6310719064
 40
0.76364477
 40
0.8227362633
 40
0.8756987321
 40
0.9211811142
 40
0.9578469605
 40
0.9844105651
 40
0.9935861508
 40
1.0
 40
1.0
 40
1.0
 40
1.0
 10
46.5565910908
 20
84.8864058565
 30
0.0
 10
46.5826644841
 20
84.9122779079
 30
0.0
 10
46.6344972427
 20
84.9632115307
 30
0.0
 10
46.711729822
 20
85.0375594857
 30
0.0
 10
46.7866567798
 20
85.1080740548
 30
0.0
 10
46.8577037706
 20
85.1730586749
 30
0.0
 10
46.9138338949
 20
85.2225421967
 30
0.0
 10
46.9551853825
 20
85.2574643701
 30
0.0
 10
46.982226313
 20
85.2794525946
 30
0.0
 10
47.005914412
 20
85.2977099149
 30
0.0
 10
47.0255815657
 20
85.3115281853
 30
0.0
 10
47.039333194
 20
85.3198867465
 30
0.0
 10
47.0478986315
 20
85.3235503373
 30
0.0
 10
47.0513110283
 20
85.3243884892
 30
0.0
 10
47.0527300291
 20
85.3243884892
 30
0.0
  0
ELLIPSE
  5
3B9
100
AcDbEntity
  8
0
100
AcDbEllipse
 62
7
  6
BYLAYER
 10
21.5565910908
 20
22.1535573242
 30
0.0
 11
0.0
 21
6.4148596508
 31
0.0
 40
0.7016335375
 41
0.6759103609
 42
0.6933490094
  0
ELLIPSE
  5
3BA
100
AcDbEntity
  8
0
100
AcDbEllipse
 62
7
  6
BYLAYER
 10
21.5565910908
 20
31.2952196542
 30
0.0
 11
0.0
 21
6.4148596508
 31
0.0
 40
0.7016335375
 41
-2.4656822927
 42
-2.4482436442
  0
ELLIPSE
  5
3BB
100
AcDbEntity
  8
0
100
AcDbEllipse
 62
7
  6
BYLAYER
 10
21.5565910908
 20
31.2952196542
 30
0.0
 11
0.0
 21
6.4148596508
 31
0.0
 40
0.7016335375
 41
-3.834941663
 42
-3.8175030145
  0
ELLIPSE
  5
3BC
100
AcDbEntity
  8
0
100
AcDbEllipse
 62
7
  6
BYLAYER
 10
21.5565910908
 20
22.1535573242
 30
0.0
 11
0.0
 21
6.4148596508
 31
0.0
 40
0.7016335375
 41
-0.6933490094
 42
-0.6759103609
  0
ELLIPSE
  5
3BD
100
AcDbEntity
  8
0
100
AcDbEllipse
 62
7
  6
BYLAYER
 10
11.5565910908
 20
63.6535573242
 30
0.0
 11
-0.0
 21
6.4148596508
 31
0.0
 40
0.7016335375
 41
0.6759103609
 42
0.6933490094
  0
ELLIPSE
  5
3BE
100
AcDbEntity
  8
0
100
AcDbEllipse
 62
7
  6
BYLAYER
 10
11.5565910908
 20
72.7952196542
 30
0.0
 11
0.0
 21
6.4148596508
 31
0.0
 40
0.7016335375
 41
-2.4656822927
 42
-2.4482436442
  0
ELLIPSE
  5
3BF
100
AcDbEntity
  8
0
100
AcDbEllipse
 62
7
  6
BYLAYER
 10
11.5565910908
 20
72.7952196542
 30
0.0
 11
-0.0
 21
6.4148596508
 31
0.0
 40
0.7016335375
 41
-3.834941663
 42
-3.8175030145
  0
ELLIPSE
  5
3C0
100
AcDbEntity
  8
0
100
AcDbEllipse
 62
7
  6
BYLAYER
 10
11.5565910908
 20
63.6535573242
 30
0.0
 11
-0.0
 21
6.4148596508
 31
0.0
 40
0.7016335375
 41
-0.6933490094
 42
-0.6759103609
  0
ELLIPSE
  5
3C1
100
AcDbEntity
  8
0
100
AcDbEllipse
 62
7
  6
BYLAYER
 10
55.5565910908
 20
63.6535573242
 30
0.0
 11
-0.0
 21
6.4148596508
 31
0.0
 40
0.7016335375
 41
0.6759103609
 42
0.6933490094
  0
ELLIPSE
  5
3C2
100
AcDbEntity
  8
0
100
AcDbEllipse
 62
7
  6
BYLAYER
 10
55.5565910908
 20
72.7952196542
 30
0.0
 11
-0.0
 21
6.4148596508
 31
0.0
 40
0.7016335375
 41
-2.4656822927
 42
-2.4482436442
  0
ELLIPSE
  5
3C3
100
AcDbEntity
  8
0
100
AcDbEllipse
 62
7
  6
BYLAYER
 10
55.5565910908
 20
72.7952196542
 30
0.0
 11
-0.0
 21
6.4148596508
 31
0.0
 40
0.7016335375
 41
-3.834941663
 42
-3.8175030145
  0
ELLIPSE
  5
3C4
100
AcDbEntity
  8
0
100
AcDbEllipse
 62
7
  6
BYLAYER
 10
55.5565910908
 20
63.6535573242
 30
0.0
 11
-0.0
 21
6.4148596508
 31
0.0
 40
0.7016335375
 41
-0.6933490094
 42
-0.6759103609
  0
ELLIPSE
  5
3C5
100
AcDbEntity
  8
0
100
AcDbEllipse
 62
7
  6
BYLAYER
 10
45.5565910908
 20
22.1535573242
 30
0.0
 11
0.0
 21
6.4148596508
 31
0.0
 40
0.7016335375
 41
0.6759103609
 42
0.6933490094
  0
ELLIPSE
  5
3C6
100
AcDbEntity
  8
0
100
AcDbEllipse
 62
7
  6
BYLAYER
 10
45.5565910908
 20
31.2952196542
 30
0.0
 11
0.0
 21
6.4148596508
 31
0.0
 40
0.7016335375
 41
-2.4656822927
 42
-2.4482436442
  0
ELLIPSE
  5
3C7
100
AcDbEntity
  8
0
100
AcDbEllipse
 62
7
  6
BYLAYER
 10
45.5565910908
 20
31.2952196542
 30
0.0
 11
0.0
 21
6.4148596508
 31
0.0
 40
0.7016335375
 41
-3.834941663
 42
-3.8175030145
  0
ELLIPSE
  5
3C8
100
AcDbEntity
  8
0
100
AcDbEllipse
 62
7
  6
BYLAYER
 10
45.5565910908
 20
22.1535573242
 30
0.0
 11
-0.0
 21
6.4148596508
 31
0.0
 40
0.7016335375
 41
-0.6933490094
 42
-0.6759103609
  0
ENDSEC
  0
SECTION
  2
OBJECTS
  0
DICTIONARY
  5
C
100
AcDbDictionary
280
0
281
1
  3
ACAD_GROUP
350
D
  3
ACAD_MLINESTYLE
350
17
  3
ACAD_LAYOUT
350
1A
  3
ACAD_PLOTSETTINGS
350
19
  3
ACAD_PLOTSTYLENAME
350
E
  0
DICTIONARY
  5
D
102
{ACAD_REACTORS
330
C
102
}
100
AcDbDictionary
280
0
281
1
  0
ACDBDICTIONARYWDFLT
  5
E
102
{ACAD_REACTORS
330
C
102
}
100
AcDbDictionary
281
1
  3
Normal
350
F
100
AcDbDictionaryWithDefault
340
F
  0
DICTIONARY
  5
17
102
{ACAD_REACTORS
330
C
102
}
100
AcDbDictionary
280
0
281
1
  3
Standard
350
18
  0
DICTIONARY
  5
19
102
{ACAD_REACTORS
330
C
102
}
100
AcDbDictionary
281
1
  0
DICTIONARY
  5
1A
102
{ACAD_REACTORS
330
C
102
}
100
AcDbDictionary
281
1
  3
Model
350
3C9
  3
Layout1
350
3CA
  0
ACDBPLACEHOLDER
  5
F
102
{ACAD_REACTORS
330
E
102
}
  0
MLINESTYLE
  5
18
102
{ACAD_REACTORS
330
17
102
}
100
AcDbMlineStyle
  2
STANDARD
 70
0
  3

 62
256
 51
90.0
 52
90.0
 71
2
 49
0.5
 62
256
  6
BYLAYER
 49
-0.5
 62
256
  6
BYLAYER
  0
LAYOUT
  5
3C9
102
{ACAD_REACTORS
330
1A
102
}
100
AcDbPlotSettings
  1

  2
none_device
  4

  6

 40
0.0
 41
0.0
 42
0.0
 43
0.0
 44
210.0
 45
297.0
 46
0.0
 47
0.0
 48
0.0
 49
0.0
140
0.0
141
0.0
142
1.0
143
1.0
 70
1024
 72
1
 73
0
 74
0
  7

 75
0
147
1.0
148
0.0
149
0.0
100
AcDbLayout
  1
Model
 70
0
 71
0
 10
0.0
 20
0.0
 11
210.0
 21
297.0
 12
0.0
 22
0.0
 32
0.0
 14
0.0
 24
0.0
 34
0.0
 15
0.0
 25
0.0
 35
0.0
146
0.0
 13
0.0
 23
0.0
 33
0.0
 16
1.0
 26
0.0
 36
0.0
 17
0.0
 27
1.0
 37
0.0
 76
0
330
210
345
0
346
0
  0
LAYOUT
  5
3CA
102
{ACAD_REACTORS
330
1A
102
}
100
AcDbPlotSettings
  1

  2
none_device
  4

  6

 40
0.0
 41
0.0
 42
0.0
 43
0.0
 44
210.0
 45
297.0
 46
0.0
 47
0.0
 48
0.0
 49
0.0
140
0.0
141
0.0
142
1.0
143
1.0
 70
0
 72
1
 73
0
 74
0
  7

 75
0
147
1.0
148
0.0
149
0.0
100
AcDbLayout
  1
Layout1
 70
0
 71
1
 10
0.0
 20
0.0
 11
210.0
 21
297.0
 12
0.0
 22
0.0
 32
0.0
 14
0.0
 24
0.0
 34
0.0
 15
0.0
 25
0.0
 35
0.0
146
0.0
 13
0.0
 23
0.0
 33
0.0
 16
1.0
 26
0.0
 36
0.0
 17
0.0
 27
1.0
 37
0.0
 76
0
330
211
345
0
346
0
  0
ENDSEC
  0
EOF
