999
DXF file: C:\Users\sesa63760\Dev\_Creo\CAD\MCADID0004730_3D-CAD\drw0001_1.dxf
999
Pro/ENGINEER 2019471 by Parametric Technology Corporation
  0
SECTION
  2
HEADER
  9
$ACADVER
  1
AC1024
  9
$DWGCODEPAGE
  3
ANSI_1252
  9
$EXTMAX
 10
79.2545444692
 20
112.0885700351
 30
0.0
  9
$EXTMIN
 10
0.0
 20
0.0
 30
0.0
  9
$LIMMIN
 10
0.0
 20
0.0
  9
$LIMMAX
 10
79.2545444692
 20
112.0885700351
  9
$VIEWCTR
 10
39.6272722346
 20
56.0442850175
  9
$VIEWSIZE
 40
112.0885700351
  9
$CLAYER
  8
0
  9
$LTSCALE
 40
7.3065141949
  9
$CELTYPE
  6
BYLAYER
  9
$DIMSCALE
 40
1.0
  9
$DIMASZ
 40
0.9435064818
  9
$DIMEXO
 40
1.0
  9
$DIMDLI
 40
5.0481370801
  9
$DIMEXE
 40
1.0
  9
$DIMCEN
 40
1.1956114137
  9
$DIMLFAC
 40
1.0
  9
$DIMBLK
  1
_FILLED
  9
$DIMALT
 70
0
  9
$DIMALTF
 40
0.0393700787
  9
$DIMTXT
 40
1.3209090745
  9
$DIMTOL
 70
1
  9
$DIMLIM
 70
0
  9
$DIMTFAC
 40
1.0
  9
$DIMTP
 40
0.01
  9
$DIMTM
 40
0.01
  9
$DIMGAP
 40
0.625
  9
$DIMDSEP
 70
46
  9
$AUNITS
 70
0
  9
$PDMODE
 70
3
  9
$PDSIZE
 40
0.3125
  9
$HANDSEED
  5
303
  9
$TILEMODE
 70
1
  9
$MEASUREMENT
 70
1
  9
$INSUNITS
 70
4
  0
ENDSEC
  0
SECTION
  2
CLASSES
  0
CLASS
  1
ACDBDICTIONARYWDFLT
  2
AcDbDictionaryWithDefault
  3
AutoCAD 2000
 90
0
 91
1
280
0
281
0
  0
CLASS
  1
ACDBPLACEHOLDER
  2
AcDbPlaceHolder
  3
AutoCAD 2000
 90
0
 91
1
280
0
281
0
  0
CLASS
  1
LAYOUT
  2
AcDbLayout
  3
AutoCAD 2000
 90
0
 91
0
280
0
281
0
  0
ENDSEC
  0
SECTION
  2
TABLES
  0
TABLE
  2
VPORT
  5
8
100
AcDbSymbolTable
 70
2
  0
VPORT
  5
1F4
100
AcDbSymbolTableRecord
100
AcDbViewportTableRecord
  2
*ACTIVE
 70
0
 10
0.0
 20
0.0
 11
1.0
 21
1.0
 12
39.6272722346
 22
56.0442850175
 13
0.0
 23
0.0
 14
1.0
 24
1.0
 15
0.0
 25
0.0
 16
0.0
 26
0.0
 36
1.0
 17
0.0
 27
0.0
 37
0.0
 40
112.0885700351
 41
0.7070707071
 42
50.0
 43
0.0
 44
0.0
 50
0.0
 51
0.0
 71
0
 72
100
 73
1
 74
1
 75
0
 76
0
 77
0
 78
0
  0
ENDTAB
  0
TABLE
  2
LTYPE
  5
5
100
AcDbSymbolTable
 70
6
  0
LTYPE
  5
14
100
AcDbSymbolTableRecord
100
AcDbLinetypeTableRecord
  2
BYBLOCK
 70
0
  3

 72
65
 73
0
 40
0.0
  0
LTYPE
  5
15
100
AcDbSymbolTableRecord
100
AcDbLinetypeTableRecord
  2
BYLAYER
 70
0
  3

 72
65
 73
0
 40
0.0
  0
LTYPE
  5
16
100
AcDbSymbolTableRecord
100
AcDbLinetypeTableRecord
  2
CONTINUOUS
 70
64
  3
Solid line
 72
65
 73
0
 40
0.0
  0
LTYPE
  5
1F5
100
AcDbSymbolTableRecord
100
AcDbLinetypeTableRecord
  2
CENTER
 70
64
  3
____ _ ____ _ ____ _ ____ _ ____ _ ____ _ ____
 72
65
 73
4
 40
0.6
 49
0.375
 74
0
 49
-0.075
 74
0
 49
0.075
 74
0
 49
-0.075
 74
0
  0
LTYPE
  5
1F6
100
AcDbSymbolTableRecord
100
AcDbLinetypeTableRecord
  2
HIDDEN
 70
64
  3
- - - - - - - - - - - - - - - - - - - -
 72
65
 73
2
 40
0.2
 49
0.1
 74
0
 49
-0.1
 74
0
  0
LTYPE
  5
1F7
100
AcDbSymbolTableRecord
100
AcDbLinetypeTableRecord
  2
PHANTOM
 70
64
  3
_____ _ _ _____ _ _ _____ _ _ _____
 72
65
 73
6
 40
0.8
 49
0.45
 74
0
 49
-0.05
 74
0
 49
0.1
 74
0
 49
-0.05
 74
0
 49
0.1
 74
0
 49
-0.05
 74
0
  0
LTYPE
  5
1F8
100
AcDbSymbolTableRecord
100
AcDbLinetypeTableRecord
  2
DOT
 70
64
  3
. . . . . . . . . . . . . . . . . . . .
 72
65
 73
2
 40
0.2
 49
0.1
 74
0
 49
-0.1
 74
0
  0
LTYPE
  5
1F9
100
AcDbSymbolTableRecord
100
AcDbLinetypeTableRecord
  2
DASHED
 70
64
  3
- - - - - - - - - - - - - - - - - - - -
 72
65
 73
2
 40
0.2
 49
0.1
 74
0
 49
-0.1
 74
0
  0
ENDTAB
  0
TABLE
  2
LAYER
  5
2
100
AcDbSymbolTable
 70
36
  0
LAYER
  5
10
100
AcDbSymbolTableRecord
100
AcDbLayerTableRecord
  2
0
 70
0
 62
7
  6
CONTINUOUS
370
-3
390
F
  0
LAYER
  5
1FA
100
AcDbSymbolTableRecord
100
AcDbLayerTableRecord
  2
DEFAULT_1
 70
0
 62
7
  6
CENTER
370
-3
390
F
  0
LAYER
  5
1FB
100
AcDbSymbolTableRecord
100
AcDbLayerTableRecord
  2
DEFAULT_2
 70
0
 62
7
  6
HIDDEN
370
-3
390
F
  0
LAYER
  5
1FC
100
AcDbSymbolTableRecord
100
AcDbLayerTableRecord
  2
DEFAULT_3
 70
0
 62
7
  6
PHANTOM
370
-3
390
F
  0
LAYER
  5
1FD
100
AcDbSymbolTableRecord
100
AcDbLayerTableRecord
  2
00_COMPONENTS
 70
0
 62
7
  6
CONTINUOUS
370
-3
390
F
  0
LAYER
  5
1FE
100
AcDbSymbolTableRecord
100
AcDbLayerTableRecord
  2
01_1_DEFAULT_DATUMS
 70
0
 62
7
  6
CONTINUOUS
370
-3
390
F
  0
LAYER
  5
1FF
100
AcDbSymbolTableRecord
100
AcDbLayerTableRecord
  2
01_PLANES
 70
0
 62
7
  6
CONTINUOUS
370
-3
390
F
  0
LAYER
  5
200
100
AcDbSymbolTableRecord
100
AcDbLayerTableRecord
  2
02_COORD_SYS
 70
0
 62
7
  6
CONTINUOUS
370
-3
390
F
  0
LAYER
  5
201
100
AcDbSymbolTableRecord
100
AcDbLayerTableRecord
  2
03_AXES
 70
0
 62
7
  6
CONTINUOUS
370
-3
390
F
  0
LAYER
  5
202
100
AcDbSymbolTableRecord
100
AcDbLayerTableRecord
  2
04_POINTS
 70
0
 62
7
  6
CONTINUOUS
370
-3
390
F
  0
LAYER
  5
203
100
AcDbSymbolTableRecord
100
AcDbLayerTableRecord
  2
05_CURVES
 70
0
 62
7
  6
CONTINUOUS
370
-3
390
F
  0
LAYER
  5
204
100
AcDbSymbolTableRecord
100
AcDbLayerTableRecord
  2
06_SURFS
 70
0
 62
7
  6
CONTINUOUS
370
-3
390
F
  0
LAYER
  5
205
100
AcDbSymbolTableRecord
100
AcDbLayerTableRecord
  2
07_COSMETICS
 70
0
 62
7
  6
CONTINUOUS
370
-3
390
F
  0
LAYER
  5
206
100
AcDbSymbolTableRecord
100
AcDbLayerTableRecord
  2
10_NOTES
 70
0
 62
7
  6
CONTINUOUS
370
-3
390
F
  0
LAYER
  5
207
100
AcDbSymbolTableRecord
100
AcDbLayerTableRecord
  2
11_NOTES_PUB
 70
0
 62
7
  6
CONTINUOUS
370
-3
390
F
  0
LAYER
  5
208
100
AcDbSymbolTableRecord
100
AcDbLayerTableRecord
  2
13_REF_GTOL
 70
0
 62
7
  6
CONTINUOUS
370
-3
390
F
  0
LAYER
  5
209
100
AcDbSymbolTableRecord
100
AcDbLayerTableRecord
  2
16_MISC
 70
0
 62
7
  6
CONTINUOUS
370
-3
390
F
  0
LAYER
  5
20A
100
AcDbSymbolTableRecord
100
AcDbLayerTableRecord
  2
17_NO_PRINT
 70
0
 62
7
  6
CONTINUOUS
370
-3
390
F
  0
LAYER
  5
20B
100
AcDbSymbolTableRecord
100
AcDbLayerTableRecord
  2
18_DATUM_CAMS_JOINTS
 70
0
 62
7
  6
CONTINUOUS
370
-3
390
F
  0
LAYER
  5
20C
100
AcDbSymbolTableRecord
100
AcDbLayerTableRecord
  2
19_DATUM_FUNCTIONAL
 70
0
 62
7
  6
CONTINUOUS
370
-3
390
F
  0
LAYER
  5
20D
100
AcDbSymbolTableRecord
100
AcDbLayerTableRecord
  2
20_DATUM_KINEMATIC_SCHEME
 70
0
 62
7
  6
CONTINUOUS
370
-3
390
F
  0
ENDTAB
  0
TABLE
  2
STYLE
  5
3
100
AcDbSymbolTable
 70
1
  0
STYLE
  5
11
100
AcDbSymbolTableRecord
100
AcDbTextStyleTableRecord
  2
STANDARD
 70
0
 40
0.0
 41
1.0
 50
0.0
 71
0
 42
0.2
  3
ARIAL.TTF
  4

  0
STYLE
  5
20E
100
AcDbSymbolTableRecord
100
AcDbTextStyleTableRecord
  2
TEXTSTYLE_1
 70
0
 40
0.0
 41
0.8
 50
0.0
 71
0
 42
0.2
  3
gdt
  4

  0
ENDTAB
  0
TABLE
  2
VIEW
  5
6
100
AcDbSymbolTable
 70
0
  0
ENDTAB
  0
TABLE
  2
UCS
  5
7
100
AcDbSymbolTable
 70
0
  0
ENDTAB
  0
TABLE
  2
APPID
  5
9
100
AcDbSymbolTable
 70
1
  0
APPID
  5
20F
100
AcDbSymbolTableRecord
100
AcDbRegAppTableRecord
  2
ACAD
 70
0
  0
ENDTAB
  0
TABLE
  2
BLOCK_RECORD
  5
1
100
AcDbSymbolTable
 70
0
  0
BLOCK_RECORD
  5
210
100
AcDbSymbolTableRecord
100
AcDbBlockTableRecord
  2
*Model_Space
  0
BLOCK_RECORD
  5
211
100
AcDbSymbolTableRecord
100
AcDbBlockTableRecord
  2
*Paper_Space
  0
BLOCK_RECORD
  5
212
100
AcDbSymbolTableRecord
100
AcDbBlockTableRecord
  2
_FILLED
  0
ENDTAB
  0
TABLE
  2
DIMSTYLE
  5
A
100
AcDbSymbolTable
 70
1
100
AcDbDimStyleTable
 71
0
  0
DIMSTYLE
105
213
100
AcDbSymbolTableRecord
100
AcDbDimStyleTableRecord
  2
STANDARD
 70
0
  3

  4

 40
1.0
 41
0.9435064818
 42
1.0
 43
0.38
 44
1.0
 45
0.0
 46
0.0
 47
0.01
 48
0.01
140
1.3209090745
141
0.09
142
0.0
143
25.4
144
1.0
145
0.0
146
1.0
147
0.625
 71
1
 72
0
 73
0
 74
0
 75
0
 76
0
 77
1
 78
8
 79
2
170
0
171
1
172
0
173
0
174
0
175
0
176
0
177
0
178
0
270
2
179
2
271
2
272
2
273
2
274
2
275
0
280
0
281
0
282
0
283
1
284
8
285
0
286
0
287
3
288
0
340
11
278
46
341
212
342
212
343
212
344
212
  0
ENDTAB
  0
ENDSEC
  0
SECTION
  2
BLOCKS
  0
BLOCK
  5
20
100
AcDbEntity
  8
0
100
AcDbBlockBegin
  2
*Model_Space
 70
0
 10
0.0
 20
0.0
 30
0.0
  3
*Model_Space
  1

  0
ENDBLK
  5
21
100
AcDbEntity
  8
0
100
AcDbBlockEnd
  0
BLOCK
  5
1C
100
AcDbEntity
  8
0
100
AcDbBlockBegin
  2
*Paper_Space
 70
0
 10
0.0
 20
0.0
 30
0.0
  3
*Paper_Space
  1

  0
ENDBLK
  5
1D
100
AcDbEntity
  8
0
100
AcDbBlockEnd
  0
BLOCK
  5
214
100
AcDbEntity
  8
0
100
AcDbBlockBegin
  2
_FILLED
 70
64
 10
0.0
 20
0.0
  3
_FILLED
  1

  0
SOLID
  5
215
100
AcDbEntity
  8
0
  6
BYBLOCK
 62
0
100
AcDbTrace
 10
0.0
 20
0.0
 11
-1.0
 21
0.25
 12
-1.0
 22
-0.25
 13
-1.0
 23
-0.25
  0
ENDBLK
  5
216
100
AcDbEntity
  8
0
  6
BYBLOCK
 62
0
100
AcDbBlockEnd
  0
ENDSEC
  0
SECTION
  2
ENTITIES
  0
LINE
  5
217
100
AcDbEntity
  8
0
100
AcDbLine
 62
7
  6
BYLAYER
 10
39.8026225202
 20
8.6511312443
 11
30.5377771308
 21
10.0843634553
  0
LINE
  5
218
100
AcDbEntity
  8
0
100
AcDbLine
 62
7
  6
BYLAYER
 10
41.0816003913
 20
103.7109923479
 11
14.9187584144
 21
88.6059586546
  0
LINE
  5
219
100
AcDbEntity
  8
0
100
AcDbLine
 62
7
  6
BYLAYER
 10
29.4965706174
 20
14.7061346773
 11
27.8702182496
 21
15.6450884127
  0
LINE
  5
21A
100
AcDbEntity
  8
0
100
AcDbLine
 62
7
  6
BYLAYER
 10
12.3742494113
 20
81.8864683771
 11
14.2243136254
 21
83.236919813
  0
LINE
  5
21B
100
AcDbEntity
  8
0
100
AcDbLine
 62
7
  6
BYLAYER
 10
15.0464318706
 20
86.2342535459
 11
15.5767597485
 21
86.5404366614
  0
LINE
  5
21C
100
AcDbEntity
  8
0
100
AcDbLine
 62
7
  6
BYLAYER
 10
15.2774977694
 20
86.0789861211
 11
13.5097381767
 21
85.0583757366
  0
LINE
  5
21D
100
AcDbEntity
  8
0
100
AcDbLine
 62
7
  6
BYLAYER
 10
17.5464206784
 20
85.9866321509
 11
17.7939142643
 21
86.1295217864
  0
LINE
  5
21E
100
AcDbEntity
  8
0
100
AcDbLine
 62
7
  6
BYLAYER
 10
15.8847275437
 20
84.8231354111
 11
17.6524871368
 21
85.8437457958
  0
LINE
  5
21F
100
AcDbEntity
  8
0
100
AcDbLine
 62
7
  6
BYLAYER
 10
36.8858863814
 20
14.7267133861
 11
36.0237676772
 21
15.2244465917
  0
LINE
  5
220
100
AcDbEntity
  8
0
100
AcDbLine
 62
7
  6
BYLAYER
 10
33.3028841663
 20
16.7953138813
 11
22.245751031
 21
23.1790082545
  0
LINE
  5
221
100
AcDbEntity
  8
0
100
AcDbLine
 62
7
  6
BYLAYER
 10
18.9606401287
 20
85.1701506418
 11
19.2081337146
 21
85.3130402773
  0
LINE
  5
222
100
AcDbEntity
  8
0
100
AcDbLine
 62
7
  6
BYLAYER
 10
19.4556254898
 20
84.8027269337
 11
19.4909680066
 21
84.8231318235
  0
LINE
  5
223
100
AcDbEntity
  8
0
100
AcDbLine
 62
7
  6
BYLAYER
 10
19.8748592865
 20
84.560687664
 11
20.1930650669
 21
84.7444027603
  0
LINE
  5
224
100
AcDbEntity
  8
0
100
AcDbLine
 62
7
  6
BYLAYER
 10
19.4909768381
 20
84.169956153
 11
20.3395104965
 21
84.6598543648
  0
LINE
  5
225
100
AcDbEntity
  8
0
100
AcDbLine
 62
7
  6
BYLAYER
 10
42.8255889364
 20
13.3795153082
 11
40.0802185419
 21
14.9645180192
  0
LINE
  5
226
100
AcDbEntity
  8
0
100
AcDbLine
 62
7
  6
BYLAYER
 10
20.1628673322
 20
26.463544107
 11
14.5411999306
 21
29.709145489
  0
LINE
  5
227
100
AcDbEntity
  8
0
100
AcDbLine
 62
7
  6
BYLAYER
 10
42.0124171685
 20
19.5236971065
 11
42.2952610585
 21
19.3604008047
  0
LINE
  5
228
100
AcDbEntity
  8
0
100
AcDbLine
 62
7
  6
BYLAYER
 10
42.2599011563
 20
19.9931765237
 11
42.8255889364
 21
19.6665839201
  0
LINE
  5
229
100
AcDbEntity
  8
0
100
AcDbLine
 62
7
  6
BYLAYER
 10
28.6332646708
 20
11.1839093617
 11
26.150721027
 21
16.5328819374
  0
LINE
  5
22A
100
AcDbEntity
  8
0
100
AcDbLine
 62
7
  6
BYLAYER
 10
12.5259563492
 20
40.4270497829
 11
12.5259563492
 21
77.9992388838
  0
LINE
  5
22B
100
AcDbEntity
  8
0
100
AcDbLine
 62
7
  6
BYLAYER
 10
12.5259563492
 20
81.9972066157
 11
12.5259563492
 21
82.8838925136
  0
LINE
  5
22C
100
AcDbEntity
  8
0
100
AcDbLine
 62
7
  6
BYLAYER
 10
14.5411999306
 20
29.709145489
 11
14.5411999306
 21
36.875161613
  0
LINE
  5
22D
100
AcDbEntity
  8
0
100
AcDbLine
 62
7
  6
BYLAYER
 10
16.415059838
 20
70.0648620622
 11
16.477196681
 21
70.2021922087
  0
LINE
  5
22E
100
AcDbEntity
  8
0
100
AcDbLine
 62
7
  6
BYLAYER
 10
37.6481524303
 20
84.0487242949
 11
40.0478245059
 21
85.4341673438
  0
LINE
  5
22F
100
AcDbEntity
  8
0
100
AcDbLine
 62
7
  6
BYLAYER
 10
15.7228397128
 20
76.0865052202
 11
17.8174018619
 21
77.0134712826
  0
LINE
  5
230
100
AcDbEntity
  8
0
100
AcDbLine
 62
7
  6
BYLAYER
 10
36.3641282166
 20
29.2251822713
 11
36.2141321421
 21
29.240033919
  0
LINE
  5
231
100
AcDbEntity
  8
0
100
AcDbLine
 62
7
  6
BYLAYER
 10
27.5551132528
 20
15.9564381567
 11
27.7298512146
 21
15.5799418288
  0
LINE
  5
232
100
AcDbEntity
  8
0
100
AcDbLine
 62
7
  6
BYLAYER
 10
14.9187584144
 20
87.7894562375
 11
14.9187584144
 21
88.6059586546
  0
LINE
  5
233
100
AcDbEntity
  8
0
100
AcDbLine
 62
7
  6
BYLAYER
 10
15.4844414842
 20
86.4830467264
 11
15.4844414842
 21
87.4628663534
  0
LINE
  5
234
100
AcDbEntity
  8
0
100
AcDbLine
 62
7
  6
BYLAYER
 10
16.415059838
 20
40.9157257707
 11
16.415059838
 21
70.0648620622
  0
LINE
  5
235
100
AcDbEntity
  8
0
100
AcDbLine
 62
7
  6
BYLAYER
 10
16.6271909888
 20
41.0381990166
 11
16.6271909888
 21
70.1873353082
  0
LINE
  5
236
100
AcDbEntity
  8
0
100
AcDbLine
 62
7
  6
BYLAYER
 10
16.4150598376
 20
70.064862062
 11
16.6271909888
 21
70.1873353082
  0
LINE
  5
237
100
AcDbEntity
  8
0
100
AcDbLine
 62
7
  6
BYLAYER
 10
32.360375824
 20
77.7197615379
 11
31.5118421661
 21
77.2298633264
  0
LINE
  5
238
100
AcDbEntity
  8
0
100
AcDbLine
 62
7
  6
BYLAYER
 10
32.2926224871
 20
77.3914509273
 11
30.5248628941
 21
76.3708405427
  0
LWPOLYLINE
  5
239
100
AcDbEntity
  8
0
100
AcDbPolyline
 62
7
  6
BYLAYER
 90
8
 70
0
 10
50.0380039165
 20
83.7618203913
 10
46.4809365198
 20
82.3239630467
 10
42.2946039738
 20
81.6758258705
 10
37.949210754
 20
81.8962448162
 10
34.012347191
 20
82.9601211981
 10
30.9549658903
 20
84.7294048844
 10
29.1268985457
 20
86.9930602602
 10
28.6997100033
 20
88.8648297925
  0
LINE
  5
23A
100
AcDbEntity
  8
0
100
AcDbLine
 62
7
  6
BYLAYER
 10
47.3863424472
 20
83.0065164528
 11
45.1330900166
 21
82.1152864982
  0
LINE
  5
23B
100
AcDbEntity
  8
0
100
AcDbLine
 62
7
  6
BYLAYER
 10
36.2141321421
 20
29.240033919
 11
16.6271927555
 21
40.5483028192
  0
LINE
  5
23C
100
AcDbEntity
  8
0
100
AcDbLine
 62
7
  6
BYLAYER
 10
36.4262632936
 20
29.3625071654
 11
16.8393239063
 21
40.6707760652
  0
LINE
  5
23D
100
AcDbEntity
  8
0
100
AcDbLine
 62
7
  6
BYLAYER
 10
18.9606401287
 20
85.1701506418
 11
18.9606401287
 21
85.0885004001
  0
LINE
  5
23E
100
AcDbEntity
  8
0
100
AcDbLine
 62
7
  6
BYLAYER
 10
19.4909680066
 20
85.1497495168
 11
19.4909680066
 21
84.8231318235
  0
LINE
  5
23F
100
AcDbEntity
  8
0
100
AcDbLine
 62
7
  6
BYLAYER
 10
64.5336384673
 20
90.9877396704
 11
63.8265346301
 21
90.5794955166
  0
LWPOLYLINE
  5
240
100
AcDbEntity
  8
0
100
AcDbPolyline
 62
7
  6
BYLAYER
 90
8
 70
0
 10
50.7451136417
 20
83.02697867
 10
46.9008006352
 20
81.4733715991
 10
42.37886398
 20
80.7739333582
 10
37.6842240235
 20
81.0129339069
 10
33.4346399396
 20
82.1622653846
 10
30.1342206636
 20
84.0729707335
 10
28.1611805115
 20
86.5165873199
 10
27.699833654
 20
88.5382288215
  0
LINE
  5
241
100
AcDbEntity
  8
0
100
AcDbLine
 62
7
  6
BYLAYER
 10
46.8818470411
 20
81.7948847063
 11
50.7451136417
 21
83.3535796368
  0
LINE
  5
242
100
AcDbEntity
  8
0
100
AcDbLine
 62
7
  6
BYLAYER
 10
24.7671650847
 20
21.7233021044
 11
24.7671650847
 21
20.5644343761
  0
LINE
  5
243
100
AcDbEntity
  8
0
100
AcDbLine
 62
7
  6
BYLAYER
 10
33.9867262042
 20
72.9432622256
 11
35.04738196
 21
73.5556284565
  0
LINE
  5
244
100
AcDbEntity
  8
0
100
AcDbLine
 62
7
  6
BYLAYER
 10
34.3304675151
 20
73.0850012363
 11
32.5627079221
 21
72.0643908516
  0
LINE
  5
245
100
AcDbEntity
  8
0
100
AcDbLine
 62
7
  6
BYLAYER
 10
65.9478579176
 20
90.1712581614
 11
65.2407540804
 21
89.7630140075
  0
LINE
  5
246
100
AcDbEntity
  8
0
100
AcDbLine
 62
7
  6
BYLAYER
 10
35.04738196
 20
71.9226236222
 11
33.9867262042
 21
71.3102573914
  0
LINE
  5
247
100
AcDbEntity
  8
0
100
AcDbLine
 62
7
  6
BYLAYER
 10
41.0818182449
 20
73.5010507374
 11
67.2446602218
 21
88.6060844306
  0
LINE
  5
248
100
AcDbEntity
  8
0
100
AcDbLine
 62
7
  6
BYLAYER
 10
26.150721027
 20
16.5328819374
 11
26.150721027
 21
17.344093587
  0
LINE
  5
249
100
AcDbEntity
  8
0
100
AcDbLine
 62
7
  6
BYLAYER
 10
27.8702302333
 20
19.9317871352
 11
27.8702182496
 21
15.6450884127
  0
LINE
  5
24A
100
AcDbEntity
  8
0
100
AcDbLine
 62
7
  6
BYLAYER
 10
29.4965586337
 20
18.9928472372
 11
29.4965706174
 21
14.7061346773
  0
LINE
  5
24B
100
AcDbEntity
  8
0
100
AcDbLine
 62
7
  6
BYLAYER
 10
41.6475013146
 20
73.0111436434
 11
41.0818182449
 21
72.6845483203
  0
LINE
  5
24C
100
AcDbEntity
  8
0
100
AcDbLine
 62
7
  6
BYLAYER
 10
67.2446602218
 20
86.1565771792
 11
41.6475013146
 21
71.3781388091
  0
LINE
  5
24D
100
AcDbEntity
  8
0
100
AcDbLine
 62
7
  6
BYLAYER
 10
68.2966046642
 20
83.6072812137
 11
68.7055858457
 21
83.8434051994
  0
LINE
  5
24E
100
AcDbEntity
  8
0
100
AcDbLine
 62
7
  6
BYLAYER
 10
42.8255889364
 20
67.9218767724
 11
68.4227478436
 21
82.7003151426
  0
LINE
  5
24F
100
AcDbEntity
  8
0
100
AcDbLine
 62
7
  6
BYLAYER
 10
37.8758296926
 20
64.5741699474
 11
38.9364854484
 21
65.1865361782
  0
LINE
  5
250
100
AcDbEntity
  8
0
100
AcDbLine
 62
7
  6
BYLAYER
 10
68.7055858457
 20
81.8837993983
 11
68.4227478436
 21
81.7205037764
  0
LINE
  5
251
100
AcDbEntity
  8
0
100
AcDbLine
 62
7
  6
BYLAYER
 10
37.6283515928
 20
63.0151828425
 11
39.3961111858
 21
64.0357932272
  0
LINE
  5
252
100
AcDbEntity
  8
0
100
AcDbLine
 62
7
  6
BYLAYER
 10
40.1739274675
 20
64.4721148578
 11
39.1132717117
 21
63.859748627
  0
LINE
  5
253
100
AcDbEntity
  8
0
100
AcDbLine
 62
7
  6
BYLAYER
 10
33.9867262039
 20
71.3102573912
 11
33.9867262039
 21
72.9432622255
  0
LINE
  5
254
100
AcDbEntity
  8
0
100
AcDbLine
 62
7
  6
BYLAYER
 10
35.04738196
 20
71.9226236222
 11
35.04738196
 21
73.5556284565
  0
LINE
  5
255
100
AcDbEntity
  8
0
100
AcDbLine
 62
7
  6
BYLAYER
 10
36.4262650596
 20
58.5116487093
 11
36.4262650596
 21
29.3625124178
  0
LINE
  5
256
100
AcDbEntity
  8
0
100
AcDbLine
 62
7
  6
BYLAYER
 10
42.1767618984
 20
62.0766996502
 11
42.1891901838
 21
62.0838750813
  0
LINE
  5
257
100
AcDbEntity
  8
0
100
AcDbLine
 62
7
  6
BYLAYER
 10
37.6481524303
 20
82.2745821617
 11
37.6481524303
 21
84.0487242949
  0
LINE
  5
258
100
AcDbEntity
  8
0
100
AcDbLine
 62
7
  6
BYLAYER
 10
40.0478245059
 20
85.4341673438
 11
40.0478245059
 21
81.7897931771
  0
LINE
  5
259
100
AcDbEntity
  8
0
100
AcDbLine
 62
7
  6
BYLAYER
 10
40.244657576
 20
59.1227990142
 11
40.244657576
 21
16.6659562835
  0
LINE
  5
25A
100
AcDbEntity
  8
0
100
AcDbLine
 62
7
  6
BYLAYER
 10
40.244657576
 20
59.1227990142
 11
42.012417169
 21
60.1434093989
  0
LINE
  5
25B
100
AcDbEntity
  8
0
100
AcDbLine
 62
7
  6
BYLAYER
 10
41.5881557498
 20
59.5731475263
 11
42.6488115056
 21
60.1855137571
  0
LINE
  5
25C
100
AcDbEntity
  8
0
100
AcDbLine
 62
7
  6
BYLAYER
 10
16.6271927555
 20
70.187340561
 11
36.2141321421
 21
58.8790716608
  0
LINE
  5
25D
100
AcDbEntity
  8
0
100
AcDbLine
 62
7
  6
BYLAYER
 10
41.0818182449
 20
72.6845483203
 11
41.0818182449
 21
73.5010507374
  0
LINE
  5
25E
100
AcDbEntity
  8
0
100
AcDbLine
 62
7
  6
BYLAYER
 10
41.5881557498
 20
59.5731475263
 11
41.5881557498
 21
20.381031504
  0
LINE
  5
25F
100
AcDbEntity
  8
0
100
AcDbLine
 62
7
  6
BYLAYER
 10
41.6475013146
 20
71.3781388091
 11
41.6475013146
 21
73.0111436434
  0
LINE
  5
260
100
AcDbEntity
  8
0
100
AcDbLine
 62
7
  6
BYLAYER
 10
42.0124171685
 20
20.4568722325
 11
42.0124171685
 21
17.6865666679
  0
LINE
  5
261
100
AcDbEntity
  8
0
100
AcDbLine
 62
7
  6
BYLAYER
 10
42.2952610585
 20
19.3604008047
 11
42.2952610585
 21
17.6457457287
  0
LINE
  5
262
100
AcDbEntity
  8
0
100
AcDbLine
 62
7
  6
BYLAYER
 10
42.6488115051
 20
60.1855137568
 11
42.6488115051
 21
20.9933977346
  0
LINE
  5
263
100
AcDbEntity
  8
0
100
AcDbLine
 62
7
  6
BYLAYER
 10
42.8255889364
 20
67.9218767724
 11
42.8255889364
 21
19.6665839201
  0
LINE
  5
264
100
AcDbEntity
  8
0
100
AcDbLine
 62
7
  6
BYLAYER
 10
42.8255889364
 20
17.9519288441
 11
42.8255889364
 21
13.3795153082
  0
LINE
  5
265
100
AcDbEntity
  8
0
100
AcDbLine
 62
7
  6
BYLAYER
 10
16.6271909888
 20
41.0381990166
 11
16.4150598376
 21
40.9157257705
  0
LINE
  5
266
100
AcDbEntity
  8
0
100
AcDbLine
 62
7
  6
BYLAYER
 10
16.6271927552
 20
40.548302819
 11
16.8393239063
 21
40.6707760652
  0
LINE
  5
267
100
AcDbEntity
  8
0
100
AcDbLine
 62
7
  6
BYLAYER
 10
36.4262650596
 20
29.3625124178
 11
36.3641282166
 21
29.2251822713
  0
LINE
  5
268
100
AcDbEntity
  8
0
100
AcDbLine
 62
7
  6
BYLAYER
 10
39.1132717113
 20
63.8597486268
 11
37.8758296922
 21
64.5741699472
  0
LINE
  5
269
100
AcDbEntity
  8
0
100
AcDbLine
 62
7
  6
BYLAYER
 10
40.1739274675
 20
64.4721148578
 11
38.9364854484
 21
65.1865361782
  0
LINE
  5
26A
100
AcDbEntity
  8
0
100
AcDbLine
 62
7
  6
BYLAYER
 10
16.477196681
 20
70.2021922087
 11
16.6271927555
 21
70.187340561
  0
LINE
  5
26B
100
AcDbEntity
  8
0
100
AcDbLine
 62
7
  6
BYLAYER
 10
15.8847275437
 20
84.8231354111
 11
30.5248628941
 21
76.3708405427
  0
LINE
  5
26C
100
AcDbEntity
  8
0
100
AcDbLine
 62
7
  6
BYLAYER
 10
19.4909768381
 20
84.169956153
 11
31.5118421661
 21
77.2298633264
  0
LINE
  5
26D
100
AcDbEntity
  8
0
100
AcDbLine
 62
7
  6
BYLAYER
 10
17.6524871372
 20
85.843745796
 11
32.292622487
 21
77.3914509272
  0
LINE
  5
26E
100
AcDbEntity
  8
0
100
AcDbLine
 62
7
  6
BYLAYER
 10
17.5464206784
 20
85.9866321509
 11
18.9606401287
 21
85.1701506418
  0
LINE
  5
26F
100
AcDbEntity
  8
0
100
AcDbLine
 62
7
  6
BYLAYER
 10
14.9187584144
 20
87.7894562375
 11
41.0818182449
 21
72.6845483203
  0
LINE
  5
270
100
AcDbEntity
  8
0
100
AcDbLine
 62
7
  6
BYLAYER
 10
14.9187584144
 20
88.6059586546
 11
41.0818182449
 21
73.5010507374
  0
LINE
  5
271
100
AcDbEntity
  8
0
100
AcDbLine
 62
7
  6
BYLAYER
 10
36.4262632936
 20
29.3625071654
 11
36.2141321425
 21
29.2400339192
  0
LINE
  5
272
100
AcDbEntity
  8
0
100
AcDbLine
 62
7
  6
BYLAYER
 10
65.9478579176
 20
89.3522033431
 11
65.9478579176
 21
90.1712581614
  0
LINE
  5
273
100
AcDbEntity
  8
0
100
AcDbLine
 62
7
  6
BYLAYER
 10
32.8804314405
 20
21.0573414683
 11
34.7304956547
 21
22.4077929042
  0
LWPOLYLINE
  5
274
100
AcDbEntity
  8
0
100
AcDbPolyline
 62
7
  6
BYLAYER
 90
4
 70
0
 10
33.5990345331
 20
82.4404978527
 10
37.6976050026
 20
81.3374555961
 10
42.365123828
 20
81.0998428724
 10
46.8818470411
 20
81.7948847063
  0
LINE
  5
275
100
AcDbEntity
  8
0
100
AcDbLine
 62
7
  6
BYLAYER
 10
67.2446602218
 20
86.1565771793
 11
67.2446602218
 21
88.6060844306
  0
LINE
  5
276
100
AcDbEntity
  8
0
100
AcDbLine
 62
7
  6
BYLAYER
 10
68.4227478436
 20
82.7003151426
 11
68.4227478436
 21
28.1579536783
  0
LINE
  5
277
100
AcDbEntity
  8
0
100
AcDbLine
 62
7
  6
BYLAYER
 10
68.7055858457
 20
81.8837993983
 11
68.7055858457
 21
83.8434051994
  0
LINE
  5
278
100
AcDbEntity
  8
0
100
AcDbLine
 62
7
  6
BYLAYER
 10
42.6488115056
 20
20.9933977349
 11
41.5881557498
 21
20.381031504
  0
LINE
  5
279
100
AcDbEntity
  8
0
100
AcDbLine
 62
7
  6
BYLAYER
 10
42.5452555233
 20
20.7645047638
 11
41.484599768
 21
20.1521385332
  0
LINE
  5
27A
100
AcDbEntity
  8
0
100
AcDbLine
 62
7
  6
BYLAYER
 10
42.0124171685
 20
19.8502924296
 11
42.2599011563
 21
19.9931765237
  0
LINE
  5
27B
100
AcDbEntity
  8
0
100
AcDbLine
 62
7
  6
BYLAYER
 10
42.2952610585
 20
19.3604008047
 11
42.8255889364
 21
19.6665839201
  0
LWPOLYLINE
  5
27C
100
AcDbEntity
  8
0
100
AcDbPolyline
 62
7
  6
BYLAYER
 90
5
 70
0
 10
49.0128194757
 20
91.0895994605
 10
50.2540890268
 20
90.2350705349
 10
51.8715229418
 20
88.2321149731
 10
52.2077951815
 20
86.0273619351
 10
51.8542888941
 20
85.2620842186
  0
LWPOLYLINE
  5
27D
100
AcDbEntity
  8
0
100
AcDbPolyline
 62
7
  6
BYLAYER
 90
4
 70
0
 10
49.6728361774
 20
17.1530560776
 10
48.1608847485
 20
15.6428848253
 10
46.5282188086
 20
14.7015256766
 10
43.2315195917
 20
13.6032250448
  0
LINE
  5
27E
100
AcDbEntity
  8
0
100
AcDbLine
 62
7
  6
BYLAYER
 10
42.012417169
 20
17.6865666682
 11
40.244657576
 21
16.6659562835
  0
LINE
  5
27F
100
AcDbEntity
  8
0
100
AcDbLine
 62
7
  6
BYLAYER
 10
42.8255889364
 20
17.9519288441
 11
42.2952610585
 21
17.6457457287
  0
LINE
  5
280
100
AcDbEntity
  8
0
100
AcDbLine
 62
7
  6
BYLAYER
 10
41.0286353414
 20
15.5120834452
 11
39.2608757488
 21
14.4914730608
  0
LINE
  5
281
100
AcDbEntity
  8
0
100
AcDbLine
 62
7
  6
BYLAYER
 10
41.2597012406
 20
15.3568160206
 11
41.7900291185
 21
15.662999136
  0
LINE
  5
282
100
AcDbEntity
  8
0
100
AcDbLine
 62
7
  6
BYLAYER
 10
36.2290217421
 20
15.2573783113
 11
38.3235838912
 21
16.1843443737
  0
LINE
  5
283
100
AcDbEntity
  8
0
100
AcDbLine
 62
7
  6
BYLAYER
 10
53.5735672621
 20
19.3398757219
 11
68.4227478436
 21
28.1579536783
  0
LINE
  5
284
100
AcDbEntity
  8
0
100
AcDbLine
 62
7
  6
BYLAYER
 10
52.1593595877
 20
18.5233874141
 11
53.5735672621
 21
19.3398757219
  0
LINE
  5
285
100
AcDbEntity
  8
0
100
AcDbLine
 62
7
  6
BYLAYER
 10
42.8255889364
 20
13.3795153082
 11
52.1593595877
 21
18.5233874141
  0
LINE
  5
286
100
AcDbEntity
  8
0
100
AcDbLine
 62
7
  6
BYLAYER
 10
49.1865229341
 20
12.9693412725
 11
42.4042211886
 21
9.0536009078
  0
LINE
  5
287
100
AcDbEntity
  8
0
100
AcDbLine
 62
7
  6
BYLAYER
 10
41.0816003913
 20
103.7109923479
 11
63.8265346301
 21
90.5794955166
  0
LINE
  5
288
100
AcDbEntity
  8
0
100
AcDbLine
 62
7
  6
BYLAYER
 10
65.2407540804
 20
89.7630140075
 11
67.2446602218
 21
88.6060844306
  0
LINE
  5
289
100
AcDbEntity
  8
0
100
AcDbLine
 62
7
  6
BYLAYER
 10
65.9478579176
 20
90.1712581614
 11
64.5336384673
 21
90.9877396704
  0
ARC
  5
28A
100
AcDbEntity
  8
0
100
AcDbCircle
 62
7
  6
BYLAYER
 10
38.4314404586
 20
32.9771280064
 40
20.0289233474
100
AcDbArc
 50
282.4240341528
 51
282.645048018
  0
ARC
  5
28B
100
AcDbEntity
  8
0
100
AcDbCircle
 62
7
  6
BYLAYER
 10
59.9068372978
 20
81.5822709008
 40
8.6468446958
100
AcDbArc
 50
27.1949722907
 51
31.9388931491
  0
ARC
  5
28C
100
AcDbEntity
  8
0
100
AcDbCircle
 62
7
  6
BYLAYER
 10
60.0134311577
 20
82.7874137609
 40
8.066418722
100
AcDbArc
 50
19.9075019685
 51
26.3033000395
  0
ARC
  5
28D
100
AcDbEntity
  8
0
100
AcDbCircle
 62
7
  6
BYLAYER
 10
23.4825425773
 20
35.4441065092
 40
5.109810232
100
AcDbArc
 50
202.9647318475
 51
212.2153094739
  0
ARC
  5
28E
100
AcDbEntity
  8
0
100
AcDbCircle
 62
7
  6
BYLAYER
 10
35.5292904143
 20
85.6551874119
 40
3.0822663641
100
AcDbArc
 50
164.2331516537
 51
170.2497171065
  0
ARC
  5
28F
100
AcDbEntity
  8
0
100
AcDbCircle
 62
7
  6
BYLAYER
 10
46.9130461853
 20
85.6656119658
 40
3.0370642142
100
AcDbArc
 50
8.0714698185
 51
16.4033367307
  0
ARC
  5
290
100
AcDbEntity
  8
0
100
AcDbCircle
 62
7
  6
BYLAYER
 10
42.3941139243
 20
70.7757509534
 40
2.6712926661
100
AcDbArc
 50
239.9833891902
 51
243.935802448
  0
ARC
  5
291
100
AcDbEntity
  8
0
100
AcDbCircle
 62
7
  6
BYLAYER
 10
15.883364046
 20
84.7844140172
 40
1.6740338586
100
AcDbArc
 50
115.0135721634
 51
119.9960558014
  0
ARC
  5
292
100
AcDbEntity
  8
0
100
AcDbCircle
 62
7
  6
BYLAYER
 10
40.4227690866
 20
16.8066555087
 40
1.6740338127
100
AcDbArc
 50
295.0135987007
 51
299.996055862
  0
ARC
  5
293
100
AcDbEntity
  8
0
100
AcDbCircle
 62
7
  6
BYLAYER
 10
38.4603047363
 20
82.823619452
 40
1.3986307097
100
AcDbArc
 50
180.0371755064
 51
190.6288915514
  0
ARC
  5
294
100
AcDbEntity
  8
0
100
AcDbCircle
 62
7
  6
BYLAYER
 10
19.4684931789
 20
30.7250862137
 40
1.0711321647
100
AcDbArc
 50
300.0758614249
 51
312.3768569661
  0
SPLINE
  5
295
100
AcDbEntity
  8
0
100
AcDbSpline
 62
7
  6
BYLAYER
 70
0
 71
3
 72
16
 73
12
 74
0
 42
0.0000001
 43
0.0000001
 44
0.0000000001
 40
0.0
 40
0.0
 40
0.0
 40
0.0
 40
0.1497721887
 40
0.2912139724
 40
0.4242841944
 40
0.4878777797
 40
0.5496299822
 40
0.6681055609
 40
0.7812825733
 40
0.8911436961
 40
1.0
 40
1.0
 40
1.0
 40
1.0
 10
39.1839929877
 20
17.8906942281
 30
0.0
 10
39.1839929877
 20
17.7897701876
 30
0.0
 10
39.1752438463
 20
17.5933701672
 30
0.0
 10
39.1334730195
 20
17.3100151565
 30
0.0
 10
39.07440467
 20
17.0893107103
 30
0.0
 10
39.0129053976
 20
16.926263533
 30
0.0
 10
38.9443941604
 20
16.7768146458
 30
0.0
 10
38.8426078615
 20
16.6063394741
 30
0.0
 10
38.6933507144
 20
16.4297124408
 30
0.0
 10
38.5202952613
 20
16.2861959659
 30
0.0
 10
38.3906614064
 20
16.2140296078
 30
0.0
 10
38.3235822841
 20
16.1843474067
 30
0.0
  0
SPLINE
  5
296
100
AcDbEntity
  8
0
100
AcDbSpline
 62
7
  6
BYLAYER
 70
0
 71
3
 72
24
 73
20
 74
0
 42
0.0000001
 43
0.0000001
 44
0.0000000001
 40
0.0
 40
0.0
 40
0.0
 40
0.0
 40
0.061798655
 40
0.1274398633
 40
0.1962559081
 40
0.2674472623
 40
0.3400935451
 40
0.413218306
 40
0.4858206934
 40
0.5569234366
 40
0.6256132817
 40
0.6910867808
 40
0.7527010432
 40
0.8100331048
 40
0.8629510906
 40
0.911696337
 40
0.9569618698
 40
0.9786768242
 40
1.0
 40
1.0
 40
1.0
 40
1.0
 10
32.2861316599
 20
19.5869380033
 30
0.0
 10
32.2861316599
 20
19.4515284032
 30
0.0
 10
32.3039789598
 20
19.172110382
 30
0.0
 10
32.377565646
 20
18.7477314955
 30
0.0
 10
32.4973574543
 20
18.3126530668
 30
0.0
 10
32.6608749259
 20
17.8757124409
 30
0.0
 10
32.8648507642
 20
17.4456881751
 30
0.0
 10
33.1051383288
 20
17.0312854096
 30
0.0
 10
33.3768836021
 20
16.6408945066
 30
0.0
 10
33.6745860137
 20
16.2824168892
 30
0.0
 10
33.9922443833
 20
15.9630904549
 30
0.0
 10
34.3234934732
 20
15.6893420047
 30
0.0
 10
34.6617768584
 20
15.4666753756
 30
0.0
 10
35.0005001159
 20
15.299597678
 30
0.0
 10
35.3332599919
 20
15.1916700276
 30
0.0
 10
35.6536669113
 20
15.1455349296
 30
0.0
 10
35.9090181317
 20
15.1606293253
 30
0.0
 10
36.0975866665
 20
15.2056491668
 30
0.0
 10
36.1862942297
 20
15.2384750054
 30
0.0
 10
36.2290202546
 20
15.2573811177
 30
0.0
  0
SPLINE
  5
297
100
AcDbEntity
  8
0
100
AcDbSpline
 62
7
  6
BYLAYER
 70
0
 71
3
 72
26
 73
22
 74
0
 42
0.0000001
 43
0.0000001
 44
0.0000000001
 40
0.0
 40
0.0
 40
0.0
 40
0.0
 40
0.0214908035
 40
0.0430257131
 40
0.0648457701
 40
0.0871762194
 40
0.1340623978
 40
0.1589850463
 40
0.1850062008
 40
0.2405067752
 40
0.3007213492
 40
0.3653482844
 40
0.4337800816
 40
0.5051854026
 40
0.5785772455
 40
0.6528727981
 40
0.7269452919
 40
0.7996806057
 40
0.8700255846
 40
0.9370529689
 40
1.0
 40
1.0
 40
1.0
 40
1.0
 10
34.730500346
 20
22.4077853691
 30
0.0
 10
34.7728034869
 20
22.4386617963
 30
0.0
 10
34.8616204459
 20
22.4950558211
 30
0.0
 10
35.0053806334
 20
22.5616980202
 30
0.0
 10
35.1585098486
 20
22.6098594101
 30
0.0
 10
35.377237653
 20
22.6497163696
 30
0.0
 10
35.6088645798
 20
22.6498082933
 30
0.0
 10
35.8448473509
 20
22.6143698365
 30
0.0
 10
36.0970534436
 20
22.5521782664
 30
0.0
 10
36.4202960783
 20
22.4260566493
 30
0.0
 10
36.803898821
 20
22.209128309
 30
0.0
 10
37.1833647276
 20
21.928350761
 30
0.0
 10
37.5503549843
 20
21.5900379621
 30
0.0
 10
37.896799665
 20
21.2017159664
 30
0.0
 10
38.2149705242
 20
20.7720679824
 30
0.0
 10
38.4977373272
 20
20.3107240047
 30
0.0
 10
38.7387607673
 20
19.8280410802
 30
0.0
 10
38.9326153907
 20
19.3348557055
 30
0.0
 10
39.0749858576
 20
18.8421647829
 30
0.0
 10
39.1626341736
 20
18.361059471
 30
0.0
 10
39.1839929877
 20
18.0440952795
 30
0.0
 10
39.1839929877
 20
17.8906942281
 30
0.0
  0
SPLINE
  5
298
100
AcDbEntity
  8
0
100
AcDbSpline
 62
7
  6
BYLAYER
 70
0
 71
3
 72
14
 73
10
 74
0
 42
0.0000001
 43
0.0000001
 44
0.0000000001
 40
0.0
 40
0.0
 40
0.0
 40
0.0
 40
0.1077436358
 40
0.2183039353
 40
0.3331125152
 40
0.4533131804
 40
0.7125656682
 40
0.852826532
 40
1.0
 40
1.0
 40
1.0
 40
1.0
 10
32.8804357188
 20
21.057334602
 30
0.0
 10
32.8327498699
 20
21.0225293976
 30
0.0
 10
32.7415432852
 20
20.944275691
 30
0.0
 10
32.6220268341
 20
20.8055143394
 30
0.0
 10
32.5194867899
 20
20.6456215367
 30
0.0
 10
32.4036053961
 20
20.4001659152
 30
0.0
 10
32.3291669001
 20
20.122633184
 30
0.0
 10
32.2921698352
 20
19.8252044431
 30
0.0
 10
32.2861316599
 20
19.6675798797
 30
0.0
 10
32.2861316599
 20
19.5869380033
 30
0.0
  0
SPLINE
  5
299
100
AcDbEntity
  8
0
100
AcDbSpline
 62
7
  6
BYLAYER
 70
0
 71
3
 72
25
 73
21
 74
0
 42
0.0000001
 43
0.0000001
 44
0.0000000001
 40
0.0
 40
0.0
 40
0.0
 40
0.0
 40
0.0629497586
 40
0.1299800818
 40
0.2003290891
 40
0.2730689167
 40
0.3471462769
 40
0.4214469992
 40
0.4948441143
 40
0.5662543537
 40
0.6346904912
 40
0.6993210678
 40
0.7595386377
 40
0.8150416526
 40
0.86593234
 40
0.9128203119
 40
0.9351516409
 40
0.9569725603
 40
0.9785083304
 40
1.0
 40
1.0
 40
1.0
 40
1.0
 10
37.030882806
 20
16.8476166237
 30
0.0
 10
37.030882806
 20
16.9905775483
 30
0.0
 10
37.0109783213
 20
17.2859699945
 30
0.0
 10
36.9292950097
 20
17.7343346902
 30
0.0
 10
36.7966137923
 20
18.1934997679
 30
0.0
 10
36.6159493811
 20
18.6531286457
 30
0.0
 10
36.3913246788
 20
19.1029715493
 30
0.0
 10
36.1277951883
 20
19.532928237
 30
0.0
 10
35.8312693455
 20
19.9333457776
 30
0.0
 10
35.5083948624
 20
20.2952466864
 30
0.0
 10
35.1663686498
 20
20.61054173
 30
0.0
 10
34.8127362178
 20
20.872203136
 30
0.0
 10
34.4551881312
 20
21.0743941621
 30
0.0
 10
34.101249649
 20
21.212458958
 30
0.0
 10
33.7584062332
 20
21.2829018243
 30
0.0
 10
33.4831716979
 20
21.2828029495
 30
0.0
 10
33.2793109421
 20
21.2456564545
 30
0.0
 10
33.136608044
 20
21.2007722434
 30
0.0
 10
33.002631517
 20
21.1386652727
 30
0.0
 10
32.9198596771
 20
21.0861095732
 30
0.0
 10
32.8804357188
 20
21.057334602
 30
0.0
  0
SPLINE
  5
29A
100
AcDbEntity
  8
0
100
AcDbSpline
 62
7
  6
BYLAYER
 70
0
 71
3
 72
16
 73
12
 74
0
 42
0.0000001
 43
0.0000001
 44
0.0000000001
 40
0.0
 40
0.0
 40
0.0
 40
0.0
 40
0.1088546697
 40
0.2187144173
 40
0.3318905799
 40
0.4503658803
 40
0.5121179034
 40
0.5757114095
 40
0.7087822995
 40
0.8502266062
 40
1.0
 40
1.0
 40
1.0
 40
1.0
 10
36.2290202546
 20
15.2573811177
 30
0.0
 10
36.2915338969
 20
15.2850431795
 30
0.0
 10
36.4123452671
 20
15.3522973236
 30
0.0
 10
36.5736228353
 20
15.4860465275
 30
0.0
 10
36.7127240007
 20
15.650652168
 30
0.0
 10
36.8075837285
 20
15.8095263095
 30
0.0
 10
36.8714342346
 20
15.9488047357
 30
0.0
 10
36.9287490227
 20
16.1007572355
 30
0.0
 10
36.9837998448
 20
16.3064449903
 30
0.0
 10
37.0227281045
 20
16.5705214667
 30
0.0
 10
37.030882806
 20
16.7535593813
 30
0.0
 10
37.030882806
 20
16.8476166237
 30
0.0
  0
SPLINE
  5
29B
100
AcDbEntity
  8
0
100
AcDbSpline
 62
7
  6
BYLAYER
 70
0
 71
3
 72
16
 73
12
 74
0
 42
0.0000001
 43
0.0000001
 44
0.0000000001
 40
0.0
 40
0.0
 40
0.0
 40
0.0
 40
0.1497721887
 40
0.2912139724
 40
0.4242841944
 40
0.4878777797
 40
0.5496299822
 40
0.6681055609
 40
0.7812825733
 40
0.8911436961
 40
1.0
 40
1.0
 40
1.0
 40
1.0
 10
18.6778109584
 20
78.7198211369
 30
0.0
 10
18.6778109584
 20
78.6188970965
 30
0.0
 10
18.669061817
 20
78.4224970761
 30
0.0
 10
18.6272909903
 20
78.1391420653
 30
0.0
 10
18.5682226407
 20
77.9184376191
 30
0.0
 10
18.5067233683
 20
77.7553904419
 30
0.0
 10
18.4382121312
 20
77.6059415547
 30
0.0
 10
18.3364258323
 20
77.435466383
 30
0.0
 10
18.1871686851
 20
77.2588393497
 30
0.0
 10
18.0141132321
 20
77.1153228748
 30
0.0
 10
17.8844793772
 20
77.0431565167
 30
0.0
 10
17.8174002549
 20
77.0134743156
 30
0.0
  0
SPLINE
  5
29C
100
AcDbEntity
  8
0
100
AcDbSpline
 62
7
  6
BYLAYER
 70
0
 71
3
 72
24
 73
20
 74
0
 42
0.0000001
 43
0.0000001
 44
0.0000000001
 40
0.0
 40
0.0
 40
0.0
 40
0.0
 40
0.061798655
 40
0.1274398633
 40
0.1962559081
 40
0.2674472623
 40
0.3400935451
 40
0.413218306
 40
0.4858206934
 40
0.5569234366
 40
0.6256132817
 40
0.6910867808
 40
0.7527010432
 40
0.8100331048
 40
0.8629510906
 40
0.911696337
 40
0.9569618698
 40
0.9786768242
 40
1.0
 40
1.0
 40
1.0
 40
1.0
 10
11.7799496306
 20
80.4160649122
 30
0.0
 10
11.7799496306
 20
80.2806553121
 30
0.0
 10
11.7977969305
 20
80.0012372908
 30
0.0
 10
11.8713836167
 20
79.5768584044
 30
0.0
 10
11.991175425
 20
79.1417799757
 30
0.0
 10
12.1546928966
 20
78.7048393498
 30
0.0
 10
12.3586687349
 20
78.2748150839
 30
0.0
 10
12.5989562996
 20
77.8604123185
 30
0.0
 10
12.8707015728
 20
77.4700214155
 30
0.0
 10
13.1684039844
 20
77.1115437981
 30
0.0
 10
13.486062354
 20
76.7922173637
 30
0.0
 10
13.817311444
 20
76.5184689136
 30
0.0
 10
14.1555948292
 20
76.2958022845
 30
0.0
 10
14.4943180866
 20
76.1287245868
 30
0.0
 10
14.8270779627
 20
76.0207969365
 30
0.0
 10
15.147484882
 20
75.9746618384
 30
0.0
 10
15.4028361025
 20
75.9897562342
 30
0.0
 10
15.5914046373
 20
76.0347760757
 30
0.0
 10
15.6801122005
 20
76.0676019142
 30
0.0
 10
15.7228382253
 20
76.0865080266
 30
0.0
  0
SPLINE
  5
29D
100
AcDbEntity
  8
0
100
AcDbSpline
 62
7
  6
BYLAYER
 70
0
 71
3
 72
26
 73
22
 74
0
 42
0.0000001
 43
0.0000001
 44
0.0000000001
 40
0.0
 40
0.0
 40
0.0
 40
0.0
 40
0.0214908035
 40
0.0430257131
 40
0.0648457701
 40
0.0871762194
 40
0.1340623978
 40
0.1589850463
 40
0.1850062008
 40
0.2405067752
 40
0.3007213492
 40
0.3653482844
 40
0.4337800816
 40
0.5051854026
 40
0.5785772455
 40
0.6528727981
 40
0.7269452919
 40
0.7996806057
 40
0.8700255846
 40
0.9370529689
 40
1.0
 40
1.0
 40
1.0
 40
1.0
 10
14.2243183168
 20
83.236912278
 30
0.0
 10
14.2666214577
 20
83.2677887052
 30
0.0
 10
14.3554384167
 20
83.32418273
 30
0.0
 10
14.4991986042
 20
83.390824929
 30
0.0
 10
14.6523278193
 20
83.4389863189
 30
0.0
 10
14.8710556237
 20
83.4788432785
 30
0.0
 10
15.1026825505
 20
83.4789352021
 30
0.0
 10
15.3386653216
 20
83.4434967453
 30
0.0
 10
15.5908714144
 20
83.3813051753
 30
0.0
 10
15.914114049
 20
83.2551835582
 30
0.0
 10
16.2977167917
 20
83.0382552178
 30
0.0
 10
16.6771826983
 20
82.7574776699
 30
0.0
 10
17.044172955
 20
82.419164871
 30
0.0
 10
17.3906176358
 20
82.0308428753
 30
0.0
 10
17.7087884949
 20
81.6011948913
 30
0.0
 10
17.991555298
 20
81.1398509135
 30
0.0
 10
18.2325787381
 20
80.657167989
 30
0.0
 10
18.4264333614
 20
80.1639826143
 30
0.0
 10
18.5688038283
 20
79.6712916918
 30
0.0
 10
18.6564521443
 20
79.1901863799
 30
0.0
 10
18.6778109584
 20
78.8732221884
 30
0.0
 10
18.6778109584
 20
78.7198211369
 30
0.0
  0
SPLINE
  5
29E
100
AcDbEntity
  8
0
100
AcDbSpline
 62
7
  6
BYLAYER
 70
0
 71
3
 72
14
 73
10
 74
0
 42
0.0000001
 43
0.0000001
 44
0.0000000001
 40
0.0
 40
0.0
 40
0.0
 40
0.0
 40
0.1077436358
 40
0.2183039353
 40
0.3331125152
 40
0.4533131804
 40
0.7125656682
 40
0.852826532
 40
1.0
 40
1.0
 40
1.0
 40
1.0
 10
12.3742536896
 20
81.8864615109
 30
0.0
 10
12.3265678407
 20
81.8516563065
 30
0.0
 10
12.2353612559
 20
81.7734025998
 30
0.0
 10
12.1158448048
 20
81.6346412483
 30
0.0
 10
12.0133047606
 20
81.4747484455
 30
0.0
 10
11.8974233668
 20
81.2292928241
 30
0.0
 10
11.8229848708
 20
80.9517600928
 30
0.0
 10
11.785987806
 20
80.6543313519
 30
0.0
 10
11.7799496306
 20
80.4967067885
 30
0.0
 10
11.7799496306
 20
80.4160649122
 30
0.0
  0
SPLINE
  5
29F
100
AcDbEntity
  8
0
100
AcDbSpline
 62
7
  6
BYLAYER
 70
0
 71
3
 72
25
 73
21
 74
0
 42
0.0000001
 43
0.0000001
 44
0.0000000001
 40
0.0
 40
0.0
 40
0.0
 40
0.0
 40
0.0629497586
 40
0.1299800818
 40
0.2003290891
 40
0.2730689167
 40
0.3471462769
 40
0.4214469992
 40
0.4948441143
 40
0.5662543537
 40
0.6346904912
 40
0.6993210678
 40
0.7595386377
 40
0.8150416526
 40
0.86593234
 40
0.9128203119
 40
0.9351516409
 40
0.9569725603
 40
0.9785083304
 40
1.0
 40
1.0
 40
1.0
 40
1.0
 10
16.5247007767
 20
77.6767435325
 30
0.0
 10
16.5247007767
 20
77.8197044572
 30
0.0
 10
16.504796292
 20
78.1150969034
 30
0.0
 10
16.4231129805
 20
78.5634615991
 30
0.0
 10
16.290431763
 20
79.0226266768
 30
0.0
 10
16.1097673519
 20
79.4822555546
 30
0.0
 10
15.8851426496
 20
79.9320984582
 30
0.0
 10
15.6216131591
 20
80.3620551458
 30
0.0
 10
15.3250873162
 20
80.7624726865
 30
0.0
 10
15.0022128331
 20
81.1243735952
 30
0.0
 10
14.6601866206
 20
81.4396686388
 30
0.0
 10
14.3065541885
 20
81.7013300449
 30
0.0
 10
13.9490061019
 20
81.9035210709
 30
0.0
 10
13.5950676198
 20
82.0415858669
 30
0.0
 10
13.252224204
 20
82.1120287332
 30
0.0
 10
12.9769896686
 20
82.1119298583
 30
0.0
 10
12.7731289129
 20
82.0747833633
 30
0.0
 10
12.6304260147
 20
82.0298991522
 30
0.0
 10
12.4964494878
 20
81.9677921815
 30
0.0
 10
12.4136776479
 20
81.915236482
 30
0.0
 10
12.3742536896
 20
81.8864615109
 30
0.0
  0
SPLINE
  5
2A0
100
AcDbEntity
  8
0
100
AcDbSpline
 62
7
  6
BYLAYER
 70
0
 71
3
 72
16
 73
12
 74
0
 42
0.0000001
 43
0.0000001
 44
0.0000000001
 40
0.0
 40
0.0
 40
0.0
 40
0.0
 40
0.1088546697
 40
0.2187144173
 40
0.3318905799
 40
0.4503658803
 40
0.5121179034
 40
0.5757114095
 40
0.7087822995
 40
0.8502266062
 40
1.0
 40
1.0
 40
1.0
 40
1.0
 10
15.7228382253
 20
76.0865080266
 30
0.0
 10
15.7853518677
 20
76.1141700884
 30
0.0
 10
15.9061632378
 20
76.1814242325
 30
0.0
 10
16.0674408061
 20
76.3151734364
 30
0.0
 10
16.2065419714
 20
76.4797790769
 30
0.0
 10
16.3014016993
 20
76.6386532183
 30
0.0
 10
16.3652522054
 20
76.7779316446
 30
0.0
 10
16.4225669934
 20
76.9298841444
 30
0.0
 10
16.4776178155
 20
77.1355718992
 30
0.0
 10
16.5165460753
 20
77.3996483756
 30
0.0
 10
16.5247007767
 20
77.5826862902
 30
0.0
 10
16.5247007767
 20
77.6767435325
 30
0.0
  0
SPLINE
  5
2A1
100
AcDbEntity
  8
0
100
AcDbSpline
 62
7
  6
BYLAYER
 70
0
 71
3
 72
9
 73
5
 74
0
 42
0.0000001
 43
0.0000001
 44
0.0000000001
 40
0.0
 40
0.0
 40
0.0
 40
0.0
 40
0.5140394296
 40
1.0
 40
1.0
 40
1.0
 40
1.0
 10
30.5377771308
 20
10.0843634553
 30
0.0
 10
30.1950606418
 20
10.2420693592
 30
0.0
 10
29.5409836968
 20
10.5774036591
 30
0.0
 10
28.9221047308
 20
10.9746892724
 30
0.0
 10
28.6332646708
 20
11.1839093617
 30
0.0
  0
SPLINE
  5
2A2
100
AcDbEntity
  8
0
100
AcDbSpline
 62
7
  6
BYLAYER
 70
0
 71
3
 72
9
 73
5
 74
0
 42
0.0000001
 43
0.0000001
 44
0.0000000001
 40
0.0
 40
0.0
 40
0.0
 40
0.0
 40
0.4950953883
 40
1.0
 40
1.0
 40
1.0
 40
1.0
 10
42.4042211886
 20
9.0536009078
 30
0.0
 10
41.9802796686
 20
8.9574650247
 30
0.0
 10
41.1167773463
 20
8.7940709591
 30
0.0
 10
40.2442770759
 20
8.6894971388
 30
0.0
 10
39.8026225202
 20
8.6511312443
 30
0.0
  0
SPLINE
  5
2A3
100
AcDbEntity
  8
0
100
AcDbSpline
 62
7
  6
BYLAYER
 70
0
 71
3
 72
9
 73
5
 74
0
 42
0.0000001
 43
0.0000001
 44
0.0000000001
 40
0.0
 40
0.0
 40
0.0
 40
0.0
 40
0.4876808325
 40
1.0
 40
1.0
 40
1.0
 40
1.0
 10
49.8836091425
 20
14.4713568424
 30
0.0
 10
49.8154771674
 20
14.209912485
 30
0.0
 10
49.6242171446
 20
13.6862855442
 30
0.0
 10
49.3461696846
 20
13.2040112172
 30
0.0
 10
49.1865229341
 20
12.9693412725
 30
0.0
  0
SPLINE
  5
2A4
100
AcDbEntity
  8
0
100
AcDbSpline
 62
7
  6
BYLAYER
 70
0
 71
3
 72
9
 73
5
 74
0
 42
0.0000001
 43
0.0000001
 44
0.0000000001
 40
0.0
 40
0.0
 40
0.0
 40
0.0
 40
0.4869006181
 40
1.0
 40
1.0
 40
1.0
 40
1.0
 10
44.6859441091
 20
14.0860260679
 30
0.0
 10
44.4077742752
 20
13.9260702608
 30
0.0
 10
43.818587803
 20
13.6280632323
 30
0.0
 10
43.2045620606
 20
13.3861580886
 30
0.0
 10
42.8851008361
 20
13.2753095795
 30
0.0
  0
SPLINE
  5
2A5
100
AcDbEntity
  8
0
100
AcDbSpline
 62
7
  6
BYLAYER
 70
0
 71
3
 72
15
 73
11
 74
0
 42
0.0000001
 43
0.0000001
 44
0.0000000001
 40
0.0
 40
0.0
 40
0.0
 40
0.0
 40
0.1221617281
 40
0.2494020356
 40
0.3796698817
 40
0.5107520447
 40
0.6403927166
 40
0.7664124262
 40
0.8868306596
 40
1.0
 40
1.0
 40
1.0
 40
1.0
 10
42.8851008361
 20
13.2753095795
 30
0.0
 10
42.4390396406
 20
13.120532678
 30
0.0
 10
41.5095868065
 20
12.8568671802
 30
0.0
 10
40.062410332
 20
12.601138017
 30
0.0
 10
38.5630564847
 20
12.4814544738
 30
0.0
 10
37.0498715439
 20
12.5009254236
 30
0.0
 10
35.5612875127
 20
12.6590208646
 30
0.0
 10
34.1350204608
 20
12.9517921929
 30
0.0
 10
32.8074412796
 20
13.3717237021
 30
0.0
 10
31.9812967829
 20
13.7426982481
 30
0.0
 10
31.5955841744
 20
13.9489522806
 30
0.0
  0
SPLINE
  5
2A6
100
AcDbEntity
  8
0
100
AcDbSpline
 62
7
  6
BYLAYER
 70
0
 71
3
 72
11
 73
7
 74
0
 42
0.0000001
 43
0.0000001
 44
0.0000000001
 40
0.0
 40
0.0
 40
0.0
 40
0.0
 40
0.2895401978
 40
0.5491171512
 40
0.782255066
 40
1.0
 40
1.0
 40
1.0
 40
1.0
 10
42.6488115051
 20
20.9933977346
 30
0.0
 10
42.6488115051
 20
20.968078423
 30
0.0
 10
42.6449454802
 20
20.9199001638
 30
0.0
 10
42.6254689456
 20
20.8536947427
 30
0.0
 10
42.5926157129
 20
20.7999541491
 30
0.0
 10
42.5617316019
 20
20.7740494759
 30
0.0
 10
42.5452415353
 20
20.7645289922
 30
0.0
  0
SPLINE
  5
2A7
100
AcDbEntity
  8
0
100
AcDbSpline
 62
7
  6
BYLAYER
 70
0
 71
3
 72
15
 73
11
 74
0
 42
0.0000001
 43
0.0000001
 44
0.0000000001
 40
0.0
 40
0.0
 40
0.0
 40
0.0
 40
0.1141465952
 40
0.2373352439
 40
0.366975646
 40
0.4999989181
 40
0.6330223406
 40
0.7626631822
 40
0.8858525235
 40
1.0
 40
1.0
 40
1.0
 40
1.0
 10
40.1739274671
 20
64.4721148576
 30
0.0
 10
40.3433407913
 20
64.374306242
 30
0.0
 10
40.6779853201
 20
64.1396994295
 30
0.0
 10
41.1384658797
 20
63.7089392888
 30
0.0
 10
41.5627705798
 20
63.1996750184
 30
0.0
 10
41.9350181493
 20
62.6311512007
 30
0.0
 10
42.2412536478
 20
62.0245142239
 30
0.0
 10
42.470141114
 20
61.4024225946
 30
0.0
 10
42.6129547335
 20
60.7882522314
 30
0.0
 10
42.6488115051
 20
60.3811358174
 30
0.0
 10
42.6488115051
 20
60.1855137568
 30
0.0
  0
SPLINE
  5
2A8
100
AcDbEntity
  8
0
100
AcDbSpline
 62
7
  6
BYLAYER
 70
0
 71
3
 72
15
 73
11
 74
0
 42
0.0000001
 43
0.0000001
 44
0.0000000001
 40
0.0
 40
0.0
 40
0.0
 40
0.0
 40
0.1141555516
 40
0.2373276756
 40
0.3669773296
 40
0.5000011
 40
0.6330247168
 40
0.7626739247
 40
0.885845342
 40
1.0
 40
1.0
 40
1.0
 40
1.0
 10
35.0473819598
 20
71.9226236221
 30
0.0
 10
35.0473819598
 20
71.61519521
 30
0.0
 10
35.1036918473
 20
70.9754591856
 30
0.0
 10
35.3281700834
 20
70.0103479274
 30
0.0
 10
35.6877712667
 20
69.0327676214
 30
0.0
 10
36.1690563838
 20
68.079478417
 30
0.0
 10
36.7539900989
 20
67.1860324654
 30
0.0
 10
37.4208008813
 20
66.3858247605
 30
0.0
 10
38.1443729393
 20
65.7088736173
 30
0.0
 10
38.6702452119
 20
65.3402465726
 30
0.0
 10
38.9364854481
 20
65.186536178
 30
0.0
  0
SPLINE
  5
2A9
100
AcDbEntity
  8
0
100
AcDbSpline
 62
7
  6
BYLAYER
 70
0
 71
3
 72
13
 73
9
 74
0
 42
0.0000001
 43
0.0000001
 44
0.0000000001
 40
0.0
 40
0.0
 40
0.0
 40
0.0
 40
0.2556847153
 40
0.5175942136
 40
0.6460911701
 40
0.7703496899
 40
0.8888118357
 40
1.0
 40
1.0
 40
1.0
 40
1.0
 10
33.4545287224
 20
77.1453444975
 30
0.0
 10
33.6942812611
 20
76.9013279347
 30
0.0
 10
34.1310979882
 20
76.3582606189
 30
0.0
 10
34.5521792767
 20
75.5982990661
 30
0.0
 10
34.8040304023
 20
74.956539141
 30
0.0
 10
34.941883299
 20
74.4785381093
 30
0.0
 10
35.0266606612
 20
74.0118561743
 30
0.0
 10
35.0473819598
 20
73.7043910669
 30
0.0
 10
35.0473819598
 20
73.5556284563
 30
0.0
  0
SPLINE
  5
2AA
100
AcDbEntity
  8
0
100
AcDbSpline
 62
7
  6
BYLAYER
 70
0
 71
3
 72
11
 73
7
 74
0
 42
0.0000001
 43
0.0000001
 44
0.0000000001
 40
0.0
 40
0.0
 40
0.0
 40
0.0
 40
0.2895391946
 40
0.5491157945
 40
0.7822541179
 40
1.0
 40
1.0
 40
1.0
 40
1.0
 10
19.4909768384
 20
84.1699561531
 30
0.0
 10
19.4690502095
 20
84.1826152118
 30
0.0
 10
19.4253946804
 20
84.2033552413
 30
0.0
 10
19.3583225877
 20
84.219589775
 30
0.0
 10
19.2953568821
 20
84.2180080476
 30
0.0
 10
19.2574816385
 20
84.2042143438
 30
0.0
 10
19.240991946
 20
84.1946940644
 30
0.0
  0
SPLINE
  5
2AB
100
AcDbEntity
  8
0
100
AcDbSpline
 62
7
  6
BYLAYER
 70
0
 71
3
 72
15
 73
11
 74
0
 42
0.0000001
 43
0.0000001
 44
0.0000000001
 40
0.0
 40
0.0
 40
0.0
 40
0.0
 40
0.1141474765
 40
0.2373368178
 40
0.3669776594
 40
0.5000010819
 40
0.633024354
 40
0.7626647561
 40
0.8858534048
 40
1.0
 40
1.0
 40
1.0
 40
1.0
 10
33.9867262039
 20
72.9432622255
 30
0.0
 10
33.9867262039
 20
73.1388842861
 30
0.0
 10
33.9508694324
 20
73.5460007001
 30
0.0
 10
33.8080558129
 20
74.1601710633
 30
0.0
 10
33.5791683466
 20
74.7822626926
 30
0.0
 10
33.2729328482
 20
75.3888996694
 30
0.0
 10
32.9006852787
 20
75.9574234871
 30
0.0
 10
32.4763805786
 20
76.4666877575
 30
0.0
 10
32.015900019
 20
76.8974478982
 30
0.0
 10
31.6812554901
 20
77.1320547107
 30
0.0
 10
31.5118421659
 20
77.2298633263
 30
0.0
  0
SPLINE
  5
2AC
100
AcDbEntity
  8
0
100
AcDbSpline
 62
7
  6
BYLAYER
 70
0
 71
3
 72
15
 73
11
 74
0
 42
0.0000001
 43
0.0000001
 44
0.0000000001
 40
0.0
 40
0.0
 40
0.0
 40
0.0
 40
0.1141546703
 40
0.2373261017
 40
0.3669753162
 40
0.4999989361
 40
0.6330227034
 40
0.7626723508
 40
0.8858444607
 40
1.0
 40
1.0
 40
1.0
 40
1.0
 10
37.8758296922
 20
64.5741699472
 30
0.0
 10
37.6095894274
 20
64.7278803584
 30
0.0
 10
37.083717103
 20
65.0965074542
 30
0.0
 10
36.3601449886
 20
65.7734586677
 30
0.0
 10
35.6933341915
 20
66.5736664444
 30
0.0
 10
35.1084004898
 20
67.4671124256
 30
0.0
 10
34.6271154049
 20
68.4204016268
 30
0.0
 10
34.2675142765
 20
69.3979818842
 30
0.0
 10
34.043036073
 20
70.3630930584
 30
0.0
 10
33.9867262039
 20
71.0028290123
 30
0.0
 10
33.9867262039
 20
71.3102573912
 30
0.0
  0
SPLINE
  5
2AD
100
AcDbEntity
  8
0
100
AcDbSpline
 62
7
  6
BYLAYER
 70
0
 71
3
 72
15
 73
11
 74
0
 42
0.0000001
 43
0.0000001
 44
0.0000000001
 40
0.0
 40
0.0
 40
0.0
 40
0.0
 40
0.1141474765
 40
0.2373368178
 40
0.3669776594
 40
0.5000010819
 40
0.633024354
 40
0.7626647561
 40
0.8858534048
 40
1.0
 40
1.0
 40
1.0
 40
1.0
 10
41.5881557493
 20
59.573147526
 30
0.0
 10
41.5881557493
 20
59.7687695866
 30
0.0
 10
41.5522989777
 20
60.1758860006
 30
0.0
 10
41.4094853582
 20
60.7900563638
 30
0.0
 10
41.180597892
 20
61.4121479931
 30
0.0
 10
40.8743623935
 20
62.0187849699
 30
0.0
 10
40.502114824
 20
62.5873087876
 30
0.0
 10
40.0778101239
 20
63.096573058
 30
0.0
 10
39.6173295643
 20
63.5273331987
 30
0.0
 10
39.2826850354
 20
63.7619400112
 30
0.0
 10
39.1132717113
 20
63.8597486268
 30
0.0
  0
SPLINE
  5
2AE
100
AcDbEntity
  8
0
100
AcDbSpline
 62
7
  6
BYLAYER
 70
0
 71
3
 72
11
 73
7
 74
0
 42
0.0000001
 43
0.0000001
 44
0.0000000001
 40
0.0
 40
0.0
 40
0.0
 40
0.0
 40
0.217745073
 40
0.4508830113
 40
0.7104597664
 40
1.0
 40
1.0
 40
1.0
 40
1.0
 10
41.4845857791
 20
20.1521627612
 30
0.0
 10
41.5010758514
 20
20.16168326
 30
0.0
 10
41.5319599837
 20
20.1875879308
 30
0.0
 10
41.5648131891
 20
20.2413285397
 30
0.0
 10
41.5842897545
 20
20.3075339379
 30
0.0
 10
41.5881557493
 20
20.3557121887
 30
0.0
 10
41.5881557493
 20
20.3810315038
 30
0.0
  0
SPLINE
  5
2AF
100
AcDbEntity
  8
0
100
AcDbSpline
 62
7
  6
BYLAYER
 70
0
 71
3
 72
14
 73
10
 74
0
 42
0.0000001
 43
0.0000001
 44
0.0000000001
 40
0.0
 40
0.0
 40
0.0
 40
0.0
 40
0.2892720607
 40
0.422554976
 40
0.5484985194
 40
0.6678874407
 40
0.781868291
 40
0.8919528621
 40
1.0
 40
1.0
 40
1.0
 40
1.0
 10
36.885886381
 20
14.7267133858
 30
0.0
 10
37.09438396
 20
14.6063399757
 30
0.0
 10
37.4144993154
 20
14.4539811719
 30
0.0
 10
37.8534958917
 20
14.3259920091
 30
0.0
 10
38.1650898325
 20
14.273707563
 30
0.0
 10
38.4648969614
 20
14.263338562
 30
0.0
 10
38.7501077737
 20
14.295086828
 30
0.0
 10
39.0176372595
 20
14.3691200728
 30
0.0
 10
39.1829952684
 20
14.446518386
 30
0.0
 10
39.2608716938
 20
14.4914800833
 30
0.0
  0
SPLINE
  5
2B0
100
AcDbEntity
  8
0
100
AcDbSpline
 62
7
  6
BYLAYER
 70
0
 71
3
 72
15
 73
11
 74
0
 42
0.0000001
 43
0.0000001
 44
0.0000000001
 40
0.0
 40
0.0
 40
0.0
 40
0.0
 40
0.1026586405
 40
0.2184706472
 40
0.3454030005
 40
0.4798228734
 40
0.6171941688
 40
0.7526541105
 40
0.8815501229
 40
1.0
 40
1.0
 40
1.0
 40
1.0
 10
20.2079060034
 20
27.4854579457
 30
0.0
 10
20.1594131461
 20
27.319806225
 30
0.0
 10
20.1070053174
 20
26.9519576822
 30
0.0
 10
20.1452136938
 20
26.3696070895
 30
0.0
 10
20.2915265714
 20
25.749904041
 30
0.0
 10
20.5385092777
 20
25.1244208444
 30
0.0
 10
20.8733887847
 20
24.5249037243
 30
0.0
 10
21.2790543914
 20
23.982186453
 30
0.0
 10
21.7344155013
 20
23.5242905917
 30
0.0
 10
22.0732775274
 20
23.2785836257
 30
0.0
 10
22.2457510312
 20
23.1790082546
 30
0.0
  0
SPLINE
  5
2B1
100
AcDbEntity
  8
0
100
AcDbSpline
 62
7
  6
BYLAYER
 70
0
 71
3
 72
9
 73
5
 74
0
 42
0.0000001
 43
0.0000001
 44
0.0000000001
 40
0.0
 40
0.0
 40
0.0
 40
0.0
 40
0.264959744
 40
1.0
 40
1.0
 40
1.0
 40
1.0
 10
20.3748742988
 20
28.7498982981
 30
0.0
 10
20.3748742988
 20
28.6370494165
 30
0.0
 10
20.3621551078
 20
28.2114357402
 30
0.0
 10
20.2958600996
 20
27.7859093564
 30
0.0
 10
20.2079060034
 20
27.4854579457
 30
0.0
  0
SPLINE
  5
2B2
100
AcDbEntity
  8
0
100
AcDbSpline
 62
7
  6
BYLAYER
 70
0
 71
3
 72
18
 73
14
 74
0
 42
0.0000001
 43
0.0000001
 44
0.0000000001
 40
0.0
 40
0.0
 40
0.0
 40
0.0
 40
0.0506999271
 40
0.1046994739
 40
0.1618380478
 40
0.2219036723
 40
0.3493382774
 40
0.4835205045
 40
0.6201020133
 40
0.754483926
 40
0.882283825
 40
0.9426218081
 40
1.0
 40
1.0
 40
1.0
 40
1.0
 10
15.1422623328
 20
36.5346659548
 30
0.0
 10
15.3024649116
 20
36.4865638475
 30
0.0
 10
15.6270279719
 20
36.3655439907
 30
0.0
 10
16.1045185657
 20
36.1246466748
 30
0.0
 10
16.5820819919
 20
35.821439984
 30
0.0
 10
17.2233312758
 20
35.3299199668
 30
0.0
 10
17.9839122814
 20
34.583421024
 30
0.0
 10
18.7874957652
 20
33.539493315
 30
0.0
 10
19.4609496178
 20
32.3804871653
 30
0.0
 10
19.9708220588
 20
31.1637684011
 30
0.0
 10
20.2443248748
 20
30.1308984439
 30
0.0
 10
20.355375325
 20
29.3277531841
 30
0.0
 10
20.3748742988
 20
28.9391993934
 30
0.0
 10
20.3748742988
 20
28.7498982981
 30
0.0
  0
SPLINE
  5
2B3
100
AcDbEntity
  8
0
100
AcDbSpline
 62
7
  6
BYLAYER
 70
0
 71
3
 72
15
 73
11
 74
0
 42
0.0000001
 43
0.0000001
 44
0.0000000001
 40
0.0
 40
0.0
 40
0.0
 40
0.0
 40
0.1176444377
 40
0.2455004882
 40
0.3799325996
 40
0.5165679014
 40
0.6508028245
 40
0.7782851922
 40
0.895425015
 40
1.0
 40
1.0
 40
1.0
 40
1.0
 10
12.5259563497
 20
40.4270497832
 30
0.0
 10
12.5259563497
 20
40.2330602862
 30
0.0
 10
12.5670949676
 20
39.8278174727
 30
0.0
 10
12.7279294422
 20
39.2202415946
 30
0.0
 10
12.9829336873
 20
38.6117126174
 30
0.0
 10
13.3196279236
 20
38.0322715882
 30
0.0
 10
13.7214627253
 20
37.5102310782
 30
0.0
 10
14.1690467777
 20
37.0710565168
 30
0.0
 10
14.6405456501
 20
36.7361219521
 30
0.0
 10
14.9771077878
 20
36.5842549296
 30
0.0
 10
15.1422623328
 20
36.5346659548
 30
0.0
  0
SPLINE
  5
2B4
100
AcDbEntity
  8
0
100
AcDbSpline
 62
7
  6
BYLAYER
 70
0
 71
3
 72
11
 73
7
 74
0
 42
0.0000001
 43
0.0000001
 44
0.0000000001
 40
0.0
 40
0.0
 40
0.0
 40
0.0
 40
0.2372428334
 40
0.4999989082
 40
0.7627555772
 40
1.0
 40
1.0
 40
1.0
 40
1.0
 10
36.2141321421
 20
58.8790716608
 30
0.0
 10
36.2442493108
 20
58.8616838987
 30
0.0
 10
36.3012393896
 20
58.8137155991
 30
0.0
 10
36.3677561298
 20
58.7228181725
 30
0.0
 10
36.4132178014
 20
58.6197642639
 30
0.0
 10
36.4262650596
 20
58.5464250565
 30
0.0
 10
36.4262650596
 20
58.5116487093
 30
0.0
  0
SPLINE
  5
2B5
100
AcDbEntity
  8
0
100
AcDbSpline
 62
7
  6
BYLAYER
 70
0
 71
3
 72
15
 73
11
 74
0
 42
0.0000001
 43
0.0000001
 44
0.0000000001
 40
0.0
 40
0.0
 40
0.0
 40
0.0
 40
0.1184499019
 40
0.2473459427
 40
0.3828058975
 40
0.5201771977
 40
0.6545970631
 40
0.7815294016
 40
0.8973413815
 40
1.0
 40
1.0
 40
1.0
 40
1.0
 10
32.292622487
 20
77.3914509272
 30
0.0
 10
32.465096027
 20
77.2918755352
 30
0.0
 10
32.8039581161
 20
77.0461685014
 30
0.0
 10
33.2593192921
 20
76.5882725476
 30
0.0
 10
33.6649849064
 20
76.0455551834
 30
0.0
 10
33.9998643867
 20
75.4460380292
 30
0.0
 10
34.2468470452
 20
74.8205548442
 30
0.0
 10
34.3931598514
 20
74.2008518649
 30
0.0
 10
34.4313681996
 20
73.6185013779
 30
0.0
 10
34.3789603616
 20
73.2506529213
 30
0.0
 10
34.3304675147
 20
73.0850012361
 30
0.0
  0
SPLINE
  5
2B6
100
AcDbEntity
  8
0
100
AcDbSpline
 62
7
  6
BYLAYER
 70
0
 71
3
 72
14
 73
10
 74
0
 42
0.0000001
 43
0.0000001
 44
0.0000000001
 40
0.0
 40
0.0
 40
0.0
 40
0.0
 40
0.2892730352
 40
0.4225562199
 40
0.5484998506
 40
0.6678886669
 40
0.7818692291
 40
0.8919533702
 40
1.0
 40
1.0
 40
1.0
 40
1.0
 10
42.0124171685
 20
17.6865666679
 30
0.0
 10
42.0124171685
 20
17.4458085021
 30
0.0
 10
41.9843086139
 20
17.0923902609
 30
0.0
 10
41.8756527377
 20
16.6481995908
 30
0.0
 10
41.765134541
 20
16.3522001519
 30
0.0
 10
41.6242086328
 20
16.0873673681
 30
0.0
 10
41.4541050285
 20
15.8562354484
 30
0.0
 10
41.2562210763
 20
15.6615601444
 30
0.0
 10
41.1065094282
 20
15.5570531655
 30
0.0
 10
41.0286312868
 20
15.512090468
 30
0.0
  0
SPLINE
  5
2B7
100
AcDbEntity
  8
0
100
AcDbSpline
 62
7
  6
BYLAYER
 70
0
 71
3
 72
14
 73
10
 74
0
 42
0.0000001
 43
0.0000001
 44
0.0000000001
 40
0.0
 40
0.0
 40
0.0
 40
0.0
 40
0.1080466357
 40
0.2181307812
 40
0.3321113461
 40
0.4515001674
 40
0.5774437985
 40
0.7107269735
 40
1.0
 40
1.0
 40
1.0
 40
1.0
 10
13.5097422313
 20
85.0583687138
 30
0.0
 10
13.4318640815
 20
85.0134060209
 30
0.0
 10
13.2821524322
 20
84.9088990265
 30
0.0
 10
13.0842684704
 20
84.7142237183
 30
0.0
 10
12.914164861
 20
84.4830917883
 30
0.0
 10
12.7732389614
 20
84.218258992
 30
0.0
 10
12.662720769
 20
83.9222595555
 30
0.0
 10
12.5540648965
 20
83.4780688993
 30
0.0
 10
12.5259563497
 20
83.1246506727
 30
0.0
 10
12.5259563497
 20
82.8838925139
 30
0.0
  0
SPLINE
  5
2B8
100
AcDbEntity
  8
0
100
AcDbSpline
 62
7
  6
BYLAYER
 70
0
 71
3
 72
14
 73
10
 74
0
 42
0.0000001
 43
0.0000001
 44
0.0000000001
 40
0.0
 40
0.0
 40
0.0
 40
0.0
 40
0.1080471438
 40
0.2181317193
 40
0.3321125724
 40
0.4515014986
 40
0.5774450424
 40
0.710727948
 40
1.0
 40
1.0
 40
1.0
 40
1.0
 10
15.2775018243
 20
86.0789790985
 30
0.0
 10
15.35537825
 20
86.1239408054
 30
0.0
 10
15.520736273
 20
86.2013391119
 30
0.0
 10
15.7882657672
 20
86.2753723629
 30
0.0
 10
16.073476591
 20
86.3071206282
 30
0.0
 10
16.3732837263
 20
86.2967516135
 30
0.0
 10
16.6848776629
 20
86.2444671649
 30
0.0
 10
17.1238742253
 20
86.1164780059
 30
0.0
 10
17.4439895642
 20
85.9641192026
 30
0.0
 10
17.6524871372
 20
85.843745796
 30
0.0
  0
SPLINE
  5
2B9
100
AcDbEntity
  8
0
100
AcDbSpline
 62
7
  6
BYLAYER
 70
0
 71
3
 72
11
 73
7
 74
0
 42
0.0000001
 43
0.0000001
 44
0.0000000001
 40
0.0
 40
0.0
 40
0.0
 40
0.0
 40
0.2372428334
 40
0.4999989082
 40
0.7627555772
 40
1.0
 40
1.0
 40
1.0
 40
1.0
 10
16.6271927555
 20
40.5483028192
 30
0.0
 10
16.5970755868
 20
40.5656905813
 30
0.0
 10
16.5400855081
 20
40.6136588808
 30
0.0
 10
16.4735687679
 20
40.7045563075
 30
0.0
 10
16.4281070963
 20
40.8076102161
 30
0.0
 10
16.415059838
 20
40.8809494234
 30
0.0
 10
16.415059838
 20
40.9157257707
 30
0.0
  0
SPLINE
  5
2BA
100
AcDbEntity
  8
0
100
AcDbSpline
 62
7
  6
BYLAYER
 70
0
 71
3
 72
9
 73
5
 74
0
 42
0.0000001
 43
0.0000001
 44
0.0000000001
 40
0.0
 40
0.0
 40
0.0
 40
0.0
 40
0.264959744
 40
1.0
 40
1.0
 40
1.0
 40
1.0
 10
32.3957396263
 20
70.799950499
 30
0.0
 10
32.3957396263
 20
70.9127993806
 30
0.0
 10
32.4084588174
 20
71.338413057
 30
0.0
 10
32.4747538255
 20
71.7639394407
 30
0.0
 10
32.5627079217
 20
72.0643908514
 30
0.0
  0
SPLINE
  5
2BB
100
AcDbEntity
  8
0
100
AcDbSpline
 62
7
  6
BYLAYER
 70
0
 71
3
 72
18
 73
14
 74
0
 42
0.0000001
 43
0.0000001
 44
0.0000000001
 40
0.0
 40
0.0
 40
0.0
 40
0.0
 40
0.0506999271
 40
0.1046994739
 40
0.1618380478
 40
0.2219036723
 40
0.3493382774
 40
0.4835205045
 40
0.6201020133
 40
0.754483926
 40
0.882283825
 40
0.9426218081
 40
1.0
 40
1.0
 40
1.0
 40
1.0
 10
37.6283515923
 20
63.0151828423
 30
0.0
 10
37.4681490135
 20
63.0632849496
 30
0.0
 10
37.1435859532
 20
63.1843048064
 30
0.0
 10
36.6660953595
 20
63.4252021223
 30
0.0
 10
36.1885319332
 20
63.7284088131
 30
0.0
 10
35.5472826493
 20
64.2199288304
 30
0.0
 10
34.7867016437
 20
64.9664277731
 30
0.0
 10
33.9831181599
 20
66.0103554822
 30
0.0
 10
33.3096643074
 20
67.1693616319
 30
0.0
 10
32.7997918663
 20
68.3860803961
 30
0.0
 10
32.5262890503
 20
69.4189503532
 30
0.0
 10
32.4152386001
 20
70.2220956131
 30
0.0
 10
32.3957396263
 20
70.6106494038
 30
0.0
 10
32.3957396263
 20
70.799950499
 30
0.0
  0
SPLINE
  5
2BC
100
AcDbEntity
  8
0
100
AcDbSpline
 62
7
  6
BYLAYER
 70
0
 71
3
 72
15
 73
11
 74
0
 42
0.0000001
 43
0.0000001
 44
0.0000000001
 40
0.0
 40
0.0
 40
0.0
 40
0.0
 40
0.1176444377
 40
0.2455004882
 40
0.3799325996
 40
0.5165679014
 40
0.6508028245
 40
0.7782851922
 40
0.895425015
 40
1.0
 40
1.0
 40
1.0
 40
1.0
 10
40.2446575754
 20
59.1227990139
 30
0.0
 10
40.2446575754
 20
59.3167885109
 30
0.0
 10
40.2035189575
 20
59.7220313245
 30
0.0
 10
40.042684483
 20
60.3296072025
 30
0.0
 10
39.7876802378
 20
60.9381361798
 30
0.0
 10
39.4509860015
 20
61.5175772089
 30
0.0
 10
39.0491511998
 20
62.039617719
 30
0.0
 10
38.6015671474
 20
62.4787922804
 30
0.0
 10
38.1300682751
 20
62.813726845
 30
0.0
 10
37.7935061373
 20
62.9655938676
 30
0.0
 10
37.6283515923
 20
63.0151828423
 30
0.0
  0
SPLINE
  5
2BD
100
AcDbEntity
  8
0
100
AcDbSpline
 62
7
  6
BYLAYER
 70
0
 71
3
 72
14
 73
10
 74
0
 42
0.0000001
 43
0.0000001
 44
0.0000000001
 40
0.0
 40
0.0
 40
0.0
 40
0.0
 40
0.1080466357
 40
0.2181307812
 40
0.3321113461
 40
0.4515001674
 40
0.5774437985
 40
0.7107269735
 40
1.0
 40
1.0
 40
1.0
 40
1.0
 10
39.2608716938
 20
14.4914800833
 30
0.0
 10
39.3387498436
 20
14.5364427763
 30
0.0
 10
39.4884614929
 20
14.6409497707
 30
0.0
 10
39.6863454547
 20
14.8356250789
 30
0.0
 10
39.8564490642
 20
15.0667570089
 30
0.0
 10
39.9973749637
 20
15.3315898052
 30
0.0
 10
40.1078931561
 20
15.6275892416
 30
0.0
 10
40.2165490287
 20
16.0717798978
 30
0.0
 10
40.2446575754
 20
16.4251981245
 30
0.0
 10
40.2446575754
 20
16.6659562832
 30
0.0
  0
SPLINE
  5
2BE
100
AcDbEntity
  8
0
100
AcDbSpline
 62
7
  6
BYLAYER
 70
0
 71
3
 72
14
 73
10
 74
0
 42
0.0000001
 43
0.0000001
 44
0.0000000001
 40
0.0
 40
0.0
 40
0.0
 40
0.0
 40
0.2892720607
 40
0.422554976
 40
0.5484985194
 40
0.6678874407
 40
0.781868291
 40
0.8919528621
 40
1.0
 40
1.0
 40
1.0
 40
1.0
 10
15.8847275441
 20
84.8231354113
 30
0.0
 10
15.6762299651
 20
84.9435088215
 30
0.0
 10
15.3561146097
 20
85.0958676253
 30
0.0
 10
14.9171180334
 20
85.2238567881
 30
0.0
 10
14.6055240926
 20
85.2761412342
 30
0.0
 10
14.3057169637
 20
85.2865102351
 30
0.0
 10
14.0205061514
 20
85.2547619691
 30
0.0
 10
13.7529766656
 20
85.1807287244
 30
0.0
 10
13.5876186567
 20
85.1033304112
 30
0.0
 10
13.5097422313
 20
85.0583687138
 30
0.0
  0
SPLINE
  5
2BF
100
AcDbEntity
  8
0
100
AcDbSpline
 62
7
  6
BYLAYER
 70
0
 71
3
 72
15
 73
11
 74
0
 42
0.0000001
 43
0.0000001
 44
0.0000000001
 40
0.0
 40
0.0
 40
0.0
 40
0.0
 40
0.1026586405
 40
0.2184706472
 40
0.3454030005
 40
0.4798228734
 40
0.6171941688
 40
0.7526541105
 40
0.8815501229
 40
1.0
 40
1.0
 40
1.0
 40
1.0
 10
32.5627079217
 20
72.0643908514
 30
0.0
 10
32.611200779
 20
72.2300425721
 30
0.0
 10
32.6636086077
 20
72.5978911149
 30
0.0
 10
32.6254002313
 20
73.1802417077
 30
0.0
 10
32.4790873537
 20
73.7999447562
 30
0.0
 10
32.2321046474
 20
74.4254279528
 30
0.0
 10
31.8972251405
 20
75.0249450728
 30
0.0
 10
31.4915595337
 20
75.5676623441
 30
0.0
 10
31.0361984238
 20
76.0255582054
 30
0.0
 10
30.6973363978
 20
76.2712651714
 30
0.0
 10
30.524862894
 20
76.3708405426
 30
0.0
  0
SPLINE
  5
2C0
100
AcDbEntity
  8
0
100
AcDbSpline
 62
7
  6
BYLAYER
 70
0
 71
3
 72
11
 73
7
 74
0
 42
0.0000001
 43
0.0000001
 44
0.0000000001
 40
0.0
 40
0.0
 40
0.0
 40
0.0
 40
0.2372444228
 40
0.5000010918
 40
0.7627571666
 40
1.0
 40
1.0
 40
1.0
 40
1.0
 10
16.6271909892
 20
41.0381990169
 30
0.0
 10
16.6271909892
 20
41.0034226696
 30
0.0
 10
16.6402382474
 20
40.9300834623
 30
0.0
 10
16.685699919
 20
40.8270295537
 30
0.0
 10
16.7522166592
 20
40.736132127
 30
0.0
 10
16.809206738
 20
40.6881638275
 30
0.0
 10
16.8393239067
 20
40.6707760654
 30
0.0
  0
SPLINE
  5
2C1
100
AcDbEntity
  8
0
100
AcDbSpline
 62
7
  6
BYLAYER
 70
0
 71
3
 72
9
 73
5
 74
0
 42
0.0000001
 43
0.0000001
 44
0.0000000001
 40
0.0
 40
0.0
 40
0.0
 40
0.0
 40
0.5182880622
 40
1.0
 40
1.0
 40
1.0
 40
1.0
 10
68.4720621837
 20
35.4522073275
 30
0.0
 10
68.546772361
 20
35.1861454552
 30
0.0
 10
68.661462574
 20
34.6639063179
 30
0.0
 10
68.7055858457
 20
34.1303069973
 30
0.0
 10
68.7055858457
 20
33.8734572711
 30
0.0
  0
SPLINE
  5
2C2
100
AcDbEntity
  8
0
100
AcDbSpline
 62
7
  6
BYLAYER
 70
0
 71
3
 72
11
 73
7
 74
0
 42
0.0000001
 43
0.0000001
 44
0.0000000001
 40
0.0
 40
0.0
 40
0.0
 40
0.0
 40
0.2637765947
 40
0.5209759784
 40
0.7675216943
 40
1.0
 40
1.0
 40
1.0
 40
1.0
 10
67.5978293462
 20
85.5340508169
 30
0.0
 10
67.7172019679
 20
85.3017037291
 30
0.0
 10
67.9322097935
 20
84.8317694918
 30
0.0
 10
68.1824658847
 20
84.1128248524
 30
0.0
 10
68.3516340611
 20
83.4023388456
 30
0.0
 10
68.4097646371
 20
82.9301723145
 30
0.0
 10
68.4227478436
 20
82.7003151426
 30
0.0
  0
SPLINE
  5
2C3
100
AcDbEntity
  8
0
100
AcDbSpline
 62
7
  6
BYLAYER
 70
0
 71
3
 72
13
 73
9
 74
0
 42
0.0000001
 43
0.0000001
 44
0.0000000001
 40
0.0
 40
0.0
 40
0.0
 40
0.0
 40
0.1080968518
 40
0.2182397763
 40
0.3322548948
 40
0.4516826086
 40
0.7106605369
 40
1.0
 40
1.0
 40
1.0
 40
1.0
 10
37.3115024171
 20
72.4918694367
 30
0.0
 10
37.3647810042
 20
72.5226422199
 30
0.0
 10
37.4779254692
 20
72.5756137632
 30
0.0
 10
37.6609836619
 20
72.6261803722
 30
0.0
 10
37.8561035482
 20
72.6480226926
 30
0.0
 10
38.1370709119
 20
72.6382229492
 30
0.0
 10
38.5103468872
 20
72.5482687197
 30
0.0
 10
38.7938611662
 20
72.4132746324
 30
0.0
 10
38.9364854481
 20
72.3309323277
 30
0.0
  0
SPLINE
  5
2C4
100
AcDbEntity
  8
0
100
AcDbSpline
 62
7
  6
BYLAYER
 70
0
 71
3
 72
9
 73
5
 74
0
 42
0.0000001
 43
0.0000001
 44
0.0000000001
 40
0.0
 40
0.0
 40
0.0
 40
0.0
 40
0.2484899662
 40
1.0
 40
1.0
 40
1.0
 40
1.0
 10
16.855319838
 20
35.254104183
 30
0.0
 10
16.8751752023
 20
35.265572283
 30
0.0
 10
16.9565685346
 20
35.3091112516
 30
0.0
 10
17.0437155917
 20
35.3417641556
 30
0.0
 10
17.1106337047
 20
35.3599501409
 30
0.0
  0
SPLINE
  5
2C5
100
AcDbEntity
  8
0
100
AcDbSpline
 62
7
  6
BYLAYER
 70
0
 71
3
 72
20
 73
16
 74
0
 42
0.0000001
 43
0.0000001
 44
0.0000000001
 40
0.0
 40
0.0
 40
0.0
 40
0.0
 40
0.0623912872
 40
0.1288087745
 40
0.2703017663
 40
0.4173633424
 40
0.5616154644
 40
0.6302519298
 40
0.6953787122
 40
0.7563611782
 40
0.812830577
 40
0.864763494
 40
0.9125655365
 40
0.9571670727
 40
1.0
 40
1.0
 40
1.0
 40
1.0
 10
38.9364854481
 20
72.3309323277
 30
0.0
 10
39.0531991814
 20
72.2635491468
 30
0.0
 10
39.2851633364
 20
72.1084625545
 30
0.0
 10
39.7326021776
 20
71.7320086487
 30
0.0
 10
40.2419755741
 20
71.1523725998
 30
0.0
 10
40.7336165351
 20
70.3526405632
 30
0.0
 10
41.0268000627
 20
69.6276352927
 30
0.0
 10
41.171514099
 20
69.0439440159
 30
0.0
 10
41.2306152216
 20
68.6266048413
 30
0.0
 10
41.2406554671
 20
68.2313589262
 30
0.0
 10
41.2012675034
 20
67.8663416741
 30
0.0
 10
41.1128744282
 20
67.5390330175
 30
0.0
 10
40.9762318537
 20
67.256400927
 30
0.0
 10
40.7934983497
 20
67.0252303173
 30
0.0
 10
40.6415863917
 20
66.9090042172
 30
0.0
 10
40.5614684792
 20
66.8627295073
 30
0.0
  0
SPLINE
  5
2C6
100
AcDbEntity
  8
0
100
AcDbSpline
 62
7
  6
BYLAYER
 70
0
 71
3
 72
9
 73
5
 74
0
 42
0.0000001
 43
0.0000001
 44
0.0000000001
 40
0.0
 40
0.0
 40
0.0
 40
0.0
 40
0.4928729291
 40
1.0
 40
1.0
 40
1.0
 40
1.0
 10
15.0464469188
 20
86.2342274817
 30
0.0
 10
14.9443078384
 20
86.1752578021
 30
0.0
 10
14.7493526582
 20
86.0330214853
 30
0.0
 10
14.5882750382
 20
85.8536869335
 30
0.0
 10
14.5158468446
 20
85.7563208002
 30
0.0
  0
SPLINE
  5
2C7
100
AcDbEntity
  8
0
100
AcDbSpline
 62
7
  6
BYLAYER
 70
0
 71
3
 72
15
 73
11
 74
0
 42
0.0000001
 43
0.0000001
 44
0.0000000001
 40
0.0
 40
0.0
 40
0.0
 40
0.0
 40
0.1456327363
 40
0.2843542302
 40
0.416221806
 40
0.5417401247
 40
0.6617009124
 40
0.7771522393
 40
0.8894045108
 40
1.0
 40
1.0
 40
1.0
 40
1.0
 10
27.8702182496
 20
15.6450884127
 30
0.0
 10
27.6282538481
 20
15.8114469048
 30
0.0
 10
27.1686531123
 20
16.1555971635
 30
0.0
 10
26.5442594703
 20
16.7181658692
 30
0.0
 10
26.0066981331
 20
17.3108606672
 30
0.0
 10
25.5602422132
 20
17.9290711897
 30
0.0
 10
25.2086444419
 20
18.5684957861
 30
0.0
 10
24.954794606
 20
19.2243510003
 30
0.0
 10
24.801508556
 20
19.8914052993
 30
0.0
 10
24.7671636311
 20
20.34144333
 30
0.0
 10
24.7671784995
 20
20.5644342846
 30
0.0
  0
SPLINE
  5
2C8
100
AcDbEntity
  8
0
100
AcDbSpline
 62
7
  6
BYLAYER
 70
0
 71
3
 72
15
 73
11
 74
0
 42
0.0000001
 43
0.0000001
 44
0.0000000001
 40
0.0
 40
0.0
 40
0.0
 40
0.0
 40
0.1080095613
 40
0.2180557496
 40
0.331996477
 40
0.4513534057
 40
0.5772590623
 40
0.7104908518
 40
0.8514573835
 40
1.0
 40
1.0
 40
1.0
 40
1.0
 10
49.9491079945
 20
86.5786229759
 30
0.0
 10
49.9491234001
 20
86.4129796447
 30
0.0
 10
49.9203321532
 20
86.0778991311
 30
0.0
 10
49.7919755564
 20
85.5829516789
 30
0.0
 10
49.5799847919
 20
85.0986959156
 30
0.0
 10
49.2872405573
 20
84.6299774413
 30
0.0
 10
48.9168862302
 20
84.1810846307
 30
0.0
 10
48.4727290716
 20
83.7558974383
 30
0.0
 10
47.9591801463
 20
83.3585263742
 30
0.0
 10
47.5836274648
 20
83.1204183309
 30
0.0
 10
47.3863424472
 20
83.0065164528
 30
0.0
  0
SPLINE
  5
2C9
100
AcDbEntity
  8
0
100
AcDbSpline
 62
7
  6
BYLAYER
 70
0
 71
3
 72
16
 73
12
 74
0
 42
0.0000001
 43
0.0000001
 44
0.0000000001
 40
0.0
 40
0.0
 40
0.0
 40
0.0
 40
0.1141434187
 40
0.237303704
 40
0.3669422885
 40
0.4999557112
 40
0.6329688336
 40
0.7626094897
 40
0.8857676873
 40
0.9441580183
 40
1.0
 40
1.0
 40
1.0
 40
1.0
 10
48.8006699458
 20
91.2120726027
 30
0.0
 10
48.2802988765
 20
91.5125175473
 30
0.0
 10
47.1424076444
 20
92.0424111489
 30
0.0
 10
45.2894062111
 20
92.6056367178
 30
0.0
 10
43.2832162566
 20
92.9523314842
 30
0.0
 10
41.1992467348
 20
93.0693128313
 30
0.0
 10
39.1151271732
 20
92.9523450536
 30
0.0
 10
37.1093295186
 20
92.6057512882
 30
0.0
 10
35.5367359802
 20
92.1278707677
 30
0.0
 10
34.3863593913
 20
91.6372543984
 30
0.0
 10
33.8522843028
 20
91.3591437089
 30
0.0
 10
33.5977028069
 20
91.2121618911
 30
0.0
  0
SPLINE
  5
2CA
100
AcDbEntity
  8
0
100
AcDbSpline
 62
7
  6
BYLAYER
 70
0
 71
3
 72
25
 73
21
 74
0
 42
0.0000001
 43
0.0000001
 44
0.0000000001
 40
0.0
 40
0.0
 40
0.0
 40
0.0
 40
0.0213322122
 40
0.042892846
 40
0.0648982445
 40
0.087542868
 40
0.13531796
 40
0.1872189764
 40
0.2436566091
 40
0.304604135
 40
0.3696912445
 40
0.4382878837
 40
0.5095739621
 40
0.5825983244
 40
0.656330588
 40
0.7297065144
 40
0.8016836208
 40
0.8712733552
 40
0.9376202774
 40
1.0
 40
1.0
 40
1.0
 40
1.0
 10
54.699085839
 20
88.8648298993
 30
0.0
 10
54.6990855786
 20
89.0563457409
 30
0.0
 10
54.6744221978
 20
89.4418772605
 30
0.0
 10
54.5636011522
 20
90.0153478819
 30
0.0
 10
54.3798729746
 20
90.5822085754
 30
0.0
 10
54.0332591177
 20
91.3378938792
 30
0.0
 10
53.4112682107
 20
92.2531698515
 30
0.0
 10
52.4176390599
 20
93.2507507091
 30
0.0
 10
51.1862554618
 20
94.1505775061
 30
0.0
 10
49.7435139098
 20
94.9352339289
 30
0.0
 10
48.1195777651
 20
95.5894631896
 30
0.0
 10
46.3485725545
 20
96.0998671909
 30
0.0
 10
44.4679244158
 20
96.455813471
 30
0.0
 10
42.5175788003
 20
96.6497688786
 30
0.0
 10
40.5391169634
 20
96.6775903501
 30
0.0
 10
38.5747208137
 20
96.5387364377
 30
0.0
 10
36.6663516916
 20
96.2360916216
 30
0.0
 10
34.854340447
 20
95.7761647847
 30
0.0
 10
33.1776240991
 20
95.1685702451
 30
0.0
 10
32.1381530601
 20
94.6560943711
 30
0.0
 10
31.6531510627
 20
94.3760800089
 30
0.0
  0
SPLINE
  5
2CB
100
AcDbEntity
  8
0
100
AcDbSpline
 62
7
  6
BYLAYER
 70
0
 71
3
 72
15
 73
11
 74
0
 42
0.0000001
 43
0.0000001
 44
0.0000000001
 40
0.0
 40
0.0
 40
0.0
 40
0.0
 40
0.1080112034
 40
0.2180578013
 40
0.3319951248
 40
0.4513555104
 40
0.5772633249
 40
0.7104880902
 40
0.851444567
 40
1.0
 40
1.0
 40
1.0
 40
1.0
 10
53.69909003
 20
88.8648298535
 30
0.0
 10
53.6990905391
 20
88.6281927239
 30
0.0
 10
53.6580478476
 20
88.1494929513
 30
0.0
 10
53.4745787707
 20
87.4424517633
 30
0.0
 10
53.1718305532
 20
86.7506175613
 30
0.0
 10
52.7535383
 20
86.0810614099
 30
0.0
 10
52.2245002978
 20
85.439762276
 30
0.0
 10
51.5899973595
 20
84.8323879052
 30
0.0
 10
50.8563872303
 20
84.2646901303
 30
0.0
 10
50.3198642124
 20
83.9245515376
 30
0.0
 10
50.0380039165
 20
83.7618203913
 30
0.0
  0
SPLINE
  5
2CC
100
AcDbEntity
  8
0
100
AcDbSpline
 62
7
  6
BYLAYER
 70
0
 71
3
 72
9
 73
5
 74
0
 42
0.0000001
 43
0.0000001
 44
0.0000000001
 40
0.0
 40
0.0
 40
0.0
 40
0.0
 40
0.4811932743
 40
1.0
 40
1.0
 40
1.0
 40
1.0
 10
45.0970747121
 20
82.4502403362
 30
0.0
 10
44.8348653425
 20
82.2988545897
 30
0.0
 10
44.2622866748
 20
82.0311765774
 30
0.0
 10
43.6590974629
 20
81.8456119091
 30
0.0
 10
43.3419314038
 20
81.7683553796
 30
0.0
  0
SPLINE
  5
2CD
100
AcDbEntity
  8
0
100
AcDbSpline
 62
7
  6
BYLAYER
 70
0
 71
3
 72
9
 73
5
 74
0
 42
0.0000001
 43
0.0000001
 44
0.0000000001
 40
0.0
 40
0.0
 40
0.0
 40
0.0
 40
0.5244038393
 40
1.0
 40
1.0
 40
1.0
 40
1.0
 10
39.0002680996
 20
81.7822366875
 30
0.0
 10
38.622855028
 20
81.8770029807
 30
0.0
 10
37.914762548
 20
82.1094597742
 30
0.0
 10
37.2553047264
 20
82.4617323009
 30
0.0
 10
36.9651580283
 20
82.66263399
 30
0.0
  0
SPLINE
  5
2CE
100
AcDbEntity
  8
0
100
AcDbSpline
 62
7
  6
BYLAYER
 70
0
 71
3
 72
13
 73
9
 74
0
 42
0.0000001
 43
0.0000001
 44
0.0000000001
 40
0.0
 40
0.0
 40
0.0
 40
0.0
 40
0.2840348748
 40
0.541133695
 40
0.6612103614
 40
0.7767986852
 40
0.8892224914
 40
1.0
 40
1.0
 40
1.0
 40
1.0
 10
36.9651580283
 20
82.66263399
 30
0.0
 10
36.7705830078
 20
82.797360494
 30
0.0
 10
36.418814709
 20
83.083648744
 30
0.0
 10
36.0660146133
 20
83.5132928626
 30
0.0
 10
35.8684067651
 20
83.8743990551
 30
0.0
 10
35.7639481532
 20
84.1459868207
 30
0.0
 10
35.7007564997
 20
84.4220881275
 30
0.0
 10
35.6866353928
 20
84.6083646037
 30
0.0
 10
35.6866456363
 20
84.700667495
 30
0.0
  0
SPLINE
  5
2CF
100
AcDbEntity
  8
0
100
AcDbSpline
 62
7
  6
BYLAYER
 70
0
 71
3
 72
16
 73
12
 74
0
 42
0.0000001
 43
0.0000001
 44
0.0000000001
 40
0.0
 40
0.0
 40
0.0
 40
0.0
 40
0.1567575071
 40
0.3056674485
 40
0.4451457322
 40
0.5742164737
 40
0.6927153342
 40
0.8015218495
 40
0.9027593335
 40
0.9516512067
 40
1.0
 40
1.0
 40
1.0
 40
1.0
 10
38.0901123991
 20
81.8565415436
 30
0.0
 10
37.6871713881
 20
81.9449852459
 30
0.0
 10
36.9088052492
 20
82.1539934585
 30
0.0
 10
35.812617764
 20
82.5734441865
 30
0.0
 10
34.8362472019
 20
83.0832166019
 30
0.0
 10
34.0012574914
 20
83.6726959703
 30
0.0
 10
33.3261976497
 20
84.3304551771
 30
0.0
 10
32.8272652976
 20
85.0437341422
 30
0.0
 10
32.5675993658
 20
85.6815572023
 30
0.0
 10
32.4660348852
 20
86.1951545964
 30
0.0
 10
32.4491685437
 20
86.4513852815
 30
0.0
 10
32.4491567099
 20
86.5786231339
 30
0.0
  0
SPLINE
  5
2D0
100
AcDbEntity
  8
0
100
AcDbSpline
 62
7
  6
BYLAYER
 70
0
 71
3
 72
15
 73
11
 74
0
 42
0.0000001
 43
0.0000001
 44
0.0000000001
 40
0.0
 40
0.0
 40
0.0
 40
0.0
 40
0.1485547509
 40
0.2895090301
 40
0.4227328352
 40
0.5486408201
 40
0.6680016561
 40
0.7819394757
 40
0.8919871559
 40
1.0
 40
1.0
 40
1.0
 40
1.0
 10
31.6531510627
 20
94.3760800089
 30
0.0
 10
31.3487433162
 20
94.2003311636
 30
0.0
 10
30.7693025841
 20
93.8329874696
 30
0.0
 10
29.9770122284
 20
93.2198776368
 30
0.0
 10
29.2917510034
 20
92.5639214104
 30
0.0
 10
28.7203899293
 20
91.8713195728
 30
0.0
 10
28.2686257864
 20
91.1482008507
 30
0.0
 10
27.9416570284
 20
90.4010149023
 30
0.0
 10
27.7435026532
 20
89.6374044079
 30
0.0
 10
27.6991785178
 20
89.1204017492
 30
0.0
 10
27.6991788653
 20
88.8648297464
 30
0.0
  0
SPLINE
  5
2D1
100
AcDbEntity
  8
0
100
AcDbSpline
 62
7
  6
BYLAYER
 70
0
 71
3
 72
14
 73
10
 74
0
 42
0.0000001
 43
0.0000001
 44
0.0000000001
 40
0.0
 40
0.0
 40
0.0
 40
0.0
 40
0.1080471741
 40
0.2181331536
 40
0.3321126824
 40
0.4514946816
 40
0.5774390732
 40
0.710737758
 40
1.0
 40
1.0
 40
1.0
 40
1.0
 10
46.7116190681
 20
84.700667496
 30
0.0
 10
46.7116074868
 20
84.5963093913
 30
0.0
 10
46.6934966296
 20
84.3852015043
 30
0.0
 10
46.6126069595
 20
84.0733780597
 30
0.0
 10
46.4790461075
 20
83.7683080318
 30
0.0
 10
46.2946586323
 20
83.4730139838
 30
0.0
 10
46.0612965612
 20
83.1901847247
 30
0.0
 10
45.6779051094
 20
82.8232614493
 30
0.0
 10
45.3390303802
 20
82.5899326724
 30
0.0
 10
45.0970747121
 20
82.4502403362
 30
0.0
  0
SPLINE
  5
2D2
100
AcDbEntity
  8
0
100
AcDbSpline
 62
7
  6
BYLAYER
 70
0
 71
3
 72
15
 73
11
 74
0
 42
0.0000001
 43
0.0000001
 44
0.0000000001
 40
0.0
 40
0.0
 40
0.0
 40
0.0
 40
0.126199755
 40
0.2550151824
 40
0.3849612912
 40
0.5145146638
 40
0.6421695032
 40
0.7664701337
 40
0.8861457192
 40
1.0
 40
1.0
 40
1.0
 40
1.0
 10
42.7405631314
 20
13.4172396569
 30
0.0
 10
42.1845772691
 20
13.2947529581
 30
0.0
 10
41.0501165505
 20
13.0948068908
 30
0.0
 10
39.3197144339
 20
12.9292628639
 30
0.0
 10
37.5664998014
 20
12.8967079024
 30
0.0
 10
35.8211547279
 20
12.9977623289
 30
0.0
 10
34.114109473
 20
13.2307149713
 30
0.0
 10
32.4748116003
 20
13.5913981826
 30
0.0
 10
30.9321709925
 20
14.0737202713
 30
0.0
 10
29.9587456444
 20
14.4820707413
 30
0.0
 10
29.4965706174
 20
14.7061346773
 30
0.0
  0
SPLINE
  5
2D3
100
AcDbEntity
  8
0
100
AcDbSpline
 62
7
  6
BYLAYER
 70
0
 71
3
 72
9
 73
5
 74
0
 42
0.0000001
 43
0.0000001
 44
0.0000000001
 40
0.0
 40
0.0
 40
0.0
 40
0.0
 40
0.5067274152
 40
1.0
 40
1.0
 40
1.0
 40
1.0
 10
40.5805376952
 20
15.1362895172
 30
0.0
 10
40.6766550627
 20
15.1474876434
 30
0.0
 10
40.8650498791
 20
15.1836212572
 30
0.0
 10
41.0452444222
 20
15.2498013488
 30
0.0
 10
41.1306064197
 20
15.2896335853
 30
0.0
  0
SPLINE
  5
2D4
100
AcDbEntity
  8
0
100
AcDbSpline
 62
7
  6
BYLAYER
 70
0
 71
3
 72
9
 73
5
 74
0
 42
0.0000001
 43
0.0000001
 44
0.0000000001
 40
0.0
 40
0.0
 40
0.0
 40
0.0
 40
0.5261284322
 40
1.0
 40
1.0
 40
1.0
 40
1.0
 10
68.7055858457
 20
81.8837993983
 30
0.0
 10
68.7055858457
 20
81.6483862139
 30
0.0
 10
68.6718027784
 20
81.1998519376
 30
0.0
 10
68.5515114012
 20
80.7645300844
 30
0.0
 10
68.4696617976
 20
80.5689339455
 30
0.0
  0
SPLINE
  5
2D5
100
AcDbEntity
  8
0
100
AcDbSpline
 62
7
  6
BYLAYER
 70
0
 71
3
 72
11
 73
7
 74
0
 42
0.0000001
 43
0.0000001
 44
0.0000000001
 40
0.0
 40
0.0
 40
0.0
 40
0.0
 40
0.2637990097
 40
0.5243169148
 40
0.7722838907
 40
1.0
 40
1.0
 40
1.0
 40
1.0
 10
67.2821249068
 20
87.8979382647
 30
0.0
 10
67.5027486651
 20
87.5847710579
 30
0.0
 10
67.8989519651
 20
86.9313992427
 30
0.0
 10
68.3480257287
 20
85.8999803014
 30
0.0
 10
68.6324178599
 20
84.865592554
 30
0.0
 10
68.7055858457
 20
84.1740848667
 30
0.0
 10
68.7055858457
 20
83.8434051994
 30
0.0
  0
SPLINE
  5
2D6
100
AcDbEntity
  8
0
100
AcDbSpline
 62
7
  6
BYLAYER
 70
0
 71
3
 72
9
 73
5
 74
0
 42
0.0000001
 43
0.0000001
 44
0.0000000001
 40
0.0
 40
0.0
 40
0.0
 40
0.0
 40
0.5261284322
 40
1.0
 40
1.0
 40
1.0
 40
1.0
 10
68.7055858457
 20
33.8734572711
 30
0.0
 10
68.7055858457
 20
33.6380440867
 30
0.0
 10
68.6718027784
 20
33.1895098104
 30
0.0
 10
68.5515114012
 20
32.7541879572
 30
0.0
 10
68.4696617976
 20
32.5585918183
 30
0.0
  0
SPLINE
  5
2D7
100
AcDbEntity
  8
0
100
AcDbSpline
 62
7
  6
BYLAYER
 70
0
 71
3
 72
20
 73
16
 74
0
 42
0.0000001
 43
0.0000001
 44
0.0000000001
 40
0.0
 40
0.0
 40
0.0
 40
0.0
 40
0.0623912872
 40
0.1288087745
 40
0.2703017663
 40
0.4173633424
 40
0.5616154644
 40
0.6302519298
 40
0.6953787122
 40
0.7563611782
 40
0.812830577
 40
0.864763494
 40
0.9125655365
 40
0.9571670727
 40
1.0
 40
1.0
 40
1.0
 40
1.0
 10
38.9364854481
 20
67.0236666163
 30
0.0
 10
38.8197717149
 20
67.0910497972
 30
0.0
 10
38.5878075599
 20
67.2461363895
 30
0.0
 10
38.1403687186
 20
67.6225902953
 30
0.0
 10
37.6309953221
 20
68.2022263442
 30
0.0
 10
37.1393543612
 20
69.0019583808
 30
0.0
 10
36.8461708336
 20
69.7269636513
 30
0.0
 10
36.7014567972
 20
70.3106549281
 30
0.0
 10
36.6423556747
 20
70.7279941027
 30
0.0
 10
36.6323154291
 20
71.1232400178
 30
0.0
 10
36.6717033928
 20
71.4882572699
 30
0.0
 10
36.7600964681
 20
71.8155659265
 30
0.0
 10
36.8967390426
 20
72.098198017
 30
0.0
 10
37.0794725466
 20
72.3293686267
 30
0.0
 10
37.2313845046
 20
72.4455947268
 30
0.0
 10
37.3115024171
 20
72.4918694367
 30
0.0
  0
SPLINE
  5
2D8
100
AcDbEntity
  8
0
100
AcDbSpline
 62
7
  6
BYLAYER
 70
0
 71
3
 72
14
 73
10
 74
0
 42
0.0000001
 43
0.0000001
 44
0.0000000001
 40
0.0
 40
0.0
 40
0.0
 40
0.0
 40
0.1080466918
 40
0.2181369051
 40
0.3321102099
 40
0.4514858167
 40
0.5774340196
 40
0.7107563212
 40
1.0
 40
1.0
 40
1.0
 40
1.0
 10
41.2596861924
 20
15.3568420848
 30
0.0
 10
41.34166304
 20
15.4041711622
 30
0.0
 10
41.4993121059
 20
15.5141130788
 30
0.0
 10
41.7075067662
 20
15.71913965
 30
0.0
 10
41.8866447757
 20
15.962351478
 30
0.0
 10
42.0349473723
 20
16.2411344101
 30
0.0
 10
42.1513140625
 20
16.5527265639
 30
0.0
 10
42.2656232176
 20
17.0203251948
 30
0.0
 10
42.2952610585
 20
17.3923423812
 30
0.0
 10
42.2952610585
 20
17.6457457287
 30
0.0
  0
SPLINE
  5
2D9
100
AcDbEntity
  8
0
100
AcDbSpline
 62
7
  6
BYLAYER
 70
0
 71
3
 72
10
 73
6
 74
0
 42
0.0000001
 43
0.0000001
 44
0.0000000001
 40
0.0
 40
0.0
 40
0.0
 40
0.0
 40
0.2397167823
 40
0.4840198007
 40
1.0
 40
1.0
 40
1.0
 40
1.0
 10
15.5767681165
 20
86.5404220379
 30
0.0
 10
15.6583230704
 20
86.5874808016
 30
0.0
 10
15.8314889537
 20
86.6686059384
 30
0.0
 10
16.2111795774
 20
86.7743812131
 30
0.0
 10
16.515366382
 20
86.7832602206
 30
0.0
 10
16.7171038791
 20
86.7638283632
 30
0.0
  0
SPLINE
  5
2DA
100
AcDbEntity
  8
0
100
AcDbSpline
 62
7
  6
BYLAYER
 70
0
 71
3
 72
12
 73
8
 74
0
 42
0.0000001
 43
0.0000001
 44
0.0000000001
 40
0.0
 40
0.0
 40
0.0
 40
0.0
 40
0.1081636542
 40
0.2183747328
 40
0.4513431039
 40
0.71048144
 40
1.0
 40
1.0
 40
1.0
 40
1.0
 10
20.0052869998
 20
29.7981684676
 30
0.0
 10
19.9536477815
 20
29.7683425876
 30
0.0
 10
19.8439706067
 20
29.7170133421
 30
0.0
 10
19.6031882125
 20
29.650401254
 30
0.0
 10
19.2658970119
 20
29.6413467306
 30
0.0
 10
18.8435531861
 20
29.7435603569
 30
0.0
 10
18.5685392877
 20
29.8743450008
 30
0.0
 10
18.4303034189
 20
29.9541537114
 30
0.0
  0
SPLINE
  5
2DB
100
AcDbEntity
  8
0
100
AcDbSpline
 62
7
  6
BYLAYER
 70
0
 71
3
 72
18
 73
14
 74
0
 42
0.0000001
 43
0.0000001
 44
0.0000000001
 40
0.0
 40
0.0
 40
0.0
 40
0.0
 40
0.094247716
 40
0.1469979825
 40
0.203594959
 40
0.2638626352
 40
0.3274456718
 40
0.3938262919
 40
0.4623831817
 40
0.6030427226
 40
0.7434362174
 40
0.8774726836
 40
1.0
 40
1.0
 40
1.0
 40
1.0
 10
17.175386935
 20
35.2845824799
 30
0.0
 10
17.0786663038
 20
35.1325813382
 30
0.0
 10
16.976134269
 20
34.8636376584
 30
0.0
 10
16.9154295545
 20
34.4789412831
 30
0.0
 10
16.9046957836
 20
34.1539623908
 30
0.0
 10
16.9307570246
 20
33.8094597322
 30
0.0
 10
16.9931283941
 20
33.4506709867
 30
0.0
 10
17.0907008737
 20
33.0834610762
 30
0.0
 10
17.2671486746
 20
32.5865529895
 30
0.0
 10
17.5632501313
 20
31.984382853
 30
0.0
 10
18.015107143
 20
31.3285752116
 30
0.0
 10
18.537888192
 20
30.774447915
 30
0.0
 10
18.9345622754
 20
30.47950782
 30
0.0
 10
19.1374072561
 20
30.3623978652
 30
0.0
  0
SPLINE
  5
2DC
100
AcDbEntity
  8
0
100
AcDbSpline
 62
7
  6
BYLAYER
 70
0
 71
3
 72
23
 73
19
 74
0
 42
0.0000001
 43
0.0000001
 44
0.0000000001
 40
0.0
 40
0.0
 40
0.0
 40
0.0
 40
0.0438018016
 40
0.0905819332
 40
0.1411050603
 40
0.1957330635
 40
0.2544806593
 40
0.3170814688
 40
0.3830522385
 40
0.4517477404
 40
0.5224043021
 40
0.5941782066
 40
0.6661830918
 40
0.7375257383
 40
0.80733615
 40
0.8747969899
 40
0.9392242396
 40
1.0
 40
1.0
 40
1.0
 40
1.0
 10
49.8264943851
 20
86.5232707723
 30
0.0
 10
49.7582981058
 20
86.75589528
 30
0.0
 10
49.5610478195
 20
87.221747618
 30
0.0
 10
49.1160151132
 20
87.8686332737
 30
0.0
 10
48.5248750416
 20
88.4717015989
 30
0.0
 10
47.7994175252
 20
89.0208270622
 30
0.0
 10
46.9529997657
 20
89.5071195329
 30
0.0
 10
46.0010193559
 20
89.9222248725
 30
0.0
 10
44.9608007767
 20
90.2588670716
 30
0.0
 10
43.851343952
 20
90.5109765685
 30
0.0
 10
42.6930029782
 20
90.6739200371
 30
0.0
 10
41.5071131475
 20
90.744719469
 30
0.0
 10
40.3155427194
 20
90.722106529
 30
0.0
 10
39.1402584885
 20
90.6064798705
 30
0.0
 10
38.0029880621
 20
90.3999158
 30
0.0
 10
36.9244474177
 20
90.1062829966
 30
0.0
 10
35.9247773817
 20
89.7308378286
 30
0.0
 10
35.3032143438
 20
89.4207535588
 30
0.0
 10
35.0119222572
 20
89.2525769981
 30
0.0
  0
SPLINE
  5
2DD
100
AcDbEntity
  8
0
100
AcDbSpline
 62
7
  6
BYLAYER
 70
0
 71
3
 72
15
 73
11
 74
0
 42
0.0000001
 43
0.0000001
 44
0.0000000001
 40
0.0
 40
0.0
 40
0.0
 40
0.0
 40
0.1080113065
 40
0.2180577836
 40
0.3319949006
 40
0.4513550695
 40
0.5772627831
 40
0.7104876772
 40
0.8514444694
 40
1.0
 40
1.0
 40
1.0
 40
1.0
 10
54.6990862793
 20
88.538228891
 30
0.0
 10
54.6990868883
 20
88.2826605484
 30
0.0
 10
54.6547611589
 20
87.7656648128
 30
0.0
 10
54.4566147888
 20
87.0020607718
 30
0.0
 10
54.1296468064
 20
86.2548812488
 30
0.0
 10
53.6778926307
 20
85.5317611864
 30
0.0
 10
53.1065318429
 20
84.8391584768
 30
0.0
 10
52.4212685685
 20
84.183193097
 30
0.0
 10
51.6289684223
 20
83.5700789497
 30
0.0
 10
51.0495229594
 20
83.2027284224
 30
0.0
 10
50.7451136417
 20
83.02697867
 30
0.0
  0
SPLINE
  5
2DE
100
AcDbEntity
  8
0
100
AcDbSpline
 62
7
  6
BYLAYER
 70
0
 71
3
 72
15
 73
11
 74
0
 42
0.0000001
 43
0.0000001
 44
0.0000000001
 40
0.0
 40
0.0
 40
0.0
 40
0.0
 40
0.1027712102
 40
0.2084729501
 40
0.3196444272
 40
0.438178362
 40
0.5652530031
 40
0.7013748352
 40
0.8464701241
 40
1.0
 40
1.0
 40
1.0
 40
1.0
 10
27.6991788653
 20
88.8648297464
 30
0.0
 10
27.6991792957
 20
88.5483393046
 30
0.0
 10
27.7679037631
 20
87.9044028419
 30
0.0
 10
28.0729960003
 20
86.9620149595
 30
0.0
 10
28.573200236
 20
86.0519263843
 30
0.0
 10
29.258554874
 20
85.18746079
 30
0.0
 10
30.1177125054
 20
84.3798102104
 30
0.0
 10
31.1377491802
 20
83.6396115677
 30
0.0
 10
32.3036356831
 20
82.9767359612
 30
0.0
 10
33.1452141802
 20
82.6021204448
 30
0.0
 10
33.5850603799
 20
82.4286849994
 30
0.0
  0
SPLINE
  5
2DF
100
AcDbEntity
  8
0
100
AcDbSpline
 62
7
  6
BYLAYER
 70
0
 71
3
 72
10
 73
6
 74
0
 42
0.0000001
 43
0.0000001
 44
0.0000000001
 40
0.0
 40
0.0
 40
0.0
 40
0.0
 40
0.2299293687
 40
0.5997107164
 40
1.0
 40
1.0
 40
1.0
 40
1.0
 10
41.1461907025
 20
67.774780539
 30
0.0
 10
41.0815308699
 20
67.7817611019
 30
0.0
 10
40.91396624
 20
67.8110776786
 30
0.0
 10
40.6442458284
 20
67.90018957
 30
0.0
 10
40.4487466887
 20
67.9978768364
 30
0.0
 10
40.3506931226
 20
68.0544868086
 30
0.0
  0
SPLINE
  5
2E0
100
AcDbEntity
  8
0
100
AcDbSpline
 62
7
  6
BYLAYER
 70
0
 71
3
 72
15
 73
11
 74
0
 42
0.0000001
 43
0.0000001
 44
0.0000000001
 40
0.0
 40
0.0
 40
0.0
 40
0.0
 40
0.1080112034
 40
0.2180578013
 40
0.3319951248
 40
0.4513555104
 40
0.5772633249
 40
0.7104880902
 40
0.851444567
 40
1.0
 40
1.0
 40
1.0
 40
1.0
 10
28.6991746743
 20
88.8648297921
 30
0.0
 10
28.6991741653
 20
89.1014669218
 30
0.0
 10
28.7402168568
 20
89.5801666943
 30
0.0
 10
28.9236859337
 20
90.2872078824
 30
0.0
 10
29.2264341511
 20
90.9790420844
 30
0.0
 10
29.6447264043
 20
91.6485982357
 30
0.0
 10
30.1737644066
 20
92.2898973697
 30
0.0
 10
30.8082673449
 20
92.8972717405
 30
0.0
 10
31.5418774741
 20
93.4649695153
 30
0.0
 10
32.078400492
 20
93.805108108
 30
0.0
 10
32.3602607879
 20
93.9678392543
 30
0.0
  0
SPLINE
  5
2E1
100
AcDbEntity
  8
0
100
AcDbSpline
 62
7
  6
BYLAYER
 70
0
 71
3
 72
15
 73
11
 74
0
 42
0.0000001
 43
0.0000001
 44
0.0000000001
 40
0.0
 40
0.0
 40
0.0
 40
0.0
 40
0.1227694245
 40
0.2507600292
 40
0.3816595355
 40
0.5131940192
 40
0.6429513705
 40
0.7686225651
 40
0.8882296497
 40
1.0
 40
1.0
 40
1.0
 40
1.0
 10
40.0478245059
 20
85.4341673438
 30
0.0
 10
40.2489212687
 20
85.503599383
 30
0.0
 10
40.6683376165
 20
85.621151551
 30
0.0
 10
41.3212535433
 20
85.7328804013
 30
0.0
 10
41.9971303114
 20
85.7814612451
 30
0.0
 10
42.6775928366
 20
85.7657468261
 30
0.0
 10
43.3444637218
 20
85.6860112688
 30
0.0
 10
43.9799977589
 20
85.5445120808
 30
0.0
 10
44.5669475173
 20
85.3448903852
 30
0.0
 10
44.9293047455
 20
85.1699989396
 30
0.0
 10
45.0970422548
 20
85.0731578343
 30
0.0
  0
SPLINE
  5
2E2
100
AcDbEntity
  8
0
100
AcDbSpline
 62
7
  6
BYLAYER
 70
0
 71
3
 72
13
 73
9
 74
0
 42
0.0000001
 43
0.0000001
 44
0.0000000001
 40
0.0
 40
0.0
 40
0.0
 40
0.0
 40
0.1080968518
 40
0.2182397763
 40
0.3322548948
 40
0.4516826086
 40
0.7106605369
 40
1.0
 40
1.0
 40
1.0
 40
1.0
 10
40.5614684792
 20
66.8627295073
 30
0.0
 10
40.5081898921
 20
66.8319567241
 30
0.0
 10
40.395045427
 20
66.7789851808
 30
0.0
 10
40.2119872344
 20
66.7284185718
 30
0.0
 10
40.0168673481
 20
66.7065762514
 30
0.0
 10
39.7358999844
 20
66.7163759948
 30
0.0
 10
39.3626240091
 20
66.8063302243
 30
0.0
 10
39.0791097301
 20
66.9413243116
 30
0.0
 10
38.9364854481
 20
67.0236666163
 30
0.0
  0
SPLINE
  5
2E3
100
AcDbEntity
  8
0
100
AcDbSpline
 62
7
  6
BYLAYER
 70
0
 71
3
 72
11
 73
7
 74
0
 42
0.0000001
 43
0.0000001
 44
0.0000000001
 40
0.0
 40
0.0
 40
0.0
 40
0.0
 40
0.2862669284
 40
0.5460097703
 40
0.7816069696
 40
1.0
 40
1.0
 40
1.0
 40
1.0
 10
45.0970422548
 20
85.0731578343
 30
0.0
 10
45.2584140004
 20
84.9799919212
 30
0.0
 10
45.5543373896
 20
84.7799400084
 30
0.0
 10
45.9207774077
 20
84.4222981599
 30
0.0
 10
46.1770108761
 20
84.0296298627
 30
0.0
 10
46.2689896243
 20
83.7438251401
 30
0.0
 10
46.2913939487
 20
83.603446802
 30
0.0
  0
SPLINE
  5
2E4
100
AcDbEntity
  8
0
100
AcDbSpline
 62
7
  6
BYLAYER
 70
0
 71
3
 72
23
 73
19
 74
0
 42
0.0000001
 43
0.0000001
 44
0.0000000001
 40
0.0
 40
0.0
 40
0.0
 40
0.0
 40
0.0437778111
 40
0.0905226779
 40
0.1410083477
 40
0.1956019842
 40
0.25432095
 40
0.3169019998
 40
0.3828641081
 40
0.451561251
 40
0.5222279126
 40
0.5940201557
 40
0.6660496151
 40
0.7374184011
 40
0.8072580397
 40
0.8747493902
 40
0.9391993415
 40
1.0
 40
1.0
 40
1.0
 40
1.0
 10
53.528470669
 20
87.7669390258
 30
0.0
 10
53.4322551798
 20
88.0996609496
 30
0.0
 10
53.1526498649
 20
88.7661475717
 30
0.0
 10
52.5194430721
 20
89.69206659
 30
0.0
 10
51.6767852196
 20
90.5554024047
 30
0.0
 10
50.641635707
 20
91.34166359
 30
0.0
 10
49.4331410565
 20
92.0381674005
 30
0.0
 10
48.0733043229
 20
92.6329256119
 30
0.0
 10
46.5868798924
 20
93.1154334191
 30
0.0
 10
45.0010817422
 20
93.476969406
 30
0.0
 10
43.3450797935
 20
93.7109634539
 30
0.0
 10
41.6494213296
 20
93.8131054407
 30
0.0
 10
39.9454459845
 20
93.7815166333
 30
0.0
 10
38.2646261852
 20
93.6167563907
 30
0.0
 10
36.6380799809
 20
93.3218276851
 30
0.0
 10
35.0955221083
 20
92.9022478289
 30
0.0
 10
33.6657652318
 20
92.3655623735
 30
0.0
 10
32.7768481587
 20
91.9221478814
 30
0.0
 10
32.3602607879
 20
91.6816324864
 30
0.0
  0
SPLINE
  5
2E5
100
AcDbEntity
  8
0
100
AcDbSpline
 62
7
  6
BYLAYER
 70
0
 71
3
 72
11
 73
7
 74
0
 42
0.0000001
 43
0.0000001
 44
0.0000000001
 40
0.0
 40
0.0
 40
0.0
 40
0.0
 40
0.2764375642
 40
0.5348952129
 40
0.7754281017
 40
1.0
 40
1.0
 40
1.0
 40
1.0
 10
37.3011899923
 20
85.0731390954
 30
0.0
 10
37.1454755788
 20
84.9832378735
 30
0.0
 10
36.8528661442
 20
84.7934413746
 30
0.0
 10
36.4649009441
 20
84.4689595176
 30
0.0
 10
36.148527109
 20
84.1182954771
 30
0.0
 10
35.983816226
 20
83.8623850497
 30
0.0
 10
35.916768311
 20
83.7326140332
 30
0.0
  0
SPLINE
  5
2E6
100
AcDbEntity
  8
0
100
AcDbSpline
 62
7
  6
BYLAYER
 70
0
 71
3
 72
15
 73
11
 74
0
 42
0.0000001
 43
0.0000001
 44
0.0000000001
 40
0.0
 40
0.0
 40
0.0
 40
0.0
 40
0.1141549974
 40
0.2373268943
 40
0.3669765742
 40
0.5000005394
 40
0.633024429
 40
0.7626738905
 40
0.8858454396
 40
1.0
 40
1.0
 40
1.0
 40
1.0
 10
45.0970422548
 20
85.0731578343
 30
0.0
 10
44.8301966247
 20
85.2272177454
 30
0.0
 10
44.2466914643
 20
85.4989293403
 30
0.0
 10
43.2964886492
 20
85.787728344
 30
0.0
 10
42.2677471945
 20
85.9654931292
 30
0.0
 10
41.1991094113
 20
86.0254669823
 30
0.0
 10
40.1304725013
 20
85.965488031
 30
0.0
 10
39.1017336403
 20
85.7877183377
 30
0.0
 10
38.151535005
 20
85.498914831
 30
0.0
 10
37.5680334899
 20
85.2272003409
 30
0.0
 10
37.3011899923
 20
85.0731390954
 30
0.0
  0
SPLINE
  5
2E7
100
AcDbEntity
  8
0
100
AcDbSpline
 62
7
  6
BYLAYER
 70
0
 71
3
 72
12
 73
8
 74
0
 42
0.0000001
 43
0.0000001
 44
0.0000000001
 40
0.0
 40
0.0
 40
0.0
 40
0.0
 40
0.283034792
 40
0.5424533721
 40
0.7797660116
 40
0.8916590945
 40
1.0
 40
1.0
 40
1.0
 40
1.0
 10
35.0119222572
 20
89.2525769981
 30
0.0
 10
34.7033243191
 20
89.074408959
 30
0.0
 10
34.1326705267
 20
88.6940767972
 30
0.0
 10
33.4081903583
 20
88.0249796815
 30
0.0
 10
32.9501163605
 20
87.4028809083
 30
0.0
 10
32.6928160936
 20
86.8862086169
 30
0.0
 10
32.6000273351
 20
86.6239876457
 30
0.0
 10
32.5629931654
 20
86.4927114833
 30
0.0
  0
SPLINE
  5
2E8
100
AcDbEntity
  8
0
100
AcDbSpline
 62
7
  6
BYLAYER
 70
0
 71
3
 72
28
 73
24
 74
0
 42
0.0000001
 43
0.0000001
 44
0.0000000001
 40
0.0
 40
0.0
 40
0.0
 40
0.0
 40
0.02423425
 40
0.0475498203
 40
0.0701888337
 40
0.0924369995
 40
0.1146061949
 40
0.1370125599
 40
0.1599570715
 40
0.183703892
 40
0.2084723038
 40
0.2344253561
 40
0.290224878
 40
0.3515017868
 40
0.4179481611
 40
0.4887927239
 40
0.5629369536
 40
0.6390671201
 40
0.7157473341
 40
0.7915121679
 40
0.8649474465
 40
0.9347903842
 40
1.0
 40
1.0
 40
1.0
 40
1.0
 10
50.9759988565
 20
84.4483519607
 30
0.0
 10
51.0781366567
 20
84.6046280549
 30
0.0
 10
51.261159422
 20
84.9231813558
 30
0.0
 10
51.4688857257
 20
85.4240712591
 30
0.0
 10
51.6020535181
 20
85.9341544859
 30
0.0
 10
51.6594226355
 20
86.4494053488
 30
0.0
 10
51.6402431137
 20
86.9657129455
 30
0.0
 10
51.544957609
 20
87.4789093084
 30
0.0
 10
51.374226775
 20
87.9848711515
 30
0.0
 10
51.1299790068
 20
88.4799000814
 30
0.0
 10
50.8140217591
 20
88.9603449913
 30
0.0
 10
50.2882655524
 20
89.5922958682
 30
0.0
 10
49.4551110159
 20
90.3241914008
 30
0.0
 10
48.2487307917
 20
91.0710429301
 30
0.0
 10
46.8449267178
 20
91.689605051
 30
0.0
 10
45.2828368192
 20
92.1632251997
 30
0.0
 10
43.6058191759
 20
92.4791264052
 30
0.0
 10
41.8609701415
 20
92.6284601044
 30
0.0
 10
40.09743502
 20
92.6070707244
 30
0.0
 10
38.3650221979
 20
92.4155104557
 30
0.0
 10
36.7123129431
 20
92.0591841634
 30
0.0
 10
35.186140765
 20
91.5480810328
 30
0.0
 10
34.2448883741
 20
91.0959152047
 30
0.0
 10
33.8098357244
 20
90.8447389396
 30
0.0
  0
SPLINE
  5
2E9
100
AcDbEntity
  8
0
100
AcDbSpline
 62
7
  6
BYLAYER
 70
0
 71
3
 72
18
 73
14
 74
0
 42
0.0000001
 43
0.0000001
 44
0.0000000001
 40
0.0
 40
0.0
 40
0.0
 40
0.0
 40
0.1516594204
 40
0.291567542
 40
0.4202573998
 40
0.5396495464
 40
0.5968989445
 40
0.6531160897
 40
0.7088609897
 40
0.7647186313
 40
0.8212655729
 40
0.8790470661
 40
1.0
 40
1.0
 40
1.0
 40
1.0
 10
33.8098357244
 20
90.8447389396
 30
0.0
 10
33.4654819942
 20
90.6459274075
 30
0.0
 10
32.8253783914
 20
90.2231735893
 30
0.0
 10
32.0004543978
 20
89.4859381623
 30
0.0
 10
31.3660090901
 20
88.6834378299
 30
0.0
 10
31.0041177046
 20
87.9613445229
 30
0.0
 10
30.8311773715
 20
87.374464731
 30
0.0
 10
30.758155895
 20
86.9356935137
 30
0.0
 10
30.7409283124
 20
86.4948660826
 30
0.0
 10
30.7793704931
 20
86.0545359294
 30
0.0
 10
30.8733326826
 20
85.6171412528
 30
0.0
 10
31.0746494308
 20
85.0328624813
 30
0.0
 10
31.3039137728
 20
84.6187008514
 30
0.0
 10
31.483309609
 20
84.3572036428
 30
0.0
  0
SPLINE
  5
2EA
100
AcDbEntity
  8
0
100
AcDbSpline
 62
7
  6
BYLAYER
 70
0
 71
3
 72
24
 73
20
 74
0
 42
0.0000001
 43
0.0000001
 44
0.0000000001
 40
0.0
 40
0.0
 40
0.0
 40
0.0
 40
0.0623811379
 40
0.1287356681
 40
0.1983285962
 40
0.2703115718
 40
0.3436930489
 40
0.4174307667
 40
0.4904616322
 40
0.5617543955
 40
0.6303578132
 40
0.6954510573
 40
0.756403212
 40
0.8128443987
 40
0.8647486908
 40
0.9125271835
 40
0.9571048869
 40
0.9786665526
 40
1.0
 40
1.0
 40
1.0
 40
1.0
 10
35.0119222572
 20
90.1507296569
 30
0.0
 10
35.326258657
 20
90.3322107787
 30
0.0
 10
35.9999910323
 20
90.6643574506
 30
0.0
 10
37.0867276862
 20
91.0581857474
 30
0.0
 10
38.2611873009
 20
91.3562777974
 30
0.0
 10
39.498079868
 20
91.5524521067
 30
0.0
 10
40.7713012361
 20
91.642458643
 30
0.0
 10
42.0536420771
 20
91.6244092926
 30
0.0
 10
43.3177662682
 20
91.4986928257
 30
0.0
 10
44.5367274889
 20
91.2679904958
 30
0.0
 10
45.6846285029
 20
90.9371794869
 30
0.0
 10
46.7371963757
 20
90.5131501977
 30
0.0
 10
47.6723049235
 20
90.0045283646
 30
0.0
 10
48.470383404
 20
89.4213828054
 30
0.0
 10
49.1144492152
 20
88.7745025127
 30
0.0
 10
49.5896715182
 20
88.0759229241
 30
0.0
 10
49.8364715976
 20
87.4534971459
 30
0.0
 10
49.9330516017
 20
86.9526393423
 30
0.0
 10
49.9490964499
 20
86.7027513713
 30
0.0
 10
49.9491079945
 20
86.5786229759
 30
0.0
  0
SPLINE
  5
2EB
100
AcDbEntity
  8
0
100
AcDbSpline
 62
7
  6
BYLAYER
 70
0
 71
3
 72
17
 73
13
 74
0
 42
0.0000001
 43
0.0000001
 44
0.0000000001
 40
0.0
 40
0.0
 40
0.0
 40
0.0
 40
0.1195055322
 40
0.232929607
 40
0.2887017646
 40
0.3445149641
 40
0.400921552
 40
0.4584486298
 40
0.5785172658
 40
0.7078554957
 40
0.8481647907
 40
1.0
 40
1.0
 40
1.0
 40
1.0
 10
51.2989368417
 20
84.6979247029
 30
0.0
 10
51.4669194683
 20
84.9640002857
 30
0.0
 10
51.7457486501
 20
85.5162265015
 30
0.0
 10
51.9268373655
 20
86.2624359086
 30
0.0
 10
51.9580225574
 20
86.8554124065
 30
0.0
 10
51.9267822796
 20
87.2977805655
 30
0.0
 10
51.8411003057
 20
87.7375624553
 30
0.0
 10
51.6523573178
 20
88.3253912157
 30
0.0
 10
51.2744697869
 20
89.0473938063
 30
0.0
 10
50.6260282636
 20
89.8496969397
 30
0.0
 10
49.7915085215
 20
90.5877446356
 30
0.0
 10
49.1468971195
 20
91.0121725503
 30
0.0
 10
48.8006699458
 20
91.2120726027
 30
0.0
  0
SPLINE
  5
2EC
100
AcDbEntity
  8
0
100
AcDbSpline
 62
7
  6
BYLAYER
 70
0
 71
3
 72
18
 73
14
 74
0
 42
0.0000001
 43
0.0000001
 44
0.0000000001
 40
0.0
 40
0.0
 40
0.0
 40
0.0
 40
0.1214567395
 40
0.1793968855
 40
0.2360394699
 40
0.2919333657
 40
0.3476630237
 40
0.4038233336
 40
0.4609855426
 40
0.5801541248
 40
0.7086311982
 40
0.8483931263
 40
1.0
 40
1.0
 40
1.0
 40
1.0
 10
31.2411865803
 20
84.4854282843
 30
0.0
 10
31.0510242914
 20
84.7553522741
 30
0.0
 10
30.8069212692
 20
85.1832864332
 30
0.0
 10
30.5899235555
 20
85.7884080766
 30
0.0
 10
30.4868062838
 20
86.2414966015
 30
0.0
 10
30.441702019
 20
86.6979140138
 30
0.0
 10
30.4547571645
 20
87.1550842433
 30
0.0
 10
30.5261648749
 20
87.6103189134
 30
0.0
 10
30.7003173687
 20
88.2193313047
 30
0.0
 10
31.0704915762
 20
88.9691652268
 30
0.0
 10
31.7244490764
 20
89.8024697749
 30
0.0
 10
32.5776700154
 20
90.567723043
 30
0.0
 10
33.2407728907
 20
91.006089538
 30
0.0
 10
33.5977028069
 20
91.2121618911
 30
0.0
  0
SPLINE
  5
2ED
100
AcDbEntity
  8
0
100
AcDbSpline
 62
7
  6
BYLAYER
 70
0
 71
3
 72
15
 73
11
 74
0
 42
0.0000001
 43
0.0000001
 44
0.0000000001
 40
0.0
 40
0.0
 40
0.0
 40
0.0
 40
0.1080095613
 40
0.2180557496
 40
0.331996477
 40
0.4513534057
 40
0.5772590623
 40
0.7104908518
 40
0.8514573835
 40
1.0
 40
1.0
 40
1.0
 40
1.0
 10
32.4491567099
 20
86.5786231339
 30
0.0
 10
32.4491413042
 20
86.744266465
 30
0.0
 10
32.4779325512
 20
87.0793469786
 30
0.0
 10
32.6062891479
 20
87.5742944309
 30
0.0
 10
32.8182799125
 20
88.0585501941
 30
0.0
 10
33.1110241471
 20
88.5272686684
 30
0.0
 10
33.4813784741
 20
88.9761614791
 30
0.0
 10
33.9255356328
 20
89.4013486714
 30
0.0
 10
34.439084558
 20
89.7987197355
 30
0.0
 10
34.8146372396
 20
90.0368277788
 30
0.0
 10
35.0119222572
 20
90.1507296569
 30
0.0
  0
SPLINE
  5
2EE
100
AcDbEntity
  8
0
100
AcDbSpline
 62
7
  6
BYLAYER
 70
0
 71
3
 72
12
 73
8
 74
0
 42
0.0000001
 43
0.0000001
 44
0.0000000001
 40
0.0
 40
0.0
 40
0.0
 40
0.0
 40
0.2833180891
 40
0.5427452184
 40
0.7799196843
 40
0.8917228246
 40
1.0
 40
1.0
 40
1.0
 40
1.0
 10
32.3602607879
 20
91.6816324864
 30
0.0
 10
31.9155062872
 20
91.4248548885
 30
0.0
 10
31.0936727719
 20
90.876491231
 30
0.0
 10
30.0524713533
 20
89.9104857454
 30
0.0
 10
29.3971575926
 20
89.011918192
 30
0.0
 10
29.0321920152
 20
88.2658569542
 30
0.0
 10
28.9019575839
 20
87.8874103943
 30
0.0
 10
28.8504464021
 20
87.6980216031
 30
0.0
  0
SPLINE
  5
2EF
100
AcDbEntity
  8
0
100
AcDbSpline
 62
7
  6
BYLAYER
 70
0
 71
3
 72
15
 73
11
 74
0
 42
0.0000001
 43
0.0000001
 44
0.0000000001
 40
0.0
 40
0.0
 40
0.0
 40
0.0
 40
0.1126357128
 40
0.2232702996
 40
0.335197679
 40
0.4515339367
 40
0.5748128739
 40
0.7067788118
 40
0.8484632459
 40
1.0
 40
1.0
 40
1.0
 40
1.0
 10
30.3642447469
 20
85.3260458938
 30
0.0
 10
30.2771219625
 20
85.5772779737
 30
0.0
 10
30.1525616229
 20
86.0939629249
 30
0.0
 10
30.133993457
 20
86.8909753715
 30
0.0
 10
30.2870549854
 20
87.6823238332
 30
0.0
 10
30.6076667236
 20
88.4534098793
 30
0.0
 10
31.0884349338
 20
89.1922739581
 30
0.0
 10
31.7204538364
 20
89.8888229938
 30
0.0
 10
32.493364224
 20
90.533478952
 30
0.0
 10
33.0757514704
 20
90.9108107125
 30
0.0
 10
33.3855698893
 20
91.0896833923
 30
0.0
  0
SPLINE
  5
2F0
100
AcDbEntity
  8
0
100
AcDbSpline
 62
7
  6
BYLAYER
 70
0
 71
3
 72
14
 73
10
 74
0
 42
0.0000001
 43
0.0000001
 44
0.0000000001
 40
0.0
 40
0.0
 40
0.0
 40
0.0
 40
0.1080471741
 40
0.2181331536
 40
0.3321126824
 40
0.4514946816
 40
0.5774390732
 40
0.710737758
 40
1.0
 40
1.0
 40
1.0
 40
1.0
 10
35.6866456363
 20
84.700667495
 30
0.0
 10
35.6866572176
 20
84.8050255996
 30
0.0
 10
35.7047680748
 20
85.0161334866
 30
0.0
 10
35.7856577448
 20
85.3279569313
 30
0.0
 10
35.9192185968
 20
85.6330269592
 30
0.0
 10
36.1036060721
 20
85.9283210071
 30
0.0
 10
36.3369681432
 20
86.2111502663
 30
0.0
 10
36.720359595
 20
86.5780735416
 30
0.0
 10
37.0592343242
 20
86.8114023185
 30
0.0
 10
37.3011899923
 20
86.9510946548
 30
0.0
  0
SPLINE
  5
2F1
100
AcDbEntity
  8
0
100
AcDbSpline
 62
7
  6
BYLAYER
 70
0
 71
3
 72
16
 73
12
 74
0
 42
0.0000001
 43
0.0000001
 44
0.0000000001
 40
0.0
 40
0.0
 40
0.0
 40
0.0
 40
0.1009202193
 40
0.1566300431
 40
0.2156137789
 40
0.3419876762
 40
0.4765328937
 40
0.6145528086
 40
0.7509492219
 40
0.8808073102
 40
1.0
 40
1.0
 40
1.0
 40
1.0
 10
38.1714729451
 20
72.5943316999
 30
0.0
 10
38.110016285
 20
72.4177551671
 30
0.0
 10
38.0569056313
 20
72.1282719103
 30
0.0
 10
38.048725566
 20
71.728699039
 30
0.0
 10
38.0836196744
 20
71.2827164983
 30
0.0
 10
38.209700085
 20
70.7006942466
 30
0.0
 10
38.4724420786
 20
70.0073749596
 30
0.0
 10
38.8361959537
 20
69.3401211887
 30
0.0
 10
39.2814372785
 20
68.7348274275
 30
0.0
 10
39.7840520036
 20
68.2241247509
 30
0.0
 10
40.1594584717
 20
67.9505618035
 30
0.0
 10
40.3506931226
 20
67.8401549241
 30
0.0
  0
SPLINE
  5
2F2
100
AcDbEntity
  8
0
100
AcDbSpline
 62
7
  6
BYLAYER
 70
0
 71
3
 72
15
 73
11
 74
0
 42
0.0000001
 43
0.0000001
 44
0.0000000001
 40
0.0
 40
0.0
 40
0.0
 40
0.0
 40
0.1485547509
 40
0.2895090301
 40
0.4227328352
 40
0.5486408201
 40
0.6680016561
 40
0.7819394757
 40
0.8919871559
 40
1.0
 40
1.0
 40
1.0
 40
1.0
 10
50.7451136417
 20
83.3535796368
 30
0.0
 10
51.0495213881
 20
83.5293284821
 30
0.0
 10
51.6289621203
 20
83.896672176
 30
0.0
 10
52.4212524759
 20
84.5097820089
 30
0.0
 10
53.106513701
 20
85.1657382352
 30
0.0
 10
53.6778747751
 20
85.8583400729
 30
0.0
 10
54.129638918
 20
86.581458795
 30
0.0
 10
54.456607676
 20
87.3286447433
 30
0.0
 10
54.6547620512
 20
88.0922552377
 30
0.0
 10
54.6990861866
 20
88.6092578964
 30
0.0
 10
54.699085839
 20
88.8648298993
 30
0.0
  0
SPLINE
  5
2F3
100
AcDbEntity
  8
0
100
AcDbSpline
 62
7
  6
BYLAYER
 70
0
 71
3
 72
25
 73
21
 74
0
 42
0.0000001
 43
0.0000001
 44
0.0000000001
 40
0.0
 40
0.0
 40
0.0
 40
0.0
 40
0.0623788973
 40
0.1287246572
 40
0.1983142776
 40
0.2702916017
 40
0.3436681497
 40
0.4174013163
 40
0.4904269636
 40
0.5617142184
 40
0.6303116596
 40
0.6953991226
 40
0.7563465781
 40
0.8127837922
 40
0.8646841336
 40
0.9124584716
 40
0.9351027528
 40
0.9571078103
 40
0.9786681135
 40
1.0
 40
1.0
 40
1.0
 40
1.0
 10
32.3602607879
 20
93.9678392543
 30
0.0
 10
32.8093307836
 20
94.2271083896
 30
0.0
 10
33.7717875012
 20
94.7016190379
 30
0.0
 10
35.3242860191
 20
95.2642012188
 30
0.0
 10
37.0020640146
 20
95.6900636818
 30
0.0
 10
38.7690781714
 20
95.9702938918
 30
0.0
 10
40.5879777314
 20
96.0988669599
 30
0.0
 10
42.41991038
 20
96.0731079183
 30
0.0
 10
44.2258138836
 20
95.8935159112
 30
0.0
 10
45.9671807773
 20
95.563926681
 30
0.0
 10
47.6070175057
 20
95.0913192215
 30
0.0
 10
49.1106679191
 20
94.4855413816
 30
0.0
 10
50.4465346835
 20
93.7590004525
 30
0.0
 10
51.5866908354
 20
92.9258247344
 30
0.0
 10
52.506698575
 20
92.0021411021
 30
0.0
 10
53.0826004172
 20
91.1546710799
 30
0.0
 10
53.4035320238
 20
90.454972337
 30
0.0
 10
53.5736447575
 20
89.9301082091
 30
0.0
 10
53.6762530154
 20
89.399124732
 30
0.0
 10
53.6990896486
 20
89.0421566343
 30
0.0
 10
53.69909003
 20
88.8648298535
 30
0.0
  0
SPLINE
  5
2F4
100
AcDbEntity
  8
0
100
AcDbSpline
 62
7
  6
BYLAYER
 70
0
 71
3
 72
23
 73
19
 74
0
 42
0.0000001
 43
0.0000001
 44
0.0000000001
 40
0.0
 40
0.0
 40
0.0
 40
0.0
 40
0.0623784885
 40
0.1287499333
 40
0.1983454474
 40
0.2703344518
 40
0.343724588
 40
0.4174675694
 40
0.4905044852
 40
0.5618024435
 40
0.630410739
 40
0.6955099312
 40
0.7564672397
 40
0.8129132078
 40
0.8648229295
 40
0.9126056029
 40
0.9571865024
 40
1.0
 40
1.0
 40
1.0
 40
1.0
 10
37.3011899923
 20
86.9510946548
 30
0.0
 10
37.4991966013
 20
87.0654131414
 30
0.0
 10
37.9236719651
 20
87.2746421605
 30
0.0
 10
38.608298549
 20
87.5227971742
 30
0.0
 10
39.3482370869
 20
87.7106049136
 30
0.0
 10
40.1274785634
 20
87.8341736573
 30
0.0
 10
40.9296126933
 20
87.8908697211
 30
0.0
 10
41.7374911751
 20
87.8795097955
 30
0.0
 10
42.53388437
 20
87.8003285181
 30
0.0
 10
43.3018189577
 20
87.6549647511
 30
0.0
 10
44.0249882154
 20
87.4465498298
 30
0.0
 10
44.6881119714
 20
87.1794302772
 30
0.0
 10
45.2772277525
 20
86.8589950255
 30
0.0
 10
45.7800135075
 20
86.4915847844
 30
0.0
 10
46.1857973752
 20
86.0841361902
 30
0.0
 10
46.4851828155
 20
85.6437932615
 30
0.0
 10
46.6696261182
 20
85.1792818925
 30
0.0
 10
46.7116364833
 20
84.8575932648
 30
0.0
 10
46.7116190681
 20
84.700667496
 30
0.0
  0
SPLINE
  5
2F5
100
AcDbEntity
  8
0
100
AcDbSpline
 62
7
  6
BYLAYER
 70
0
 71
3
 72
10
 73
6
 74
0
 42
0.0000001
 43
0.0000001
 44
0.0000000001
 40
0.0
 40
0.0
 40
0.0
 40
0.0
 40
0.2258786933
 40
0.5937566526
 40
1.0
 40
1.0
 40
1.0
 40
1.0
 10
46.4389078249
 20
83.811302664
 30
0.0
 10
46.3698934007
 20
83.9332461695
 30
0.0
 10
46.1600552119
 20
84.2381713637
 30
0.0
 10
45.7148891955
 20
84.6764731771
 30
0.0
 10
45.3152849576
 20
84.9471582016
 30
0.0
 10
45.0970422548
 20
85.0731578343
 30
0.0
  0
SPLINE
  5
2F6
100
AcDbEntity
  8
0
100
AcDbSpline
 62
7
  6
BYLAYER
 70
0
 71
3
 72
11
 73
7
 74
0
 42
0.0000001
 43
0.0000001
 44
0.0000000001
 40
0.0
 40
0.0
 40
0.0
 40
0.0
 40
0.2316231498
 40
0.4713209211
 40
0.7260312869
 40
1.0
 40
1.0
 40
1.0
 40
1.0
 10
37.061674321
 20
82.8227119716
 30
0.0
 10
37.0616689093
 20
82.9303920941
 30
0.0
 10
37.0877639834
 20
83.1503026516
 30
0.0
 10
37.203299423
 20
83.470167773
 30
0.0
 10
37.3918268028
 20
83.7761079018
 30
0.0
 10
37.5565208189
 20
83.9602606111
 30
0.0
 10
37.6481524303
 20
84.0487242949
 30
0.0
  0
SPLINE
  5
2F7
100
AcDbEntity
  8
0
100
AcDbSpline
 62
7
  6
BYLAYER
 70
0
 71
3
 72
10
 73
6
 74
0
 42
0.0000001
 43
0.0000001
 44
0.0000000001
 40
0.0
 40
0.0
 40
0.0
 40
0.0
 40
0.4643106037
 40
0.7232393879
 40
1.0
 40
1.0
 40
1.0
 40
1.0
 10
20.1419752223
 20
30.2085706686
 30
0.0
 10
19.978697154
 20
30.2008897328
 30
0.0
 10
19.7210864534
 20
30.2392372181
 30
0.0
 10
19.3903545424
 20
30.3604624441
 30
0.0
 10
19.2217866941
 20
30.4463641189
 30
0.0
 10
19.1374072561
 20
30.495079508
 30
0.0
  0
SPLINE
  5
2F8
100
AcDbEntity
  8
0
100
AcDbSpline
 62
7
  6
BYLAYER
 70
0
 71
3
 72
15
 73
11
 74
0
 42
0.0000001
 43
0.0000001
 44
0.0000000001
 40
0.0
 40
0.0
 40
0.0
 40
0.0
 40
0.1109401457
 40
0.2321850838
 40
0.361203762
 40
0.4946828835
 40
0.6289150774
 40
0.7601033635
 40
0.8847838955
 40
1.0
 40
1.0
 40
1.0
 40
1.0
 10
38.9522884586
 20
72.3156944943
 30
0.0
 10
38.9398767202
 20
72.1467045719
 30
0.0
 10
38.9496431452
 20
71.7900336468
 30
0.0
 10
39.0509498441
 20
71.2459759193
 30
0.0
 10
39.2351053698
 20
70.6878152919
 30
0.0
 10
39.4945405567
 20
70.1386268847
 30
0.0
 10
39.8185622088
 20
69.6210058144
 30
0.0
 10
40.1938093453
 20
69.156181856
 30
0.0
 10
40.6047766432
 20
68.7635538633
 30
0.0
 10
40.905396393
 20
68.5507174802
 30
0.0
 10
41.0577969598
 20
68.4627309624
 30
0.0
  0
SPLINE
  5
2F9
100
AcDbEntity
  8
0
100
AcDbSpline
 62
7
  6
BYLAYER
 70
0
 71
3
 72
12
 73
8
 74
0
 42
0.0000001
 43
0.0000001
 44
0.0000000001
 40
0.0
 40
0.0
 40
0.0
 40
0.0
 40
0.2877712774
 40
0.5472479871
 40
0.7815998232
 40
0.8921498993
 40
1.0
 40
1.0
 40
1.0
 40
1.0
 10
17.5464206784
 20
85.9866321509
 30
0.0
 10
17.3403203918
 20
86.1056215149
 30
0.0
 10
16.9301459293
 20
86.3030644822
 30
0.0
 10
16.3007663093
 20
86.4689741203
 30
0.0
 10
15.7944205965
 20
86.478036719
 30
0.0
 10
15.4264529079
 20
86.4024781269
 30
0.0
 10
15.2563515645
 20
86.3391510261
 30
0.0
 10
15.1755273961
 20
86.30143631
 30
0.0
  0
SPLINE
  5
2FA
100
AcDbEntity
  8
0
100
AcDbSpline
 62
7
  6
BYLAYER
 70
0
 71
3
 72
11
 73
7
 74
0
 42
0.0000001
 43
0.0000001
 44
0.0000000001
 40
0.0
 40
0.0
 40
0.0
 40
0.0
 40
0.2314005663
 40
0.4788922123
 40
0.7371597466
 40
1.0
 40
1.0
 40
1.0
 40
1.0
 10
42.8255889364
 20
67.9218767724
 30
0.0
 10
42.8095562672
 20
68.2057222157
 30
0.0
 10
42.7285588006
 20
68.790968132
 30
0.0
 10
42.4861360914
 20
69.6658552474
 30
0.0
 10
42.1269497861
 20
70.5413792608
 30
0.0
 10
41.8183298973
 20
71.104098911
 30
0.0
 10
41.6475013146
 20
71.3781388091
 30
0.0
  0
SPLINE
  5
2FB
100
AcDbEntity
  8
0
100
AcDbSpline
 62
7
  6
BYLAYER
 70
0
 71
3
 72
9
 73
5
 74
0
 42
0.0000001
 43
0.0000001
 44
0.0000000001
 40
0.0
 40
0.0
 40
0.0
 40
0.0
 40
0.276882813
 40
1.0
 40
1.0
 40
1.0
 40
1.0
 10
19.1374072561
 20
30.3623978652
 30
0.0
 10
19.2236569306
 20
30.3126027189
 30
0.0
 10
19.5429273541
 20
30.1488085261
 30
0.0
 10
19.9057921441
 20
30.0530257539
 30
0.0
 10
20.1658165211
 20
30.0592151345
 30
0.0
  0
SPLINE
  5
2FC
100
AcDbEntity
  8
0
100
AcDbSpline
 62
7
  6
BYLAYER
 70
0
 71
3
 72
19
 73
15
 74
0
 42
0.0000001
 43
0.0000001
 44
0.0000000001
 40
0.0
 40
0.0
 40
0.0
 40
0.0
 40
0.1226244425
 40
0.256782567
 40
0.3972843065
 40
0.5379947315
 40
0.6065448774
 40
0.6728911332
 40
0.7364113169
 40
0.7965869724
 40
0.8530672506
 40
0.9056835787
 40
0.9545326563
 40
1.0
 40
1.0
 40
1.0
 40
1.0
 10
19.1374072561
 20
30.495079508
 30
0.0
 10
18.9443746008
 20
30.6065244423
 30
0.0
 10
18.5669545395
 20
30.8873683564
 30
0.0
 10
18.069868866
 20
31.4151226244
 30
0.0
 10
17.6406525139
 20
32.0396567112
 30
0.0
 10
17.3599134156
 20
32.6129752982
 30
0.0
 10
17.1931273384
 20
33.0858459544
 30
0.0
 10
17.101302628
 20
33.4350811636
 30
0.0
 10
17.0430853126
 20
33.7760733991
 30
0.0
 10
17.0196060836
 20
34.103314032
 30
0.0
 10
17.0311260796
 20
34.4114764081
 30
0.0
 10
17.0778489043
 20
34.6956411892
 30
0.0
 10
17.1589853567
 20
34.9511572306
 30
0.0
 10
17.2382372345
 20
35.1044517376
 30
0.0
 10
17.2832901845
 20
35.1737376851
 30
0.0
  0
SPLINE
  5
2FD
100
AcDbEntity
  8
0
100
AcDbSpline
 62
7
  6
BYLAYER
 70
0
 71
3
 72
9
 73
5
 74
0
 42
0.0000001
 43
0.0000001
 44
0.0000000001
 40
0.0
 40
0.0
 40
0.0
 40
0.0
 40
0.522104173
 40
1.0
 40
1.0
 40
1.0
 40
1.0
 10
40.3506931226
 20
67.8401549241
 30
0.0
 10
40.4678940901
 20
67.7724904447
 30
0.0
 10
40.7013026646
 20
67.657488521
 30
0.0
 10
40.9508255182
 20
67.5814824126
 30
0.0
 10
41.0724003832
 20
67.5577358848
 30
0.0
  0
SPLINE
  5
2FE
100
AcDbEntity
  8
0
100
AcDbSpline
 62
7
  6
BYLAYER
 70
0
 71
3
 72
14
 73
10
 74
0
 42
0.0000001
 43
0.0000001
 44
0.0000000001
 40
0.0
 40
0.0
 40
0.0
 40
0.0
 40
0.2892436848
 40
0.4225660035
 40
0.5485142088
 40
0.6678898107
 40
0.7818631075
 40
0.8919533162
 40
1.0
 40
1.0
 40
1.0
 40
1.0
 10
42.8255889364
 20
17.9519288441
 30
0.0
 10
42.8255889364
 20
17.6985254915
 30
0.0
 10
42.79595107
 20
17.3265082894
 30
0.0
 10
42.6816419366
 20
16.8589096294
 30
0.0
 10
42.5652752214
 20
16.547317472
 30
0.0
 10
42.4169726423
 20
16.2685345399
 30
0.0
 10
42.2378346052
 20
16.0253227516
 30
0.0
 10
42.0296399705
 20
15.8202961837
 30
0.0
 10
41.8719909136
 20
15.7103542713
 30
0.0
 10
41.7900140704
 20
15.6630252003
 30
0.0
  0
SPLINE
  5
2FF
100
AcDbEntity
  8
0
100
AcDbSpline
 62
7
  6
BYLAYER
 70
0
 71
3
 72
16
 73
12
 74
0
 42
0.0000001
 43
0.0000001
 44
0.0000000001
 40
0.0
 40
0.0
 40
0.0
 40
0.0
 40
0.1202871499
 40
0.2515211716
 40
0.38925315
 40
0.5281863457
 40
0.6628940829
 40
0.7884619079
 40
0.8466793108
 40
0.9014125557
 40
1.0
 40
1.0
 40
1.0
 40
1.0
 10
40.3506931226
 20
68.0544868086
 30
0.0
 10
40.1693184607
 20
68.1592011495
 30
0.0
 10
39.8137198985
 20
68.420099726
 30
0.0
 10
39.3401092947
 20
68.9082859245
 30
0.0
 10
38.9238800234
 20
69.4867332643
 30
0.0
 10
38.5889375183
 20
70.1224739264
 30
0.0
 10
38.3542976283
 20
70.7792762095
 30
0.0
 10
38.2506884258
 20
71.3271086928
 30
0.0
 10
38.2331597774
 20
71.7428322106
 30
0.0
 10
38.2567387153
 20
72.1105894065
 30
0.0
 10
38.3210226927
 20
72.3743969587
 30
0.0
 10
38.3892263707
 20
72.5319160526
 30
0.0
  0
SPLINE
  5
300
100
AcDbEntity
  8
0
100
AcDbSpline
 62
7
  6
BYLAYER
 70
0
 71
3
 72
20
 73
16
 74
0
 42
0.0000001
 43
0.0000001
 44
0.0000000001
 40
0.0
 40
0.0
 40
0.0
 40
0.0
 40
0.062391432
 40
0.128809123
 40
0.2703022068
 40
0.4173636622
 40
0.5616154926
 40
0.6302519261
 40
0.6953787181
 40
0.7563612056
 40
0.8128306178
 40
0.8647635512
 40
0.9125655854
 40
0.9571670899
 40
1.0
 40
1.0
 40
1.0
 40
1.0
 10
18.4303034189
 20
29.9541537114
 30
0.0
 10
18.3171806152
 20
30.019463715
 30
0.0
 10
18.0923533859
 20
30.1697790737
 30
0.0
 10
17.6586810089
 20
30.5346501557
 30
0.0
 10
17.1649809975
 20
31.0964521049
 30
0.0
 10
16.6884679002
 20
31.8715764287
 30
0.0
 10
16.404305948
 20
32.5742730589
 30
0.0
 10
16.2640448588
 20
33.1400039766
 30
0.0
 10
16.2067622949
 20
33.5445019445
 30
0.0
 10
16.1970308429
 20
33.9275865432
 30
0.0
 10
16.2352070912
 20
34.281372581
 30
0.0
 10
16.3208803353
 20
34.5986102464
 30
0.0
 10
16.4533185602
 20
34.8725459236
 30
0.0
 10
16.6304295973
 20
35.0966033082
 30
0.0
 10
16.7776671023
 20
35.2092533651
 30
0.0
 10
16.855319838
 20
35.254104183
 30
0.0
  0
ENDSEC
  0
SECTION
  2
OBJECTS
  0
DICTIONARY
  5
C
100
AcDbDictionary
280
0
281
1
  3
ACAD_GROUP
350
D
  3
ACAD_MLINESTYLE
350
17
  3
ACAD_LAYOUT
350
1A
  3
ACAD_PLOTSETTINGS
350
19
  3
ACAD_PLOTSTYLENAME
350
E
  0
DICTIONARY
  5
D
102
{ACAD_REACTORS
330
C
102
}
100
AcDbDictionary
280
0
281
1
  0
ACDBDICTIONARYWDFLT
  5
E
102
{ACAD_REACTORS
330
C
102
}
100
AcDbDictionary
281
1
  3
Normal
350
F
100
AcDbDictionaryWithDefault
340
F
  0
DICTIONARY
  5
17
102
{ACAD_REACTORS
330
C
102
}
100
AcDbDictionary
280
0
281
1
  3
Standard
350
18
  0
DICTIONARY
  5
19
102
{ACAD_REACTORS
330
C
102
}
100
AcDbDictionary
281
1
  0
DICTIONARY
  5
1A
102
{ACAD_REACTORS
330
C
102
}
100
AcDbDictionary
281
1
  3
Model
350
301
  3
Layout1
350
302
  0
ACDBPLACEHOLDER
  5
F
102
{ACAD_REACTORS
330
E
102
}
  0
MLINESTYLE
  5
18
102
{ACAD_REACTORS
330
17
102
}
100
AcDbMlineStyle
  2
STANDARD
 70
0
  3

 62
256
 51
90.0
 52
90.0
 71
2
 49
0.5
 62
256
  6
BYLAYER
 49
-0.5
 62
256
  6
BYLAYER
  0
LAYOUT
  5
301
102
{ACAD_REACTORS
330
1A
102
}
100
AcDbPlotSettings
  1

  2
none_device
  4

  6

 40
0.0
 41
0.0
 42
0.0
 43
0.0
 44
210.0
 45
297.0
 46
0.0
 47
0.0
 48
0.0
 49
0.0
140
0.0
141
0.0
142
1.0
143
1.0
 70
1024
 72
1
 73
0
 74
0
  7

 75
0
147
1.0
148
0.0
149
0.0
100
AcDbLayout
  1
Model
 70
0
 71
0
 10
0.0
 20
0.0
 11
210.0
 21
297.0
 12
0.0
 22
0.0
 32
0.0
 14
0.0
 24
0.0
 34
0.0
 15
0.0
 25
0.0
 35
0.0
146
0.0
 13
0.0
 23
0.0
 33
0.0
 16
1.0
 26
0.0
 36
0.0
 17
0.0
 27
1.0
 37
0.0
 76
0
330
210
345
0
346
0
  0
LAYOUT
  5
302
102
{ACAD_REACTORS
330
1A
102
}
100
AcDbPlotSettings
  1

  2
none_device
  4

  6

 40
0.0
 41
0.0
 42
0.0
 43
0.0
 44
210.0
 45
297.0
 46
0.0
 47
0.0
 48
0.0
 49
0.0
140
0.0
141
0.0
142
1.0
143
1.0
 70
0
 72
1
 73
0
 74
0
  7

 75
0
147
1.0
148
0.0
149
0.0
100
AcDbLayout
  1
Layout1
 70
0
 71
1
 10
0.0
 20
0.0
 11
210.0
 21
297.0
 12
0.0
 22
0.0
 32
0.0
 14
0.0
 24
0.0
 34
0.0
 15
0.0
 25
0.0
 35
0.0
146
0.0
 13
0.0
 23
0.0
 33
0.0
 16
1.0
 26
0.0
 36
0.0
 17
0.0
 27
1.0
 37
0.0
 76
0
330
211
345
0
346
0
  0
ENDSEC
  0
EOF
