999
DXF file: C:\Users\sesa63760\Dev\_Creo\CAD\MCADID0004802_3D-CAD\drw0001_1.dxf
999
Pro/ENGINEER 2019471 by Parametric Technology Corporation
  0
SECTION
  2
HEADER
  9
$ACADVER
  1
AC1024
  9
$DWGCODEPAGE
  3
ANSI_1252
  9
$EXTMAX
 10
69.1741489598
 20
97.8320106717
 30
0.0
  9
$EXTMIN
 10
0.0
 20
0.0
 30
0.0
  9
$LIMMIN
 10
0.0
 20
0.0
  9
$LIMMAX
 10
69.1741489598
 20
97.8320106717
  9
$VIEWCTR
 10
34.5870744799
 20
48.9160053359
  9
$VIEWSIZE
 40
97.8320106717
  9
$CLAYER
  8
0
  9
$LTSCALE
 40
6.3771977327
  9
$CELTYPE
  6
BYLAYER
  9
$DIMSCALE
 40
1.0
  9
$DIMASZ
 40
0.8235017733
  9
$DIMEXO
 40
1.0
  9
$DIMDLI
 40
4.406063888
  9
$DIMEXE
 40
1.0
  9
$DIMCEN
 40
1.0435414472
  9
$DIMLFAC
 40
1.0
  9
$DIMBLK
  1
_FILLED
  9
$DIMALT
 70
0
  9
$DIMALTF
 40
0.0393700787
  9
$DIMTXT
 40
1.1529024827
  9
$DIMTOL
 70
1
  9
$DIMLIM
 70
0
  9
$DIMTFAC
 40
1.0
  9
$DIMTP
 40
0.01
  9
$DIMTM
 40
0.01
  9
$DIMGAP
 40
0.625
  9
$DIMDSEP
 70
46
  9
$AUNITS
 70
0
  9
$PDMODE
 70
3
  9
$PDSIZE
 40
0.3125
  9
$HANDSEED
  5
2EC
  9
$TILEMODE
 70
1
  9
$MEASUREMENT
 70
1
  9
$INSUNITS
 70
4
  0
ENDSEC
  0
SECTION
  2
CLASSES
  0
CLASS
  1
ACDBDICTIONARYWDFLT
  2
AcDbDictionaryWithDefault
  3
AutoCAD 2000
 90
0
 91
1
280
0
281
0
  0
CLASS
  1
ACDBPLACEHOLDER
  2
AcDbPlaceHolder
  3
AutoCAD 2000
 90
0
 91
1
280
0
281
0
  0
CLASS
  1
LAYOUT
  2
AcDbLayout
  3
AutoCAD 2000
 90
0
 91
0
280
0
281
0
  0
ENDSEC
  0
SECTION
  2
TABLES
  0
TABLE
  2
VPORT
  5
8
100
AcDbSymbolTable
 70
2
  0
VPORT
  5
1F4
100
AcDbSymbolTableRecord
100
AcDbViewportTableRecord
  2
*ACTIVE
 70
0
 10
0.0
 20
0.0
 11
1.0
 21
1.0
 12
34.5870744799
 22
48.9160053359
 13
0.0
 23
0.0
 14
1.0
 24
1.0
 15
0.0
 25
0.0
 16
0.0
 26
0.0
 36
1.0
 17
0.0
 27
0.0
 37
0.0
 40
97.8320106717
 41
0.7070707071
 42
50.0
 43
0.0
 44
0.0
 50
0.0
 51
0.0
 71
0
 72
100
 73
1
 74
1
 75
0
 76
0
 77
0
 78
0
  0
ENDTAB
  0
TABLE
  2
LTYPE
  5
5
100
AcDbSymbolTable
 70
6
  0
LTYPE
  5
14
100
AcDbSymbolTableRecord
100
AcDbLinetypeTableRecord
  2
BYBLOCK
 70
0
  3

 72
65
 73
0
 40
0.0
  0
LTYPE
  5
15
100
AcDbSymbolTableRecord
100
AcDbLinetypeTableRecord
  2
BYLAYER
 70
0
  3

 72
65
 73
0
 40
0.0
  0
LTYPE
  5
16
100
AcDbSymbolTableRecord
100
AcDbLinetypeTableRecord
  2
CONTINUOUS
 70
64
  3
Solid line
 72
65
 73
0
 40
0.0
  0
LTYPE
  5
1F5
100
AcDbSymbolTableRecord
100
AcDbLinetypeTableRecord
  2
CENTER
 70
64
  3
____ _ ____ _ ____ _ ____ _ ____ _ ____ _ ____
 72
65
 73
4
 40
0.6
 49
0.375
 74
0
 49
-0.075
 74
0
 49
0.075
 74
0
 49
-0.075
 74
0
  0
LTYPE
  5
1F6
100
AcDbSymbolTableRecord
100
AcDbLinetypeTableRecord
  2
HIDDEN
 70
64
  3
- - - - - - - - - - - - - - - - - - - -
 72
65
 73
2
 40
0.2
 49
0.1
 74
0
 49
-0.1
 74
0
  0
LTYPE
  5
1F7
100
AcDbSymbolTableRecord
100
AcDbLinetypeTableRecord
  2
PHANTOM
 70
64
  3
_____ _ _ _____ _ _ _____ _ _ _____
 72
65
 73
6
 40
0.8
 49
0.45
 74
0
 49
-0.05
 74
0
 49
0.1
 74
0
 49
-0.05
 74
0
 49
0.1
 74
0
 49
-0.05
 74
0
  0
LTYPE
  5
1F8
100
AcDbSymbolTableRecord
100
AcDbLinetypeTableRecord
  2
DOT
 70
64
  3
. . . . . . . . . . . . . . . . . . . .
 72
65
 73
2
 40
0.2
 49
0.1
 74
0
 49
-0.1
 74
0
  0
LTYPE
  5
1F9
100
AcDbSymbolTableRecord
100
AcDbLinetypeTableRecord
  2
DASHED
 70
64
  3
- - - - - - - - - - - - - - - - - - - -
 72
65
 73
2
 40
0.2
 49
0.1
 74
0
 49
-0.1
 74
0
  0
ENDTAB
  0
TABLE
  2
LAYER
  5
2
100
AcDbSymbolTable
 70
36
  0
LAYER
  5
10
100
AcDbSymbolTableRecord
100
AcDbLayerTableRecord
  2
0
 70
0
 62
7
  6
CONTINUOUS
370
-3
390
F
  0
LAYER
  5
1FA
100
AcDbSymbolTableRecord
100
AcDbLayerTableRecord
  2
DEFAULT_1
 70
0
 62
7
  6
CENTER
370
-3
390
F
  0
LAYER
  5
1FB
100
AcDbSymbolTableRecord
100
AcDbLayerTableRecord
  2
DEFAULT_2
 70
0
 62
7
  6
HIDDEN
370
-3
390
F
  0
LAYER
  5
1FC
100
AcDbSymbolTableRecord
100
AcDbLayerTableRecord
  2
DEFAULT_3
 70
0
 62
7
  6
PHANTOM
370
-3
390
F
  0
LAYER
  5
1FD
100
AcDbSymbolTableRecord
100
AcDbLayerTableRecord
  2
00_COMPONENTS
 70
0
 62
7
  6
CONTINUOUS
370
-3
390
F
  0
LAYER
  5
1FE
100
AcDbSymbolTableRecord
100
AcDbLayerTableRecord
  2
01_1_DEFAULT_DATUMS
 70
0
 62
7
  6
CONTINUOUS
370
-3
390
F
  0
LAYER
  5
1FF
100
AcDbSymbolTableRecord
100
AcDbLayerTableRecord
  2
01_PLANES
 70
0
 62
7
  6
CONTINUOUS
370
-3
390
F
  0
LAYER
  5
200
100
AcDbSymbolTableRecord
100
AcDbLayerTableRecord
  2
02_COORD_SYS
 70
0
 62
7
  6
CONTINUOUS
370
-3
390
F
  0
LAYER
  5
201
100
AcDbSymbolTableRecord
100
AcDbLayerTableRecord
  2
03_AXES
 70
0
 62
7
  6
CONTINUOUS
370
-3
390
F
  0
LAYER
  5
202
100
AcDbSymbolTableRecord
100
AcDbLayerTableRecord
  2
04_POINTS
 70
0
 62
7
  6
CONTINUOUS
370
-3
390
F
  0
LAYER
  5
203
100
AcDbSymbolTableRecord
100
AcDbLayerTableRecord
  2
05_CURVES
 70
0
 62
7
  6
CONTINUOUS
370
-3
390
F
  0
LAYER
  5
204
100
AcDbSymbolTableRecord
100
AcDbLayerTableRecord
  2
06_SURFS
 70
0
 62
7
  6
CONTINUOUS
370
-3
390
F
  0
LAYER
  5
205
100
AcDbSymbolTableRecord
100
AcDbLayerTableRecord
  2
07_COSMETICS
 70
0
 62
7
  6
CONTINUOUS
370
-3
390
F
  0
LAYER
  5
206
100
AcDbSymbolTableRecord
100
AcDbLayerTableRecord
  2
10_NOTES
 70
0
 62
7
  6
CONTINUOUS
370
-3
390
F
  0
LAYER
  5
207
100
AcDbSymbolTableRecord
100
AcDbLayerTableRecord
  2
11_NOTES_PUB
 70
0
 62
7
  6
CONTINUOUS
370
-3
390
F
  0
LAYER
  5
208
100
AcDbSymbolTableRecord
100
AcDbLayerTableRecord
  2
13_REF_GTOL
 70
0
 62
7
  6
CONTINUOUS
370
-3
390
F
  0
LAYER
  5
209
100
AcDbSymbolTableRecord
100
AcDbLayerTableRecord
  2
16_MISC
 70
0
 62
7
  6
CONTINUOUS
370
-3
390
F
  0
LAYER
  5
20A
100
AcDbSymbolTableRecord
100
AcDbLayerTableRecord
  2
17_NO_PRINT
 70
0
 62
7
  6
CONTINUOUS
370
-3
390
F
  0
LAYER
  5
20B
100
AcDbSymbolTableRecord
100
AcDbLayerTableRecord
  2
18_DATUM_CAMS_JOINTS
 70
0
 62
7
  6
CONTINUOUS
370
-3
390
F
  0
LAYER
  5
20C
100
AcDbSymbolTableRecord
100
AcDbLayerTableRecord
  2
19_DATUM_FUNCTIONAL
 70
0
 62
7
  6
CONTINUOUS
370
-3
390
F
  0
LAYER
  5
20D
100
AcDbSymbolTableRecord
100
AcDbLayerTableRecord
  2
20_DATUM_KINEMATIC_SCHEME
 70
0
 62
7
  6
CONTINUOUS
370
-3
390
F
  0
ENDTAB
  0
TABLE
  2
STYLE
  5
3
100
AcDbSymbolTable
 70
1
  0
STYLE
  5
11
100
AcDbSymbolTableRecord
100
AcDbTextStyleTableRecord
  2
STANDARD
 70
0
 40
0.0
 41
1.0
 50
0.0
 71
0
 42
0.2
  3
ARIAL.TTF
  4

  0
STYLE
  5
20E
100
AcDbSymbolTableRecord
100
AcDbTextStyleTableRecord
  2
TEXTSTYLE_1
 70
0
 40
0.0
 41
0.8
 50
0.0
 71
0
 42
0.2
  3
gdt
  4

  0
ENDTAB
  0
TABLE
  2
VIEW
  5
6
100
AcDbSymbolTable
 70
0
  0
ENDTAB
  0
TABLE
  2
UCS
  5
7
100
AcDbSymbolTable
 70
0
  0
ENDTAB
  0
TABLE
  2
APPID
  5
9
100
AcDbSymbolTable
 70
1
  0
APPID
  5
20F
100
AcDbSymbolTableRecord
100
AcDbRegAppTableRecord
  2
ACAD
 70
0
  0
ENDTAB
  0
TABLE
  2
BLOCK_RECORD
  5
1
100
AcDbSymbolTable
 70
0
  0
BLOCK_RECORD
  5
210
100
AcDbSymbolTableRecord
100
AcDbBlockTableRecord
  2
*Model_Space
  0
BLOCK_RECORD
  5
211
100
AcDbSymbolTableRecord
100
AcDbBlockTableRecord
  2
*Paper_Space
  0
BLOCK_RECORD
  5
212
100
AcDbSymbolTableRecord
100
AcDbBlockTableRecord
  2
_FILLED
  0
ENDTAB
  0
TABLE
  2
DIMSTYLE
  5
A
100
AcDbSymbolTable
 70
1
100
AcDbDimStyleTable
 71
0
  0
DIMSTYLE
105
213
100
AcDbSymbolTableRecord
100
AcDbDimStyleTableRecord
  2
STANDARD
 70
0
  3

  4

 40
1.0
 41
0.8235017733
 42
1.0
 43
0.38
 44
1.0
 45
0.0
 46
0.0
 47
0.01
 48
0.01
140
1.1529024827
141
0.09
142
0.0
143
25.4
144
1.0
145
0.0
146
1.0
147
0.625
 71
1
 72
0
 73
0
 74
0
 75
0
 76
0
 77
1
 78
8
 79
2
170
0
171
1
172
0
173
0
174
0
175
0
176
0
177
0
178
0
270
2
179
2
271
2
272
2
273
2
274
2
275
0
280
0
281
0
282
0
283
1
284
8
285
0
286
0
287
3
288
0
340
11
278
46
341
212
342
212
343
212
344
212
  0
ENDTAB
  0
ENDSEC
  0
SECTION
  2
BLOCKS
  0
BLOCK
  5
20
100
AcDbEntity
  8
0
100
AcDbBlockBegin
  2
*Model_Space
 70
0
 10
0.0
 20
0.0
 30
0.0
  3
*Model_Space
  1

  0
ENDBLK
  5
21
100
AcDbEntity
  8
0
100
AcDbBlockEnd
  0
BLOCK
  5
1C
100
AcDbEntity
  8
0
100
AcDbBlockBegin
  2
*Paper_Space
 70
0
 10
0.0
 20
0.0
 30
0.0
  3
*Paper_Space
  1

  0
ENDBLK
  5
1D
100
AcDbEntity
  8
0
100
AcDbBlockEnd
  0
BLOCK
  5
214
100
AcDbEntity
  8
0
100
AcDbBlockBegin
  2
_FILLED
 70
64
 10
0.0
 20
0.0
  3
_FILLED
  1

  0
SOLID
  5
215
100
AcDbEntity
  8
0
  6
BYBLOCK
 62
0
100
AcDbTrace
 10
0.0
 20
0.0
 11
-1.0
 21
0.25
 12
-1.0
 22
-0.25
 13
-1.0
 23
-0.25
  0
ENDBLK
  5
216
100
AcDbEntity
  8
0
  6
BYBLOCK
 62
0
100
AcDbBlockEnd
  0
ENDSEC
  0
SECTION
  2
ENTITIES
  0
LINE
  5
217
100
AcDbEntity
  8
0
100
AcDbLine
 62
7
  6
BYLAYER
 10
11.8530780305
 20
29.557900439
 11
11.9944755371
 21
29.4762663974
  0
LINE
  5
218
100
AcDbEntity
  8
0
100
AcDbLine
 62
7
  6
BYLAYER
 10
8.0249971468
 20
32.7014123819
 11
8.0249971468
 21
31.0684075476
  0
LINE
  5
219
100
AcDbEntity
  8
0
100
AcDbLine
 62
7
  6
BYLAYER
 10
11.8530780305
 20
31.1909052733
 11
13.4087194259
 21
30.2927756133
  0
LINE
  5
21A
100
AcDbEntity
  8
0
100
AcDbLine
 62
7
  6
BYLAYER
 10
9.6440756487
 20
28.2825399321
 11
9.6440756487
 21
29.9155447664
  0
LINE
  5
21B
100
AcDbEntity
  8
0
100
AcDbLine
 62
7
  6
BYLAYER
 10
11.1996639112
 20
34.7523816259
 11
11.1996639112
 21
36.3853864602
  0
LINE
  5
21C
100
AcDbEntity
  8
0
100
AcDbLine
 62
7
  6
BYLAYER
 10
11.199717044
 20
29.0174151064
 11
11.199717044
 21
27.3844102722
  0
LINE
  5
21D
100
AcDbEntity
  8
0
100
AcDbLine
 62
7
  6
BYLAYER
 10
11.8530780305
 20
29.557900439
 11
11.8530780305
 21
31.1909052733
  0
LINE
  5
21E
100
AcDbEntity
  8
0
100
AcDbLine
 62
7
  6
BYLAYER
 10
11.8530562452
 20
34.2118994343
 11
9.6440354693
 21
35.4872493216
  0
LINE
  5
21F
100
AcDbEntity
  8
0
100
AcDbLine
 62
7
  6
BYLAYER
 10
18.6413096066
 20
30.2927881909
 11
20.8503303824
 21
29.0174383036
  0
LINE
  5
220
100
AcDbEntity
  8
0
100
AcDbLine
 62
7
  6
BYLAYER
 10
11.9944407983
 20
34.2935273569
 11
11.1996639112
 21
34.7523816259
  0
LINE
  5
221
100
AcDbEntity
  8
0
100
AcDbLine
 62
7
  6
BYLAYER
 10
20.1969380485
 20
29.5579204952
 11
22.4059588243
 21
28.2825706079
  0
LINE
  5
222
100
AcDbEntity
  8
0
100
AcDbLine
 62
7
  6
BYLAYER
 10
12.2381122632
 20
57.196273255
 11
12.2381122632
 21
49.0312490837
  0
LINE
  5
223
100
AcDbEntity
  8
0
100
AcDbLine
 62
7
  6
BYLAYER
 10
13.4086846871
 20
35.1100365728
 11
11.1996639112
 21
36.3853864602
  0
LINE
  5
224
100
AcDbEntity
  8
0
100
AcDbLine
 62
7
  6
BYLAYER
 10
20.1969380485
 20
31.1909253295
 11
22.4059588243
 21
29.9155754421
  0
LINE
  5
225
100
AcDbEntity
  8
0
100
AcDbLine
 62
7
  6
BYLAYER
 10
20.1969162631
 20
34.2119194905
 11
18.6412748678
 21
35.1100491504
  0
LINE
  5
226
100
AcDbEntity
  8
0
100
AcDbLine
 62
7
  6
BYLAYER
 10
20.9040071469
 20
34.7834256086
 11
21.0454046534
 21
34.7017915669
  0
LINE
  5
227
100
AcDbEntity
  8
0
100
AcDbLine
 62
7
  6
BYLAYER
 10
20.9040071469
 20
36.4164304428
 11
22.4596485422
 21
35.5183007829
  0
LINE
  5
228
100
AcDbEntity
  8
0
100
AcDbLine
 62
7
  6
BYLAYER
 10
20.1969380485
 20
29.5579204952
 11
20.1969380485
 21
31.1909253295
  0
LINE
  5
229
100
AcDbEntity
  8
0
100
AcDbLine
 62
7
  6
BYLAYER
 10
20.8503303824
 20
27.3844334694
 11
20.8503303824
 21
29.0174383036
  0
LINE
  5
22A
100
AcDbEntity
  8
0
100
AcDbLine
 62
7
  6
BYLAYER
 10
20.9040071469
 20
34.7834256086
 11
20.9040071469
 21
36.4164304428
  0
LINE
  5
22B
100
AcDbEntity
  8
0
100
AcDbLine
 62
7
  6
BYLAYER
 10
21.5433172012
 20
64.8286145496
 11
21.5433172012
 21
65.0327401539
  0
LINE
  5
22C
100
AcDbEntity
  8
0
100
AcDbLine
 62
7
  6
BYLAYER
 10
22.4059588243
 20
29.9155754421
 11
22.4059588243
 21
28.2825706079
  0
LINE
  5
22D
100
AcDbEntity
  8
0
100
AcDbLine
 62
7
  6
BYLAYER
 10
23.8659928023
 20
30.1521260925
 11
23.8659928023
 21
31.7851309268
  0
LINE
  5
22E
100
AcDbEntity
  8
0
100
AcDbLine
 62
7
  6
BYLAYER
 10
35.8238928129
 20
61.1726191183
 11
35.1167830878
 21
60.7643574557
  0
LINE
  5
22F
100
AcDbEntity
  8
0
100
AcDbLine
 62
7
  6
BYLAYER
 10
26.5961401201
 20
33.0891818188
 11
26.5961401201
 21
34.722186653
  0
LINE
  5
230
100
AcDbEntity
  8
0
100
AcDbLine
 62
7
  6
BYLAYER
 10
50.8114651268
 20
66.2575378684
 11
41.8596654298
 21
61.0892447542
  0
LINE
  5
231
100
AcDbEntity
  8
0
100
AcDbLine
 62
7
  6
BYLAYER
 10
30.6209431169
 20
54.6006041334
 11
21.5434302242
 21
49.3597309051
  0
LINE
  5
232
100
AcDbEntity
  8
0
100
AcDbLine
 62
7
  6
BYLAYER
 10
34.9847695578
 20
56.7436711626
 11
35.6549085338
 21
57.1305737714
  0
LINE
  5
233
100
AcDbEntity
  8
0
100
AcDbLine
 62
7
  6
BYLAYER
 10
40.1863189151
 20
59.7467691582
 11
40.7090979154
 21
60.0485939531
  0
LINE
  5
234
100
AcDbEntity
  8
0
100
AcDbLine
 62
7
  6
BYLAYER
 10
30.2381122632
 20
57.196273255
 11
30.2381122632
 21
58.0127756721
  0
LINE
  5
235
100
AcDbEntity
  8
0
100
AcDbLine
 62
7
  6
BYLAYER
 10
31.1899332726
 20
59.3910549698
 11
31.0881620669
 21
58.7476278505
  0
LINE
  5
236
100
AcDbEntity
  8
0
100
AcDbLine
 62
7
  6
BYLAYER
 10
39.6810262342
 20
57.7177997183
 11
39.6757827758
 21
57.7142225648
  0
LINE
  5
237
100
AcDbEntity
  8
0
100
AcDbLine
 62
7
  6
BYLAYER
 10
40.7090979154
 20
59.4770422611
 11
40.2381122632
 21
59.2051201912
  0
LINE
  5
238
100
AcDbEntity
  8
0
100
AcDbLine
 62
7
  6
BYLAYER
 10
35.6549085338
 20
56.5590220794
 11
35.3086091839
 21
56.3590872499
  0
LINE
  5
239
100
AcDbEntity
  8
0
100
AcDbLine
 62
7
  6
BYLAYER
 10
23.6647593997
 20
48.1350086415
 11
32.7422722923
 21
53.3758818699
  0
LINE
  5
23A
100
AcDbEntity
  8
0
100
AcDbLine
 62
7
  6
BYLAYER
 10
43.8552814096
 20
59.7919423765
 11
52.9327943023
 21
65.0328156049
  0
LINE
  5
23B
100
AcDbEntity
  8
0
100
AcDbLine
 62
7
  6
BYLAYER
 10
52.9327943023
 20
64.8286900006
 11
43.9823527483
 21
59.6611810059
  0
LINE
  5
23C
100
AcDbEntity
  8
0
100
AcDbLine
 62
7
  6
BYLAYER
 10
32.7422722923
 20
53.1717562656
 11
23.8801802735
 21
48.0552555943
  0
LINE
  5
23D
100
AcDbEntity
  8
0
100
AcDbLine
 62
7
  6
BYLAYER
 10
38.9063395212
 20
56.5300144406
 11
38.9019625174
 21
56.5283760975
  0
LINE
  5
23E
100
AcDbEntity
  8
0
100
AcDbLine
 62
7
  6
BYLAYER
 10
31.0881122632
 20
58.7476278475
 11
31.0881122632
 21
58.1760761555
  0
LINE
  5
23F
100
AcDbEntity
  8
0
100
AcDbLine
 62
7
  6
BYLAYER
 10
32.7422722923
 20
53.3758818699
 11
32.7422722923
 21
53.1717562656
  0
LINE
  5
240
100
AcDbEntity
  8
0
100
AcDbLine
 62
7
  6
BYLAYER
 10
39.6810262342
 20
57.7177997183
 11
39.676320863
 21
57.7139998328
  0
LINE
  5
241
100
AcDbEntity
  8
0
100
AcDbLine
 62
7
  6
BYLAYER
 10
34.2381122632
 20
59.5396351921
 11
34.2381122632
 21
58.723132775
  0
LINE
  5
242
100
AcDbEntity
  8
0
100
AcDbLine
 62
7
  6
BYLAYER
 10
34.9847695578
 20
56.4601581798
 11
34.9847695578
 21
56.7436711626
  0
LINE
  5
243
100
AcDbEntity
  8
0
100
AcDbLine
 62
7
  6
BYLAYER
 10
28.6193985497
 20
46.3007037156
 11
33.2612376426
 21
48.9806547683
  0
LINE
  5
244
100
AcDbEntity
  8
0
100
AcDbLine
 62
7
  6
BYLAYER
 10
47.2254195476
 20
57.0428308255
 11
52.6113307078
 21
60.1523695222
  0
LINE
  5
245
100
AcDbEntity
  8
0
100
AcDbLine
 62
7
  6
BYLAYER
 10
35.6549085338
 20
57.1305737714
 11
35.6549085338
 21
56.5590220794
  0
LINE
  5
246
100
AcDbEntity
  8
0
100
AcDbLine
 62
7
  6
BYLAYER
 10
35.7061643319
 20
57.2020159034
 11
35.7061643319
 21
56.6304642114
  0
LINE
  5
247
100
AcDbEntity
  8
0
100
AcDbLine
 62
7
  6
BYLAYER
 10
35.8370252039
 20
62.0407664599
 11
35.8370252039
 21
61.469214768
  0
LINE
  5
248
100
AcDbEntity
  8
0
100
AcDbLine
 62
7
  6
BYLAYER
 10
35.8839170411
 20
61.3681791867
 11
35.8839170411
 21
61.9397308787
  0
LINE
  5
249
100
AcDbEntity
  8
0
100
AcDbLine
 62
7
  6
BYLAYER
 10
19.6018169403
 20
38.8489194646
 11
19.5250428687
 21
38.8045941982
  0
LINE
  5
24A
100
AcDbEntity
  8
0
100
AcDbLine
 62
7
  6
BYLAYER
 10
13.4086846871
 20
35.1100365728
 11
11.8530562452
 21
34.2118994343
  0
LINE
  5
24B
100
AcDbEntity
  8
0
100
AcDbLine
 62
7
  6
BYLAYER
 10
38.8570655635
 20
57.1828581226
 11
38.8570655635
 21
56.6113064306
  0
LINE
  5
24C
100
AcDbEntity
  8
0
100
AcDbLine
 62
7
  6
BYLAYER
 10
38.9039574008
 20
56.5102708494
 11
38.9039574008
 21
57.0818225413
  0
LINE
  5
24D
100
AcDbEntity
  8
0
100
AcDbLine
 62
7
  6
BYLAYER
 10
39.3433664452
 20
56.6424240035
 11
39.3433664452
 21
56.4465886404
  0
LINE
  5
24E
100
AcDbEntity
  8
0
100
AcDbLine
 62
7
  6
BYLAYER
 10
11.8530780305
 20
31.1909052733
 11
9.6440756487
 21
29.9155447664
  0
LINE
  5
24F
100
AcDbEntity
  8
0
100
AcDbLine
 62
7
  6
BYLAYER
 10
18.6412748678
 20
35.1100491504
 11
20.9040071469
 21
36.4164304428
  0
LINE
  5
250
100
AcDbEntity
  8
0
100
AcDbLine
 62
7
  6
BYLAYER
 10
21.8648158561
 20
60.1522956167
 11
27.2507718639
 21
57.0427828123
  0
LINE
  5
251
100
AcDbEntity
  8
0
100
AcDbLine
 62
7
  6
BYLAYER
 10
41.2150700462
 20
48.980673887
 11
45.8569615942
 21
46.3007371805
  0
LINE
  5
252
100
AcDbEntity
  8
0
100
AcDbLine
 62
7
  6
BYLAYER
 10
40.2381122632
 20
59.5396351921
 11
40.2381122632
 21
58.723132775
  0
LINE
  5
253
100
AcDbEntity
  8
0
100
AcDbLine
 62
7
  6
BYLAYER
 10
40.2381122632
 20
58.1760761555
 11
40.2381122632
 21
57.7639049952
  0
LINE
  5
254
100
AcDbEntity
  8
0
100
AcDbLine
 62
7
  6
BYLAYER
 10
40.7090979154
 20
60.0485939531
 11
40.7090979154
 21
59.4770422611
  0
LINE
  5
255
100
AcDbEntity
  8
0
100
AcDbLine
 62
7
  6
BYLAYER
 10
41.264625587
 20
59.4300937742
 11
41.264625587
 21
60.0016454662
  0
LINE
  5
256
100
AcDbEntity
  8
0
100
AcDbLine
 62
7
  6
BYLAYER
 10
41.7340073341
 20
53.1717778791
 11
41.7340073341
 21
53.3759034833
  0
LINE
  5
257
100
AcDbEntity
  8
0
100
AcDbLine
 62
7
  6
BYLAYER
 10
43.2862912539
 20
58.1042007252
 11
43.3880731659
 21
58.7476278457
  0
LINE
  5
258
100
AcDbEntity
  8
0
100
AcDbLine
 62
7
  6
BYLAYER
 10
43.3880791468
 20
58.1760761533
 11
43.2862912539
 21
57.5326490332
  0
LINE
  5
259
100
AcDbEntity
  8
0
100
AcDbLine
 62
7
  6
BYLAYER
 10
11.8530780305
 20
29.557900439
 11
9.6440756487
 21
28.2825399321
  0
LINE
  5
25A
100
AcDbEntity
  8
0
100
AcDbLine
 62
7
  6
BYLAYER
 10
20.0555187566
 20
34.2935535322
 11
20.9040071469
 21
34.7834256086
  0
LINE
  5
25B
100
AcDbEntity
  8
0
100
AcDbLine
 62
7
  6
BYLAYER
 10
22.4596485422
 20
35.5183007829
 11
20.1969162631
 21
34.2119194905
  0
LINE
  5
25C
100
AcDbEntity
  8
0
100
AcDbLine
 62
7
  6
BYLAYER
 10
13.4087194259
 20
30.2927756133
 11
11.199717044
 21
29.0174151064
  0
LINE
  5
25D
100
AcDbEntity
  8
0
100
AcDbLine
 62
7
  6
BYLAYER
 10
38.8957188469
 20
56.53945462
 11
38.8910290087
 21
56.5381306826
  0
LINE
  5
25E
100
AcDbEntity
  8
0
100
AcDbLine
 62
7
  6
BYLAYER
 10
50.5961742964
 20
48.0553191476
 11
41.7340073341
 21
53.1717778791
  0
LINE
  5
25F
100
AcDbEntity
  8
0
100
AcDbLine
 62
7
  6
BYLAYER
 10
30.4938351698
 20
59.6611474947
 11
21.5433172012
 21
64.8286145496
  0
LINE
  5
260
100
AcDbEntity
  8
0
100
AcDbLine
 62
7
  6
BYLAYER
 10
21.5433172012
 20
65.0327401539
 11
30.6209056807
 21
59.791910565
  0
LINE
  5
261
100
AcDbEntity
  8
0
100
AcDbLine
 62
7
  6
BYLAYER
 10
41.7340073341
 20
53.3759034833
 11
50.8115958137
 21
48.1350738945
  0
LINE
  5
262
100
AcDbEntity
  8
0
100
AcDbLine
 62
7
  6
BYLAYER
 10
38.9039574008
 20
56.5102708494
 11
38.8570717083
 21
56.6113064277
  0
LINE
  5
263
100
AcDbEntity
  8
0
100
AcDbLine
 62
7
  6
BYLAYER
 10
38.8570716777
 20
57.1828581197
 11
38.9039574008
 21
57.0818225413
  0
LINE
  5
264
100
AcDbEntity
  8
0
100
AcDbLine
 62
7
  6
BYLAYER
 10
43.3881122632
 20
58.7476278475
 11
43.3881122632
 21
58.1760761555
  0
LINE
  5
265
100
AcDbEntity
  8
0
100
AcDbLine
 62
7
  6
BYLAYER
 10
44.2381122632
 20
57.196273255
 11
44.2381122632
 21
58.0127756721
  0
LINE
  5
266
100
AcDbEntity
  8
0
100
AcDbLine
 62
7
  6
BYLAYER
 10
18.6413096066
 20
30.2927881909
 11
20.1969380485
 21
31.1909253295
  0
LINE
  5
267
100
AcDbEntity
  8
0
100
AcDbLine
 62
7
  6
BYLAYER
 10
28.2487124513
 20
35.676294038
 11
26.5961401201
 21
34.722186653
  0
LINE
  5
268
100
AcDbEntity
  8
0
100
AcDbLine
 62
7
  6
BYLAYER
 10
20.0555534954
 20
29.4762925727
 11
20.1969380485
 21
29.5579204952
  0
LINE
  5
269
100
AcDbEntity
  8
0
100
AcDbLine
 62
7
  6
BYLAYER
 10
30.3959229598
 20
35.2829743689
 11
26.5961401201
 21
33.0891818188
  0
LINE
  5
26A
100
AcDbEntity
  8
0
100
AcDbLine
 62
7
  6
BYLAYER
 10
34.157632669
 20
58.7132894628
 11
31.7091373131
 21
59.5294350664
  0
LINE
  5
26B
100
AcDbEntity
  8
0
100
AcDbLine
 62
7
  6
BYLAYER
 10
52.9329073253
 20
49.3598063561
 11
43.8553188458
 21
54.600635945
  0
LINE
  5
26C
100
AcDbEntity
  8
0
100
AcDbLine
 62
7
  6
BYLAYER
 10
32.6661162136
 20
61.0605789532
 11
23.6646287128
 21
66.2574726155
  0
LINE
  5
26D
100
AcDbEntity
  8
0
100
AcDbLine
 62
7
  6
BYLAYER
 10
39.0803438298
 20
56.3338886378
 11
38.9039574008
 21
56.5102708494
  0
LINE
  5
26E
100
AcDbEntity
  8
0
100
AcDbLine
 62
7
  6
BYLAYER
 10
38.9039574008
 20
57.0818225413
 11
39.3433664452
 21
56.6424240035
  0
LINE
  5
26F
100
AcDbEntity
  8
0
100
AcDbLine
 62
7
  6
BYLAYER
 10
36.0071365165
 20
61.2449626575
 11
35.8839170411
 21
61.3681791867
  0
LINE
  5
270
100
AcDbEntity
  8
0
100
AcDbLine
 62
7
  6
BYLAYER
 10
35.8839170411
 20
61.9397308787
 11
36.4169184881
 21
61.4067421761
  0
LINE
  5
271
100
AcDbEntity
  8
0
100
AcDbLine
 62
7
  6
BYLAYER
 10
40.8845019394
 20
57.5321936847
 11
40.123426808
 21
57.7858793292
  0
LINE
  5
272
100
AcDbEntity
  8
0
100
AcDbLine
 62
7
  6
BYLAYER
 10
38.6523561508
 20
61.1726050093
 11
39.3594780945
 21
60.7643362922
  0
LINE
  5
273
100
AcDbEntity
  8
0
100
AcDbLine
 62
7
  6
BYLAYER
 10
52.9327943023
 20
65.0328156049
 11
52.9327943023
 21
64.8286900006
  0
LINE
  5
274
100
AcDbEntity
  8
0
100
AcDbLine
 62
7
  6
BYLAYER
 10
62.2381122632
 20
57.196273255
 11
62.2381122632
 21
49.0312490837
  0
ARC
  5
275
100
AcDbEntity
  8
0
100
AcDbCircle
 62
7
  6
BYLAYER
 10
36.9309080324
 20
60.1599829296
 40
3.8767292783
100
AcDbArc
 50
249.9020317062
 51
250.2879186442
  0
ARC
  5
276
100
AcDbEntity
  8
0
100
AcDbCircle
 62
7
  6
BYLAYER
 10
36.9181943327
 20
60.7995522837
 40
3.7427635006
100
AcDbArc
 50
249.5439025213
 51
249.7905917716
  0
ARC
  5
277
100
AcDbEntity
  8
0
100
AcDbCircle
 62
7
  6
BYLAYER
 10
36.9113797197
 20
60.7567401422
 40
3.7232164736
100
AcDbArc
 50
249.2223938663
 51
249.4546720029
  0
ARC
  5
278
100
AcDbEntity
  8
0
100
AcDbCircle
 62
7
  6
BYLAYER
 10
37.6220191038
 20
60.6108978497
 40
3.5665703478
100
AcDbArc
 50
291.674341771
 51
292.4139080026
  0
ARC
  5
279
100
AcDbEntity
  8
0
100
AcDbCircle
 62
7
  6
BYLAYER
 10
37.6436750007
 20
60.5583782055
 40
3.509761098
100
AcDbArc
 50
292.4139993713
 51
292.9396616078
  0
ARC
  5
27A
100
AcDbEntity
  8
0
100
AcDbCircle
 62
7
  6
BYLAYER
 10
38.3488394601
 20
59.3630444778
 40
2.1169676237
100
AcDbArc
 50
308.997767027
 51
310.2606993691
  0
ARC
  5
27B
100
AcDbEntity
  8
0
100
AcDbCircle
 62
7
  6
BYLAYER
 10
39.2692624549
 20
58.0122901717
 40
1.0313444442
100
AcDbArc
 50
0.0269729097
 51
9.7078291477
  0
ARC
  5
27C
100
AcDbEntity
  8
0
100
AcDbCircle
 62
7
  6
BYLAYER
 10
35.2670119533
 20
58.7508769363
 40
1.0290960737
100
AcDbArc
 50
186.605021536
 51
191.9368644819
  0
ARC
  5
27D
100
AcDbEntity
  8
0
100
AcDbCircle
 62
7
  6
BYLAYER
 10
35.239284041
 20
58.7230954184
 40
1.0011664116
100
AcDbArc
 50
179.9978634535
 51
184.1281095982
  0
SPLINE
  5
27E
100
AcDbEntity
  8
0
100
AcDbSpline
 62
7
  6
BYLAYER
 70
0
 71
3
 72
16
 73
12
 74
0
 42
0.0000001
 43
0.0000001
 44
0.0000000001
 40
0.0
 40
0.0
 40
0.0
 40
0.0
 40
0.1359802603
 40
0.2783068358
 40
0.4216238956
 40
0.5606078951
 40
0.6903730962
 40
0.8072798643
 40
0.8604308758
 40
0.9100809281
 40
1.0
 40
1.0
 40
1.0
 40
1.0
 10
31.7091373131
 20
59.5294350664
 30
0.0
 10
31.6841451073
 20
59.5377656024
 30
0.0
 10
31.6314900121
 20
59.5504900657
 30
0.0
 10
31.5499277511
 20
59.5581897183
 30
0.0
 10
31.4674765807
 20
59.5547211856
 30
0.0
 10
31.3886694035
 20
59.5402952424
 30
0.0
 10
31.3177973501
 20
59.5156668933
 30
0.0
 10
31.2668644928
 20
59.4867900601
 30
0.0
 10
31.2341045137
 20
59.4594116497
 30
0.0
 10
31.2088808022
 20
59.4318208508
 30
0.0
 10
31.195229944
 20
59.4076506251
 30
0.0
 10
31.1899332726
 20
59.3910549698
 30
0.0
  0
SPLINE
  5
27F
100
AcDbEntity
  8
0
100
AcDbSpline
 62
7
  6
BYLAYER
 70
0
 71
3
 72
10
 73
6
 74
0
 42
0.0000001
 43
0.0000001
 44
0.0000000001
 40
0.0
 40
0.0
 40
0.0
 40
0.0
 40
0.2292247353
 40
0.4695401142
 40
1.0
 40
1.0
 40
1.0
 40
1.0
 10
34.2447463109
 20
58.6325059718
 30
0.0
 10
34.2442363471
 20
58.6369258061
 30
0.0
 10
34.2421429905
 20
58.645886365
 30
0.0
 10
34.2338390225
 20
58.6635478346
 30
0.0
 10
34.2236329176
 20
58.6749833685
 30
0.0
 10
34.2158580963
 20
58.6817331763
 30
0.0
  0
SPLINE
  5
280
100
AcDbEntity
  8
0
100
AcDbSpline
 62
7
  6
BYLAYER
 70
0
 71
3
 72
9
 73
5
 74
0
 42
0.0000001
 43
0.0000001
 44
0.0000000001
 40
0.0
 40
0.0
 40
0.0
 40
0.0
 40
0.4723350054
 40
1.0
 40
1.0
 40
1.0
 40
1.0
 10
34.2158580963
 20
58.6817331763
 30
0.0
 10
34.2079471814
 20
58.6886011354
 30
0.0
 10
34.1892973216
 20
58.7009830384
 30
0.0
 10
34.1687355466
 20
58.7095885921
 30
0.0
 10
34.157632669
 20
58.7132894628
 30
0.0
  0
SPLINE
  5
281
100
AcDbEntity
  8
0
100
AcDbSpline
 62
7
  6
BYLAYER
 70
0
 71
3
 72
15
 73
11
 74
0
 42
0.0000001
 43
0.0000001
 44
0.0000000001
 40
0.0
 40
0.0
 40
0.0
 40
0.0
 40
0.1506824975
 40
0.2942537136
 40
0.4300933806
 40
0.558017537
 40
0.6781496506
 40
0.7910529799
 40
0.8978058704
 40
1.0
 40
1.0
 40
1.0
 40
1.0
 10
35.6101375656
 20
57.2928064824
 30
0.0
 10
35.5201987562
 20
57.3263549178
 30
0.0
 10
35.346980271
 20
57.3986466233
 30
0.0
 10
35.1037573415
 20
57.5255669605
 30
0.0
 10
34.8857715978
 20
57.6671532663
 30
0.0
 10
34.6956166986
 20
57.8217731745
 30
0.0
 10
34.5355640398
 20
57.9877552846
 30
0.0
 10
34.4075892688
 20
58.1633042595
 30
0.0
 10
34.3134555206
 20
58.346429219
 30
0.0
 10
34.2736250725
 20
58.4743283163
 30
0.0
 10
34.2601689405
 20
58.5380251653
 30
0.0
  0
SPLINE
  5
282
100
AcDbEntity
  8
0
100
AcDbSpline
 62
7
  6
BYLAYER
 70
0
 71
3
 72
13
 73
9
 74
0
 42
0.0000001
 43
0.0000001
 44
0.0000000001
 40
0.0
 40
0.0
 40
0.0
 40
0.0
 40
0.3023398422
 40
0.5675955831
 40
0.686075658
 40
0.796150885
 40
0.8998131342
 40
1.0
 40
1.0
 40
1.0
 40
1.0
 10
35.0660925165
 20
56.4229420862
 30
0.0
 10
35.0398901028
 20
56.4311024053
 30
0.0
 10
34.9918524841
 20
56.4506487399
 30
0.0
 10
34.9400823707
 20
56.4866888798
 30
0.0
 10
34.9100988012
 20
56.52026825
 30
0.0
 10
34.8941991507
 20
56.546113614
 30
0.0
 10
34.8844706417
 20
56.5731232701
 30
0.0
 10
34.8822583414
 20
56.5916928283
 30
0.0
 10
34.8822602441
 20
56.6007868972
 30
0.0
  0
SPLINE
  5
283
100
AcDbEntity
  8
0
100
AcDbSpline
 62
7
  6
BYLAYER
 70
0
 71
3
 72
15
 73
11
 74
0
 42
0.0000001
 43
0.0000001
 44
0.0000000001
 40
0.0
 40
0.0
 40
0.0
 40
0.0
 40
0.1219415917
 40
0.2470062942
 40
0.3740936329
 40
0.5020785965
 40
0.629794359
 40
0.7560816307
 40
0.8798375414
 40
1.0
 40
1.0
 40
1.0
 40
1.0
 10
39.1895484911
 20
56.3586230276
 30
0.0
 10
39.0257789557
 20
56.3140330984
 30
0.0
 10
38.6904167516
 20
56.2365940948
 30
0.0
 10
38.175544618
 20
56.156212488
 30
0.0
 10
37.6479536891
 20
56.1109012111
 30
0.0
 10
37.1148344321
 20
56.1012575762
 30
0.0
 10
36.5833833818
 20
56.1274313283
 30
0.0
 10
36.0607721201
 20
56.1890499065
 30
0.0
 10
35.5541232092
 20
56.2852940018
 30
0.0
 10
35.2257823996
 20
56.373209248
 30
0.0
 10
35.0660925165
 20
56.4229420862
 30
0.0
  0
SPLINE
  5
284
100
AcDbEntity
  8
0
100
AcDbSpline
 62
7
  6
BYLAYER
 70
0
 71
3
 72
9
 73
5
 74
0
 42
0.0000001
 43
0.0000001
 44
0.0000000001
 40
0.0
 40
0.0
 40
0.0
 40
0.0
 40
0.2636459466
 40
1.0
 40
1.0
 40
1.0
 40
1.0
 10
39.0008799957
 20
57.3461079426
 30
0.0
 10
38.9939493406
 20
57.3431997449
 30
0.0
 10
38.9679877787
 20
57.3314343026
 30
0.0
 10
38.9433048731
 20
57.3166489764
 30
0.0
 10
38.9266936962
 20
57.303813855
 30
0.0
  0
SPLINE
  5
285
100
AcDbEntity
  8
0
100
AcDbSpline
 62
7
  6
BYLAYER
 70
0
 71
3
 72
11
 73
7
 74
0
 42
0.0000001
 43
0.0000001
 44
0.0000000001
 40
0.0
 40
0.0
 40
0.0
 40
0.0
 40
0.2809244623
 40
0.5372667915
 40
0.7741255562
 40
1.0
 40
1.0
 40
1.0
 40
1.0
 10
38.9266936962
 20
57.303813855
 30
0.0
 10
38.9160017103
 20
57.2955523731
 30
0.0
 10
38.8967027373
 20
57.2781363817
 30
0.0
 10
38.8742190616
 20
57.2481133936
 30
0.0
 10
38.8602575429
 20
57.2160887906
 30
0.0
 10
38.8570709562
 20
57.1937222011
 30
0.0
 10
38.8570681278
 20
57.18285812
 30
0.0
  0
SPLINE
  5
286
100
AcDbEntity
  8
0
100
AcDbSpline
 62
7
  6
BYLAYER
 70
0
 71
3
 72
9
 73
5
 74
0
 42
0.0000001
 43
0.0000001
 44
0.0000000001
 40
0.0
 40
0.0
 40
0.0
 40
0.0
 40
0.2419343841
 40
1.0
 40
1.0
 40
1.0
 40
1.0
 10
39.6652607415
 20
57.7296459592
 30
0.0
 10
39.6412744328
 20
57.7105831878
 30
0.0
 10
39.5404857704
 20
57.6338685153
 30
0.0
 10
39.4335721883
 20
57.5653152813
 30
0.0
 10
39.350252847
 20
57.5176260521
 30
0.0
  0
SPLINE
  5
287
100
AcDbEntity
  8
0
100
AcDbSpline
 62
7
  6
BYLAYER
 70
0
 71
3
 72
9
 73
5
 74
0
 42
0.0000001
 43
0.0000001
 44
0.0000000001
 40
0.0
 40
0.0
 40
0.0
 40
0.0
 40
0.2434541511
 40
1.0
 40
1.0
 40
1.0
 40
1.0
 10
39.350252847
 20
57.5176260521
 30
0.0
 10
39.3228311348
 20
57.501930773
 30
0.0
 10
39.2091261529
 20
57.439338311
 30
0.0
 10
39.0914245631
 20
57.3840823118
 30
0.0
 10
39.0008799957
 20
57.3461079426
 30
0.0
  0
SPLINE
  5
288
100
AcDbEntity
  8
0
100
AcDbSpline
 62
7
  6
BYLAYER
 70
0
 71
3
 72
11
 73
7
 74
0
 42
0.0000001
 43
0.0000001
 44
0.0000000001
 40
0.0
 40
0.0
 40
0.0
 40
0.0
 40
0.2512963134
 40
0.5135669999
 40
0.7686703444
 40
1.0
 40
1.0
 40
1.0
 40
1.0
 10
40.123426808
 20
57.7858793292
 30
0.0
 10
40.0890425534
 20
57.7973404734
 30
0.0
 10
40.0159471117
 20
57.8126692292
 30
0.0
 10
39.9045113296
 20
57.8148074711
 30
0.0
 10
39.7974002774
 20
57.7969902245
 30
0.0
 10
39.7313046577
 20
57.7711057179
 30
0.0
 10
39.7023321608
 20
57.754559616
 30
0.0
  0
SPLINE
  5
289
100
AcDbEntity
  8
0
100
AcDbSpline
 62
7
  6
BYLAYER
 70
0
 71
3
 72
9
 73
5
 74
0
 42
0.0000001
 43
0.0000001
 44
0.0000000001
 40
0.0
 40
0.0
 40
0.0
 40
0.0
 40
0.2584656104
 40
1.0
 40
1.0
 40
1.0
 40
1.0
 10
39.7023321608
 20
57.754559616
 30
0.0
 10
39.6989887887
 20
57.7526502267
 30
0.0
 10
39.6861831233
 20
57.7450401918
 30
0.0
 10
39.6739084764
 20
57.7365186217
 30
0.0
 10
39.6652607415
 20
57.7296459592
 30
0.0
  0
SPLINE
  5
28A
100
AcDbEntity
  8
0
100
AcDbSpline
 62
7
  6
BYLAYER
 70
0
 71
3
 72
15
 73
11
 74
0
 42
0.0000001
 43
0.0000001
 44
0.0000000001
 40
0.0
 40
0.0
 40
0.0
 40
0.0
 40
0.0985266252
 40
0.2090225969
 40
0.3305725052
 40
0.4609068464
 40
0.5967987638
 40
0.7344992724
 40
0.870159639
 40
1.0
 40
1.0
 40
1.0
 40
1.0
 10
41.3760653982
 20
57.6210016188
 30
0.0
 10
41.3651697556
 20
57.6076625693
 30
0.0
 10
41.3381025819
 20
57.5825268313
 30
0.0
 10
41.2884183571
 20
57.5524666056
 30
0.0
 10
41.2293519769
 20
57.528895373
 30
0.0
 10
41.1633214586
 20
57.5127345492
 30
0.0
 10
41.0930039446
 20
57.5046303268
 30
0.0
 10
41.0212935283
 20
57.5049031661
 30
0.0
 10
40.951180564
 20
57.5135549798
 30
0.0
 10
40.9060345713
 20
57.5250163123
 30
0.0
 10
40.8845019394
 20
57.5321936847
 30
0.0
  0
SPLINE
  5
28B
100
AcDbEntity
  8
0
100
AcDbSpline
 62
7
  6
BYLAYER
 70
0
 71
3
 72
15
 73
11
 74
0
 42
0.0000001
 43
0.0000001
 44
0.0000000001
 40
0.0
 40
0.0
 40
0.0
 40
0.0
 40
0.156867006
 40
0.3076375238
 40
0.4493844488
 40
0.5803668567
 40
0.6996829668
 40
0.8076861542
 40
0.906477488
 40
1.0
 40
1.0
 40
1.0
 40
1.0
 10
36.1235975365
 20
62.2394903417
 30
0.0
 10
36.1039777288
 20
62.2374030183
 30
0.0
 10
36.0656748268
 20
62.2313589509
 30
0.0
 10
36.010998026
 20
62.2165837246
 30
0.0
 10
35.9614670877
 20
62.1965924363
 30
0.0
 10
35.9185425587
 20
62.1719557974
 30
0.0
 10
35.8834226605
 20
62.1433336482
 30
0.0
 10
35.8571811373
 20
62.1113679745
 30
0.0
 10
35.840810894
 20
62.076851989
 30
0.0
 10
35.8370252881
 20
62.0525296045
 30
0.0
 10
35.8370250095
 20
62.040766464
 30
0.0
  0
SPLINE
  5
28C
100
AcDbEntity
  8
0
100
AcDbSpline
 62
7
  6
BYLAYER
 70
0
 71
3
 72
11
 73
7
 74
0
 42
0.0000001
 43
0.0000001
 44
0.0000000001
 40
0.0
 40
0.0
 40
0.0
 40
0.0
 40
0.2346547978
 40
0.4777655412
 40
0.7322231249
 40
1.0
 40
1.0
 40
1.0
 40
1.0
 10
41.779527481
 20
58.4955166012
 30
0.0
 10
41.7620893763
 20
58.5781341805
 30
0.0
 10
41.713073356
 20
58.7437532638
 30
0.0
 10
41.6012588572
 20
58.9832771581
 30
0.0
 10
41.4514068376
 20
59.2152508008
 30
0.0
 10
41.3304094894
 20
59.3596874838
 30
0.0
 10
41.264625587
 20
59.4300937742
 30
0.0
  0
SPLINE
  5
28D
100
AcDbEntity
  8
0
100
AcDbSpline
 62
7
  6
BYLAYER
 70
0
 71
3
 72
13
 73
9
 74
0
 42
0.0000001
 43
0.0000001
 44
0.0000000001
 40
0.0
 40
0.0
 40
0.0
 40
0.0
 40
0.1181716475
 40
0.2370570105
 40
0.3573410856
 40
0.4796728244
 40
0.7326247593
 40
1.0
 40
1.0
 40
1.0
 40
1.0
 10
41.8131090145
 20
58.7476278455
 30
0.0
 10
41.813110157
 20
58.6990999086
 30
0.0
 10
41.8084502069
 20
58.6016870549
 30
0.0
 10
41.7875136853
 20
58.4562362239
 30
0.0
 10
41.7527245378
 20
58.3116936532
 30
0.0
 10
41.6873043654
 20
58.1187318028
 30
0.0
 10
41.5697249996
 20
57.8809925891
 30
0.0
 10
41.4455252512
 20
57.7060382209
 30
0.0
 10
41.3760653982
 20
57.6210016188
 30
0.0
  0
SPLINE
  5
28E
100
AcDbEntity
  8
0
100
AcDbSpline
 62
7
  6
BYLAYER
 70
0
 71
3
 72
13
 73
9
 74
0
 42
0.0000001
 43
0.0000001
 44
0.0000000001
 40
0.0
 40
0.0
 40
0.0
 40
0.0
 40
0.0988976883
 40
0.2015650547
 40
0.3111103534
 40
0.4296320905
 40
0.6960913028
 40
1.0
 40
1.0
 40
1.0
 40
1.0
 10
39.3902550499
 20
56.5413884255
 30
0.0
 10
39.3902525632
 20
56.5318338526
 30
0.0
 10
39.3878156346
 20
56.512283104
 30
0.0
 10
39.3770507598
 20
56.4839583763
 30
0.0
 10
39.3595473837
 20
56.4569736362
 30
0.0
 10
39.3265315465
 20
56.4221404371
 30
0.0
 10
39.2699588716
 20
56.3854471825
 30
0.0
 10
39.2178780228
 20
56.3663363783
 30
0.0
 10
39.1895484911
 20
56.3586230276
 30
0.0
  0
SPLINE
  5
28F
100
AcDbEntity
  8
0
100
AcDbSpline
 62
7
  6
BYLAYER
 70
0
 71
3
 72
11
 73
7
 74
0
 42
0.0000001
 43
0.0000001
 44
0.0000000001
 40
0.0
 40
0.0
 40
0.0
 40
0.0
 40
0.2177549952
 40
0.4508840675
 40
0.710398309
 40
1.0
 40
1.0
 40
1.0
 40
1.0
 10
35.706159093
 20
56.6304642252
 30
0.0
 10
35.7061569839
 20
56.6237997169
 30
0.0
 10
35.7037060656
 20
56.6099064377
 30
0.0
 10
35.6931675378
 20
56.5905466015
 30
0.0
 10
35.6765131105
 20
56.5730536799
 30
0.0
 10
35.6625844881
 20
56.5634537672
 30
0.0
 10
35.6549085338
 20
56.5590220794
 30
0.0
  0
SPLINE
  5
290
100
AcDbEntity
  8
0
100
AcDbSpline
 62
7
  6
BYLAYER
 70
0
 71
3
 72
12
 73
8
 74
0
 42
0.0000001
 43
0.0000001
 44
0.0000000001
 40
0.0
 40
0.0
 40
0.0
 40
0.0
 40
0.1021188721
 40
0.2073462683
 40
0.4360966042
 40
0.7000251221
 40
1.0
 40
1.0
 40
1.0
 40
1.0
 10
35.7061590958
 20
57.2020159172
 30
0.0
 10
35.7061604375
 20
57.206252872
 30
0.0
 10
35.7052118013
 20
57.2148844456
 30
0.0
 10
35.69942269
 20
57.2321509541
 30
0.0
 10
35.6846472033
 20
57.2527619554
 30
0.0
 10
35.6582889852
 20
57.2729438098
 30
0.0
 10
35.6369279243
 20
57.2829075597
 30
0.0
 10
35.6252480762
 20
57.2872071129
 30
0.0
  0
SPLINE
  5
291
100
AcDbEntity
  8
0
100
AcDbSpline
 62
7
  6
BYLAYER
 70
0
 71
3
 72
25
 73
21
 74
0
 42
0.0000001
 43
0.0000001
 44
0.0000000001
 40
0.0
 40
0.0
 40
0.0
 40
0.0
 40
0.0219428273
 40
0.0440166681
 40
0.0663492453
 40
0.0890592231
 40
0.135995815
 40
0.1855931734
 40
0.2383464675
 40
0.2945304154
 40
0.3542231258
 40
0.4173358854
 40
0.4836424353
 40
0.5528050626
 40
0.6243972311
 40
0.6979227645
 40
0.7728366053
 40
0.8485531758
 40
0.9244812804
 40
1.0
 40
1.0
 40
1.0
 40
1.0
 10
43.3881123401
 20
58.7476278459
 30
0.0
 10
43.3881116754
 20
58.8125026321
 30
0.0
 10
43.3819178231
 20
58.9427238216
 30
0.0
 10
43.3540875325
 20
59.1371783737
 30
0.0
 10
43.3078183825
 20
59.3304379127
 30
0.0
 10
43.2208560716
 20
59.5884284167
 30
0.0
 10
43.0645012541
 20
59.9064140115
 30
0.0
 10
42.8091549561
 20
60.2683290779
 30
0.0
 10
42.4874990254
 20
60.6111019408
 30
0.0
 10
42.1036044301
 20
60.9309111147
 30
0.0
 10
41.6620807887
 20
61.2242806909
 30
0.0
 10
41.1681466189
 20
61.4879171208
 30
0.0
 10
40.6276162748
 20
61.7188146484
 30
0.0
 10
40.046861368
 20
61.9142976423
 30
0.0
 10
39.4327482186
 20
62.0720775676
 30
0.0
 10
38.7925508772
 20
62.1903017076
 30
0.0
 10
38.1338790018
 20
62.2675589091
 30
0.0
 10
37.4645302157
 20
62.3029543194
 30
0.0
 10
36.7925263159
 20
62.2960375378
 30
0.0
 10
36.3456185038
 20
62.2631108368
 30
0.0
 10
36.1235975365
 20
62.2394903417
 30
0.0
  0
SPLINE
  5
292
100
AcDbEntity
  8
0
100
AcDbSpline
 62
7
  6
BYLAYER
 70
0
 71
3
 72
25
 73
21
 74
0
 42
0.0000001
 43
0.0000001
 44
0.0000000001
 40
0.0
 40
0.0
 40
0.0
 40
0.0
 40
0.0755186519
 40
0.1514467709
 40
0.2271635047
 40
0.3020775907
 40
0.3756034235
 40
0.4471959068
 40
0.5163587884
 40
0.5826654771
 40
0.645778224
 40
0.7054707749
 40
0.7616544693
 40
0.8144074803
 40
0.8640045813
 40
0.9109409766
 40
0.9336508819
 40
0.9559834017
 40
0.978057199
 40
1.0
 40
1.0
 40
1.0
 40
1.0
 10
38.35262699
 20
54.6842136613
 30
0.0
 10
38.1306062205
 20
54.6605931873
 30
0.0
 10
37.6836985681
 20
54.6276664327
 30
0.0
 10
37.011694337
 20
54.6207496791
 30
0.0
 10
36.3423442989
 20
54.6561451891
 30
0.0
 10
35.6836703533
 20
54.7334027789
 30
0.0
 10
35.0434705559
 20
54.851627657
 30
0.0
 10
34.4293550211
 20
55.0094086725
 30
0.0
 10
33.8485983888
 20
55.2048931473
 30
0.0
 10
33.3080674108
 20
55.4357920727
 30
0.0
 10
32.8141338029
 20
55.699429351
 30
0.0
 10
32.3726117422
 20
55.9927990368
 30
0.0
 10
31.9887193635
 20
56.312607656
 30
0.0
 10
31.6670657234
 20
56.6553794433
 30
0.0
 10
31.4117213923
 20
57.0172932191
 30
0.0
 10
31.2553676891
 20
57.3352775919
 30
0.0
 10
31.1684057583
 20
57.5932672052
 30
0.0
 10
31.1221368688
 20
57.786526281
 30
0.0
 10
31.0943066975
 20
57.9809804666
 30
0.0
 10
31.0881128308
 20
58.1112014487
 30
0.0
 10
31.0881121649
 20
58.1760761576
 30
0.0
  0
SPLINE
  5
293
100
AcDbEntity
  8
0
100
AcDbSpline
 62
7
  6
BYLAYER
 70
0
 71
3
 72
19
 73
15
 74
0
 42
0.0000001
 43
0.0000001
 44
0.0000000001
 40
0.0
 40
0.0
 40
0.0
 40
0.0
 40
0.0468096231
 40
0.095192803
 40
0.1454557339
 40
0.1978598691
 40
0.3096316543
 40
0.3692436442
 40
0.4313052672
 40
0.4957505056
 40
0.5624676973
 40
0.7020430601
 40
0.8485277454
 40
1.0
 40
1.0
 40
1.0
 40
1.0
 10
43.2862912539
 20
57.5326490332
 30
0.0
 10
43.2579072657
 20
57.4437156083
 30
0.0
 10
43.1888499059
 20
57.2662997997
 30
0.0
 10
43.0528506385
 20
57.00943144
 30
0.0
 10
42.8837787239
 20
56.7594320127
 30
0.0
 10
42.609912036
 20
56.43023457
 30
0.0
 10
42.2778562363
 20
56.1282865762
 30
0.0
 10
41.9003885812
 20
55.8553918072
 30
0.0
 10
41.5847592886
 20
55.6594492584
 30
0.0
 10
41.2446062065
 20
55.4778420785
 30
0.0
 10
40.7535263671
 20
55.2527399414
 30
0.0
 10
40.089712415
 20
55.015132714
 30
0.0
 10
39.2415434324
 20
54.8049846371
 30
0.0
 10
38.6530151401
 20
54.7161715296
 30
0.0
 10
38.35262699
 20
54.6842136613
 30
0.0
  0
SPLINE
  5
294
100
AcDbEntity
  8
0
100
AcDbSpline
 62
7
  6
BYLAYER
 70
0
 71
3
 72
11
 73
7
 74
0
 42
0.0000001
 43
0.0000001
 44
0.0000000001
 40
0.0
 40
0.0
 40
0.0
 40
0.0
 40
0.2727453947
 40
0.5273261998
 40
0.7675622219
 40
1.0
 40
1.0
 40
1.0
 40
1.0
 10
35.8839170411
 20
61.3681791867
 30
0.0
 10
35.8765770293
 20
61.375519023
 30
0.0
 10
35.8633945331
 20
61.3907851775
 30
0.0
 10
35.848324382
 20
61.4160069553
 30
0.0
 10
35.8391088732
 20
61.4423182288
 30
0.0
 10
35.8370247999
 20
61.4603685904
 30
0.0
 10
35.8370250085
 20
61.4692147721
 30
0.0
  0
SPLINE
  5
295
100
AcDbEntity
  8
0
100
AcDbSpline
 62
7
  6
BYLAYER
 70
0
 71
3
 72
15
 73
11
 74
0
 42
0.0000001
 43
0.0000001
 44
0.0000000001
 40
0.0
 40
0.0
 40
0.0
 40
0.0
 40
0.1022657868
 40
0.217827179
 40
0.3446329728
 40
0.4790848013
 40
0.616602952
 40
0.7522591722
 40
0.8813941952
 40
1.0
 40
1.0
 40
1.0
 40
1.0
 10
41.264625587
 20
59.4300937742
 30
0.0
 10
41.2508783487
 20
59.4448069788
 30
0.0
 10
41.2169585232
 20
59.4718808668
 30
0.0
 10
41.1559693791
 20
59.5024036973
 30
0.0
 10
41.0846983626
 20
59.5241188898
 30
0.0
 10
41.0068234818
 20
59.53594004
 30
0.0
 10
40.9263382561
 20
59.5372602161
 30
0.0
 10
40.8474092263
 20
59.5280264411
 30
0.0
 10
40.7741704497
 20
59.5087039041
 30
0.0
 10
40.7293226821
 20
59.4887189659
 30
0.0
 10
40.7090979154
 20
59.4770422611
 30
0.0
  0
SPLINE
  5
296
100
AcDbEntity
  8
0
100
AcDbSpline
 62
7
  6
BYLAYER
 70
0
 71
3
 72
13
 73
9
 74
0
 42
0.0000001
 43
0.0000001
 44
0.0000000001
 40
0.0
 40
0.0
 40
0.0
 40
0.0
 40
0.2709391969
 40
0.5246327932
 40
0.646453055
 40
0.7657549933
 40
0.8833204233
 40
1.0
 40
1.0
 40
1.0
 40
1.0
 10
41.264625587
 20
60.0016454662
 30
0.0
 10
41.3510055299
 20
59.9091959287
 30
0.0
 10
41.5058990699
 20
59.7179140718
 30
0.0
 10
41.6543398981
 20
59.4529961932
 30
0.0
 10
41.7369300668
 20
59.2368274417
 30
0.0
 10
41.7808146336
 20
59.0748630449
 30
0.0
 10
41.8072251037
 20
58.9115937774
 30
0.0
 10
41.8131077316
 20
58.802115376
 30
0.0
 10
41.8131090145
 20
58.7476278455
 30
0.0
  0
SPLINE
  5
297
100
AcDbEntity
  8
0
100
AcDbSpline
 62
7
  6
BYLAYER
 70
0
 71
3
 72
15
 73
11
 74
0
 42
0.0000001
 43
0.0000001
 44
0.0000000001
 40
0.0
 40
0.0
 40
0.0
 40
0.0
 40
0.1186058048
 40
0.2477408278
 40
0.383397048
 40
0.5209151987
 40
0.6553670272
 40
0.782172821
 40
0.8977342132
 40
1.0
 40
1.0
 40
1.0
 40
1.0
 10
40.7090979154
 20
60.0485939531
 30
0.0
 10
40.7293226821
 20
60.0602706579
 30
0.0
 10
40.7741704497
 20
60.0802555961
 30
0.0
 10
40.8474092263
 20
60.0995781331
 30
0.0
 10
40.9263382561
 20
60.1088119081
 30
0.0
 10
41.0068234818
 20
60.107491732
 30
0.0
 10
41.0846983626
 20
60.0956705817
 30
0.0
 10
41.1559693791
 20
60.0739553893
 30
0.0
 10
41.2169585232
 20
60.0434325588
 30
0.0
 10
41.2508783487
 20
60.0163586708
 30
0.0
 10
41.264625587
 20
60.0016454662
 30
0.0
  0
SPLINE
  5
298
100
AcDbEntity
  8
0
100
AcDbSpline
 62
7
  6
BYLAYER
 70
0
 71
3
 72
11
 73
7
 74
0
 42
0.0000001
 43
0.0000001
 44
0.0000000001
 40
0.0
 40
0.0
 40
0.0
 40
0.0
 40
0.2896017201
 40
0.5491158297
 40
0.7822449199
 40
1.0
 40
1.0
 40
1.0
 40
1.0
 10
35.6549085338
 20
57.1305737714
 30
0.0
 10
35.662584489
 20
57.1350054597
 30
0.0
 10
35.676513113
 20
57.1446053656
 30
0.0
 10
35.6931675332
 20
57.1620982909
 30
0.0
 10
35.7037060642
 20
57.1814581239
 30
0.0
 10
35.7061569853
 20
57.1953514062
 30
0.0
 10
35.7061590958
 20
57.2020159172
 30
0.0
  0
SPLINE
  5
299
100
AcDbEntity
  8
0
100
AcDbSpline
 62
7
  6
BYLAYER
 70
0
 71
3
 72
26
 73
22
 74
0
 42
0.0000001
 43
0.0000001
 44
0.0000000001
 40
0.0
 40
0.0
 40
0.0
 40
0.0
 40
0.0214243004
 40
0.0430232162
 40
0.064964324
 40
0.087400932
 40
0.1104691985
 40
0.1342852978
 40
0.1844715141
 40
0.2384942043
 40
0.2965178318
 40
0.3584392311
 40
0.4239411711
 40
0.4925389326
 40
0.5636203588
 40
0.6364807186
 40
0.7103530385
 40
0.7844364257
 40
0.8579229911
 40
0.9300244192
 40
1.0
 40
1.0
 40
1.0
 40
1.0
 10
31.0881119464
 20
58.7476278503
 30
0.0
 10
31.0881127884
 20
58.671751073
 30
0.0
 10
31.096603264
 20
58.5192451426
 30
0.0
 10
31.1347278896
 20
58.2919054363
 30
0.0
 10
31.1980199194
 20
58.0665165954
 30
0.0
 10
31.2862091903
 20
57.8440895816
 30
0.0
 10
31.3988577495
 20
57.6255203501
 30
0.0
 10
31.584185347
 20
57.3354672743
 30
0.0
 10
31.8778875672
 20
56.9871439458
 30
0.0
 10
32.3108047461
 20
56.6067339328
 30
0.0
 10
32.8231884943
 20
56.26188595
 30
0.0
 10
33.406725491
 20
55.9578639897
 30
0.0
 10
34.0521109827
 20
55.6992908423
 30
0.0
 10
34.7489947463
 20
55.4902350903
 30
0.0
 10
35.4861627142
 20
55.334022186
 30
0.0
 10
36.2517085193
 20
55.2331628136
 30
0.0
 10
37.0332423174
 20
55.1892860769
 30
0.0
 10
37.8180925776
 20
55.2031010329
 30
0.0
 10
38.5935564926
 20
55.2743890559
 30
0.0
 10
39.3469964901
 20
55.4019767317
 30
0.0
 10
39.835497064
 20
55.5254774466
 30
0.0
 10
40.0728801071
 20
55.5966641488
 30
0.0
  0
SPLINE
  5
29A
100
AcDbEntity
  8
0
100
AcDbSpline
 62
7
  6
BYLAYER
 70
0
 71
3
 72
15
 73
11
 74
0
 42
0.0000001
 43
0.0000001
 44
0.0000000001
 40
0.0
 40
0.0
 40
0.0
 40
0.0
 40
0.1502748283
 40
0.294034411
 40
0.4305090148
 40
0.5592059308
 40
0.6799799598
 40
0.793099424
 40
0.8993412461
 40
1.0
 40
1.0
 40
1.0
 40
1.0
 10
40.0728801071
 20
55.5966641488
 30
0.0
 10
40.2756862139
 20
55.6574818792
 30
0.0
 10
40.668265731
 20
55.7913781369
 30
0.0
 10
41.2249341646
 20
56.0341098853
 30
0.0
 10
41.7307932712
 20
56.311760397
 30
0.0
 10
42.1794029988
 20
56.620928678
 30
0.0
 10
42.5650440059
 20
56.9579176543
 30
0.0
 10
42.8827330313
 20
57.3188377881
 30
0.0
 10
43.1279686504
 20
57.6993224997
 30
0.0
 10
43.2431701402
 20
57.9690925687
 30
0.0
 10
43.2862912539
 20
58.1042007252
 30
0.0
  0
SPLINE
  5
29B
100
AcDbEntity
  8
0
100
AcDbSpline
 62
7
  6
BYLAYER
 70
0
 71
3
 72
11
 73
7
 74
0
 42
0.0000001
 43
0.0000001
 44
0.0000000001
 40
0.0
 40
0.0
 40
0.0
 40
0.0
 40
0.2324377965
 40
0.4726737865
 40
0.7272545598
 40
1.0
 40
1.0
 40
1.0
 40
1.0
 10
35.8370250095
 20
62.040766464
 30
0.0
 10
35.8370247999
 20
62.0319202817
 30
0.0
 10
35.8391088756
 20
62.0138699208
 30
0.0
 10
35.8483243792
 20
61.9875586476
 30
0.0
 10
35.8633945295
 20
61.9623368694
 30
0.0
 10
35.8765770281
 20
61.9470707162
 30
0.0
 10
35.8839170411
 20
61.9397308787
 30
0.0
  0
SPLINE
  5
29C
100
AcDbEntity
  8
0
100
AcDbSpline
 62
7
  6
BYLAYER
 70
0
 71
3
 72
11
 73
7
 74
0
 42
0.0000001
 43
0.0000001
 44
0.0000000001
 40
0.0
 40
0.0
 40
0.0
 40
0.0
 40
0.27288259
 40
0.5273915811
 40
0.7675511503
 40
1.0
 40
1.0
 40
1.0
 40
1.0
 10
39.3433664452
 20
56.6424240035
 30
0.0
 10
39.3507102126
 20
56.6350804117
 30
0.0
 10
39.3638995721
 20
56.6198163184
 30
0.0
 10
39.3789635838
 20
56.5945904969
 30
0.0
 10
39.3881749541
 20
56.5682836247
 30
0.0
 10
39.3902573524
 20
56.5502351046
 30
0.0
 10
39.3902550499
 20
56.5413884255
 30
0.0
  0
SPLINE
  5
29D
100
AcDbEntity
  8
0
100
AcDbSpline
 62
7
  6
BYLAYER
 70
0
 71
3
 72
11
 73
7
 74
0
 42
0.0000001
 43
0.0000001
 44
0.0000000001
 40
0.0
 40
0.0
 40
0.0
 40
0.0
 40
0.2177766681
 40
0.4508986647
 40
0.7103028538
 40
1.0
 40
1.0
 40
1.0
 40
1.0
 10
34.8822602441
 20
56.6007868972
 30
0.0
 10
34.8822630332
 20
56.6141173519
 30
0.0
 10
34.8871842967
 20
56.6419023068
 30
0.0
 10
34.9082494869
 20
56.6806178103
 30
0.0
 10
34.941550479
 20
56.7156124449
 30
0.0
 10
34.969412461
 20
56.7348047916
 30
0.0
 10
34.9847695578
 20
56.7436711626
 30
0.0
  0
SPLINE
  5
29E
100
AcDbEntity
  8
0
100
AcDbSpline
 62
7
  6
BYLAYER
 70
0
 71
3
 72
15
 73
11
 74
0
 42
0.0000001
 43
0.0000001
 44
0.0000000001
 40
0.0
 40
0.0
 40
0.0
 40
0.0
 40
0.1485651372
 40
0.2895100829
 40
0.4227290316
 40
0.548639536
 40
0.6680017659
 40
0.7819392484
 40
0.8919875144
 40
1.0
 40
1.0
 40
1.0
 40
1.0
 10
35.1167830878
 20
60.7643574557
 30
0.0
 10
35.0491321174
 20
60.7252993829
 30
0.0
 10
34.9203642772
 20
60.643670796
 30
0.0
 10
34.7443060278
 20
60.5074190809
 30
0.0
 10
34.5920270901
 20
60.3616581232
 30
0.0
 10
34.4650616815
 20
60.2077442596
 30
0.0
 10
34.3646596764
 20
60.0470548478
 30
0.0
 10
34.2920059847
 20
59.8810091375
 30
0.0
 10
34.2479737874
 20
59.7113177981
 30
0.0
 10
34.2381193832
 20
59.5964288449
 30
0.0
 10
34.2381157425
 20
59.5396351921
 30
0.0
  0
SPLINE
  5
29F
100
AcDbEntity
  8
0
100
AcDbSpline
 62
7
  6
BYLAYER
 70
0
 71
3
 72
15
 73
11
 74
0
 42
0.0000001
 43
0.0000001
 44
0.0000000001
 40
0.0
 40
0.0
 40
0.0
 40
0.0
 40
0.1182262767
 40
0.2418405996
 40
0.3692502321
 40
0.4986908774
 40
0.628305639
 40
0.7562280813
 40
0.8806691208
 40
1.0
 40
1.0
 40
1.0
 40
1.0
 10
38.9392627971
 20
57.2964909497
 30
0.0
 10
38.8146391008
 20
57.2469566721
 30
0.0
 10
38.553959693
 20
57.1596873752
 30
0.0
 10
38.1452217945
 20
57.065663987
 30
0.0
 10
37.7170827355
 20
57.0070269664
 30
0.0
 10
37.2787298468
 20
56.9850523931
 30
0.0
 10
36.8395077606
 20
57.000194406
 30
0.0
 10
36.4087830106
 20
57.0521412978
 30
0.0
 10
35.9958019941
 20
57.1397669655
 30
0.0
 10
35.7314736152
 20
57.2228348033
 30
0.0
 10
35.604723249
 20
57.2703394514
 30
0.0
  0
SPLINE
  5
2A0
100
AcDbEntity
  8
0
100
AcDbSpline
 62
7
  6
BYLAYER
 70
0
 71
3
 72
9
 73
5
 74
0
 42
0.0000001
 43
0.0000001
 44
0.0000000001
 40
0.0
 40
0.0
 40
0.0
 40
0.0
 40
0.4971130785
 40
1.0
 40
1.0
 40
1.0
 40
1.0
 10
40.2381068658
 20
58.1760761808
 30
0.0
 10
40.2381097557
 20
58.2204214293
 30
0.0
 10
40.2321431878
 20
58.3097256706
 30
0.0
 10
40.2144682418
 20
58.3974477529
 30
0.0
 10
40.202863132
 20
58.4407809805
 30
0.0
  0
SPLINE
  5
2A1
100
AcDbEntity
  8
0
100
AcDbSpline
 62
7
  6
BYLAYER
 70
0
 71
3
 72
16
 73
12
 74
0
 42
0.0000001
 43
0.0000001
 44
0.0000000001
 40
0.0
 40
0.0
 40
0.0
 40
0.0
 40
0.1141428624
 40
0.2373023507
 40
0.3669402302
 40
0.4999538269
 40
0.6329650166
 40
0.7626059024
 40
0.8857661447
 40
0.944157586
 40
1.0
 40
1.0
 40
1.0
 40
1.0
 10
38.6523496933
 20
61.1726012784
 30
0.0
 10
38.5555369729
 20
61.2284976193
 30
0.0
 10
38.3438378021
 20
61.3270821185
 30
0.0
 10
37.9990956511
 20
61.4318679179
 30
0.0
 10
37.6258527538
 20
61.4963699836
 30
0.0
 10
37.2381402327
 20
61.518134211
 30
0.0
 10
36.8503987928
 20
61.4963745518
 30
0.0
 10
36.4772268916
 20
61.4318931591
 30
0.0
 10
36.1846480015
 20
61.3429853936
 30
0.0
 10
35.9706213797
 20
61.2517066299
 30
0.0
 10
35.8712571423
 20
61.1999647634
 30
0.0
 10
35.8238928129
 20
61.1726191183
 30
0.0
  0
SPLINE
  5
2A2
100
AcDbEntity
  8
0
100
AcDbSpline
 62
7
  6
BYLAYER
 70
0
 71
3
 72
15
 73
11
 74
0
 42
0.0000001
 43
0.0000001
 44
0.0000000001
 40
0.0
 40
0.0
 40
0.0
 40
0.0
 40
0.1080125443
 40
0.2180611868
 40
0.3319997554
 40
0.4513566385
 40
0.5772772909
 40
0.7104998748
 40
0.8513933089
 40
1.0
 40
1.0
 40
1.0
 40
1.0
 10
40.238108784
 20
59.5396351922
 30
0.0
 10
40.2381124246
 20
59.5964274406
 30
0.0
 10
40.2282398885
 20
59.7113121411
 30
0.0
 10
40.1842330592
 20
59.8810059674
 30
0.0
 10
40.1115582599
 20
60.0470356234
 30
0.0
 10
40.0111841511
 20
60.2077391783
 30
0.0
 10
39.8842032473
 20
60.3616420861
 30
0.0
 10
39.7319429351
 20
60.5073829482
 30
0.0
 10
39.5559133994
 20
60.6436584081
 30
0.0
 10
39.4271415367
 20
60.7252648715
 30
0.0
 10
39.3594739379
 20
60.7643338925
 30
0.0
  0
SPLINE
  5
2A3
100
AcDbEntity
  8
0
100
AcDbSpline
 62
7
  6
BYLAYER
 70
0
 71
3
 72
14
 73
10
 74
0
 42
0.0000001
 43
0.0000001
 44
0.0000000001
 40
0.0
 40
0.0
 40
0.0
 40
0.0
 40
0.1136307128
 40
0.2285137233
 40
0.345838889
 40
0.4666697531
 40
0.5919116544
 40
0.7222638964
 40
1.0
 40
1.0
 40
1.0
 40
1.0
 10
40.2381068964
 20
58.7231327984
 30
0.0
 10
40.2381041156
 20
58.6799025965
 30
0.0
 10
40.2324359
 20
58.592863077
 30
0.0
 10
40.2070415258
 20
58.463421887
 30
0.0
 10
40.1649066991
 20
58.3355368225
 30
0.0
 10
40.106357247
 20
58.2099652096
 30
0.0
 10
40.031724868
 20
58.0874110216
 30
0.0
 10
39.9089329445
 20
57.9255518826
 30
0.0
 10
39.7975953929
 20
57.8158506661
 30
0.0
 10
39.7169647037
 20
57.7475615044
 30
0.0
  0
SPLINE
  5
2A4
100
AcDbEntity
  8
0
100
AcDbSpline
 62
7
  6
BYLAYER
 70
0
 71
3
 72
22
 73
18
 74
0
 42
0.0000001
 43
0.0000001
 44
0.0000000001
 40
0.0
 40
0.0
 40
0.0
 40
0.0
 40
0.0742829104
 40
0.1447762173
 40
0.2114020357
 40
0.2743649225
 40
0.3340531647
 40
0.3910327506
 40
0.4460651253
 40
0.5000792931
 40
0.5540949754
 40
0.6091287619
 40
0.6661069137
 40
0.7257961318
 40
0.7887655577
 40
0.8553884612
 40
1.0
 40
1.0
 40
1.0
 40
1.0
 10
38.6523317135
 20
59.5396561002
 30
0.0
 10
38.6974246716
 20
59.5656903763
 30
0.0
 10
38.7832635674
 20
59.6201133382
 30
0.0
 10
38.9006433437
 20
59.7109388285
 30
0.0
 10
39.0021634951
 20
59.808121549
 30
0.0
 10
39.0868151386
 20
59.9107227646
 30
0.0
 10
39.1537301434
 20
60.0178577663
 30
0.0
 10
39.2021849464
 20
60.1285359729
 30
0.0
 10
39.231529295
 20
60.2416919295
 30
0.0
 10
39.2413630482
 20
60.3561229655
 30
0.0
 10
39.2315351021
 20
60.4705564727
 30
0.0
 10
39.202185692
 20
60.5837110901
 30
0.0
 10
39.1537505783
 20
60.6943998561
 30
0.0
 10
39.0868215834
 20
60.801528116
 30
0.0
 10
39.0021707829
 20
60.9041498421
 30
0.0
 10
38.8630713244
 20
61.0372670167
 30
0.0
 10
38.740134472
 20
61.1219173612
 30
0.0
 10
38.6523496933
 20
61.1726012784
 30
0.0
  0
SPLINE
  5
2A5
100
AcDbEntity
  8
0
100
AcDbSpline
 62
7
  6
BYLAYER
 70
0
 71
3
 72
32
 73
28
 74
0
 42
0.0000001
 43
0.0000001
 44
0.0000000001
 40
0.0
 40
0.0
 40
0.0
 40
0.0
 40
0.0309854458
 40
0.0603901141
 40
0.0881815189
 40
0.1144449936
 40
0.1393425134
 40
0.1631101819
 40
0.1860656384
 40
0.2085964156
 40
0.2311278848
 40
0.2540841057
 40
0.2778514515
 40
0.3027497321
 40
0.3290163427
 40
0.3568069731
 40
0.3861969845
 40
0.4171964175
 40
0.4837199057
 40
0.55549806
 40
0.6310515942
 40
0.7085723025
 40
0.7860914686
 40
0.8616463473
 40
0.9334242996
 40
0.9674549278
 40
1.0
 40
1.0
 40
1.0
 40
1.0
 10
35.8238928129
 20
61.1726191183
 30
0.0
 10
35.7787990862
 20
61.1465843985
 30
0.0
 10
35.6929588025
 20
61.0921604729
 30
0.0
 10
35.5755773612
 20
61.0013332242
 30
0.0
 10
35.4740561304
 20
60.9041485494
 30
0.0
 10
35.3894040434
 20
60.8015452271
 30
0.0
 10
35.3224892632
 20
60.6944080203
 30
0.0
 10
35.2740354022
 20
60.5837275578
 30
0.0
 10
35.2446927131
 20
60.4705693742
 30
0.0
 10
35.2348613732
 20
60.3561361992
 30
0.0
 10
35.2446923791
 20
60.241700776
 30
0.0
 10
35.2740456672
 20
60.1285443305
 30
0.0
 10
35.322484624
 20
60.017854666
 30
0.0
 10
35.3894203894
 20
59.9107232934
 30
0.0
 10
35.4740687164
 20
59.8081091258
 30
0.0
 10
35.5755879268
 20
59.7109576691
 30
0.0
 10
35.6929524059
 20
59.6200915771
 30
0.0
 10
35.8733281114
 20
59.505810289
 30
0.0
 10
36.132406983
 20
59.3851946191
 30
0.0
 10
36.4771723453
 20
59.2803938978
 30
0.0
 10
36.8504035694
 20
59.2159030489
 30
0.0
 10
37.2381120336
 20
59.1941408945
 30
0.0
 10
37.6258458004
 20
59.2159033063
 30
0.0
 10
37.9990104638
 20
59.2803853241
 30
0.0
 10
38.2915834126
 20
59.3692924676
 30
0.0
 10
38.5056058514
 20
59.4605699471
 30
0.0
 10
38.604968232
 20
59.5123109447
 30
0.0
 10
38.6523317135
 20
59.5396561002
 30
0.0
  0
SPLINE
  5
2A6
100
AcDbEntity
  8
0
100
AcDbSpline
 62
7
  6
BYLAYER
 70
0
 71
3
 72
9
 73
5
 74
0
 42
0.0000001
 43
0.0000001
 44
0.0000000001
 40
0.0
 40
0.0
 40
0.0
 40
0.0
 40
0.5063864477
 40
1.0
 40
1.0
 40
1.0
 40
1.0
 10
40.1583534662
 20
57.7793602827
 30
0.0
 10
40.1842527883
 20
57.8429138835
 30
0.0
 10
40.2243462755
 20
57.973319881
 30
0.0
 10
40.2381025062
 20
58.1091789949
 30
0.0
 10
40.2381068658
 20
58.1760761808
 30
0.0
  0
SPLINE
  5
2A7
100
AcDbEntity
  8
0
100
AcDbSpline
 62
7
  6
BYLAYER
 70
0
 71
3
 72
15
 73
11
 74
0
 42
0.0000001
 43
0.0000001
 44
0.0000000001
 40
0.0
 40
0.0
 40
0.0
 40
0.0
 40
0.1146903471
 40
0.2373433696
 40
0.3658064461
 40
0.4974513666
 40
0.6294487149
 40
0.7589363393
 40
0.8832252584
 40
1.0
 40
1.0
 40
1.0
 40
1.0
 10
38.8670443541
 20
57.1584869771
 30
0.0
 10
38.756357534
 20
57.0994378642
 30
0.0
 10
38.5176097909
 20
56.9949380681
 30
0.0
 10
38.1327453116
 20
56.8822821283
 30
0.0
 10
37.7193135884
 20
56.8109594375
 30
0.0
 10
37.2905269543
 20
56.7833131162
 30
0.0
 10
36.8600658752
 20
56.8001844023
 30
0.0
 10
36.4416573108
 20
56.8610642395
 30
0.0
 10
36.0487370576
 20
56.9639683659
 30
0.0
 10
35.8029755049
 20
57.0620996345
 30
0.0
 10
35.6881973155
 20
57.1181495859
 30
0.0
  0
SPLINE
  5
2A8
100
AcDbEntity
  8
0
100
AcDbSpline
 62
7
  6
BYLAYER
 70
0
 71
3
 72
15
 73
11
 74
0
 42
0.0000001
 43
0.0000001
 44
0.0000000001
 40
0.0
 40
0.0
 40
0.0
 40
0.0
 40
0.119972903
 40
0.2445390786
 40
0.3722123924
 40
0.5013792335
 40
0.6303642158
 40
0.7575004175
 40
0.8811986244
 40
1.0
 40
1.0
 40
1.0
 40
1.0
 10
35.6851810906
 20
56.6941631306
 30
0.0
 10
35.8075346404
 20
56.6514238081
 30
0.0
 10
36.0614131682
 20
56.5767590238
 30
0.0
 10
36.4562151656
 20
56.4981169438
 30
0.0
 10
36.8661014061
 20
56.4517776552
 30
0.0
 10
37.2831392211
 20
56.4386482021
 30
0.0
 10
37.6993092013
 20
56.458972026
 30
0.0
 10
38.1066131847
 20
56.5123698088
 30
0.0
 10
38.4971630122
 20
56.5977992256
 30
0.0
 10
38.7473926071
 20
56.6769232031
 30
0.0
 10
38.8676189195
 20
56.721825679
 30
0.0
  0
SPLINE
  5
2A9
100
AcDbEntity
  8
0
100
AcDbSpline
 62
7
  6
BYLAYER
 70
0
 71
3
 72
25
 73
21
 74
0
 42
0.0000001
 43
0.0000001
 44
0.0000000001
 40
0.0
 40
0.0
 40
0.0
 40
0.0
 40
0.0213317598
 40
0.0428920866
 40
0.0648970432
 40
0.0875418435
 40
0.1353165675
 40
0.1872171291
 40
0.2436545348
 40
0.3046023601
 40
0.3696903132
 40
0.4382880202
 40
0.5095749652
 40
0.5825996012
 40
0.6563314538
 40
0.7297084721
 40
0.8016858914
 40
0.8712765506
 40
0.9376191385
 40
1.0
 40
1.0
 40
1.0
 40
1.0
 10
34.2381157425
 20
59.5396351921
 30
0.0
 10
34.2381130144
 20
59.4970769872
 30
0.0
 10
34.2436067653
 20
59.411405362
 30
0.0
 10
34.2682250984
 20
59.2839692177
 30
0.0
 10
34.3090486666
 20
59.1579988843
 30
0.0
 10
34.3860844137
 20
58.9900748427
 30
0.0
 10
34.5242989848
 20
58.7866791657
 30
0.0
 10
34.7451021153
 20
58.5649931508
 30
0.0
 10
35.0187385397
 20
58.3650268659
 30
0.0
 10
35.3393480477
 20
58.1906543861
 30
0.0
 10
35.7002269804
 20
58.0452677715
 30
0.0
 10
36.0937901075
 20
57.931845457
 30
0.0
 10
36.5117173052
 20
57.8527493252
 30
0.0
 10
36.945129305
 20
57.8096502298
 30
0.0
 10
37.3847897389
 20
57.8034659847
 30
0.0
 10
37.8213242994
 20
57.8343238945
 30
0.0
 10
38.2454121687
 20
57.9015746189
 30
0.0
 10
38.6480734957
 20
58.0037872698
 30
0.0
 10
39.0206749834
 20
58.1388015047
 30
0.0
 10
39.2516611695
 20
58.2526863326
 30
0.0
 10
39.3594414387
 20
58.3149129286
 30
0.0
  0
SPLINE
  5
2AA
100
AcDbEntity
  8
0
100
AcDbSpline
 62
7
  6
BYLAYER
 70
0
 71
3
 72
15
 73
11
 74
0
 42
0.0000001
 43
0.0000001
 44
0.0000000001
 40
0.0
 40
0.0
 40
0.0
 40
0.0
 40
0.1485651372
 40
0.2895100829
 40
0.4227290316
 40
0.548639536
 40
0.6680017659
 40
0.7819392484
 40
0.8919875144
 40
1.0
 40
1.0
 40
1.0
 40
1.0
 10
39.3594414387
 20
58.3149129286
 30
0.0
 10
39.4270924091
 20
58.3539710014
 30
0.0
 10
39.5558602493
 20
58.4355995883
 30
0.0
 10
39.7319184986
 20
58.5718513034
 30
0.0
 10
39.8841974364
 20
58.7176122611
 30
0.0
 10
40.011162845
 20
58.8715261247
 30
0.0
 10
40.1115648501
 20
59.0322155365
 30
0.0
 10
40.1842185418
 20
59.1982612467
 30
0.0
 10
40.2282507391
 20
59.3679525862
 30
0.0
 10
40.2381051433
 20
59.4828415394
 30
0.0
 10
40.238108784
 20
59.5396351922
 30
0.0
  0
SPLINE
  5
2AB
100
AcDbEntity
  8
0
100
AcDbSpline
 62
7
  6
BYLAYER
 70
0
 71
3
 72
9
 73
5
 74
0
 42
0.0000001
 43
0.0000001
 44
0.0000000001
 40
0.0
 40
0.0
 40
0.0
 40
0.0
 40
0.4971949023
 40
1.0
 40
1.0
 40
1.0
 40
1.0
 10
40.3006067848
 20
58.0127756937
 30
0.0
 10
40.3006039202
 20
57.9681150875
 30
0.0
 10
40.2946790927
 20
57.8781944079
 30
0.0
 10
40.2771292627
 20
57.7898198716
 30
0.0
 10
40.2655902809
 20
57.7461542349
 30
0.0
  0
SPLINE
  5
2AC
100
AcDbEntity
  8
0
100
AcDbSpline
 62
7
  6
BYLAYER
 70
0
 71
3
 72
31
 73
27
 74
0
 42
0.0000001
 43
0.0000001
 44
0.0000000001
 40
0.0
 40
0.0
 40
0.0
 40
0.0
 40
0.0306630247
 40
0.0623975774
 40
0.0951169534
 40
0.1287429179
 40
0.1983203244
 40
0.2702804106
 40
0.3436412971
 40
0.4173564696
 40
0.4903645187
 40
0.5616352032
 40
0.630217431
 40
0.6952908001
 40
0.7263193143
 40
0.7562545453
 40
0.7850587049
 40
0.8127165365
 40
0.839235852
 40
0.8646532811
 40
0.8890343201
 40
0.9124784144
 40
0.9351176799
 40
0.9571178009
 40
0.9786730968
 40
1.0
 40
1.0
 40
1.0
 40
1.0
 10
42.1878803393
 20
54.3385879733
 30
0.0
 10
42.0642349147
 20
54.2672016803
 30
0.0
 10
41.8078495794
 20
54.1300719138
 30
0.0
 10
41.4054450315
 20
53.9445553582
 30
0.0
 10
40.9805097881
 20
53.7766294937
 30
0.0
 10
40.3803108731
 20
53.5751239651
 30
0.0
 10
39.5884570873
 20
53.3741169763
 30
0.0
 10
38.5989470606
 20
53.2172148982
 30
0.0
 10
37.5803589984
 20
53.1452054562
 30
0.0
 10
36.5544838501
 20
53.1596413021
 30
0.0
 10
35.5431945758
 20
53.2602057624
 30
0.0
 10
34.5680134606
 20
53.4447715689
 30
0.0
 10
33.6497658564
 20
53.7094070218
 30
0.0
 10
32.9369309564
 20
53.9965592969
 30
0.0
 10
32.4136878718
 20
54.2629848579
 30
0.0
 10
32.0534499717
 20
54.4755443294
 30
0.0
 10
31.721167622
 20
54.7028748401
 30
0.0
 10
31.4186018188
 20
54.9437596378
 30
0.0
 10
31.1474207463
 20
55.1969781432
 30
0.0
 10
30.9090691092
 20
55.4611741726
 30
0.0
 10
30.704916932
 20
55.7350195889
 30
0.0
 10
30.5360871339
 20
56.0170519894
 30
0.0
 10
30.403637405
 20
56.3058069567
 30
0.0
 10
30.308361881
 20
56.599714078
 30
0.0
 10
30.2509381883
 20
56.897073394
 30
0.0
 10
30.238114504
 20
57.0969708906
 30
0.0
 10
30.2381177764
 20
57.1962732518
 30
0.0
  0
SPLINE
  5
2AD
100
AcDbEntity
  8
0
100
AcDbSpline
 62
7
  6
BYLAYER
 70
0
 71
3
 72
17
 73
13
 74
0
 42
0.0000001
 43
0.0000001
 44
0.0000000001
 40
0.0
 40
0.0
 40
0.0
 40
0.0
 40
0.0534216437
 40
0.1071215519
 40
0.1613700725
 40
0.2164248777
 40
0.3297929028
 40
0.4489301637
 40
0.5750001156
 40
0.7087206364
 40
0.8504020766
 40
1.0
 40
1.0
 40
1.0
 40
1.0
 10
44.2381069324
 20
58.0127756764
 30
0.0
 10
44.2381092319
 20
58.0817425555
 30
0.0
 10
44.2319635536
 20
58.2201141477
 30
0.0
 10
44.2043410884
 20
58.426856477
 30
0.0
 10
44.1584204366
 20
58.6324979585
 30
0.0
 10
44.0721380973
 20
58.9070160824
 30
0.0
 10
43.9170772859
 20
59.2461906123
 30
0.0
 10
43.6628862397
 20
59.6348776271
 30
0.0
 10
43.3418308761
 20
60.005722472
 30
0.0
 10
42.9574885455
 20
60.3550776178
 30
0.0
 10
42.513971006
 20
60.6795826606
 30
0.0
 10
42.1903206907
 20
60.872199647
 30
0.0
 10
42.0203959465
 20
60.9639854441
 30
0.0
  0
SPLINE
  5
2AE
100
AcDbEntity
  8
0
100
AcDbSpline
 62
7
  6
BYLAYER
 70
0
 71
3
 72
12
 73
8
 74
0
 42
0.0000001
 43
0.0000001
 44
0.0000000001
 40
0.0
 40
0.0
 40
0.0
 40
0.0
 40
0.2662200503
 40
0.5235986343
 40
0.7689959862
 40
0.8864608959
 40
1.0
 40
1.0
 40
1.0
 40
1.0
 10
35.8247366354
 20
61.9709297059
 30
0.0
 10
35.496310136
 20
61.9318435337
 30
0.0
 10
34.8532210187
 20
61.8274385181
 30
0.0
 10
33.9266516461
 20
61.5894023563
 30
0.0
 10
33.2011939405
 20
61.3249971198
 30
0.0
 10
32.6637097948
 20
61.0765472183
 30
0.0
 10
32.4105039431
 20
60.9409895007
 30
0.0
 10
32.2883441872
 20
60.8704609538
 30
0.0
  0
SPLINE
  5
2AF
100
AcDbEntity
  8
0
100
AcDbSpline
 62
7
  6
BYLAYER
 70
0
 71
3
 72
15
 73
11
 74
0
 42
0.0000001
 43
0.0000001
 44
0.0000000001
 40
0.0
 40
0.0
 40
0.0
 40
0.0
 40
0.1485900228
 40
0.2895074911
 40
0.4227228133
 40
0.5486438275
 40
0.6680018043
 40
0.781938568
 40
0.8919876678
 40
1.0
 40
1.0
 40
1.0
 40
1.0
 10
32.2883441872
 20
60.8704609538
 30
0.0
 10
32.1304653501
 20
60.7793101087
 30
0.0
 10
31.8299959141
 20
60.5888651047
 30
0.0
 10
31.4192216643
 20
60.2709175558
 30
0.0
 10
31.0639264091
 20
59.9308259804
 30
0.0
 10
30.767638908
 20
59.5717144275
 30
0.0
 10
30.5334023055
 20
59.1967426915
 30
0.0
 10
30.363853828
 20
58.8093192328
 30
0.0
 10
30.2611238631
 20
58.4133685244
 30
0.0
 10
30.2381220125
 20
58.1452941134
 30
0.0
 10
30.238117594
 20
58.0127756678
 30
0.0
  0
SPLINE
  5
2B0
100
AcDbEntity
  8
0
100
AcDbSpline
 62
7
  6
BYLAYER
 70
0
 71
3
 72
15
 73
11
 74
0
 42
0.0000001
 43
0.0000001
 44
0.0000000001
 40
0.0
 40
0.0
 40
0.0
 40
0.0
 40
0.1188983014
 40
0.2427347124
 40
0.3700168634
 40
0.4991194837
 40
0.6283384547
 40
0.7559640581
 40
0.8803534395
 40
1.0
 40
1.0
 40
1.0
 40
1.0
 10
38.9019625174
 20
56.5283760975
 30
0.0
 10
38.7779596115
 20
56.4820475224
 30
0.0
 10
38.5197753381
 20
56.4005293817
 30
0.0
 10
38.1167334274
 20
56.3129058206
 30
0.0
 10
37.6963952049
 20
56.2586741983
 30
0.0
 10
37.2670670332
 20
56.2389141791
 30
0.0
 10
36.8371678836
 20
56.2540029959
 30
0.0
 10
36.4151327822
 20
56.3036531194
 30
0.0
 10
36.0092960555
 20
56.3868745487
 30
0.0
 10
35.748712861
 20
56.4655012992
 30
0.0
 10
35.6233114032
 20
56.5104321418
 30
0.0
  0
SPLINE
  5
2B1
100
AcDbEntity
  8
0
100
AcDbSpline
 62
7
  6
BYLAYER
 70
0
 71
3
 72
15
 73
11
 74
0
 42
0.0000001
 43
0.0000001
 44
0.0000000001
 40
0.0
 40
0.0
 40
0.0
 40
0.0
 40
0.1080119199
 40
0.218060698
 40
0.3319973063
 40
0.4513553207
 40
0.5772764122
 40
0.7104919553
 40
0.8514099255
 40
1.0
 40
1.0
 40
1.0
 40
1.0
 10
44.2381067501
 20
57.1962732582
 30
0.0
 10
44.2381023831
 20
57.063755322
 30
0.0
 10
44.2151006947
 20
56.7956818292
 30
0.0
 10
44.112371563
 20
56.3997320481
 30
0.0
 10
43.9428234287
 20
56.0123090241
 30
0.0
 10
43.7085871692
 20
55.6373371789
 30
0.0
 10
43.4123000521
 20
55.2782247804
 30
0.0
 10
43.0570041421
 20
54.9381324477
 30
0.0
 10
42.646229133
 20
54.6201843628
 30
0.0
 10
42.3457592271
 20
54.4297388476
 30
0.0
 10
42.1878803393
 20
54.3385879733
 30
0.0
  0
SPLINE
  5
2B2
100
AcDbEntity
  8
0
100
AcDbSpline
 62
7
  6
BYLAYER
 70
0
 71
3
 72
15
 73
11
 74
0
 42
0.0000001
 43
0.0000001
 44
0.0000000001
 40
0.0
 40
0.0
 40
0.0
 40
0.0
 40
0.1485900228
 40
0.2895074911
 40
0.4227228133
 40
0.5486438275
 40
0.6680018043
 40
0.781938568
 40
0.8919876678
 40
1.0
 40
1.0
 40
1.0
 40
1.0
 10
42.1878803393
 20
55.1550903905
 30
0.0
 10
42.3457591764
 20
55.2462412355
 30
0.0
 10
42.6462286124
 20
55.4366862395
 30
0.0
 10
43.0570028622
 20
55.7546337885
 30
0.0
 10
43.4122981174
 20
56.0947253638
 30
0.0
 10
43.7085856185
 20
56.4538369167
 30
0.0
 10
43.9428222209
 20
56.8288086527
 30
0.0
 10
44.1123706985
 20
57.2162321114
 30
0.0
 10
44.2151006634
 20
57.6121828198
 30
0.0
 10
44.238102514
 20
57.8802572308
 30
0.0
 10
44.2381069324
 20
58.0127756764
 30
0.0
  0
SPLINE
  5
2B3
100
AcDbEntity
  8
0
100
AcDbSpline
 62
7
  6
BYLAYER
 70
0
 71
3
 72
9
 73
5
 74
0
 42
0.0000001
 43
0.0000001
 44
0.0000000001
 40
0.0
 40
0.0
 40
0.0
 40
0.0
 40
0.5060681804
 40
1.0
 40
1.0
 40
1.0
 40
1.0
 10
40.2056472141
 20
58.4496547418
 30
0.0
 10
40.2244542902
 20
58.4070794507
 30
0.0
 10
40.2567981819
 20
58.3207172451
 30
0.0
 10
40.2781918404
 20
58.2309794644
 30
0.0
 10
40.2858384971
 20
58.1861996683
 30
0.0
  0
SPLINE
  5
2B4
100
AcDbEntity
  8
0
100
AcDbSpline
 62
7
  6
BYLAYER
 70
0
 71
3
 72
31
 73
27
 74
0
 42
0.0000001
 43
0.0000001
 44
0.0000000001
 40
0.0
 40
0.0
 40
0.0
 40
0.0
 40
0.0213269464
 40
0.0428822824
 40
0.0648824473
 40
0.087521758
 40
0.1109659134
 40
0.1353470234
 40
0.1607645378
 40
0.1872839372
 40
0.2149418471
 40
0.2437460544
 40
0.2736813025
 40
0.3047097844
 40
0.3697829853
 40
0.4383649776
 40
0.5096354421
 40
0.5826432841
 40
0.6563582377
 40
0.7297189795
 40
0.8016791012
 40
0.8712566792
 40
0.9048827363
 40
0.9376022613
 40
0.9693369427
 40
1.0
 40
1.0
 40
1.0
 40
1.0
 10
30.238117594
 20
58.0127756678
 30
0.0
 10
30.2381142831
 20
57.9134731053
 30
0.0
 10
30.2509384419
 20
57.7135752541
 30
0.0
 10
30.3083618912
 20
57.4162152928
 30
0.0
 10
30.4036381484
 20
57.1223077589
 30
0.0
 10
30.5360881392
 20
56.83355215
 30
0.0
 10
30.7049188322
 20
56.5515193083
 30
0.0
 10
30.9090717808
 20
56.2776732059
 30
0.0
 10
31.1474246233
 20
56.0134767501
 30
0.0
 10
31.4186067521
 20
55.7602576837
 30
0.0
 10
31.72117379
 20
55.5193728643
 30
0.0
 10
32.0534568553
 20
55.2920422215
 30
0.0
 10
32.413695287
 20
55.0794833485
 30
0.0
 10
32.9369377822
 20
54.81305853
 30
0.0
 10
33.649771094
 20
54.525907743
 30
0.0
 10
34.5680159903
 20
54.2612734694
 30
0.0
 10
35.5431940895
 20
54.0767083599
 30
0.0
 10
36.5544803421
 20
53.9761440166
 30
0.0
 10
37.5803528179
 20
53.9617077811
 30
0.0
 10
38.5989394005
 20
54.0337164578
 30
0.0
 10
39.5884498144
 20
54.1906179172
 30
0.0
 10
40.3803051358
 20
54.3916245909
 30
0.0
 10
40.9805059329
 20
54.5931305578
 30
0.0
 10
41.405442887
 20
54.7610567991
 30
0.0
 10
41.8078487123
 20
54.9465740377
 30
0.0
 10
42.0642347832
 20
55.0837040215
 30
0.0
 10
42.1878803393
 20
55.1550903905
 30
0.0
  0
SPLINE
  5
2B5
100
AcDbEntity
  8
0
100
AcDbSpline
 62
7
  6
BYLAYER
 70
0
 71
3
 72
11
 73
7
 74
0
 42
0.0000001
 43
0.0000001
 44
0.0000000001
 40
0.0
 40
0.0
 40
0.0
 40
0.0
 40
0.2608180466
 40
0.5156960473
 40
0.7626639184
 40
1.0
 40
1.0
 40
1.0
 40
1.0
 10
14.4378631336
 20
37.228340987
 30
0.0
 10
14.1479513775
 20
37.1944610879
 30
0.0
 10
13.5767359543
 20
37.1086047191
 30
0.0
 10
12.7427147461
 20
36.9240494347
 30
0.0
 10
11.9494225789
 20
36.6869732443
 30
0.0
 10
11.4430815299
 20
36.4916609632
 30
0.0
 10
11.1996639112
 20
36.3853864602
 30
0.0
  0
SPLINE
  5
2B6
100
AcDbEntity
  8
0
100
AcDbSpline
 62
7
  6
BYLAYER
 70
0
 71
3
 72
11
 73
7
 74
0
 42
0.0000001
 43
0.0000001
 44
0.0000000001
 40
0.0
 40
0.0
 40
0.0
 40
0.0
 40
0.2308603753
 40
0.4762892928
 40
0.7337281535
 40
1.0
 40
1.0
 40
1.0
 40
1.0
 10
19.5250428687
 20
38.8045941982
 30
0.0
 10
19.1678780825
 20
38.5983862437
 30
0.0
 10
18.4027561433
 20
38.2207744795
 30
0.0
 10
17.1687535543
 20
37.7723724054
 30
0.0
 10
15.8355043931
 20
37.4319377469
 30
0.0
 10
14.9103260361
 20
37.2835543239
 30
0.0
 10
14.4378631336
 20
37.228340987
 30
0.0
  0
SPLINE
  5
2B7
100
AcDbEntity
  8
0
100
AcDbSpline
 62
7
  6
BYLAYER
 70
0
 71
3
 72
15
 73
11
 74
0
 42
0.0000001
 43
0.0000001
 44
0.0000000001
 40
0.0
 40
0.0
 40
0.0
 40
0.0
 40
0.1437766861
 40
0.2811299814
 40
0.4122091583
 40
0.5375450338
 40
0.6579137166
 40
0.7742962736
 40
0.8878719887
 40
1.0
 40
1.0
 40
1.0
 40
1.0
 10
9.6440354693
 20
35.4872493216
 30
0.0
 10
9.5168733192
 20
35.3901637629
 30
0.0
 10
9.275621503
 20
35.1903362794
 30
0.0
 10
8.9491587028
 20
34.8672314633
 30
0.0
 10
8.6687865192
 20
34.5295148669
 30
0.0
 10
8.4364345702
 20
34.1794741868
 30
0.0
 10
8.2538097893
 20
33.8192253452
 30
0.0
 10
8.1221646009
 20
33.4511166212
 30
0.0
 10
8.0427728686
 20
33.0776776304
 30
0.0
 10
8.02500346
 20
32.826182377
 30
0.0
 10
8.025003456
 20
32.7014123819
 30
0.0
  0
SPLINE
  5
2B8
100
AcDbEntity
  8
0
100
AcDbSpline
 62
7
  6
BYLAYER
 70
0
 71
3
 72
23
 73
19
 74
0
 42
0.0000001
 43
0.0000001
 44
0.0000000001
 40
0.0
 40
0.0
 40
0.0
 40
0.0
 40
0.062383485
 40
0.1287493631
 40
0.1983469069
 40
0.2703368273
 40
0.343725183
 40
0.4174679277
 40
0.4905049113
 40
0.5618042011
 40
0.6304128941
 40
0.6955105875
 40
0.7564679687
 40
0.8129146566
 40
0.8648229906
 40
0.9126048179
 40
0.9571862369
 40
1.0
 40
1.0
 40
1.0
 40
1.0
 10
18.2170372948
 20
31.4358660429
 30
0.0
 10
18.1056777701
 20
31.3715729751
 30
0.0
 10
17.8669758219
 20
31.2539029475
 30
0.0
 10
17.481961997
 20
31.1143640398
 30
0.0
 10
17.0658564481
 20
31.0087551165
 30
0.0
 10
16.6276433796
 20
30.9392520649
 30
0.0
 10
16.1765584125
 20
30.9073713663
 30
0.0
 10
15.7222455715
 20
30.9137704999
 30
0.0
 10
15.2743860919
 20
30.9583022965
 30
0.0
 10
14.8425247989
 20
31.0400312564
 30
0.0
 10
14.4358454535
 20
31.1572431767
 30
0.0
 10
14.0629426752
 20
31.3074780748
 30
0.0
 10
13.7316447895
 20
31.4876643401
 30
0.0
 10
13.4488888334
 20
31.6942664464
 30
0.0
 10
13.2207107852
 20
31.9234142787
 30
0.0
 10
13.0523618119
 20
32.1710439121
 30
0.0
 10
12.9486055982
 20
32.4322554451
 30
0.0
 10
12.9250012425
 20
32.6131633689
 30
0.0
 10
12.9250009418
 20
32.7014123821
 30
0.0
  0
SPLINE
  5
2B9
100
AcDbEntity
  8
0
100
AcDbSpline
 62
7
  6
BYLAYER
 70
0
 71
3
 72
18
 73
14
 74
0
 42
0.0000001
 43
0.0000001
 44
0.0000000001
 40
0.0
 40
0.0
 40
0.0
 40
0.0
 40
0.1016737747
 40
0.1576849522
 40
0.2169019348
 40
0.2790131767
 40
0.3435993121
 40
0.4780542273
 40
0.6157417836
 40
0.7516752109
 40
0.8810500727
 40
0.9420648787
 40
1.0
 40
1.0
 40
1.0
 40
1.0
 10
18.77302963
 20
31.8966889293
 30
0.0
 10
18.6533991339
 20
32.0289813079
 30
0.0
 10
18.4366132008
 20
32.2067363179
 30
0.0
 10
18.1082223981
 20
32.3992873348
 30
0.0
 10
17.825491338
 20
32.5303566209
 30
0.0
 10
17.5184643639
 20
32.641412677
 30
0.0
 10
17.0762285557
 20
32.7625734852
 30
0.0
 10
16.4904566991
 20
32.8541099024
 30
0.0
 10
15.7726498493
 20
32.8683409361
 30
0.0
 10
15.0681933182
 20
32.7876355323
 30
0.0
 10
14.5119763217
 20
32.6420023568
 30
0.0
 10
14.1072165208
 20
32.4797365427
 30
0.0
 10
13.9209736248
 20
32.384770006
 30
0.0
 10
13.8329569989
 20
32.3339538866
 30
0.0
  0
SPLINE
  5
2BA
100
AcDbEntity
  8
0
100
AcDbSpline
 62
7
  6
BYLAYER
 70
0
 71
3
 72
14
 73
10
 74
0
 42
0.0000001
 43
0.0000001
 44
0.0000000001
 40
0.0
 40
0.0
 40
0.0
 40
0.0
 40
0.1080435288
 40
0.2181250732
 40
0.3321054303
 40
0.4514947181
 40
0.5774397863
 40
0.7107253086
 40
1.0
 40
1.0
 40
1.0
 40
1.0
 10
19.1249933518
 20
32.7014123816
 30
0.0
 10
19.1249935517
 20
32.6427277113
 30
0.0
 10
19.1147829725
 20
32.5240160737
 30
0.0
 10
19.0693253655
 20
32.3486571699
 30
0.0
 10
18.9942007018
 20
32.177101086
 30
0.0
 10
18.8905091996
 20
32.0110354244
 30
0.0
 10
18.7592771229
 20
31.8519866458
 30
0.0
 10
18.5436826566
 20
31.6456351959
 30
0.0
 10
18.3531089376
 20
31.5144265735
 30
0.0
 10
18.2170372948
 20
31.4358660429
 30
0.0
  0
SPLINE
  5
2BB
100
AcDbEntity
  8
0
100
AcDbSpline
 62
7
  6
BYLAYER
 70
0
 71
3
 72
15
 73
11
 74
0
 42
0.0000001
 43
0.0000001
 44
0.0000000001
 40
0.0
 40
0.0
 40
0.0
 40
0.0
 40
0.1437769978
 40
0.2811305178
 40
0.4122098211
 40
0.5375457235
 40
0.6579143373
 40
0.7742967403
 40
0.8878722387
 40
1.0
 40
1.0
 40
1.0
 40
1.0
 10
9.6440756487
 20
28.2825399321
 30
0.0
 10
9.5169104891
 20
28.3796261081
 30
0.0
 10
9.2756529186
 20
28.5794550144
 30
0.0
 10
8.9491821218
 20
28.9025626855
 30
0.0
 10
8.6688029629
 20
29.2402826793
 30
0.0
 10
8.4364451539
 20
29.5903272255
 30
0.0
 10
8.2538157081
 20
29.9505803267
 30
0.0
 10
8.122167126
 20
30.3186936219
 30
0.0
 10
8.0427733343
 20
30.6921373978
 30
0.0
 10
8.0250034563
 20
30.9436359436
 30
0.0
 10
8.025003456
 20
31.0684075476
 30
0.0
  0
SPLINE
  5
2BC
100
AcDbEntity
  8
0
100
AcDbSpline
 62
7
  6
BYLAYER
 70
0
 71
3
 72
15
 73
11
 74
0
 42
0.0000001
 43
0.0000001
 44
0.0000000001
 40
0.0
 40
0.0
 40
0.0
 40
0.0
 40
0.1175251583
 40
0.241333262
 40
0.369537066
 40
0.4999995709
 40
0.6304621332
 40
0.7586661071
 40
0.8824744818
 40
1.0
 40
1.0
 40
1.0
 40
1.0
 10
20.8503303824
 20
27.3844334694
 30
0.0
 10
20.4951421383
 20
27.2293606594
 30
0.0
 10
19.7451397018
 20
26.9568669523
 30
0.0
 10
18.5595311296
 20
26.6665490693
 30
0.0
 10
17.3087360443
 20
26.4892856171
 30
0.0
 10
16.0250302313
 20
26.4296983936
 30
0.0
 10
14.7413235761
 20
26.4892795114
 30
0.0
 10
13.4905259967
 20
26.6665370126
 30
0.0
 10
12.3049133326
 20
26.9568492366
 30
0.0
 10
11.5549073601
 20
27.2293392416
 30
0.0
 10
11.199717044
 20
27.3844102722
 30
0.0
  0
SPLINE
  5
2BD
100
AcDbEntity
  8
0
100
AcDbSpline
 62
7
  6
BYLAYER
 70
0
 71
3
 72
11
 73
7
 74
0
 42
0.0000001
 43
0.0000001
 44
0.0000000001
 40
0.0
 40
0.0
 40
0.0
 40
0.0
 40
0.2283089626
 40
0.4694933666
 40
0.726232908
 40
1.0
 40
1.0
 40
1.0
 40
1.0
 10
23.8659928023
 20
30.1521260925
 30
0.0
 10
23.8054766753
 20
29.9795106008
 30
0.0
 10
23.6479637778
 20
29.6354913727
 30
0.0
 10
23.3216403926
 20
29.151158331
 30
0.0
 10
22.9045491918
 20
28.6922485432
 30
0.0
 10
22.5802934423
 20
28.4156713283
 30
0.0
 10
22.4059588243
 20
28.2825706079
 30
0.0
  0
SPLINE
  5
2BE
100
AcDbEntity
  8
0
100
AcDbSpline
 62
7
  6
BYLAYER
 70
0
 71
3
 72
13
 73
9
 74
0
 42
0.0000001
 43
0.0000001
 44
0.0000000001
 40
0.0
 40
0.0
 40
0.0
 40
0.0
 40
0.2811246369
 40
0.540204628
 40
0.661881332
 40
0.7787130652
 40
0.8912173653
 40
1.0
 40
1.0
 40
1.0
 40
1.0
 10
26.5961401201
 20
33.0891818188
 30
0.0
 10
26.264146882
 20
32.8975065775
 30
0.0
 10
25.6475339081
 20
32.48997801
 30
0.0
 10
24.972471029
 20
31.8844592499
 30
0.0
 10
24.5316333536
 20
31.3674981416
 30
0.0
 10
24.2565928296
 20
30.9747641749
 30
0.0
 10
24.0320474869
 20
30.5711213591
 30
0.0
 10
23.9150697734
 20
30.2921126701
 30
0.0
 10
23.8659928023
 20
30.1521260925
 30
0.0
  0
SPLINE
  5
2BF
100
AcDbEntity
  8
0
100
AcDbSpline
 62
7
  6
BYLAYER
 70
0
 71
3
 72
9
 73
5
 74
0
 42
0.0000001
 43
0.0000001
 44
0.0000000001
 40
0.0
 40
0.0
 40
0.0
 40
0.0
 40
0.5212028899
 40
1.0
 40
1.0
 40
1.0
 40
1.0
 10
13.8329569989
 20
32.3339538866
 30
0.0
 10
13.7259695989
 20
32.2721850512
 30
0.0
 10
13.5278465969
 20
32.1405618799
 30
0.0
 10
13.3519140246
 20
31.9797487361
 30
0.0
 10
13.2758747537
 20
31.8955031126
 30
0.0
  0
SPLINE
  5
2C0
100
AcDbEntity
  8
0
100
AcDbSpline
 62
7
  6
BYLAYER
 70
0
 71
3
 72
13
 73
9
 74
0
 42
0.0000001
 43
0.0000001
 44
0.0000000001
 40
0.0
 40
0.0
 40
0.0
 40
0.0
 40
0.1087826347
 40
0.2212869348
 40
0.338118668
 40
0.459795372
 40
0.7188753631
 40
1.0
 40
1.0
 40
1.0
 40
1.0
 10
23.8659928023
 20
31.7851309267
 30
0.0
 10
23.9150697734
 20
31.9251175044
 30
0.0
 10
24.0320474869
 20
32.2041261934
 30
0.0
 10
24.2565928296
 20
32.6077690092
 30
0.0
 10
24.5316333536
 20
33.0005029759
 30
0.0
 10
24.972471029
 20
33.5174640842
 30
0.0
 10
25.6475339081
 20
34.1229828443
 30
0.0
 10
26.264146882
 20
34.5305114118
 30
0.0
 10
26.5961401201
 20
34.722186653
 30
0.0
  0
SPLINE
  5
2C1
100
AcDbEntity
  8
0
100
AcDbSpline
 62
7
  6
BYLAYER
 70
0
 71
3
 72
23
 73
19
 74
0
 42
0.0000001
 43
0.0000001
 44
0.0000000001
 40
0.0
 40
0.0
 40
0.0
 40
0.0
 40
0.062383485
 40
0.1287493631
 40
0.1983469069
 40
0.2703368273
 40
0.343725183
 40
0.4174679277
 40
0.4905049113
 40
0.5618042011
 40
0.6304128941
 40
0.6955105875
 40
0.7564679687
 40
0.8129146566
 40
0.8648229906
 40
0.9126048179
 40
0.9571862369
 40
1.0
 40
1.0
 40
1.0
 40
1.0
 10
13.8329569989
 20
33.9669587209
 30
0.0
 10
13.9443165235
 20
34.0312517887
 30
0.0
 10
14.1830184718
 20
34.1489218162
 30
0.0
 10
14.5680322966
 20
34.288460724
 30
0.0
 10
14.9841378456
 20
34.3940696473
 30
0.0
 10
15.4223509141
 20
34.4635726988
 30
0.0
 10
15.8734358812
 20
34.4954533975
 30
0.0
 10
16.3277487221
 20
34.4890542639
 30
0.0
 10
16.7756082017
 20
34.4445224673
 30
0.0
 10
17.2074694947
 20
34.3627935074
 30
0.0
 10
17.6141488402
 20
34.2455815871
 30
0.0
 10
17.9870516185
 20
34.095346689
 30
0.0
 10
18.3183495042
 20
33.9151604237
 30
0.0
 10
18.6011054603
 20
33.7085583173
 30
0.0
 10
18.8292835085
 20
33.479410485
 30
0.0
 10
18.9976324818
 20
33.2317808517
 30
0.0
 10
19.1013886955
 20
32.9705693187
 30
0.0
 10
19.1249930512
 20
32.7896613949
 30
0.0
 10
19.1249933518
 20
32.7014123816
 30
0.0
  0
SPLINE
  5
2C2
100
AcDbEntity
  8
0
100
AcDbSpline
 62
7
  6
BYLAYER
 70
0
 71
3
 72
14
 73
10
 74
0
 42
0.0000001
 43
0.0000001
 44
0.0000000001
 40
0.0
 40
0.0
 40
0.0
 40
0.0
 40
0.1080435288
 40
0.2181250732
 40
0.3321054303
 40
0.4514947181
 40
0.5774397863
 40
0.7107253086
 40
1.0
 40
1.0
 40
1.0
 40
1.0
 10
12.9250009418
 20
32.7014123821
 30
0.0
 10
12.9250007419
 20
32.7600970525
 30
0.0
 10
12.9352113211
 20
32.87880869
 30
0.0
 10
12.9806689281
 20
33.0541675939
 30
0.0
 10
13.0557935918
 20
33.2257236778
 30
0.0
 10
13.159485094
 20
33.3917893394
 30
0.0
 10
13.2907171707
 20
33.5508381179
 30
0.0
 10
13.506311637
 20
33.7571895679
 30
0.0
 10
13.6968853561
 20
33.8883981902
 30
0.0
 10
13.8329569989
 20
33.9669587209
 30
0.0
  0
SPLINE
  5
2C3
100
AcDbEntity
  8
0
100
AcDbSpline
 62
7
  6
BYLAYER
 70
0
 71
3
 72
15
 73
11
 74
0
 42
0.0000001
 43
0.0000001
 44
0.0000000001
 40
0.0
 40
0.0
 40
0.0
 40
0.0
 40
0.1121277641
 40
0.2257032646
 40
0.3420856689
 40
0.4624542848
 40
0.5877901874
 40
0.7188694861
 40
0.8562230009
 40
1.0
 40
1.0
 40
1.0
 40
1.0
 10
8.025003456
 20
32.7014123819
 30
0.0
 10
8.025003452
 20
32.5766407747
 30
0.0
 10
8.0427733367
 20
32.3251422233
 30
0.0
 10
8.1221671279
 20
31.9516984406
 30
0.0
 10
8.2538157131
 20
31.5835851394
 30
0.0
 10
8.4364451674
 20
31.223332038
 30
0.0
 10
8.6688029764
 20
30.8732874948
 30
0.0
 10
8.9491821293
 20
30.5355675098
 30
0.0
 10
9.2756529181
 20
30.2124598436
 30
0.0
 10
9.5169104879
 20
30.0126309432
 30
0.0
 10
9.6440756487
 20
29.9155447664
 30
0.0
  0
SPLINE
  5
2C4
100
AcDbEntity
  8
0
100
AcDbSpline
 62
7
  6
BYLAYER
 70
0
 71
3
 72
11
 73
7
 74
0
 42
0.0000001
 43
0.0000001
 44
0.0000000001
 40
0.0
 40
0.0
 40
0.0
 40
0.0
 40
0.273767092
 40
0.5305066334
 40
0.7716910374
 40
1.0
 40
1.0
 40
1.0
 40
1.0
 10
22.4059588243
 20
29.9155754421
 30
0.0
 10
22.5802934423
 20
30.0486761626
 30
0.0
 10
22.9045491918
 20
30.3252533775
 30
0.0
 10
23.3216403926
 20
30.7841631653
 30
0.0
 10
23.6479637778
 20
31.268496207
 30
0.0
 10
23.8054766753
 20
31.6125154351
 30
0.0
 10
23.8659928023
 20
31.7851309267
 30
0.0
  0
SPLINE
  5
2C5
100
AcDbEntity
  8
0
100
AcDbSpline
 62
7
  6
BYLAYER
 70
0
 71
3
 72
15
 73
11
 74
0
 42
0.0000001
 43
0.0000001
 44
0.0000000001
 40
0.0
 40
0.0
 40
0.0
 40
0.0
 40
0.117525524
 40
0.2413339051
 40
0.3695378818
 40
0.5000004454
 40
0.630462949
 40
0.7586667501
 40
0.8824748474
 40
1.0
 40
1.0
 40
1.0
 40
1.0
 10
11.199717044
 20
29.0174151064
 30
0.0
 10
11.5549073775
 20
28.8623440683
 30
0.0
 10
12.3049133897
 20
28.5898540544
 30
0.0
 10
13.4905261033
 20
28.299541824
 30
0.0
 10
14.7413237195
 20
28.1222843336
 30
0.0
 10
16.0250303845
 20
28.0627032279
 30
0.0
 10
17.3087361877
 20
28.1222904634
 30
0.0
 10
18.5595312361
 20
28.2995539263
 30
0.0
 10
19.7451397588
 20
28.589871803
 30
0.0
 10
20.4951421557
 20
28.8623655013
 30
0.0
 10
20.8503303824
 20
29.0174383036
 30
0.0
  0
SPLINE
  5
2C6
100
AcDbEntity
  8
0
100
AcDbSpline
 62
7
  6
BYLAYER
 70
0
 71
3
 72
23
 73
19
 74
0
 42
0.0000001
 43
0.0000001
 44
0.0000000001
 40
0.0
 40
0.0
 40
0.0
 40
0.0
 40
0.0558443388
 40
0.1142085242
 40
0.1748269676
 40
0.2374173037
 40
0.3016330594
 40
0.3670960212
 40
0.4334037219
 40
0.5001353192
 40
0.5668620189
 40
0.6331554681
 40
0.6985956298
 40
0.7627793143
 40
0.8253295605
 40
0.8859046147
 40
0.944207769
 40
1.0
 40
1.0
 40
1.0
 40
1.0
 10
54.9158553919
 20
38.8252302207
 30
0.0
 10
54.322809088
 20
38.4828368213
 30
0.0
 10
53.0790449845
 20
37.8351192747
 30
0.0
 10
51.1052291585
 20
36.9938031641
 30
0.0
 10
48.9983705744
 20
36.2681622248
 30
0.0
 10
46.7789871168
 20
35.6650677213
 30
0.0
 10
44.4680882139
 20
35.1902718851
 30
0.0
 10
42.0878629937
 20
34.8482865654
 30
0.0
 10
39.6611157346
 20
34.6423690723
 30
0.0
 10
37.2111147556
 20
34.57454942
 30
0.0
 10
34.7613762255
 20
34.6454423819
 30
0.0
 10
32.3354004261
 20
34.8543494531
 30
0.0
 10
29.956455995
 20
35.1992937482
 30
0.0
 10
27.6473436697
 20
35.6769961195
 30
0.0
 10
25.4301764443
 20
36.2828467776
 30
0.0
 10
23.326094985
 20
37.0111106161
 30
0.0
 10
21.3553871292
 20
37.8548312478
 30
0.0
 10
20.1140276322
 20
38.5041719639
 30
0.0
 10
19.5221771253
 20
38.8473562031
 30
0.0
  0
SPLINE
  5
2C7
100
AcDbEntity
  8
0
100
AcDbSpline
 62
7
  6
BYLAYER
 70
0
 71
3
 72
17
 73
13
 74
0
 42
0.0000001
 43
0.0000001
 44
0.0000000001
 40
0.0
 40
0.0
 40
0.0
 40
0.0
 40
0.1485103617
 40
0.289325388
 40
0.4224890512
 40
0.5483743284
 40
0.6677237193
 40
0.7816757593
 40
0.8371357847
 40
0.8918482441
 40
0.9460527926
 40
1.0
 40
1.0
 40
1.0
 40
1.0
 10
19.5221771253
 20
38.8473562031
 30
0.0
 10
18.9610201113
 20
39.1727428349
 30
0.0
 10
17.8932137552
 20
39.8522542709
 30
0.0
 10
16.433688807
 20
40.9862284251
 30
0.0
 10
15.1714463971
 20
42.1985331675
 30
0.0
 10
14.1189119374
 20
43.4783853135
 30
0.0
 10
13.2868817911
 20
44.8141595892
 30
0.0
 10
12.7804001278
 20
45.9751437393
 30
0.0
 10
12.4985475062
 20
46.9135868794
 30
0.0
 10
12.3484627401
 20
47.6165674569
 30
0.0
 10
12.2581990719
 20
48.3229792847
 30
0.0
 10
12.2381241956
 20
48.795615871
 30
0.0
 10
12.2381319621
 20
49.0312490717
 30
0.0
  0
SPLINE
  5
2C8
100
AcDbEntity
  8
0
100
AcDbSpline
 62
7
  6
BYLAYER
 70
0
 71
3
 72
15
 73
11
 74
0
 42
0.0000001
 43
0.0000001
 44
0.0000000001
 40
0.0
 40
0.0
 40
0.0
 40
0.0
 40
0.1485900489
 40
0.2895075463
 40
0.4227228277
 40
0.5486437887
 40
0.6680017403
 40
0.7819385119
 40
0.89198764
 40
1.0
 40
1.0
 40
1.0
 40
1.0
 10
19.5603691346
 20
67.402292118
 30
0.0
 10
18.9965160461
 20
67.0767533288
 30
0.0
 10
17.9234107727
 20
66.396592381
 30
0.0
 10
16.4563597789
 20
65.2610654503
 30
0.0
 10
15.187448415
 20
64.0464528156
 30
0.0
 10
14.1292790912
 20
62.7639119782
 30
0.0
 10
13.2927198616
 20
61.4247275294
 30
0.0
 10
12.6871895256
 20
60.0410722965
 30
0.0
 10
12.320296571
 20
58.6269623875
 30
0.0
 10
12.238147109
 20
57.6695535236
 30
0.0
 10
12.2381313304
 20
57.1962732395
 30
0.0
  0
SPLINE
  5
2C9
100
AcDbEntity
  8
0
100
AcDbSpline
 62
7
  6
BYLAYER
 70
0
 71
3
 72
19
 73
15
 74
0
 42
0.0000001
 43
0.0000001
 44
0.0000000001
 40
0.0
 40
0.0
 40
0.0
 40
0.0
 40
0.0569459777
 40
0.1160289059
 40
0.1769875854
 40
0.2395762134
 40
0.3684094618
 40
0.4999995227
 40
0.6315896486
 40
0.7604230882
 40
0.8230118551
 40
0.8839706996
 40
0.9430538156
 40
1.0
 40
1.0
 40
1.0
 40
1.0
 10
50.8115958137
 20
48.1350738945
 30
0.0
 10
50.3361167273
 20
47.897661503
 30
0.0
 10
49.3492945366
 20
47.4493424632
 30
0.0
 10
47.8025004754
 20
46.8669300322
 30
0.0
 10
46.1721664499
 20
46.3661708646
 30
0.0
 10
43.8828958748
 20
45.8074167892
 30
0.0
 10
40.8982084868
 20
45.3405604073
 30
0.0
 10
37.2381981942
 20
45.1537158126
 30
0.0
 10
33.5781852326
 20
45.3405429968
 30
0.0
 10
30.5934919062
 20
45.8073850683
 30
0.0
 10
28.3042138708
 20
46.3661280268
 30
0.0
 10
26.6738726513
 20
46.8668793737
 30
0.0
 10
25.1270702268
 20
47.4492843813
 30
0.0
 10
24.1402418087
 20
47.8975985865
 30
0.0
 10
23.6647593997
 20
48.1350086415
 30
0.0
  0
SPLINE
  5
2CA
100
AcDbEntity
  8
0
100
AcDbSpline
 62
7
  6
BYLAYER
 70
0
 71
3
 72
16
 73
12
 74
0
 42
0.0000001
 43
0.0000001
 44
0.0000000001
 40
0.0
 40
0.0
 40
0.0
 40
0.0
 40
0.1461660591
 40
0.2852390547
 40
0.4173117031
 40
0.4808965379
 40
0.542943335
 40
0.66279281
 40
0.7779731235
 40
0.8898453422
 40
1.0
 40
1.0
 40
1.0
 40
1.0
 10
21.5434302242
 20
49.3597309051
 30
0.0
 10
21.1499807449
 20
49.6223844941
 30
0.0
 10
20.4024607394
 20
50.1664509423
 30
0.0
 10
19.3860470547
 20
51.0587991392
 30
0.0
 10
18.6469459133
 20
51.8540188656
 30
0.0
 10
18.1330421791
 20
52.5115008735
 30
0.0
 10
17.6814070722
 20
53.165601242
 30
0.0
 10
17.2086428854
 20
54.0061303352
 30
0.0
 10
16.7945314572
 20
55.0537203315
 30
0.0
 10
16.544160156
 20
56.1199795346
 30
0.0
 10
16.4881225977
 20
56.8397596689
 30
0.0
 10
16.4881226022
 20
57.196273255
 30
0.0
  0
SPLINE
  5
2CB
100
AcDbEntity
  8
0
100
AcDbSpline
 62
7
  6
BYLAYER
 70
0
 71
3
 72
13
 73
9
 74
0
 42
0.0000001
 43
0.0000001
 44
0.0000000001
 40
0.0
 40
0.0
 40
0.0
 40
0.0
 40
0.2777177295
 40
0.533057712
 40
0.65393049
 40
0.771323584
 40
0.8862883303
 40
1.0
 40
1.0
 40
1.0
 40
1.0
 10
30.6209056807
 20
59.791910565
 30
0.0
 10
30.4069160334
 20
59.6100704172
 30
0.0
 10
30.0214228892
 20
59.2292005224
 30
0.0
 10
29.6431811016
 20
58.6807114339
 30
0.0
 10
29.4323164159
 20
58.2272186728
 30
0.0
 10
29.3205761937
 20
57.8870312255
 30
0.0
 10
29.253144328
 20
57.5427571561
 30
0.0
 10
29.2381316613
 20
57.3112533547
 30
0.0
 10
29.2381316621
 20
57.196273255
 30
0.0
  0
SPLINE
  5
2CC
100
AcDbEntity
  8
0
100
AcDbSpline
 62
7
  6
BYLAYER
 70
0
 71
3
 72
16
 73
12
 74
0
 42
0.0000001
 43
0.0000001
 44
0.0000000001
 40
0.0
 40
0.0
 40
0.0
 40
0.0
 40
0.1101549071
 40
0.2220273395
 40
0.3372078012
 40
0.4570573384
 40
0.51910413
 40
0.582688935
 40
0.7147614536
 40
0.853834232
 40
1.0
 40
1.0
 40
1.0
 40
1.0
 10
57.9881019243
 20
57.196273255
 30
0.0
 10
57.9881019199
 20
56.8397638458
 30
0.0
 10
57.9320657129
 20
56.1199922984
 30
0.0
 10
57.6817003087
 20
55.0537454849
 30
0.0
 10
57.2675985821
 20
54.0061671834
 30
0.0
 10
56.7948452188
 20
53.1656467578
 30
0.0
 10
56.3432203305
 20
52.5115527362
 30
0.0
 10
55.829328328
 20
51.8540770503
 30
0.0
 10
55.0902438717
 20
51.0588642362
 30
0.0
 10
54.0738525243
 20
50.1665224098
 30
0.0
 10
53.3263484801
 20
49.6224588082
 30
0.0
 10
52.9329073253
 20
49.3598063561
 30
0.0
  0
SPLINE
  5
2CD
100
AcDbEntity
  8
0
100
AcDbSpline
 62
7
  6
BYLAYER
 70
0
 71
3
 72
13
 73
9
 74
0
 42
0.0000001
 43
0.0000001
 44
0.0000000001
 40
0.0
 40
0.0
 40
0.0
 40
0.0
 40
0.1137114225
 40
0.2286759531
 40
0.3460688924
 40
0.4669415972
 40
0.7222817199
 40
1.0
 40
1.0
 40
1.0
 40
1.0
 10
45.2380928643
 20
57.196273255
 30
0.0
 10
45.2380928635
 20
57.3112549626
 30
0.0
 10
45.2230797721
 20
57.5427620432
 30
0.0
 10
45.155646015
 20
57.8870409051
 30
0.0
 10
45.043902658
 20
58.2272329622
 30
0.0
 10
44.8330320441
 20
58.6807318057
 30
0.0
 10
44.4547797061
 20
59.2292275678
 30
0.0
 10
44.0692765462
 20
59.6101008214
 30
0.0
 10
43.8552814096
 20
59.7919423765
 30
0.0
  0
SPLINE
  5
2CE
100
AcDbEntity
  8
0
100
AcDbSpline
 62
7
  6
BYLAYER
 70
0
 71
3
 72
15
 73
11
 74
0
 42
0.0000001
 43
0.0000001
 44
0.0000000001
 40
0.0
 40
0.0
 40
0.0
 40
0.0
 40
0.1080119515
 40
0.2180607612
 40
0.3319973769
 40
0.4513553622
 40
0.5772763976
 40
0.7104918967
 40
0.8514098945
 40
1.0
 40
1.0
 40
1.0
 40
1.0
 10
62.2380925644
 20
49.0312490957
 30
0.0
 10
62.2380769651
 20
48.557970614
 30
0.0
 10
62.1559280702
 20
47.6005649978
 30
0.0
 10
61.789038061
 20
46.1864583787
 30
0.0
 10
61.1835089614
 20
44.8028046987
 30
0.0
 10
60.346950964
 20
43.4636198906
 30
0.0
 10
59.2887830188
 20
42.1810760838
 30
0.0
 10
58.0198693526
 20
40.9664607549
 30
0.0
 10
56.5528156442
 20
39.8309319089
 30
0.0
 10
55.4797086803
 20
39.1507691253
 30
0.0
 10
54.9158553919
 20
38.8252302207
 30
0.0
  0
SPLINE
  5
2CF
100
AcDbEntity
  8
0
100
AcDbSpline
 62
7
  6
BYLAYER
 70
0
 71
3
 72
32
 73
28
 74
0
 42
0.0000001
 43
0.0000001
 44
0.0000000001
 40
0.0
 40
0.0
 40
0.0
 40
0.0
 40
0.0213264365
 40
0.0428812567
 40
0.0648808916
 40
0.0875196576
 40
0.1109632544
 40
0.1353437842
 40
0.1607606868
 40
0.1872794426
 40
0.2149366786
 40
0.2437401806
 40
0.2736746936
 40
0.3047024117
 40
0.3367677109
 40
0.3697982586
 40
0.4383785776
 40
0.5096473114
 40
0.5826533818
 40
0.6563665686
 40
0.7297255538
 40
0.8016839296
 40
0.8712597928
 40
0.9048850235
 40
0.9376037556
 40
0.9693376791
 40
1.0
 40
1.0
 40
1.0
 40
1.0
 10
62.2380931961
 20
57.1962732705
 30
0.0
 10
62.2381050199
 20
57.5509253997
 30
0.0
 10
62.1923044533
 20
58.2648465378
 30
0.0
 10
61.9872204675
 20
59.3268466475
 30
0.0
 10
61.6469481253
 20
60.3765166674
 30
0.0
 10
61.1739121068
 20
61.4077868781
 30
0.0
 10
60.5709449928
 20
62.4150472875
 30
0.0
 10
59.8418269469
 20
63.3930693644
 30
0.0
 10
58.9905665504
 20
64.3366281068
 30
0.0
 10
58.0220585786
 20
65.2409821428
 30
0.0
 10
56.9414630195
 20
66.1012834522
 30
0.0
 10
55.7547339983
 20
66.9131835951
 30
0.0
 10
54.4681844396
 20
67.6723015047
 30
0.0
 10
53.0887883862
 20
68.3747117039
 30
0.0
 10
51.6239017426
 20
69.0166546319
 30
0.0
 10
49.5414111521
 20
69.7970276234
 30
0.0
 10
46.7739698252
 20
70.5945391493
 30
0.0
 10
43.2914487572
 20
71.2536441206
 30
0.0
 10
39.6796401759
 20
71.6128181739
 30
0.0
 10
36.0158287426
 20
71.6643720044
 30
0.0
 10
32.3780136196
 20
71.407199181
 30
0.0
 10
28.8440493432
 20
70.8468364793
 30
0.0
 10
26.0159949566
 20
70.12895572
 30
0.0
 10
23.8724213134
 20
69.409291779
 30
0.0
 10
22.3547892876
 20
68.8095552543
 30
0.0
 10
20.9176253581
 20
68.1469935122
 30
0.0
 10
20.0019605085
 20
67.6572434947
 30
0.0
 10
19.5603691346
 20
67.402292118
 30
0.0
  0
SPLINE
  5
2D0
100
AcDbEntity
  8
0
100
AcDbSpline
 62
7
  6
BYLAYER
 70
0
 71
3
 72
19
 73
15
 74
0
 42
0.0000001
 43
0.0000001
 44
0.0000000001
 40
0.0
 40
0.0
 40
0.0
 40
0.0
 40
0.0569459777
 40
0.1160289059
 40
0.1769875854
 40
0.2395762134
 40
0.3684094618
 40
0.4999995227
 40
0.6315896486
 40
0.7604230882
 40
0.8230118551
 40
0.8839706996
 40
0.9430538156
 40
1.0
 40
1.0
 40
1.0
 40
1.0
 10
23.6646287128
 20
66.2574726155
 30
0.0
 10
24.1401077991
 20
66.494885007
 30
0.0
 10
25.1269299899
 20
66.9432040468
 30
0.0
 10
26.6737240511
 20
67.5256164777
 30
0.0
 10
28.3040580766
 20
68.0263756453
 30
0.0
 10
30.5933286517
 20
68.5851297207
 30
0.0
 10
33.5780160397
 20
69.0519861027
 30
0.0
 10
37.2380263322
 20
69.2388306973
 30
0.0
 10
40.8980392939
 20
69.0520035132
 30
0.0
 10
43.8827326203
 20
68.5851614416
 30
0.0
 10
46.1720106557
 20
68.0264184831
 30
0.0
 10
47.8023518752
 20
67.5256671362
 30
0.0
 10
49.3491542997
 20
66.9432621287
 30
0.0
 10
50.3359827178
 20
66.4949479235
 30
0.0
 10
50.8114651268
 20
66.2575378684
 30
0.0
  0
SPLINE
  5
2D1
100
AcDbEntity
  8
0
100
AcDbSpline
 62
7
  6
BYLAYER
 70
0
 71
3
 72
15
 73
11
 74
0
 42
0.0000001
 43
0.0000001
 44
0.0000000001
 40
0.0
 40
0.0
 40
0.0
 40
0.0
 40
0.1485900489
 40
0.2895075463
 40
0.4227228277
 40
0.5486437887
 40
0.6680017403
 40
0.7819385119
 40
0.89198764
 40
1.0
 40
1.0
 40
1.0
 40
1.0
 10
54.9158553919
 20
46.990254392
 30
0.0
 10
55.4797084804
 20
47.3157931812
 30
0.0
 10
56.5528137538
 20
47.995954129
 30
0.0
 10
58.0198647476
 20
49.1314810596
 30
0.0
 10
59.2887761114
 20
50.3460936944
 30
0.0
 10
60.3469454353
 20
51.6286345318
 30
0.0
 10
61.1835046649
 20
52.9678189806
 30
0.0
 10
61.7890350009
 20
54.3514742134
 30
0.0
 10
62.1559279554
 20
55.7655841225
 30
0.0
 10
62.2380774174
 20
56.7229929863
 30
0.0
 10
62.2380931961
 20
57.1962732705
 30
0.0
  0
SPLINE
  5
2D2
100
AcDbEntity
  8
0
100
AcDbSpline
 62
7
  6
BYLAYER
 70
0
 71
3
 72
16
 73
12
 74
0
 42
0.0000001
 43
0.0000001
 44
0.0000000001
 40
0.0
 40
0.0
 40
0.0
 40
0.0
 40
0.1101549071
 40
0.2220273395
 40
0.3372078012
 40
0.4570573384
 40
0.51910413
 40
0.582688935
 40
0.7147614536
 40
0.853834232
 40
1.0
 40
1.0
 40
1.0
 40
1.0
 10
16.4881226022
 20
57.196273255
 30
0.0
 10
16.4881226066
 20
57.5527826642
 30
0.0
 10
16.5441588136
 20
58.2725542116
 30
0.0
 10
16.7945242177
 20
59.3388010251
 30
0.0
 10
17.2086259443
 20
60.3863793265
 30
0.0
 10
17.6813793077
 20
61.2268997522
 30
0.0
 10
18.133004196
 20
61.8809937738
 30
0.0
 10
18.6468961985
 20
62.5384694597
 30
0.0
 10
19.3859806548
 20
63.3336822738
 30
0.0
 10
20.4023720021
 20
64.2260241002
 30
0.0
 10
21.1498760464
 20
64.7700877017
 30
0.0
 10
21.5433172012
 20
65.0327401539
 30
0.0
  0
SPLINE
  5
2D3
100
AcDbEntity
  8
0
100
AcDbSpline
 62
7
  6
BYLAYER
 70
0
 71
3
 72
13
 73
9
 74
0
 42
0.0000001
 43
0.0000001
 44
0.0000000001
 40
0.0
 40
0.0
 40
0.0
 40
0.0
 40
0.1137114225
 40
0.2286759531
 40
0.3460688924
 40
0.4669415972
 40
0.7222817199
 40
1.0
 40
1.0
 40
1.0
 40
1.0
 10
29.2381316621
 20
57.196273255
 30
0.0
 10
29.238131663
 20
57.0812915474
 30
0.0
 10
29.2531447544
 20
56.8497844668
 30
0.0
 10
29.3205785114
 20
56.5055056049
 30
0.0
 10
29.4323218685
 20
56.1653135478
 30
0.0
 10
29.6431924824
 20
55.7118147043
 30
0.0
 10
30.0214448203
 20
55.1633189422
 30
0.0
 10
30.4069479803
 20
54.7824456885
 30
0.0
 10
30.6209431169
 20
54.6006041334
 30
0.0
  0
SPLINE
  5
2D4
100
AcDbEntity
  8
0
100
AcDbSpline
 62
7
  6
BYLAYER
 70
0
 71
3
 72
15
 73
11
 74
0
 42
0.0000001
 43
0.0000001
 44
0.0000000001
 40
0.0
 40
0.0
 40
0.0
 40
0.0
 40
0.0934652543
 40
0.2014678892
 40
0.3219993404
 40
0.4529967812
 40
0.591740996
 40
0.7341267674
 40
0.8734484738
 40
1.0
 40
1.0
 40
1.0
 40
1.0
 10
33.2612376426
 20
48.9806547683
 30
0.0
 10
33.2168432856
 20
49.1050317905
 30
0.0
 10
33.1345305759
 20
49.3779178347
 30
0.0
 10
33.0318844512
 20
49.8213696724
 30
0.0
 10
32.9431050434
 20
50.3217560346
 30
0.0
 10
32.8697930034
 20
50.8684341109
 30
0.0
 10
32.8129109589
 20
51.4480720704
 30
0.0
 10
32.7726152079
 20
52.0408639746
 30
0.0
 10
32.7486432034
 20
52.6172714215
 30
0.0
 10
32.7422722923
 20
52.9929442524
 30
0.0
 10
32.7422722923
 20
53.1717562656
 30
0.0
  0
SPLINE
  5
2D5
100
AcDbEntity
  8
0
100
AcDbSpline
 62
7
  6
BYLAYER
 70
0
 71
3
 72
15
 73
11
 74
0
 42
0.0000001
 43
0.0000001
 44
0.0000000001
 40
0.0
 40
0.0
 40
0.0
 40
0.0
 40
0.1186180533
 40
0.2426285344
 40
0.370356372
 40
0.4999995951
 40
0.6296428718
 40
0.757370868
 40
0.8813816054
 40
1.0
 40
1.0
 40
1.0
 40
1.0
 10
41.7340073341
 20
53.1717778791
 30
0.0
 10
41.3960659476
 20
53.0392160535
 30
0.0
 10
40.6893010181
 20
52.8064770959
 30
0.0
 10
39.5818080007
 20
52.5582814425
 30
0.0
 10
38.4229053802
 20
52.4071800204
 30
0.0
 10
37.2381454463
 20
52.3564135576
 30
0.0
 10
36.053384786
 20
52.4071743668
 30
0.0
 10
34.8944800041
 20
52.5582702582
 30
0.0
 10
33.7869834393
 20
52.8064606254
 30
0.0
 10
33.0802154584
 20
53.0391961166
 30
0.0
 10
32.7422722923
 20
53.1717562656
 30
0.0
  0
SPLINE
  5
2D6
100
AcDbEntity
  8
0
100
AcDbSpline
 62
7
  6
BYLAYER
 70
0
 71
3
 72
15
 73
11
 74
0
 42
0.0000001
 43
0.0000001
 44
0.0000000001
 40
0.0
 40
0.0
 40
0.0
 40
0.0
 40
0.0934639731
 40
0.2014635403
 40
0.3219945735
 40
0.4529934647
 40
0.591740314
 40
0.7341298308
 40
0.8734507933
 40
1.0
 40
1.0
 40
1.0
 40
1.0
 10
41.2150700462
 20
48.980673887
 30
0.0
 10
41.2594621044
 20
49.1050497078
 30
0.0
 10
41.3417806644
 20
49.3779273098
 30
0.0
 10
41.4444086575
 20
49.8213767136
 30
0.0
 10
41.5331670023
 20
50.3217631901
 30
0.0
 10
41.6064852821
 20
50.8684447807
 30
0.0
 10
41.6633859006
 20
51.4480923739
 30
0.0
 10
41.70362221
 20
52.0408953306
 30
0.0
 10
41.7276706214
 20
52.6173000942
 30
0.0
 10
41.7340073341
 20
52.9929692702
 30
0.0
 10
41.7340073341
 20
53.1717778791
 30
0.0
  0
SPLINE
  5
2D7
100
AcDbEntity
  8
0
100
AcDbSpline
 62
7
  6
BYLAYER
 70
0
 71
3
 72
11
 73
7
 74
0
 42
0.0000001
 43
0.0000001
 44
0.0000000001
 40
0.0
 40
0.0
 40
0.0
 40
0.0
 40
0.2470161957
 40
0.4999997387
 40
0.7529834148
 40
1.0
 40
1.0
 40
1.0
 40
1.0
 10
41.2150700462
 20
48.980673887
 30
0.0
 10
40.5718982298
 20
48.8328097891
 30
0.0
 10
39.2507494025
 20
48.6127379335
 30
0.0
 10
37.2381567507
 20
48.5037396574
 30
0.0
 10
35.2255625422
 20
48.6127283729
 30
0.0
 10
33.9044112554
 20
48.8327938397
 30
0.0
 10
33.2612376426
 20
48.9806547683
 30
0.0
  0
SPLINE
  5
2D8
100
AcDbEntity
  8
0
100
AcDbSpline
 62
7
  6
BYLAYER
 70
0
 71
3
 72
16
 73
12
 74
0
 42
0.0000001
 43
0.0000001
 44
0.0000000001
 40
0.0
 40
0.0
 40
0.0
 40
0.0
 40
0.1100134723
 40
0.2219664146
 40
0.3373428461
 40
0.457403788
 40
0.5195326594
 40
0.5831741652
 40
0.7152607456
 40
0.8541785596
 40
1.0
 40
1.0
 40
1.0
 40
1.0
 10
57.9851798174
 20
57.1934103209
 30
0.0
 10
57.9750241879
 20
57.5419535401
 30
0.0
 10
57.9009939272
 20
58.2447219119
 30
0.0
 10
57.6319745662
 20
59.2832430107
 30
0.0
 10
57.2074461616
 20
60.3028784067
 30
0.0
 10
56.7326147136
 20
61.1208335372
 30
0.0
 10
56.2829197023
 20
61.7575602317
 30
0.0
 10
55.7737247766
 20
62.3973530589
 30
0.0
 10
55.0454227092
 20
63.1713750929
 30
0.0
 10
54.0484072906
 20
64.0409109386
 30
0.0
 10
53.3171963075
 20
64.5720761998
 30
0.0
 10
52.9327943023
 20
64.8286900006
 30
0.0
  0
SPLINE
  5
2D9
100
AcDbEntity
  8
0
100
AcDbSpline
 62
7
  6
BYLAYER
 70
0
 71
3
 72
13
 73
9
 74
0
 42
0.0000001
 43
0.0000001
 44
0.0000000001
 40
0.0
 40
0.0
 40
0.0
 40
0.0
 40
0.1146637824
 40
0.2304590552
 40
0.3484545103
 40
0.4696136105
 40
0.7243732547
 40
1.0
 40
1.0
 40
1.0
 40
1.0
 10
45.2381001637
 20
56.9921476507
 30
0.0
 10
45.2381001645
 20
56.8834320013
 30
0.0
 10
45.2246951316
 20
56.6646937774
 30
0.0
 10
45.1644530252
 20
56.3390897222
 30
0.0
 10
45.0645452746
 20
56.0169205451
 30
0.0
 10
44.8761893029
 20
55.5872394162
 30
0.0
 10
44.5379879689
 20
55.0650586751
 30
0.0
 10
44.1906338444
 20
54.6978345701
 30
0.0
 10
43.997564418
 20
54.521718411
 30
0.0
  0
SPLINE
  5
2DA
100
AcDbEntity
  8
0
100
AcDbSpline
 62
7
  6
BYLAYER
 70
0
 71
3
 72
15
 73
11
 74
0
 42
0.0000001
 43
0.0000001
 44
0.0000000001
 40
0.0
 40
0.0
 40
0.0
 40
0.0
 40
0.132226596
 40
0.2589977129
 40
0.3816979256
 40
0.5021462515
 40
0.6223008422
 40
0.7441285402
 40
0.8695145678
 40
1.0
 40
1.0
 40
1.0
 40
1.0
 10
47.2254195476
 20
57.0428308255
 30
0.0
 10
47.3435583293
 20
56.871544346
 30
0.0
 10
47.5548853239
 20
56.521470491
 30
0.0
 10
47.7933255921
 20
55.9680467519
 30
0.0
 10
47.9430257207
 20
55.4031561414
 30
0.0
 10
48.0021685602
 20
54.8321265747
 30
0.0
 10
47.9702063943
 20
54.2602878091
 30
0.0
 10
47.8473495039
 20
53.6930143905
 30
0.0
 10
47.6351629179
 20
53.1356555555
 30
0.0
 10
47.4400993886
 20
52.7818047067
 30
0.0
 10
47.3299606409
 20
52.6085056824
 30
0.0
  0
SPLINE
  5
2DB
100
AcDbEntity
  8
0
100
AcDbSpline
 62
7
  6
BYLAYER
 70
0
 71
3
 72
19
 73
15
 74
0
 42
0.0000001
 43
0.0000001
 44
0.0000000001
 40
0.0
 40
0.0
 40
0.0
 40
0.0
 40
0.1363948008
 40
0.2630926297
 40
0.323608736
 40
0.3827043343
 40
0.440835468
 40
0.4985031096
 40
0.5562284457
 40
0.6145298644
 40
0.6739008286
 40
0.7347851812
 40
0.8624534068
 40
1.0
 40
1.0
 40
1.0
 40
1.0
 10
52.7484810246
 20
49.4733769972
 30
0.0
 10
53.1432930463
 20
49.8604761271
 30
0.0
 10
53.8515837766
 20
50.665115317
 30
0.0
 10
54.5325618698
 20
51.796784882
 30
0.0
 10
54.9077610693
 20
52.7239651449
 30
0.0
 10
55.1043851742
 20
53.4187364007
 30
0.0
 10
55.2190663159
 20
54.1199754201
 30
0.0
 10
55.2513561937
 20
54.824282867
 30
0.0
 10
55.2008878068
 20
55.5282085043
 30
0.0
 10
55.0681319295
 20
56.2283142075
 30
0.0
 10
54.853639264
 20
56.9212093149
 30
0.0
 10
54.4544404976
 20
57.8454133978
 30
0.0
 10
53.744382157
 20
58.970787556
 30
0.0
 10
53.0159970236
 20
59.7687647573
 30
0.0
 10
52.6113307078
 20
60.1523695222
 30
0.0
  0
SPLINE
  5
2DC
100
AcDbEntity
  8
0
100
AcDbSpline
 62
7
  6
BYLAYER
 70
0
 71
3
 72
11
 73
7
 74
0
 42
0.0000001
 43
0.0000001
 44
0.0000000001
 40
0.0
 40
0.0
 40
0.0
 40
0.0
 40
0.2498230003
 40
0.5014940028
 40
0.7523186098
 40
1.0
 40
1.0
 40
1.0
 40
1.0
 10
47.2254195476
 20
57.0428308255
 30
0.0
 10
47.0385639431
 20
57.065060944
 30
0.0
 10
46.6656678425
 20
57.1304396445
 30
0.0
 10
46.1197977965
 20
57.2862163532
 30
0.0
 10
45.5949255416
 20
57.4982782237
 30
0.0
 10
45.2639131938
 20
57.6778610677
 30
0.0
 10
45.1061223959
 20
57.7773938261
 30
0.0
  0
SPLINE
  5
2DD
100
AcDbEntity
  8
0
100
AcDbSpline
 62
7
  6
BYLAYER
 70
0
 71
3
 72
15
 73
11
 74
0
 42
0.0000001
 43
0.0000001
 44
0.0000000001
 40
0.0
 40
0.0
 40
0.0
 40
0.0
 40
0.0921143154
 40
0.1955249021
 40
0.3103828467
 40
0.4367466934
 40
0.5739678991
 40
0.7194921858
 40
0.8662654062
 40
1.0
 40
1.0
 40
1.0
 40
1.0
 10
52.6113307078
 20
60.1523695222
 30
0.0
 10
52.6406004271
 20
60.2934923239
 30
0.0
 10
52.6944462455
 20
60.5947813778
 30
0.0
 10
52.760066889
 20
61.076065592
 30
0.0
 10
52.8149138043
 20
61.6125829519
 30
0.0
 10
52.8589884468
 20
62.2031276921
 30
0.0
 10
52.892466638
 20
62.842404934
 30
0.0
 10
52.915619945
 20
63.5140791206
 30
0.0
 10
52.9291550717
 20
64.1805465572
 30
0.0
 10
52.9327943023
 20
64.6194428412
 30
0.0
 10
52.9327943023
 20
64.8286900006
 30
0.0
  0
SPLINE
  5
2DE
100
AcDbEntity
  8
0
100
AcDbSpline
 62
7
  6
BYLAYER
 70
0
 71
3
 72
15
 73
11
 74
0
 42
0.0000001
 43
0.0000001
 44
0.0000000001
 40
0.0
 40
0.0
 40
0.0
 40
0.0
 40
0.1186191058
 40
0.2426303145
 40
0.3703578328
 40
0.5000004049
 40
0.6296429234
 40
0.7573702831
 40
0.8813812355
 40
1.0
 40
1.0
 40
1.0
 40
1.0
 10
32.7422722923
 20
53.3758818699
 30
0.0
 10
33.0802174197
 20
53.2433209516
 30
0.0
 10
33.7869893066
 20
53.0105860348
 30
0.0
 10
34.8944881219
 20
52.7623969198
 30
0.0
 10
36.053390822
 20
52.6113037862
 30
0.0
 10
37.2381454463
 20
52.5605435914
 30
0.0
 10
38.4228993441
 20
52.6113094398
 30
0.0
 10
39.5817998829
 20
52.762408104
 30
0.0
 10
40.6892951509
 20
53.0106025053
 30
0.0
 10
41.3960639863
 20
53.2433408885
 30
0.0
 10
41.7340073341
 20
53.3759034833
 30
0.0
  0
SPLINE
  5
2DF
100
AcDbEntity
  8
0
100
AcDbSpline
 62
7
  6
BYLAYER
 70
0
 71
3
 72
32
 73
28
 74
0
 42
0.0000001
 43
0.0000001
 44
0.0000000001
 40
0.0
 40
0.0
 40
0.0
 40
0.0
 40
0.0213264365
 40
0.0428812567
 40
0.0648808916
 40
0.0875196576
 40
0.1109632544
 40
0.1353437842
 40
0.1607606868
 40
0.1872794426
 40
0.2149366786
 40
0.2437401806
 40
0.2736746936
 40
0.3047024117
 40
0.3367677109
 40
0.3697982586
 40
0.4383785776
 40
0.5096473114
 40
0.5826533818
 40
0.6563665686
 40
0.7297255538
 40
0.8016839296
 40
0.8712597928
 40
0.9048850235
 40
0.9376037556
 40
0.9693376791
 40
1.0
 40
1.0
 40
1.0
 40
1.0
 10
12.2381313304
 20
57.1962732395
 30
0.0
 10
12.2381195066
 20
56.8416211103
 30
0.0
 10
12.2839200732
 20
56.1276999722
 30
0.0
 10
12.4890040589
 20
55.0656998625
 30
0.0
 10
12.8292764012
 20
54.0160298426
 30
0.0
 10
13.3023124197
 20
52.9847596319
 30
0.0
 10
13.9052795336
 20
51.9774992224
 30
0.0
 10
14.6343975796
 20
50.9994771455
 30
0.0
 10
15.485657976
 20
50.0559184031
 30
0.0
 10
16.4541659479
 20
49.1515643672
 30
0.0
 10
17.534761507
 20
48.2912630577
 30
0.0
 10
18.7214905282
 20
47.4793629149
 30
0.0
 10
20.0080400869
 20
46.7202450052
 30
0.0
 10
21.3874361403
 20
46.017834806
 30
0.0
 10
22.8523227839
 20
45.3758918781
 30
0.0
 10
24.9348133744
 20
44.5955188865
 30
0.0
 10
27.7022547013
 20
43.7980073607
 30
0.0
 10
31.1847757693
 20
43.1389023894
 30
0.0
 10
34.7965843505
 20
42.779728336
 30
0.0
 10
38.4603957839
 20
42.7281745056
 30
0.0
 10
42.0982109069
 20
42.985347329
 30
0.0
 10
45.6321751833
 20
43.5457100306
 30
0.0
 10
48.4602295699
 20
44.26359079
 30
0.0
 10
50.6038032131
 20
44.983254731
 30
0.0
 10
52.1214352389
 20
45.5829912556
 30
0.0
 10
53.5585991684
 20
46.2455529977
 30
0.0
 10
54.474264018
 20
46.7353030152
 30
0.0
 10
54.9158553919
 20
46.990254392
 30
0.0
  0
SPLINE
  5
2E0
100
AcDbEntity
  8
0
100
AcDbSpline
 62
7
  6
BYLAYER
 70
0
 71
3
 72
19
 73
15
 74
0
 42
0.0000001
 43
0.0000001
 44
0.0000000001
 40
0.0
 40
0.0
 40
0.0
 40
0.0
 40
0.0571319509
 40
0.1163277014
 40
0.1773393241
 40
0.2399278777
 40
0.3686344014
 40
0.5000004641
 40
0.6313664637
 40
0.760072802
 40
0.8226612206
 40
0.883672683
 40
0.9428682507
 40
1.0
 40
1.0
 40
1.0
 40
1.0
 10
50.6185376006
 20
66.1485541745
 30
0.0
 10
50.1465392667
 20
66.378445923
 30
0.0
 10
49.1685741541
 20
66.8124531584
 30
0.0
 10
47.6384965832
 20
67.3761928467
 30
0.0
 10
46.0290198092
 20
67.8606361212
 30
0.0
 10
43.7732022134
 20
68.4007620962
 30
0.0
 10
40.8365274146
 20
68.8520176639
 30
0.0
 10
37.2380273698
 20
69.0326006114
 30
0.0
 10
33.6395298742
 20
68.8520007498
 30
0.0
 10
30.702860747
 20
68.4007312732
 30
0.0
 10
28.4470502745
 20
67.860594482
 30
0.0
 10
26.8375803762
 20
67.3761435812
 30
0.0
 10
25.3075108029
 20
66.8123966401
 30
0.0
 10
24.3295516426
 20
66.378384675
 30
0.0
 10
23.8575564843
 20
66.1484906368
 30
0.0
  0
SPLINE
  5
2E1
100
AcDbEntity
  8
0
100
AcDbSpline
 62
7
  6
BYLAYER
 70
0
 71
3
 72
15
 73
11
 74
0
 42
0.0000001
 43
0.0000001
 44
0.0000000001
 40
0.0
 40
0.0
 40
0.0
 40
0.0
 40
0.1199160048
 40
0.2441293874
 40
0.371310204
 40
0.5000003026
 40
0.6286903613
 40
0.7558710607
 40
0.8800842516
 40
1.0
 40
1.0
 40
1.0
 40
1.0
 10
46.3720435356
 20
63.7015457429
 30
0.0
 10
45.6693084481
 20
63.9404520498
 30
0.0
 10
44.2150676271
 20
64.3595726633
 30
0.0
 10
41.9582580218
 20
64.8068032108
 30
0.0
 10
39.6189252397
 20
65.0783534792
 30
0.0
 10
37.2380507124
 20
65.1693814028
 30
0.0
 10
34.8571772675
 20
65.0783441073
 30
0.0
 10
32.5178477204
 20
64.8067846306
 30
0.0
 10
30.2610434301
 20
64.3595452127
 30
0.0
 10
28.8068071617
 20
63.9404187619
 30
0.0
 10
28.1040747179
 20
63.7015096102
 30
0.0
  0
SPLINE
  5
2E2
100
AcDbEntity
  8
0
100
AcDbSpline
 62
7
  6
BYLAYER
 70
0
 71
3
 72
16
 73
12
 74
0
 42
0.0000001
 43
0.0000001
 44
0.0000000001
 40
0.0
 40
0.0
 40
0.0
 40
0.0
 40
0.1461660591
 40
0.2852390547
 40
0.4173117031
 40
0.4808965379
 40
0.542943335
 40
0.66279281
 40
0.7779731235
 40
0.8898453422
 40
1.0
 40
1.0
 40
1.0
 40
1.0
 10
52.9327943023
 20
65.0328156049
 30
0.0
 10
53.3262437816
 20
64.7701620158
 30
0.0
 10
54.0737637871
 20
64.2260955676
 30
0.0
 10
55.0901774718
 20
63.3337473708
 30
0.0
 10
55.8292786132
 20
62.5385276443
 30
0.0
 10
56.3431823474
 20
61.8810456365
 30
0.0
 10
56.7948174542
 20
61.226945268
 30
0.0
 10
57.2675816411
 20
60.3864161747
 30
0.0
 10
57.6816930693
 20
59.3388261785
 30
0.0
 10
57.9320643705
 20
58.2725669754
 30
0.0
 10
57.9881019288
 20
57.5527868411
 30
0.0
 10
57.9881019243
 20
57.196273255
 30
0.0
  0
SPLINE
  5
2E3
100
AcDbEntity
  8
0
100
AcDbSpline
 62
7
  6
BYLAYER
 70
0
 71
3
 72
13
 73
9
 74
0
 42
0.0000001
 43
0.0000001
 44
0.0000000001
 40
0.0
 40
0.0
 40
0.0
 40
0.0
 40
0.2777177295
 40
0.533057712
 40
0.65393049
 40
0.771323584
 40
0.8862883303
 40
1.0
 40
1.0
 40
1.0
 40
1.0
 10
43.8553188458
 20
54.600635945
 30
0.0
 10
44.069308493
 20
54.7824760928
 30
0.0
 10
44.4548016373
 20
55.1633459876
 30
0.0
 10
44.8330434249
 20
55.7118350761
 30
0.0
 10
45.0439081106
 20
56.1653278371
 30
0.0
 10
45.1556483328
 20
56.5055152844
 30
0.0
 10
45.2230801984
 20
56.8497893538
 30
0.0
 10
45.2380928652
 20
57.0812931553
 30
0.0
 10
45.2380928643
 20
57.196273255
 30
0.0
  0
SPLINE
  5
2E4
100
AcDbEntity
  8
0
100
AcDbSpline
 62
7
  6
BYLAYER
 70
0
 71
3
 72
16
 73
12
 74
0
 42
0.0000001
 43
0.0000001
 44
0.0000000001
 40
0.0
 40
0.0
 40
0.0
 40
0.0
 40
0.1458211519
 40
0.2847387511
 40
0.4168252033
 40
0.4804666795
 40
0.5425955452
 40
0.6626565479
 40
0.7780331253
 40
0.8899862792
 40
1.0
 40
1.0
 40
1.0
 40
1.0
 10
21.5433172012
 20
64.8286145496
 30
0.0
 10
21.1589234517
 20
64.5720019414
 30
0.0
 10
20.4277283011
 20
64.0408396252
 30
0.0
 10
19.4307350405
 20
63.1713102481
 30
0.0
 10
18.7024495398
 20
62.397295167
 30
0.0
 10
18.1932662879
 20
61.757508674
 30
0.0
 10
17.7435814696
 20
61.1207883443
 30
0.0
 10
17.2687608564
 20
60.3028418853
 30
0.0
 10
16.8442422428
 20
59.2832181681
 30
0.0
 10
16.5752289668
 20
58.2447094436
 30
0.0
 10
16.5012002501
 20
57.5419496803
 30
0.0
 10
16.4910447224
 20
57.1934106625
 30
0.0
  0
SPLINE
  5
2E5
100
AcDbEntity
  8
0
100
AcDbSpline
 62
7
  6
BYLAYER
 70
0
 71
3
 72
15
 73
11
 74
0
 42
0.0000001
 43
0.0000001
 44
0.0000000001
 40
0.0
 40
0.0
 40
0.0
 40
0.0
 40
0.0921143245
 40
0.1955249347
 40
0.3103825653
 40
0.4367462939
 40
0.5739683986
 40
0.7194928595
 40
0.8662647985
 40
1.0
 40
1.0
 40
1.0
 40
1.0
 10
21.8648158561
 20
60.1522956167
 30
0.0
 10
21.8355441469
 20
60.2934180584
 30
0.0
 10
21.7816955065
 20
60.5947067693
 30
0.0
 10
21.7160697245
 20
61.0759899097
 30
0.0
 10
21.6612096581
 20
61.6125053267
 30
0.0
 10
21.6171236086
 20
62.2030504232
 30
0.0
 10
21.5836826393
 20
62.8423312236
 30
0.0
 10
21.5605045557
 20
63.5140042292
 30
0.0
 10
21.5469732894
 20
64.1804711871
 30
0.0
 10
21.5433172012
 20
64.6193663848
 30
0.0
 10
21.5433172012
 20
64.8286145496
 30
0.0
  0
SPLINE
  5
2E6
100
AcDbEntity
  8
0
100
AcDbSpline
 62
7
  6
BYLAYER
 70
0
 71
3
 72
15
 73
11
 74
0
 42
0.0000001
 43
0.0000001
 44
0.0000000001
 40
0.0
 40
0.0
 40
0.0
 40
0.0
 40
0.1304861108
 40
0.2558726356
 40
0.3777006199
 40
0.4978552778
 40
0.6183034608
 40
0.7410033449
 40
0.8677739851
 40
1.0
 40
1.0
 40
1.0
 40
1.0
 10
27.1463048294
 20
52.6084412689
 30
0.0
 10
27.0361624077
 20
52.7817401487
 30
0.0
 10
26.8410915905
 20
53.1355908316
 30
0.0
 10
26.6288939929
 20
53.6929503518
 30
0.0
 10
26.5060265459
 20
54.2602251117
 30
0.0
 10
26.4740544079
 20
54.8320658467
 30
0.0
 10
26.5331879849
 20
55.4030979545
 30
0.0
 10
26.6828796694
 20
55.9679915957
 30
0.0
 10
26.9213123791
 20
56.5214187516
 30
0.0
 10
27.1326350917
 20
56.8714950966
 30
0.0
 10
27.2507718639
 20
57.0427828123
 30
0.0
  0
SPLINE
  5
2E7
100
AcDbEntity
  8
0
100
AcDbSpline
 62
7
  6
BYLAYER
 70
0
 71
3
 72
19
 73
15
 74
0
 42
0.0000001
 43
0.0000001
 44
0.0000000001
 40
0.0
 40
0.0
 40
0.0
 40
0.0
 40
0.1375459162
 40
0.2652135617
 40
0.3260976849
 40
0.3854684725
 40
0.4437697756
 40
0.5014950629
 40
0.5591627258
 40
0.6172939511
 40
0.6763897083
 40
0.7369060354
 40
0.8636044605
 40
1.0
 40
1.0
 40
1.0
 40
1.0
 10
21.8648158561
 20
60.1522956167
 30
0.0
 10
21.460154519
 20
59.7686883813
 30
0.0
 10
20.7317797763
 20
58.9707062829
 30
0.0
 10
20.0217371883
 20
57.8453268022
 30
0.0
 10
19.6225519851
 20
56.9211195562
 30
0.0
 10
19.4080696525
 20
56.2282223138
 30
0.0
 10
19.2753244628
 20
55.5281148961
 30
0.0
 10
19.2248670724
 20
54.8241879895
 30
0.0
 10
19.2571681773
 20
54.1198797435
 30
0.0
 10
19.3718607251
 20
53.4186404044
 30
0.0
 10
19.5684963299
 20
52.7238693093
 30
0.0
 10
19.9437113132
 20
51.7966895717
 30
0.0
 10
20.6247091464
 20
50.6650223482
 30
0.0
 10
21.3330140875
 20
49.860386444
 30
0.0
 10
21.7278331831
 20
49.4732890744
 30
0.0
  0
SPLINE
  5
2E8
100
AcDbEntity
  8
0
100
AcDbSpline
 62
7
  6
BYLAYER
 70
0
 71
3
 72
11
 73
7
 74
0
 42
0.0000001
 43
0.0000001
 44
0.0000000001
 40
0.0
 40
0.0
 40
0.0
 40
0.0
 40
0.2498265344
 40
0.5015029613
 40
0.7523253267
 40
1.0
 40
1.0
 40
1.0
 40
1.0
 10
27.2507718639
 20
57.0427828123
 30
0.0
 10
27.4376764593
 20
57.0650196959
 30
0.0
 10
27.8106720739
 20
57.1304170049
 30
0.0
 10
28.3566757153
 20
57.2862631371
 30
0.0
 10
28.8816540214
 20
57.498432225
 30
0.0
 10
29.2127237907
 20
57.6780916684
 30
0.0
 10
29.370537493
 20
57.7776655672
 30
0.0
  0
SPLINE
  5
2E9
100
AcDbEntity
  8
0
100
AcDbSpline
 62
7
  6
BYLAYER
 70
0
 71
3
 72
13
 73
9
 74
0
 42
0.0000001
 43
0.0000001
 44
0.0000000001
 40
0.0
 40
0.0
 40
0.0
 40
0.0
 40
0.2756273173
 40
0.5303871011
 40
0.6515461236
 40
0.7695414185
 40
0.88533647
 40
1.0
 40
1.0
 40
1.0
 40
1.0
 10
30.4786968962
 20
54.5216848599
 30
0.0
 10
30.2856220285
 20
54.6978026318
 30
0.0
 10
29.9382579893
 20
55.0650304859
 30
0.0
 10
29.6000463258
 20
55.5872183097
 30
0.0
 10
29.4116845705
 20
56.0169057724
 30
0.0
 10
29.3117737591
 20
56.3390797335
 30
0.0
 10
29.2515298109
 20
56.6646887401
 30
0.0
 10
29.2381243636
 20
56.8834303417
 30
0.0
 10
29.2381243628
 20
56.9921476507
 30
0.0
  0
ENDSEC
  0
SECTION
  2
OBJECTS
  0
DICTIONARY
  5
C
100
AcDbDictionary
280
0
281
1
  3
ACAD_GROUP
350
D
  3
ACAD_MLINESTYLE
350
17
  3
ACAD_LAYOUT
350
1A
  3
ACAD_PLOTSETTINGS
350
19
  3
ACAD_PLOTSTYLENAME
350
E
  0
DICTIONARY
  5
D
102
{ACAD_REACTORS
330
C
102
}
100
AcDbDictionary
280
0
281
1
  0
ACDBDICTIONARYWDFLT
  5
E
102
{ACAD_REACTORS
330
C
102
}
100
AcDbDictionary
281
1
  3
Normal
350
F
100
AcDbDictionaryWithDefault
340
F
  0
DICTIONARY
  5
17
102
{ACAD_REACTORS
330
C
102
}
100
AcDbDictionary
280
0
281
1
  3
Standard
350
18
  0
DICTIONARY
  5
19
102
{ACAD_REACTORS
330
C
102
}
100
AcDbDictionary
281
1
  0
DICTIONARY
  5
1A
102
{ACAD_REACTORS
330
C
102
}
100
AcDbDictionary
281
1
  3
Model
350
2EA
  3
Layout1
350
2EB
  0
ACDBPLACEHOLDER
  5
F
102
{ACAD_REACTORS
330
E
102
}
  0
MLINESTYLE
  5
18
102
{ACAD_REACTORS
330
17
102
}
100
AcDbMlineStyle
  2
STANDARD
 70
0
  3

 62
256
 51
90.0
 52
90.0
 71
2
 49
0.5
 62
256
  6
BYLAYER
 49
-0.5
 62
256
  6
BYLAYER
  0
LAYOUT
  5
2EA
102
{ACAD_REACTORS
330
1A
102
}
100
AcDbPlotSettings
  1

  2
none_device
  4

  6

 40
0.0
 41
0.0
 42
0.0
 43
0.0
 44
210.0
 45
297.0
 46
0.0
 47
0.0
 48
0.0
 49
0.0
140
0.0
141
0.0
142
1.0
143
1.0
 70
1024
 72
1
 73
0
 74
0
  7

 75
0
147
1.0
148
0.0
149
0.0
100
AcDbLayout
  1
Model
 70
0
 71
0
 10
0.0
 20
0.0
 11
210.0
 21
297.0
 12
0.0
 22
0.0
 32
0.0
 14
0.0
 24
0.0
 34
0.0
 15
0.0
 25
0.0
 35
0.0
146
0.0
 13
0.0
 23
0.0
 33
0.0
 16
1.0
 26
0.0
 36
0.0
 17
0.0
 27
1.0
 37
0.0
 76
0
330
210
345
0
346
0
  0
LAYOUT
  5
2EB
102
{ACAD_REACTORS
330
1A
102
}
100
AcDbPlotSettings
  1

  2
none_device
  4

  6

 40
0.0
 41
0.0
 42
0.0
 43
0.0
 44
210.0
 45
297.0
 46
0.0
 47
0.0
 48
0.0
 49
0.0
140
0.0
141
0.0
142
1.0
143
1.0
 70
0
 72
1
 73
0
 74
0
  7

 75
0
147
1.0
148
0.0
149
0.0
100
AcDbLayout
  1
Layout1
 70
0
 71
1
 10
0.0
 20
0.0
 11
210.0
 21
297.0
 12
0.0
 22
0.0
 32
0.0
 14
0.0
 24
0.0
 34
0.0
 15
0.0
 25
0.0
 35
0.0
146
0.0
 13
0.0
 23
0.0
 33
0.0
 16
1.0
 26
0.0
 36
0.0
 17
0.0
 27
1.0
 37
0.0
 76
0
330
211
345
0
346
0
  0
ENDSEC
  0
EOF
