999
DXF file: C:\Users\sesa63760\Dev\_Creo\CAD\MCADID0004134_3D-CAD\drw0001_5.dxf
999
Pro/ENGINEER 2019471 by Parametric Technology Corporation
  0
SECTION
  2
HEADER
  9
$ACADVER
  1
AC1024
  9
$DWGCODEPAGE
  3
ANSI_1252
  9
$EXTMAX
 10
55.5782312925
 20
78.6034985423
 30
0.0
  9
$EXTMIN
 10
0.0
 20
0.0
 30
0.0
  9
$LIMMIN
 10
0.0
 20
0.0
  9
$LIMMAX
 10
55.5782312925
 20
78.6034985423
  9
$VIEWCTR
 10
27.7891156463
 20
39.3017492711
  9
$VIEWSIZE
 40
78.6034985423
  9
$CLAYER
  8
0
  9
$LTSCALE
 40
5.1237836087
  9
$CELTYPE
  6
BYLAYER
  9
$DIMSCALE
 40
1.0
  9
$DIMASZ
 40
0.6616456106
  9
$DIMEXO
 40
1.0
  9
$DIMDLI
 40
3.5400686751
  9
$DIMEXE
 40
1.0
  9
$DIMCEN
 40
0.8384373178
  9
$DIMLFAC
 40
1.0
  9
$DIMBLK
  1
_FILLED
  9
$DIMALT
 70
0
  9
$DIMALTF
 40
0.0393700787
  9
$DIMTXT
 40
0.9263038549
  9
$DIMTOL
 70
1
  9
$DIMLIM
 70
0
  9
$DIMTFAC
 40
1.0
  9
$DIMTP
 40
0.01
  9
$DIMTM
 40
0.01
  9
$DIMGAP
 40
0.625
  9
$DIMDSEP
 70
46
  9
$AUNITS
 70
0
  9
$PDMODE
 70
3
  9
$PDSIZE
 40
0.3125
  9
$HANDSEED
  5
2FD
  9
$TILEMODE
 70
1
  9
$MEASUREMENT
 70
1
  9
$INSUNITS
 70
4
  0
ENDSEC
  0
SECTION
  2
CLASSES
  0
CLASS
  1
ACDBDICTIONARYWDFLT
  2
AcDbDictionaryWithDefault
  3
AutoCAD 2000
 90
0
 91
1
280
0
281
0
  0
CLASS
  1
ACDBPLACEHOLDER
  2
AcDbPlaceHolder
  3
AutoCAD 2000
 90
0
 91
1
280
0
281
0
  0
CLASS
  1
LAYOUT
  2
AcDbLayout
  3
AutoCAD 2000
 90
0
 91
0
280
0
281
0
  0
ENDSEC
  0
SECTION
  2
TABLES
  0
TABLE
  2
VPORT
  5
8
100
AcDbSymbolTable
 70
2
  0
VPORT
  5
1F4
100
AcDbSymbolTableRecord
100
AcDbViewportTableRecord
  2
*ACTIVE
 70
0
 10
0.0
 20
0.0
 11
1.0
 21
1.0
 12
27.7891156463
 22
39.3017492711
 13
0.0
 23
0.0
 14
1.0
 24
1.0
 15
0.0
 25
0.0
 16
0.0
 26
0.0
 36
1.0
 17
0.0
 27
0.0
 37
0.0
 40
78.6034985423
 41
0.7070707071
 42
50.0
 43
0.0
 44
0.0
 50
0.0
 51
0.0
 71
0
 72
100
 73
1
 74
1
 75
0
 76
0
 77
0
 78
0
  0
ENDTAB
  0
TABLE
  2
LTYPE
  5
5
100
AcDbSymbolTable
 70
6
  0
LTYPE
  5
14
100
AcDbSymbolTableRecord
100
AcDbLinetypeTableRecord
  2
BYBLOCK
 70
0
  3

 72
65
 73
0
 40
0.0
  0
LTYPE
  5
15
100
AcDbSymbolTableRecord
100
AcDbLinetypeTableRecord
  2
BYLAYER
 70
0
  3

 72
65
 73
0
 40
0.0
  0
LTYPE
  5
16
100
AcDbSymbolTableRecord
100
AcDbLinetypeTableRecord
  2
CONTINUOUS
 70
64
  3
Solid line
 72
65
 73
0
 40
0.0
  0
LTYPE
  5
1F5
100
AcDbSymbolTableRecord
100
AcDbLinetypeTableRecord
  2
CENTER
 70
64
  3
____ _ ____ _ ____ _ ____ _ ____ _ ____ _ ____
 72
65
 73
4
 40
0.6
 49
0.375
 74
0
 49
-0.075
 74
0
 49
0.075
 74
0
 49
-0.075
 74
0
  0
LTYPE
  5
1F6
100
AcDbSymbolTableRecord
100
AcDbLinetypeTableRecord
  2
HIDDEN
 70
64
  3
- - - - - - - - - - - - - - - - - - - -
 72
65
 73
2
 40
0.2
 49
0.1
 74
0
 49
-0.1
 74
0
  0
LTYPE
  5
1F7
100
AcDbSymbolTableRecord
100
AcDbLinetypeTableRecord
  2
PHANTOM
 70
64
  3
_____ _ _ _____ _ _ _____ _ _ _____
 72
65
 73
6
 40
0.8
 49
0.45
 74
0
 49
-0.05
 74
0
 49
0.1
 74
0
 49
-0.05
 74
0
 49
0.1
 74
0
 49
-0.05
 74
0
  0
LTYPE
  5
1F8
100
AcDbSymbolTableRecord
100
AcDbLinetypeTableRecord
  2
DOT
 70
64
  3
. . . . . . . . . . . . . . . . . . . .
 72
65
 73
2
 40
0.2
 49
0.1
 74
0
 49
-0.1
 74
0
  0
LTYPE
  5
1F9
100
AcDbSymbolTableRecord
100
AcDbLinetypeTableRecord
  2
DASHED
 70
64
  3
- - - - - - - - - - - - - - - - - - - -
 72
65
 73
2
 40
0.2
 49
0.1
 74
0
 49
-0.1
 74
0
  0
ENDTAB
  0
TABLE
  2
LAYER
  5
2
100
AcDbSymbolTable
 70
36
  0
LAYER
  5
10
100
AcDbSymbolTableRecord
100
AcDbLayerTableRecord
  2
0
 70
0
 62
7
  6
CONTINUOUS
370
-3
390
F
  0
LAYER
  5
1FA
100
AcDbSymbolTableRecord
100
AcDbLayerTableRecord
  2
DEFAULT_1
 70
0
 62
7
  6
CENTER
370
-3
390
F
  0
LAYER
  5
1FB
100
AcDbSymbolTableRecord
100
AcDbLayerTableRecord
  2
DEFAULT_2
 70
0
 62
7
  6
HIDDEN
370
-3
390
F
  0
LAYER
  5
1FC
100
AcDbSymbolTableRecord
100
AcDbLayerTableRecord
  2
DEFAULT_3
 70
0
 62
7
  6
PHANTOM
370
-3
390
F
  0
LAYER
  5
1FD
100
AcDbSymbolTableRecord
100
AcDbLayerTableRecord
  2
00_COMPONENTS
 70
0
 62
7
  6
CONTINUOUS
370
-3
390
F
  0
LAYER
  5
1FE
100
AcDbSymbolTableRecord
100
AcDbLayerTableRecord
  2
01_1_DEFAULT_DATUMS
 70
0
 62
7
  6
CONTINUOUS
370
-3
390
F
  0
LAYER
  5
1FF
100
AcDbSymbolTableRecord
100
AcDbLayerTableRecord
  2
01_PLANES
 70
0
 62
7
  6
CONTINUOUS
370
-3
390
F
  0
LAYER
  5
200
100
AcDbSymbolTableRecord
100
AcDbLayerTableRecord
  2
02_COORD_SYS
 70
0
 62
7
  6
CONTINUOUS
370
-3
390
F
  0
LAYER
  5
201
100
AcDbSymbolTableRecord
100
AcDbLayerTableRecord
  2
03_AXES
 70
0
 62
7
  6
CONTINUOUS
370
-3
390
F
  0
LAYER
  5
202
100
AcDbSymbolTableRecord
100
AcDbLayerTableRecord
  2
04_POINTS
 70
0
 62
7
  6
CONTINUOUS
370
-3
390
F
  0
LAYER
  5
203
100
AcDbSymbolTableRecord
100
AcDbLayerTableRecord
  2
05_CURVES
 70
0
 62
7
  6
CONTINUOUS
370
-3
390
F
  0
LAYER
  5
204
100
AcDbSymbolTableRecord
100
AcDbLayerTableRecord
  2
06_SURFS
 70
0
 62
7
  6
CONTINUOUS
370
-3
390
F
  0
LAYER
  5
205
100
AcDbSymbolTableRecord
100
AcDbLayerTableRecord
  2
07_COSMETICS
 70
0
 62
7
  6
CONTINUOUS
370
-3
390
F
  0
LAYER
  5
206
100
AcDbSymbolTableRecord
100
AcDbLayerTableRecord
  2
10_NOTES
 70
0
 62
7
  6
CONTINUOUS
370
-3
390
F
  0
LAYER
  5
207
100
AcDbSymbolTableRecord
100
AcDbLayerTableRecord
  2
11_NOTES_PUB
 70
0
 62
7
  6
CONTINUOUS
370
-3
390
F
  0
LAYER
  5
208
100
AcDbSymbolTableRecord
100
AcDbLayerTableRecord
  2
13_REF_GTOL
 70
0
 62
7
  6
CONTINUOUS
370
-3
390
F
  0
LAYER
  5
209
100
AcDbSymbolTableRecord
100
AcDbLayerTableRecord
  2
16_MISC
 70
0
 62
7
  6
CONTINUOUS
370
-3
390
F
  0
LAYER
  5
20A
100
AcDbSymbolTableRecord
100
AcDbLayerTableRecord
  2
17_NO_PRINT
 70
0
 62
7
  6
CONTINUOUS
370
-3
390
F
  0
LAYER
  5
20B
100
AcDbSymbolTableRecord
100
AcDbLayerTableRecord
  2
18_DATUM_CAMS_JOINTS
 70
0
 62
7
  6
CONTINUOUS
370
-3
390
F
  0
LAYER
  5
20C
100
AcDbSymbolTableRecord
100
AcDbLayerTableRecord
  2
19_DATUM_FUNCTIONAL
 70
0
 62
7
  6
CONTINUOUS
370
-3
390
F
  0
LAYER
  5
20D
100
AcDbSymbolTableRecord
100
AcDbLayerTableRecord
  2
20_DATUM_KINEMATIC_SCHEME
 70
0
 62
7
  6
CONTINUOUS
370
-3
390
F
  0
ENDTAB
  0
TABLE
  2
STYLE
  5
3
100
AcDbSymbolTable
 70
1
  0
STYLE
  5
11
100
AcDbSymbolTableRecord
100
AcDbTextStyleTableRecord
  2
STANDARD
 70
0
 40
0.0
 41
1.0
 50
0.0
 71
0
 42
0.2
  3
ARIAL.TTF
  4

  0
STYLE
  5
20E
100
AcDbSymbolTableRecord
100
AcDbTextStyleTableRecord
  2
TEXTSTYLE_1
 70
0
 40
0.0
 41
0.8
 50
0.0
 71
0
 42
0.2
  3
gdt
  4

  0
ENDTAB
  0
TABLE
  2
VIEW
  5
6
100
AcDbSymbolTable
 70
0
  0
ENDTAB
  0
TABLE
  2
UCS
  5
7
100
AcDbSymbolTable
 70
0
  0
ENDTAB
  0
TABLE
  2
APPID
  5
9
100
AcDbSymbolTable
 70
1
  0
APPID
  5
20F
100
AcDbSymbolTableRecord
100
AcDbRegAppTableRecord
  2
ACAD
 70
0
  0
ENDTAB
  0
TABLE
  2
BLOCK_RECORD
  5
1
100
AcDbSymbolTable
 70
0
  0
BLOCK_RECORD
  5
210
100
AcDbSymbolTableRecord
100
AcDbBlockTableRecord
  2
*Model_Space
  0
BLOCK_RECORD
  5
211
100
AcDbSymbolTableRecord
100
AcDbBlockTableRecord
  2
*Paper_Space
  0
BLOCK_RECORD
  5
212
100
AcDbSymbolTableRecord
100
AcDbBlockTableRecord
  2
_FILLED
  0
ENDTAB
  0
TABLE
  2
DIMSTYLE
  5
A
100
AcDbSymbolTable
 70
1
100
AcDbDimStyleTable
 71
0
  0
DIMSTYLE
105
213
100
AcDbSymbolTableRecord
100
AcDbDimStyleTableRecord
  2
STANDARD
 70
0
  3

  4

 40
1.0
 41
0.6616456106
 42
1.0
 43
0.38
 44
1.0
 45
0.0
 46
0.0
 47
0.01
 48
0.01
140
0.9263038549
141
0.09
142
0.0
143
25.4
144
1.0
145
0.0
146
1.0
147
0.625
 71
1
 72
0
 73
0
 74
0
 75
0
 76
0
 77
1
 78
8
 79
2
170
0
171
1
172
0
173
0
174
0
175
0
176
0
177
0
178
0
270
2
179
2
271
2
272
2
273
2
274
2
275
0
280
0
281
0
282
0
283
1
284
8
285
0
286
0
287
3
288
0
340
11
278
46
341
212
342
212
343
212
344
212
  0
ENDTAB
  0
ENDSEC
  0
SECTION
  2
BLOCKS
  0
BLOCK
  5
20
100
AcDbEntity
  8
0
100
AcDbBlockBegin
  2
*Model_Space
 70
0
 10
0.0
 20
0.0
 30
0.0
  3
*Model_Space
  1

  0
ENDBLK
  5
21
100
AcDbEntity
  8
0
100
AcDbBlockEnd
  0
BLOCK
  5
1C
100
AcDbEntity
  8
0
100
AcDbBlockBegin
  2
*Paper_Space
 70
0
 10
0.0
 20
0.0
 30
0.0
  3
*Paper_Space
  1

  0
ENDBLK
  5
1D
100
AcDbEntity
  8
0
100
AcDbBlockEnd
  0
BLOCK
  5
214
100
AcDbEntity
  8
0
100
AcDbBlockBegin
  2
_FILLED
 70
64
 10
0.0
 20
0.0
  3
_FILLED
  1

  0
SOLID
  5
215
100
AcDbEntity
  8
0
  6
BYBLOCK
 62
0
100
AcDbTrace
 10
0.0
 20
0.0
 11
-1.0
 21
0.25
 12
-1.0
 22
-0.25
 13
-1.0
 23
-0.25
  0
ENDBLK
  5
216
100
AcDbEntity
  8
0
  6
BYBLOCK
 62
0
100
AcDbBlockEnd
  0
ENDSEC
  0
SECTION
  2
ENTITIES
  0
LINE
  5
217
100
AcDbEntity
  8
0
100
AcDbLine
 62
7
  6
BYLAYER
 10
33.8085927258
 20
6.3979591837
 11
23.3089971673
 21
6.3979591837
  0
LINE
  5
218
100
AcDbEntity
  8
0
100
AcDbLine
 62
7
  6
BYLAYER
 10
23.3087949466
 20
7.8979591837
 11
33.8087949466
 21
7.8979591837
  0
LINE
  5
219
100
AcDbEntity
  8
0
100
AcDbLine
 62
7
  6
BYLAYER
 10
23.1426215485
 20
8.6479591837
 11
22.5587949466
 21
8.6479591837
  0
LINE
  5
21A
100
AcDbEntity
  8
0
100
AcDbLine
 62
7
  6
BYLAYER
 10
22.7481960623
 20
8.4650846021
 11
23.3015529695
 21
8.1480065321
  0
LINE
  5
21B
100
AcDbEntity
  8
0
100
AcDbLine
 62
7
  6
BYLAYER
 10
22.5651166763
 20
9.5699397216
 11
23.3015365222
 21
9.1479860119
  0
LINE
  5
21C
100
AcDbEntity
  8
0
100
AcDbLine
 62
7
  6
BYLAYER
 10
22.5651335547
 20
10.5698975964
 11
23.3015313378
 21
10.147959535
  0
LINE
  5
21D
100
AcDbEntity
  8
0
100
AcDbLine
 62
7
  6
BYLAYER
 10
22.748528364
 20
8.4647498922
 11
22.7243357032
 21
8.4824184268
  0
LINE
  5
21E
100
AcDbEntity
  8
0
100
AcDbLine
 62
7
  6
BYLAYER
 10
22.5651735121
 20
11.5698508246
 11
23.3015365239
 21
11.1479330586
  0
LINE
  5
21F
100
AcDbEntity
  8
0
100
AcDbLine
 62
7
  6
BYLAYER
 10
22.5652397681
 20
12.5698051354
 11
23.3015529173
 21
12.1479125079
  0
LINE
  5
220
100
AcDbEntity
  8
0
100
AcDbLine
 62
7
  6
BYLAYER
 10
22.5652999457
 20
13.5697835105
 11
23.3015815969
 21
13.1479029227
  0
LINE
  5
221
100
AcDbEntity
  8
0
100
AcDbLine
 62
7
  6
BYLAYER
 10
23.3087949459
 20
7.897959183
 11
23.1498195742
 21
8.0569345549
  0
LINE
  5
222
100
AcDbEntity
  8
0
100
AcDbLine
 62
7
  6
BYLAYER
 10
22.7241888848
 20
8.4825652452
 11
22.5587949466
 21
8.6479591837
  0
LINE
  5
223
100
AcDbEntity
  8
0
100
AcDbLine
 62
7
  6
BYLAYER
 10
22.5653338546
 20
14.56979111
 11
23.3016164149
 21
14.1479041193
  0
LINE
  5
224
100
AcDbEntity
  8
0
100
AcDbLine
 62
7
  6
BYLAYER
 10
34.283860349
 20
8.379776734
 11
33.8159149421
 21
8.6479296357
  0
LINE
  5
225
100
AcDbEntity
  8
0
100
AcDbLine
 62
7
  6
BYLAYER
 10
22.5653449887
 20
15.5698184944
 11
23.3016495238
 21
15.1479138132
  0
LWPOLYLINE
  5
226
100
AcDbEntity
  8
0
100
AcDbPolyline
 62
7
  6
BYLAYER
 90
3
 70
0
 10
34.5523077638
 20
9.225979555
 10
33.9976006505
 20
9.5438199522
 10
33.8159012178
 20
9.647949159
  0
LINE
  5
227
100
AcDbEntity
  8
0
100
AcDbLine
 62
7
  6
BYLAYER
 10
22.5651334972
 20
10.5698503931
 11
22.5587949466
 21
10.5771667749
  0
LINE
  5
228
100
AcDbEntity
  8
0
100
AcDbLine
 62
7
  6
BYLAYER
 10
22.5651165802
 20
9.5698608008
 11
22.5587949466
 21
9.5771676429
  0
LINE
  5
229
100
AcDbEntity
  8
0
100
AcDbLine
 62
7
  6
BYLAYER
 10
22.5653372544
 20
16.5698571382
 11
23.301674951
 21
16.1479296357
  0
LWPOLYLINE
  5
22A
100
AcDbEntity
  8
0
100
AcDbPolyline
 62
7
  6
BYLAYER
 90
3
 70
0
 10
34.5522750468
 20
10.2260194872
 10
33.9976242635
 20
10.5438273039
 10
33.815901219
 20
10.6479699198
  0
LWPOLYLINE
  5
22B
100
AcDbEntity
  8
0
100
AcDbPolyline
 62
7
  6
BYLAYER
 90
3
 70
0
 10
34.5522526364
 20
11.2260619233
 10
33.9976708367
 20
11.543828574
 10
33.8159149455
 20
11.6479894427
  0
LINE
  5
22C
100
AcDbEntity
  8
0
100
AcDbLine
 62
7
  6
BYLAYER
 10
22.5653337857
 20
14.5697354405
 11
22.5587949466
 21
14.5771667121
  0
LINE
  5
22D
100
AcDbEntity
  8
0
100
AcDbLine
 62
7
  6
BYLAYER
 10
22.5652999093
 20
13.5697540513
 11
22.5587949466
 21
13.5771657445
  0
LINE
  5
22E
100
AcDbEntity
  8
0
100
AcDbLine
 62
7
  6
BYLAYER
 10
22.5652397473
 20
12.5697882247
 11
22.5587949466
 21
12.5771653993
  0
LINE
  5
22F
100
AcDbEntity
  8
0
100
AcDbLine
 62
7
  6
BYLAYER
 10
22.5651734825
 20
11.569826637
 11
22.5587949466
 21
11.5771658451
  0
LINE
  5
230
100
AcDbEntity
  8
0
100
AcDbLine
 62
7
  6
BYLAYER
 10
17.0587949466
 20
20.3979591837
 11
40.0587949466
 21
20.3979591837
  0
LINE
  5
231
100
AcDbEntity
  8
0
100
AcDbLine
 62
7
  6
BYLAYER
 10
34.5522449051
 20
12.2261005659
 11
33.8159403744
 21
12.6480052642
  0
LINE
  5
232
100
AcDbEntity
  8
0
100
AcDbLine
 62
7
  6
BYLAYER
 10
34.5522560429
 20
13.2261279474
 11
33.8159734842
 21
13.6480149568
  0
LINE
  5
233
100
AcDbEntity
  8
0
100
AcDbLine
 62
7
  6
BYLAYER
 10
34.5522899562
 20
14.2261355429
 11
33.8160083018
 21
14.6480161516
  0
LINE
  5
234
100
AcDbEntity
  8
0
100
AcDbLine
 62
7
  6
BYLAYER
 10
22.5653448789
 20
15.5697298923
 11
22.5587949466
 21
15.5771676789
  0
LINE
  5
235
100
AcDbEntity
  8
0
100
AcDbLine
 62
7
  6
BYLAYER
 10
22.5653371024
 20
16.5697343889
 11
22.5587949466
 21
16.5771677075
  0
LINE
  5
236
100
AcDbEntity
  8
0
100
AcDbLine
 62
7
  6
BYLAYER
 10
39.5087949465
 20
23.0910471444
 11
38.5087949465
 21
23.0648701961
  0
LINE
  5
237
100
AcDbEntity
  8
0
100
AcDbLine
 62
7
  6
BYLAYER
 10
18.9587949466
 20
21.3576302157
 11
38.1587949466
 21
21.3576302157
  0
LINE
  5
238
100
AcDbEntity
  8
0
100
AcDbLine
 62
7
  6
BYLAYER
 10
38.1587949466
 20
21.3968956381
 11
18.9587949466
 21
21.3968956381
  0
LINE
  5
239
100
AcDbEntity
  8
0
100
AcDbLine
 62
7
  6
BYLAYER
 10
38.0087949466
 20
21.591561157
 11
19.1087949466
 21
21.591561157
  0
LINE
  5
23A
100
AcDbEntity
  8
0
100
AcDbLine
 62
7
  6
BYLAYER
 10
19.1087949466
 20
22.5650415336
 11
38.0087949465
 21
22.5650415336
  0
LINE
  5
23B
100
AcDbEntity
  8
0
100
AcDbLine
 62
7
  6
BYLAYER
 10
18.6087949465
 20
23.0648701961
 11
17.6087949465
 21
23.0910471444
  0
LINE
  5
23C
100
AcDbEntity
  8
0
100
AcDbLine
 62
7
  6
BYLAYER
 10
34.552350136
 20
15.2261139134
 11
33.8160369795
 21
15.6480065641
  0
LINE
  5
23D
100
AcDbEntity
  8
0
100
AcDbLine
 62
7
  6
BYLAYER
 10
34.5522527845
 20
11.2261814997
 11
34.5587949465
 21
11.2187479214
  0
LINE
  5
23E
100
AcDbEntity
  8
0
100
AcDbLine
 62
7
  6
BYLAYER
 10
34.5522752394
 20
10.2261752355
 11
34.5587949465
 21
10.218755532
  0
LINE
  5
23F
100
AcDbEntity
  8
0
100
AcDbLine
 62
7
  6
BYLAYER
 10
34.5523079741
 20
9.226150001
 11
34.5587949465
 21
9.2187476818
  0
LINE
  5
240
100
AcDbEntity
  8
0
100
AcDbLine
 62
7
  6
BYLAYER
 10
17.0587949466
 20
20.3979591837
 11
17.0587949466
 21
72.3706588539
  0
LINE
  5
241
100
AcDbEntity
  8
0
100
AcDbLine
 62
7
  6
BYLAYER
 10
34.5522450188
 20
12.2261923321
 11
34.5587949465
 21
12.2187553151
  0
LINE
  5
242
100
AcDbEntity
  8
0
100
AcDbLine
 62
7
  6
BYLAYER
 10
34.552256107
 20
13.2261797401
 11
34.5587949465
 21
13.2187482606
  0
LINE
  5
243
100
AcDbEntity
  8
0
100
AcDbLine
 62
7
  6
BYLAYER
 10
34.5522899945
 20
14.2261666001
 11
34.5587949465
 21
14.2187550406
  0
LINE
  5
244
100
AcDbEntity
  8
0
100
AcDbLine
 62
7
  6
BYLAYER
 10
34.5523501512
 20
15.2261262796
 11
34.5587949465
 21
15.2187486745
  0
LINE
  5
245
100
AcDbEntity
  8
0
100
AcDbLine
 62
7
  6
BYLAYER
 10
17.5087949466
 20
67.4541301693
 11
17.5087949466
 21
22.8071333369
  0
LINE
  5
246
100
AcDbEntity
  8
0
100
AcDbLine
 62
7
  6
BYLAYER
 10
17.6087949466
 20
23.0910471444
 11
17.6087949466
 21
67.4920416327
  0
LINE
  5
247
100
AcDbEntity
  8
0
100
AcDbLine
 62
7
  6
BYLAYER
 10
18.6087949466
 20
67.4658646844
 11
18.6087949466
 21
23.0648701961
  0
LINE
  5
248
100
AcDbEntity
  8
0
100
AcDbLine
 62
7
  6
BYLAYER
 10
18.9587949466
 20
21.3576302157
 11
18.9587949466
 21
21.3968956381
  0
LINE
  5
249
100
AcDbEntity
  8
0
100
AcDbLine
 62
7
  6
BYLAYER
 10
19.1087949466
 20
21.591561157
 11
19.1087949466
 21
22.5650415336
  0
LINE
  5
24A
100
AcDbEntity
  8
0
100
AcDbLine
 62
7
  6
BYLAYER
 10
22.5587949466
 20
20.3979591837
 11
22.5587949466
 21
16.5773393732
  0
LINE
  5
24B
100
AcDbEntity
  8
0
100
AcDbLine
 62
7
  6
BYLAYER
 10
22.5587949466
 20
15.7185806863
 11
22.5587949466
 21
15.5773171906
  0
LINE
  5
24C
100
AcDbEntity
  8
0
100
AcDbLine
 62
7
  6
BYLAYER
 10
22.5587949466
 20
14.7186033666
 11
22.5587949466
 21
14.5772869508
  0
LINE
  5
24D
100
AcDbEntity
  8
0
100
AcDbLine
 62
7
  6
BYLAYER
 10
22.5587949466
 20
13.7186338656
 11
22.5587949466
 21
13.577252541
  0
LINE
  5
24E
100
AcDbEntity
  8
0
100
AcDbLine
 62
7
  6
BYLAYER
 10
22.5587949466
 20
12.7186682423
 11
22.5587949466
 21
12.577219137
  0
LINE
  5
24F
100
AcDbEntity
  8
0
100
AcDbLine
 62
7
  6
BYLAYER
 10
22.5587949466
 20
11.7187013056
 11
22.5587949466
 21
11.5771931819
  0
LINE
  5
250
100
AcDbEntity
  8
0
100
AcDbLine
 62
7
  6
BYLAYER
 10
22.5587949466
 20
10.7187266508
 11
22.5587949466
 21
10.5771823524
  0
LINE
  5
251
100
AcDbEntity
  8
0
100
AcDbLine
 62
7
  6
BYLAYER
 10
22.5587949466
 20
9.7187367022
 11
22.5587949466
 21
9.5771924006
  0
LINE
  5
252
100
AcDbEntity
  8
0
100
AcDbLine
 62
7
  6
BYLAYER
 10
22.5587949466
 20
8.7187258762
 11
22.5587949466
 21
8.6479591837
  0
LINE
  5
253
100
AcDbEntity
  8
0
100
AcDbLine
 62
7
  6
BYLAYER
 10
23.3087949466
 20
6.3979591837
 11
23.3087949466
 21
7.8979591823
  0
LINE
  5
254
100
AcDbEntity
  8
0
100
AcDbLine
 62
7
  6
BYLAYER
 10
34.2839033147
 20
8.3798196761
 11
34.2856985273
 21
8.374862764
  0
LINE
  5
255
100
AcDbEntity
  8
0
100
AcDbLine
 62
7
  6
BYLAYER
 10
38.2098587765
 20
67.9234996156
 11
38.6119864357
 21
68.8649464247
  0
LINE
  5
256
100
AcDbEntity
  8
0
100
AcDbLine
 62
7
  6
BYLAYER
 10
28.5587949466
 20
16.8271666313
 11
28.5587949466
 21
15.9687517361
  0
LINE
  5
257
100
AcDbEntity
  8
0
100
AcDbLine
 62
7
  6
BYLAYER
 10
18.5056034574
 20
68.8649464247
 11
18.9077311166
 21
67.9234996156
  0
LINE
  5
258
100
AcDbEntity
  8
0
100
AcDbLine
 62
7
  6
BYLAYER
 10
33.8087949466
 20
6.3979591837
 11
33.8087949466
 21
7.8979591823
  0
LINE
  5
259
100
AcDbEntity
  8
0
100
AcDbLine
 62
7
  6
BYLAYER
 10
34.5587949466
 20
20.3979591837
 11
34.5587949466
 21
16.0772177437
  0
LINE
  5
25A
100
AcDbEntity
  8
0
100
AcDbLine
 62
7
  6
BYLAYER
 10
34.5587949466
 20
15.2186999231
 11
34.5587949466
 21
15.0772508063
  0
LINE
  5
25B
100
AcDbEntity
  8
0
100
AcDbLine
 62
7
  6
BYLAYER
 10
34.5587949466
 20
14.2186665199
 11
34.5587949466
 21
14.0772851831
  0
LINE
  5
25C
100
AcDbEntity
  8
0
100
AcDbLine
 62
7
  6
BYLAYER
 10
34.5587949466
 20
13.2186321094
 11
34.5587949466
 21
13.0773156832
  0
LINE
  5
25D
100
AcDbEntity
  8
0
100
AcDbLine
 62
7
  6
BYLAYER
 10
34.5587949466
 20
12.2186018687
 11
34.5587949466
 21
12.0773383652
  0
LINE
  5
25E
100
AcDbEntity
  8
0
100
AcDbLine
 62
7
  6
BYLAYER
 10
34.5587949466
 20
11.2185796843
 11
34.5587949466
 21
11.0773505657
  0
LINE
  5
25F
100
AcDbEntity
  8
0
100
AcDbLine
 62
7
  6
BYLAYER
 10
34.5587949466
 20
10.218568136
 11
34.5587949466
 21
10.0773509196
  0
LINE
  5
260
100
AcDbEntity
  8
0
100
AcDbLine
 62
7
  6
BYLAYER
 10
34.5587949466
 20
9.2185684878
 11
34.5587949466
 21
9.0773393733
  0
LINE
  5
261
100
AcDbEntity
  8
0
100
AcDbLine
 62
7
  6
BYLAYER
 10
23.1517643444
 20
8.0621128676
 11
23.149880312
 21
8.0568738172
  0
LINE
  5
262
100
AcDbEntity
  8
0
100
AcDbLine
 62
7
  6
BYLAYER
 10
38.0087949466
 20
22.5650415336
 11
38.0087949466
 21
21.591561157
  0
LINE
  5
263
100
AcDbEntity
  8
0
100
AcDbLine
 62
7
  6
BYLAYER
 10
38.1587949466
 20
21.3968956381
 11
38.1587949466
 21
21.3576302157
  0
LINE
  5
264
100
AcDbEntity
  8
0
100
AcDbLine
 62
7
  6
BYLAYER
 10
38.5087949466
 20
23.0648701961
 11
38.5087949466
 21
67.4658646844
  0
LINE
  5
265
100
AcDbEntity
  8
0
100
AcDbLine
 62
7
  6
BYLAYER
 10
39.5087949466
 20
67.4920416327
 11
39.5087949466
 21
23.0910471444
  0
LINE
  5
266
100
AcDbEntity
  8
0
100
AcDbLine
 62
7
  6
BYLAYER
 10
39.6087949466
 20
22.8071333369
 11
39.6087949466
 21
67.4541301693
  0
LINE
  5
267
100
AcDbEntity
  8
0
100
AcDbLine
 62
7
  6
BYLAYER
 10
40.0587949466
 20
72.3706588539
 11
40.0587949466
 21
20.3979591837
  0
LINE
  5
268
100
AcDbEntity
  8
0
100
AcDbLine
 62
7
  6
BYLAYER
 10
22.5652034099
 20
14.7261096568
 11
22.5587949466
 21
14.7187542062
  0
LINE
  5
269
100
AcDbEntity
  8
0
100
AcDbLine
 62
7
  6
BYLAYER
 10
22.5652433441
 20
15.7261295094
 11
22.5587949466
 21
15.7187486717
  0
LINE
  5
26A
100
AcDbEntity
  8
0
100
AcDbLine
 62
7
  6
BYLAYER
 10
22.5651190383
 20
11.7260588907
 11
22.5587949466
 21
11.7187497365
  0
LINE
  5
26B
100
AcDbEntity
  8
0
100
AcDbLine
 62
7
  6
BYLAYER
 10
22.565116578
 20
10.7260587639
 11
22.5587949466
 21
10.7187533091
  0
LINE
  5
26C
100
AcDbEntity
  8
0
100
AcDbLine
 62
7
  6
BYLAYER
 10
22.565137024
 20
12.7260710202
 11
22.5587949466
 21
12.7187537791
  0
LINE
  5
26D
100
AcDbEntity
  8
0
100
AcDbLine
 62
7
  6
BYLAYER
 10
22.565166539
 20
13.7260858389
 11
22.5587949466
 21
13.7187491725
  0
LINE
  5
26E
100
AcDbEntity
  8
0
100
AcDbLine
 62
7
  6
BYLAYER
 10
22.5651334929
 20
9.7260677164
 11
22.5587949466
 21
9.7187503186
  0
LINE
  5
26F
100
AcDbEntity
  8
0
100
AcDbLine
 62
7
  6
BYLAYER
 10
22.5651734805
 20
8.7260860914
 11
22.5587949466
 21
8.7187484827
  0
LINE
  5
270
100
AcDbEntity
  8
0
100
AcDbLine
 62
7
  6
BYLAYER
 10
23.3164492953
 20
16.1563965631
 11
22.5652435684
 21
15.725947162
  0
LINE
  5
271
100
AcDbEntity
  8
0
100
AcDbLine
 62
7
  6
BYLAYER
 10
23.3164122539
 20
15.156374025
 11
22.5652036349
 21
14.7259260099
  0
LINE
  5
272
100
AcDbEntity
  8
0
100
AcDbLine
 62
7
  6
BYLAYER
 10
34.552470857
 20
16.0698594958
 11
34.5587949465
 21
16.0771678734
  0
LINE
  5
273
100
AcDbEntity
  8
0
100
AcDbLine
 62
7
  6
BYLAYER
 10
34.5524528723
 20
15.0698485329
 11
34.5587949465
 21
15.077167207
  0
LINE
  5
274
100
AcDbEntity
  8
0
100
AcDbLine
 62
7
  6
BYLAYER
 10
34.5524233625
 20
14.0698307333
 11
34.5587949465
 21
14.0771661907
  0
LINE
  5
275
100
AcDbEntity
  8
0
100
AcDbLine
 62
7
  6
BYLAYER
 10
23.316358574
 20
14.1563524561
 11
22.5651667437
 21
13.7259184217
  0
LINE
  5
276
100
AcDbEntity
  8
0
100
AcDbLine
 62
7
  6
BYLAYER
 10
23.316294369
 20
13.1563343158
 11
22.5651372016
 21
12.7259253202
  0
LINE
  5
277
100
AcDbEntity
  8
0
100
AcDbLine
 62
7
  6
BYLAYER
 10
23.3162276898
 20
12.1563220186
 11
23.1198330775
 21
12.0437763153
  0
LINE
  5
278
100
AcDbEntity
  8
0
100
AcDbLine
 62
7
  6
BYLAYER
 10
23.1198330775
 20
12.0437763153
 11
22.5651191755
 21
11.7259462337
  0
LINE
  5
279
100
AcDbEntity
  8
0
100
AcDbLine
 62
7
  6
BYLAYER
 10
34.55238649
 20
13.0698090756
 11
34.5587949465
 21
13.0771655272
  0
LINE
  5
27A
100
AcDbEntity
  8
0
100
AcDbLine
 62
7
  6
BYLAYER
 10
34.5523465595
 20
12.0697863001
 11
34.5587949465
 21
12.077165626
  0
LINE
  5
27B
100
AcDbEntity
  8
0
100
AcDbLine
 62
7
  6
BYLAYER
 10
34.5523079851
 20
11.0697648461
 11
34.5587949465
 21
11.0771663949
  0
LINE
  5
27C
100
AcDbEntity
  8
0
100
AcDbLine
 62
7
  6
BYLAYER
 10
23.3161684299
 20
11.1563179105
 11
23.1197902696
 21
11.0437828932
  0
LINE
  5
27D
100
AcDbEntity
  8
0
100
AcDbLine
 62
7
  6
BYLAYER
 10
23.1197902696
 20
11.0437828932
 11
22.5651166746
 21
10.725979326
  0
LINE
  5
27E
100
AcDbEntity
  8
0
100
AcDbLine
 62
7
  6
BYLAYER
 10
23.3161282104
 20
10.156324248
 11
23.1197671602
 21
10.0437998819
  0
LINE
  5
27F
100
AcDbEntity
  8
0
100
AcDbLine
 62
7
  6
BYLAYER
 10
23.1197671602
 20
10.0437998819
 11
22.5651335493
 21
9.7260214498
  0
LINE
  5
280
100
AcDbEntity
  8
0
100
AcDbLine
 62
7
  6
BYLAYER
 10
33.8013622147
 20
15.6395970375
 11
34.552470719
 21
16.0699728159
  0
LINE
  5
281
100
AcDbEntity
  8
0
100
AcDbLine
 62
7
  6
BYLAYER
 10
34.5522752401
 20
10.0697469092
 11
34.5587949465
 21
10.0771673671
  0
LINE
  5
282
100
AcDbEntity
  8
0
100
AcDbLine
 62
7
  6
BYLAYER
 10
34.5522527905
 20
9.0697345796
 11
34.5587949465
 21
9.0771679773
  0
LWPOLYLINE
  5
283
100
AcDbEntity
  8
0
100
AcDbPolyline
 62
7
  6
BYLAYER
 90
4
 70
0
 10
23.3161202458
 20
9.1563431787
 10
23.1197773626
 20
9.0438293739
 10
22.7904577485
 20
8.8551365659
 10
22.5651735023
 20
8.7260682214
  0
LINE
  5
284
100
AcDbEntity
  8
0
100
AcDbLine
 62
7
  6
BYLAYER
 10
33.8012955359
 20
14.6395847415
 11
34.5524526953
 21
15.0699937317
  0
LINE
  5
285
100
AcDbEntity
  8
0
100
AcDbLine
 62
7
  6
BYLAYER
 10
23.3161591496
 20
8.1563766971
 11
23.1517285191
 21
8.0621486708
  0
LINE
  5
286
100
AcDbEntity
  8
0
100
AcDbLine
 62
7
  6
BYLAYER
 10
33.8012313296
 20
13.6395666021
 11
34.5524231549
 21
14.0700006327
  0
LINE
  5
287
100
AcDbEntity
  8
0
100
AcDbLine
 62
7
  6
BYLAYER
 10
33.8011776473
 20
12.6395450335
 11
34.5523862645
 21
13.069993047
  0
LINE
  5
288
100
AcDbEntity
  8
0
100
AcDbLine
 62
7
  6
BYLAYER
 10
33.8087949472
 20
7.897959183
 11
34.2857064366
 21
8.3748706732
  0
LINE
  5
289
100
AcDbEntity
  8
0
100
AcDbLine
 62
7
  6
BYLAYER
 10
33.8011406026
 20
11.6395224953
 11
34.5523463313
 21
12.0699718971
  0
LINE
  5
28A
100
AcDbEntity
  8
0
100
AcDbLine
 62
7
  6
BYLAYER
 10
33.801124299
 20
10.639501469
 11
34.5523077697
 21
11.0699395058
  0
LINE
  5
28B
100
AcDbEntity
  8
0
100
AcDbLine
 62
7
  6
BYLAYER
 10
38.5087949465
 20
67.4658646844
 11
39.5087949465
 21
67.4920416327
  0
LINE
  5
28C
100
AcDbEntity
  8
0
100
AcDbLine
 62
7
  6
BYLAYER
 10
17.6087949465
 20
67.4920416327
 11
18.6087949465
 21
67.4658646844
  0
LINE
  5
28D
100
AcDbEntity
  8
0
100
AcDbLine
 62
7
  6
BYLAYER
 10
33.8011307806
 20
9.6394844334
 11
34.5522750513
 21
10.0698995746
  0
LINE
  5
28E
100
AcDbEntity
  8
0
100
AcDbLine
 62
7
  6
BYLAYER
 10
33.8011600078
 20
8.639473841
 11
34.5522526387
 21
9.0698571382
  0
LINE
  5
28F
100
AcDbEntity
  8
0
100
AcDbLine
 62
7
  6
BYLAYER
 10
30.7926151901
 20
72.3979591837
 11
26.324974703
 21
72.3979591837
  0
ARC
  5
290
100
AcDbEntity
  8
0
100
AcDbCircle
 62
7
  6
BYLAYER
 10
19.1087481188
 20
23.091823347
 40
1.5002606528
100
AcDbArc
 50
225.0124105731
 51
270.0017883766
  0
ARC
  5
291
100
AcDbEntity
  8
0
100
AcDbCircle
 62
7
  6
BYLAYER
 10
19.1080189793
 20
23.0910939732
 40
1.4992256013
100
AcDbArc
 50
180.0017896538
 51
225.012412778
  0
ARC
  5
292
100
AcDbEntity
  8
0
100
AcDbCircle
 62
7
  6
BYLAYER
 10
18.9588213036
 20
22.8080566446
 40
1.4504196628
100
AcDbArc
 50
225.0152402041
 51
269.9989588262
  0
ARC
  5
293
100
AcDbEntity
  8
0
100
AcDbCircle
 62
7
  6
BYLAYER
 10
18.9588213038
 20
22.8473220667
 40
1.4504196625
100
AcDbArc
 50
225.0152401845
 51
269.998958815
  0
ARC
  5
294
100
AcDbEntity
  8
0
100
AcDbCircle
 62
7
  6
BYLAYER
 10
18.9582226888
 20
22.807252297
 40
1.4494241936
100
AcDbArc
 50
180.0047024865
 51
225.0095000266
  0
ARC
  5
295
100
AcDbEntity
  8
0
100
AcDbCircle
 62
7
  6
BYLAYER
 10
18.9578961003
 20
22.8463820747
 40
1.4490838281
100
AcDbArc
 50
181.5304304757
 51
225.0148405992
  0
ARC
  5
296
100
AcDbEntity
  8
0
100
AcDbCircle
 62
7
  6
BYLAYER
 10
19.1087618965
 20
23.0650829204
 40
0.5000413878
100
AcDbArc
 50
225.010096966
 51
270.0037869469
  0
ARC
  5
297
100
AcDbEntity
  8
0
100
AcDbCircle
 62
7
  6
BYLAYER
 10
19.1084913521
 20
23.0648655748
 40
0.4996964055
100
AcDbArc
 50
179.9994701074
 51
225.0144171706
  0
ARC
  5
298
100
AcDbEntity
  8
0
100
AcDbCircle
 62
7
  6
BYLAYER
 10
19.1123667886
 20
67.5015606444
 40
1.5048039658
100
AcDbArc
 50
140.0533153367
 51
141.3661801846
  0
ARC
  5
299
100
AcDbEntity
  8
0
100
AcDbCircle
 62
7
  6
BYLAYER
 10
19.1126805721
 20
67.5026790338
 40
1.5044542396
100
AcDbArc
 50
152.3179391617
 51
154.2122965589
  0
ARC
  5
29A
100
AcDbEntity
  8
0
100
AcDbCircle
 62
7
  6
BYLAYER
 10
19.1123542788
 20
67.5028503883
 40
1.5040856888
100
AcDbArc
 50
151.590636415
 51
152.3179451296
  0
ARC
  5
29B
100
AcDbEntity
  8
0
100
AcDbCircle
 62
7
  6
BYLAYER
 10
19.1106249677
 20
67.4899372124
 40
1.5025292968
100
AcDbArc
 50
135.8084074106
 51
146.8355646863
  0
ARC
  5
29C
100
AcDbEntity
  8
0
100
AcDbCircle
 62
7
  6
BYLAYER
 10
19.1099452956
 20
67.5036402013
 40
1.5016123171
100
AcDbArc
 50
135.8075411936
 51
140.0548223994
  0
ARC
  5
29D
100
AcDbEntity
  8
0
100
AcDbCircle
 62
7
  6
BYLAYER
 10
19.1087949466
 20
67.4979591837
 40
1.5
100
AcDbArc
 50
101.870869298
 51
127.9366928298
  0
ARC
  5
29E
100
AcDbEntity
  8
0
100
AcDbCircle
 62
7
  6
BYLAYER
 10
19.1083786052
 20
67.5046433658
 40
1.4997639216
100
AcDbArc
 50
141.3630509094
 51
146.8403518289
  0
ARC
  5
29F
100
AcDbEntity
  8
0
100
AcDbCircle
 62
7
  6
BYLAYER
 10
19.1075409264
 20
67.4920915547
 40
1.4987459807
100
AcDbArc
 50
151.1361965836
 51
180.0019084723
  0
ARC
  5
2A0
100
AcDbEntity
  8
0
100
AcDbCircle
 62
7
  6
BYLAYER
 10
19.1077025501
 20
67.4925502131
 40
1.4986124766
100
AcDbArc
 50
124.7453586724
 51
135.8021546727
  0
ARC
  5
2A1
100
AcDbEntity
  8
0
100
AcDbCircle
 62
7
  6
BYLAYER
 10
19.1075560238
 20
67.5055292759
 40
1.4985907566
100
AcDbArc
 50
146.8515047681
 51
151.593443317
  0
ARC
  5
2A2
100
AcDbEntity
  8
0
100
AcDbCircle
 62
7
  6
BYLAYER
 10
19.1070560649
 20
67.4927429685
 40
1.498006935
100
AcDbArc
 50
146.8507248149
 51
151.1490644238
  0
ARC
  5
2A3
100
AcDbEntity
  8
0
100
AcDbCircle
 62
7
  6
BYLAYER
 10
18.9578606884
 20
67.4541362927
 40
1.4490657419
100
AcDbArc
 50
122.1977118038
 51
180.0002421179
  0
ARC
  5
2A4
100
AcDbEntity
  8
0
100
AcDbCircle
 62
7
  6
BYLAYER
 10
19.1084730099
 20
67.4658668257
 40
0.4996780633
100
AcDbArc
 50
113.7015653282
 51
180.0002455274
  0
ARC
  5
2A5
100
AcDbEntity
  8
0
100
AcDbCircle
 62
7
  6
BYLAYER
 10
38.0088417747
 20
23.0918233472
 40
1.5002606528
100
AcDbArc
 50
269.998211608
 51
314.9875894115
  0
ARC
  5
2A6
100
AcDbEntity
  8
0
100
AcDbCircle
 62
7
  6
BYLAYER
 10
38.0095708838
 20
23.0910939862
 40
1.4992256013
100
AcDbArc
 50
314.987587685
 51
359.9982098524
  0
ARC
  5
2A7
100
AcDbEntity
  8
0
100
AcDbCircle
 62
7
  6
BYLAYER
 10
38.1587685894
 20
22.808056644
 40
1.4504196622
100
AcDbArc
 50
270.0010411808
 51
314.9847598197
  0
ARC
  5
2A8
100
AcDbEntity
  8
0
100
AcDbCircle
 62
7
  6
BYLAYER
 10
38.1587685899
 20
22.8473220662
 40
1.4504196618
100
AcDbArc
 50
270.0010411594
 51
314.9847598103
  0
ARC
  5
2A9
100
AcDbEntity
  8
0
100
AcDbCircle
 62
7
  6
BYLAYER
 10
38.1593672044
 20
22.8072522965
 40
1.4494241882
100
AcDbArc
 50
314.9904999834
 51
359.9952975344
  0
ARC
  5
2AA
100
AcDbEntity
  8
0
100
AcDbCircle
 62
7
  6
BYLAYER
 10
38.1596937252
 20
22.8463821038
 40
1.4490838281
100
AcDbArc
 50
314.9851604793
 51
358.4695684467
  0
ARC
  5
2AB
100
AcDbEntity
  8
0
100
AcDbCircle
 62
7
  6
BYLAYER
 10
38.0088279966
 20
23.0650829204
 40
0.5000413878
100
AcDbArc
 50
269.9962130531
 51
314.989903034
  0
ARC
  5
2AC
100
AcDbEntity
  8
0
100
AcDbCircle
 62
7
  6
BYLAYER
 10
38.009098541
 20
23.0648655748
 40
0.4996964055
100
AcDbArc
 50
314.9855828293
 51
0.0005298926
  0
ARC
  5
2AD
100
AcDbEntity
  8
0
100
AcDbCircle
 62
7
  6
BYLAYER
 10
28.5587949466
 20
46.3897113087
 40
25.0084806639
100
AcDbArc
 50
62.6229578719
 51
117.3770421281
  0
ARC
  5
2AE
100
AcDbEntity
  8
0
100
AcDbCircle
 62
7
  6
BYLAYER
 10
28.5587949466
 20
45.9404589866
 40
25.0079885938
100
AcDbArc
 50
67.0319535016
 51
112.9680464984
  0
ARC
  5
2AF
100
AcDbEntity
  8
0
100
AcDbCircle
 62
7
  6
BYLAYER
 10
28.5587949466
 20
45.9411126172
 40
24.0076783132
100
AcDbArc
 50
66.2967863631
 51
113.7032136369
  0
ARC
  5
2B0
100
AcDbEntity
  8
0
100
AcDbCircle
 62
7
  6
BYLAYER
 10
38.0052231162
 20
67.5015606545
 40
1.5048039503
100
AcDbArc
 50
38.6333400038
 51
39.9462468117
  0
ARC
  5
2B1
100
AcDbEntity
  8
0
100
AcDbCircle
 62
7
  6
BYLAYER
 10
38.0049094513
 20
67.5026791006
 40
1.5044540931
100
AcDbArc
 50
25.7871356531
 51
27.6814492717
  0
ARC
  5
2B2
100
AcDbEntity
  8
0
100
AcDbCircle
 62
7
  6
BYLAYER
 10
38.0052353923
 20
67.5028502694
 40
1.5040859407
100
AcDbArc
 50
27.6814431795
 51
28.4093635418
  0
ARC
  5
2B3
100
AcDbEntity
  8
0
100
AcDbCircle
 62
7
  6
BYLAYER
 10
38.0069649254
 20
67.4899372124
 40
1.5025292968
100
AcDbArc
 50
33.1644353137
 51
44.1915925894
  0
ARC
  5
2B4
100
AcDbEntity
  8
0
100
AcDbCircle
 62
7
  6
BYLAYER
 10
38.0076442488
 20
67.503639881
 40
1.5016127904
100
AcDbArc
 50
39.9447396538
 51
44.1924582945
  0
ARC
  5
2B5
100
AcDbEntity
  8
0
100
AcDbCircle
 62
7
  6
BYLAYER
 10
38.0087949466
 20
67.4979591837
 40
1.5
100
AcDbArc
 50
52.0633071702
 51
78.129130702
  0
ARC
  5
2B6
100
AcDbEntity
  8
0
100
AcDbCircle
 62
7
  6
BYLAYER
 10
38.0092118189
 20
67.5046437413
 40
1.4997632716
100
AcDbArc
 50
33.159647261
 51
38.6364691524
  0
ARC
  5
2B7
100
AcDbEntity
  8
0
100
AcDbCircle
 62
7
  6
BYLAYER
 10
38.0100489667
 20
67.4920915547
 40
1.4987459807
100
AcDbArc
 50
359.9980915277
 51
28.8638034164
  0
ARC
  5
2B8
100
AcDbEntity
  8
0
100
AcDbCircle
 62
7
  6
BYLAYER
 10
38.009887343
 20
67.4925502131
 40
1.4986124766
100
AcDbArc
 50
44.1978453273
 51
55.2546413276
  0
ARC
  5
2B9
100
AcDbEntity
  8
0
100
AcDbCircle
 62
7
  6
BYLAYER
 10
38.0100338693
 20
67.5055292759
 40
1.4985907566
100
AcDbArc
 50
28.406556683
 51
33.1484952319
  0
ARC
  5
2BA
100
AcDbEntity
  8
0
100
AcDbCircle
 62
7
  6
BYLAYER
 10
38.0105338282
 20
67.4927429685
 40
1.498006935
100
AcDbArc
 50
28.8509355762
 51
33.1492751851
  0
ARC
  5
2BB
100
AcDbEntity
  8
0
100
AcDbCircle
 62
7
  6
BYLAYER
 10
38.1597292047
 20
67.4541362927
 40
1.4490657419
100
AcDbArc
 50
359.9997578821
 51
57.8022885717
  0
ARC
  5
2BC
100
AcDbEntity
  8
0
100
AcDbCircle
 62
7
  6
BYLAYER
 10
38.0091168832
 20
67.4658668257
 40
0.4996780633
100
AcDbArc
 50
359.9997544726
 51
66.2984346718
  0
SPLINE
  5
2BD
100
AcDbEntity
  8
0
100
AcDbSpline
 62
7
  6
BYLAYER
 70
0
 71
3
 72
9
 73
5
 74
0
 42
0.0000001
 43
0.0000001
 44
0.0000000001
 40
0.0
 40
0.0
 40
0.0
 40
0.0
 40
0.2592708017
 40
1.0
 40
1.0
 40
1.0
 40
1.0
 10
30.7926257369
 20
72.3979591837
 30
0.0
 10
31.5934449229
 20
72.3972320772
 30
0.0
 10
34.68217956
 20
72.3929041656
 30
0.0
 10
37.7709080419
 20
72.3826344535
 30
0.0
 10
40.0587949466
 20
72.3706588539
 30
0.0
  0
SPLINE
  5
2BE
100
AcDbEntity
  8
0
100
AcDbSpline
 62
7
  6
BYLAYER
 70
0
 71
3
 72
9
 73
5
 74
0
 42
0.0000001
 43
0.0000001
 44
0.0000000001
 40
0.0
 40
0.0
 40
0.0
 40
0.0
 40
0.2383637811
 40
1.0
 40
1.0
 40
1.0
 40
1.0
 10
17.0587949466
 20
72.3706588539
 30
0.0
 10
17.7950280907
 20
72.3745125555
 30
0.0
 10
20.8837338376
 20
72.3887009144
 30
0.0
 10
23.9724705176
 20
72.3958232293
 30
0.0
 10
26.3249641562
 20
72.3979591837
 30
0.0
  0
SPLINE
  5
2BF
100
AcDbEntity
  8
0
100
AcDbSpline
 62
7
  6
BYLAYER
 70
0
 71
3
 72
9
 73
5
 74
0
 42
0.0000001
 43
0.0000001
 44
0.0000000001
 40
0.0
 40
0.0
 40
0.0
 40
0.0
 40
0.7170642611
 40
1.0
 40
1.0
 40
1.0
 40
1.0
 10
22.5587949485
 20
15.5771676797
 30
0.0
 10
22.5587950223
 20
15.578095343
 30
0.0
 10
22.559270888
 20
15.5793965534
 30
0.0
 10
22.5600467029
 20
15.5804263653
 30
0.0
 10
22.56028215
 20
15.5807066236
 30
0.0
  0
SPLINE
  5
2C0
100
AcDbEntity
  8
0
100
AcDbSpline
 62
7
  6
BYLAYER
 70
0
 71
3
 72
27
 73
23
 74
0
 42
0.0000001
 43
0.0000001
 44
0.0000000001
 40
0.0
 40
0.0
 40
0.0
 40
0.0
 40
0.0010494269
 40
0.0026026803
 40
0.0073547216
 40
0.0143678096
 40
0.0236593531
 40
0.0352205198
 40
0.0490251265
 40
0.0650437116
 40
0.0832453769
 40
0.1035905446
 40
0.12602781
 40
0.1769680148
 40
0.2356055896
 40
0.3013817365
 40
0.3736934956
 40
0.4518596696
 40
0.5351594467
 40
0.6227955191
 40
0.8078133473
 40
1.0
 40
1.0
 40
1.0
 40
1.0
 10
22.56028215
 20
15.5807066236
 30
0.0
 10
22.5616339368
 20
15.5823156876
 30
0.0
 10
22.5660774079
 20
15.5852859996
 30
0.0
 10
22.5796209417
 20
15.5910105724
 30
0.0
 10
22.6056561734
 20
15.5974579891
 30
0.0
 10
22.6471233573
 20
15.6048666367
 30
0.0
 10
22.7024606054
 20
15.6123250082
 30
0.0
 10
22.7714450416
 20
15.6198873333
 30
0.0
 10
22.8539769025
 20
15.6274815351
 30
0.0
 10
22.949846786
 20
15.635106748
 30
0.0
 10
23.0588508358
 20
15.642746248
 30
0.0
 10
23.1807351969
 20
15.6503970616
 30
0.0
 10
23.3681164693
 20
15.6610677639
 30
0.0
 10
23.6321599833
 20
15.6741913002
 30
0.0
 10
23.9829860487
 20
15.6894069398
 30
0.0
 10
24.376643789
 20
15.7046601367
 30
0.0
 10
24.8094339616
 20
15.7199331288
 30
0.0
 10
25.2773352933
 20
15.7352285552
 30
0.0
 10
25.775939049
 20
15.75053892
 30
0.0
 10
26.4884497396
 20
15.771337815
 30
0.0
 10
27.4189638923
 20
15.7969122767
 30
0.0
 10
28.1740662316
 20
15.8170079401
 30
0.0
 10
28.5587949466
 20
15.8271667435
 30
0.0
  0
SPLINE
  5
2C1
100
AcDbEntity
  8
0
100
AcDbSpline
 62
7
  6
BYLAYER
 70
0
 71
3
 72
9
 73
5
 74
0
 42
0.0000001
 43
0.0000001
 44
0.0000000001
 40
0.0
 40
0.0
 40
0.0
 40
0.0
 40
0.2527762484
 40
1.0
 40
1.0
 40
1.0
 40
1.0
 10
28.5587949466
 20
20.173695115
 30
0.0
 10
28.4288890869
 20
20.1733728266
 30
0.0
 10
27.9150619151
 20
20.1908523404
 30
0.0
 10
27.4039076619
 20
20.2786319779
 30
0.0
 10
27.0337114831
 20
20.3807093607
 30
0.0
  0
SPLINE
  5
2C2
100
AcDbEntity
  8
0
100
AcDbSpline
 62
7
  6
BYLAYER
 70
0
 71
3
 72
9
 73
5
 74
0
 42
0.0000001
 43
0.0000001
 44
0.0000000001
 40
0.0
 40
0.0
 40
0.0
 40
0.0
 40
0.7169892352
 40
1.0
 40
1.0
 40
1.0
 40
1.0
 10
34.5587949449
 20
11.2187479238
 30
0.0
 10
34.5587948724
 20
11.2178189868
 30
0.0
 10
34.5583174719
 20
11.2165159174
 30
0.0
 10
34.557539734
 20
11.2154852012
 30
0.0
 10
34.5573036624
 20
11.2152046343
 30
0.0
  0
SPLINE
  5
2C3
100
AcDbEntity
  8
0
100
AcDbSpline
 62
7
  6
BYLAYER
 70
0
 71
3
 72
27
 73
23
 74
0
 42
0.0000001
 43
0.0000001
 44
0.0000000001
 40
0.0
 40
0.0
 40
0.0
 40
0.0
 40
0.0010499096
 40
0.0026037287
 40
0.0073569485
 40
0.0143711832
 40
0.0236638081
 40
0.0352259886
 40
0.049031523
 40
0.0650509335
 40
0.0832533104
 40
0.1035990786
 40
0.1260368374
 40
0.1769777159
 40
0.2356155521
 40
0.3013915224
 40
0.3737026624
 40
0.4518679914
 40
0.5351667993
 40
0.6228017608
 40
0.8078168637
 40
1.0
 40
1.0
 40
1.0
 40
1.0
 10
34.5573036624
 20
11.2152046343
 30
0.0
 10
34.5559500281
 20
11.2135958642
 30
0.0
 10
34.5515036676
 20
11.2106265275
 30
0.0
 10
34.5379545523
 20
11.2049036092
 30
0.0
 10
34.5119131669
 20
11.1984580761
 30
0.0
 10
34.4704387543
 20
11.1910510024
 30
0.0
 10
34.4150950445
 20
11.1835929906
 30
0.0
 10
34.3461047032
 20
11.1760296932
 30
0.0
 10
34.2635675427
 20
11.1684338489
 30
0.0
 10
34.1676929722
 20
11.1608068156
 30
0.0
 10
34.0586848656
 20
11.1531659407
 30
0.0
 10
33.9367970708
 20
11.1455145589
 30
0.0
 10
33.7494124742
 20
11.1348441413
 30
0.0
 10
33.4853662922
 20
11.1217232773
 30
0.0
 10
33.1345389154
 20
11.1065131896
 30
0.0
 10
32.7408827133
 20
11.0912611495
 30
0.0
 10
32.3080966348
 20
11.0759810192
 30
0.0
 10
31.8402009158
 20
11.0606810387
 30
0.0
 10
31.341603491
 20
11.045375892
 30
0.0
 10
30.6291030589
 20
11.0245864468
 30
0.0
 10
29.6986048828
 20
10.9990104469
 30
0.0
 10
28.9435167349
 20
10.9788869447
 30
0.0
 10
28.5587949466
 20
10.9687511493
 30
0.0
  0
SPLINE
  5
2C4
100
AcDbEntity
  8
0
100
AcDbSpline
 62
7
  6
BYLAYER
 70
0
 71
3
 72
28
 73
24
 74
0
 42
0.0000001
 43
0.0000001
 44
0.0000000001
 40
0.0
 40
0.0
 40
0.0
 40
0.0
 40
0.0008419231
 40
0.0022181073
 40
0.0041570053
 40
0.0066677942
 40
0.0134159987
 40
0.0224632195
 40
0.0337957135
 40
0.0473966379
 40
0.0632466149
 40
0.0813089303
 40
0.1015345987
 40
0.1238742297
 40
0.174691449
 40
0.2332895745
 40
0.299147553
 40
0.3716471038
 40
0.4500791213
 40
0.533690586
 40
0.6216752681
 40
0.8074141896
 40
1.0
 40
1.0
 40
1.0
 40
1.0
 10
34.28566432
 20
8.3748561888
 30
0.0
 10
34.2845273315
 20
8.3737186166
 30
0.0
 10
34.2805798721
 20
8.3718413921
 30
0.0
 10
34.2730435839
 20
8.36951418
 30
0.0
 10
34.2621307107
 20
8.3671458502
 30
0.0
 10
34.2410485293
 20
8.3635904624
 30
0.0
 10
34.2062987961
 20
8.3594390261
 30
0.0
 10
34.1546963221
 20
8.3547095839
 30
0.0
 10
34.0899513382
 20
8.3499465667
 30
0.0
 10
34.0121907653
 20
8.3451235079
 30
0.0
 10
33.921554804
 20
8.3402402752
 30
0.0
 10
33.8182504076
 20
8.3353063048
 30
0.0
 10
33.7025368531
 20
8.3303502839
 30
0.0
 10
33.5242781566
 20
8.3234411331
 30
0.0
 10
33.2727196667
 20
8.3150574328
 30
0.0
 10
32.9380274063
 20
8.3053952167
 30
0.0
 10
32.5619046879
 20
8.2955279275
 30
0.0
 10
32.1478846901
 20
8.2854962745
 30
0.0
 10
31.6999377438
 20
8.2755798528
 30
0.0
 10
31.222399062
 20
8.2658230441
 30
0.0
 10
30.539899588
 20
8.2524411476
 30
0.0
 10
29.6492511494
 20
8.2355489086
 30
0.0
 10
28.9266389658
 20
8.2226084455
 30
0.0
 10
28.5587949466
 20
8.2159693395
 30
0.0
  0
SPLINE
  5
2C5
100
AcDbEntity
  8
0
100
AcDbSpline
 62
7
  6
BYLAYER
 70
0
 71
3
 72
18
 73
14
 74
0
 42
0.0000001
 43
0.0000001
 44
0.0000000001
 40
0.0
 40
0.0
 40
0.0
 40
0.0
 40
0.0489031985
 40
0.0702924405
 40
0.0945381547
 40
0.1244606946
 40
0.1615833909
 40
0.2066849852
 40
0.260179224
 40
0.3931170499
 40
0.5610033521
 40
0.7634980868
 40
1.0
 40
1.0
 40
1.0
 40
1.0
 10
22.7243674964
 20
8.48240623
 30
0.0
 10
22.7186962823
 20
8.4880708188
 30
0.0
 10
22.7112634559
 20
8.4986261742
 30
0.0
 10
22.7131476762
 20
8.5145896874
 30
0.0
 10
22.7196492473
 20
8.5254175241
 30
0.0
 10
22.7305531838
 20
8.5358110416
 30
0.0
 10
22.7458684001
 20
8.5460813039
 30
0.0
 10
22.7656510868
 20
8.5563221554
 30
0.0
 10
22.8006571463
 20
8.5710507089
 30
0.0
 10
22.8560682175
 20
8.5887383085
 30
0.0
 10
22.9360956482
 20
8.6088582804
 30
0.0
 10
23.0335244041
 20
8.6290409984
 30
0.0
 10
23.1043848928
 20
8.6415835624
 30
0.0
 10
23.1426215485
 20
8.6479591837
 30
0.0
  0
SPLINE
  5
2C6
100
AcDbEntity
  8
0
100
AcDbSpline
 62
7
  6
BYLAYER
 70
0
 71
3
 72
9
 73
5
 74
0
 42
0.0000001
 43
0.0000001
 44
0.0000000001
 40
0.0
 40
0.0
 40
0.0
 40
0.0
 40
0.717293757
 40
1.0
 40
1.0
 40
1.0
 40
1.0
 10
22.5587949473
 20
11.5771658457
 30
0.0
 10
22.5587949824
 20
11.5780890753
 30
0.0
 10
22.5592659398
 20
11.5793838764
 30
0.0
 10
22.5600355603
 20
11.5804102182
 30
0.0
 10
22.560269002
 20
11.5806893373
 30
0.0
  0
SPLINE
  5
2C7
100
AcDbEntity
  8
0
100
AcDbSpline
 62
7
  6
BYLAYER
 70
0
 71
3
 72
27
 73
23
 74
0
 42
0.0000001
 43
0.0000001
 44
0.0000000001
 40
0.0
 40
0.0
 40
0.0
 40
0.0
 40
0.001047651
 40
0.0025989189
 40
0.0073469595
 40
0.0143562343
 40
0.0236442081
 40
0.0352021013
 40
0.0490037511
 40
0.0650196992
 40
0.0832190469
 40
0.1035622194
 40
0.125997813
 40
0.176935647
 40
0.2355720563
 40
0.301348222
 40
0.3736610696
 40
0.4518294945
 40
0.5351325928
 40
0.6227729459
 40
0.807801684
 40
1.0
 40
1.0
 40
1.0
 40
1.0
 10
22.560269002
 20
11.5806893373
 30
0.0
 10
22.5616149589
 20
11.5822986572
 30
0.0
 10
22.5660494262
 20
11.5852702721
 30
0.0
 10
22.5795753036
 20
11.5909961426
 30
0.0
 10
22.6055908282
 20
11.5974446422
 30
0.0
 10
22.6470345468
 20
11.6048542487
 30
0.0
 10
22.702350582
 20
11.6123129175
 30
0.0
 10
22.7713155156
 20
11.6198748266
 30
0.0
 10
22.8538299069
 20
11.6274684503
 30
0.0
 10
22.949684247
 20
11.6350933726
 30
0.0
 10
23.0586746825
 20
11.6427334813
 30
0.0
 10
23.1805473596
 20
11.6503858668
 30
0.0
 10
23.3679170249
 20
11.6610591874
 30
0.0
 10
23.6319509451
 20
11.6741843566
 30
0.0
 10
23.9827713338
 20
11.6893964925
 30
0.0
 10
24.3764303478
 20
11.7046488227
 30
0.0
 10
24.8092285392
 20
11.7199277529
 30
0.0
 10
25.2771447708
 20
11.7352255067
 30
0.0
 10
25.7757702311
 20
11.7505282933
 30
0.0
 10
26.4883203084
 20
11.7713322476
 30
0.0
 10
27.4188900794
 20
11.7969602934
 30
0.0
 10
28.1740446377
 20
11.8168907808
 30
0.0
 10
28.5587949466
 20
11.8271664933
 30
0.0
  0
SPLINE
  5
2C8
100
AcDbEntity
  8
0
100
AcDbSpline
 62
7
  6
BYLAYER
 70
0
 71
3
 72
39
 73
35
 74
0
 42
0.0000001
 43
0.0000001
 44
0.0000000001
 40
0.0
 40
0.0
 40
0.0
 40
0.0
 40
0.0019446033
 40
0.0049470834
 40
0.009030456
 40
0.0142015882
 40
0.0204610517
 40
0.0278060588
 40
0.0456888322
 40
0.0676407668
 40
0.0934388791
 40
0.122863221
 40
0.1556791547
 40
0.1916176175
 40
0.2303397803
 40
0.3146447724
 40
0.4055766102
 40
0.4999197032
 40
0.5942642692
 40
0.6852242679
 40
0.7695157855
 40
0.8082362305
 40
0.8442010812
 40
0.8770612903
 40
0.9064982083
 40
0.9322805683
 40
0.9542137375
 40
0.9721124263
 40
0.9794882633
 40
0.9857840034
 40
0.990983223
 40
0.9950757193
 40
0.9980712126
 40
1.0
 40
1.0
 40
1.0
 40
1.0
 10
33.8007009155
 20
15.6399799019
 30
0.0
 10
33.7948088997
 20
15.6365714585
 30
0.0
 10
33.7782498372
 20
15.6308990793
 30
0.0
 10
33.7475552903
 20
15.6235928792
 30
0.0
 10
33.7052379845
 20
15.6162140805
 30
0.0
 10
33.6514594193
 20
15.6087292483
 30
0.0
 10
33.5861559065
 20
15.6012395459
 30
0.0
 10
33.4764541761
 20
15.5905737627
 30
0.0
 10
33.3117844696
 20
15.5778429289
 30
0.0
 10
33.0825077581
 20
15.5632310863
 30
0.0
 10
32.812768928
 20
15.5484578413
 30
0.0
 10
32.5049734603
 20
15.5332904071
 30
0.0
 10
32.1616512641
 20
15.5179481274
 30
0.0
 10
31.7857352444
 20
15.5030618106
 30
0.0
 10
31.2296523203
 20
15.4830972771
 30
0.0
 10
30.4811502926
 20
15.4575098123
 30
0.0
 10
29.5379952265
 20
15.4274355973
 30
0.0
 10
28.5596486389
 20
15.3984495469
 30
0.0
 10
27.5812291617
 20
15.3685964372
 30
0.0
 10
26.6380226037
 20
15.3384118752
 30
0.0
 10
25.8894343594
 20
15.313996237
 30
0.0
 10
25.3333430931
 20
15.293166595
 30
0.0
 10
24.9572060224
 20
15.2777897857
 30
0.0
 10
24.6135802593
 20
15.2627418262
 30
0.0
 10
24.3056096295
 20
15.2482114642
 30
0.0
 10
24.0359441389
 20
15.2334802607
 30
0.0
 10
23.8067491835
 20
15.2185917489
 30
0.0
 10
23.642006392
 20
15.2055480322
 30
0.0
 10
23.5320235063
 20
15.1947778318
 30
0.0
 10
23.4663857691
 20
15.1872802728
 30
0.0
 10
23.4123396926
 20
15.1798629483
 30
0.0
 10
23.3698895226
 20
15.1726297676
 30
0.0
 10
23.3392068846
 20
15.1655005783
 30
0.0
 10
23.3226821842
 20
15.1599665514
 30
0.0
 10
23.3168246781
 20
15.1566091207
 30
0.0
  0
SPLINE
  5
2C9
100
AcDbEntity
  8
0
100
AcDbSpline
 62
7
  6
BYLAYER
 70
0
 71
3
 72
9
 73
5
 74
0
 42
0.0000001
 43
0.0000001
 44
0.0000000001
 40
0.0
 40
0.0
 40
0.0
 40
0.0
 40
0.717016778
 40
1.0
 40
1.0
 40
1.0
 40
1.0
 10
34.5587949455
 20
12.2187553099
 30
0.0
 10
34.558794882
 20
12.2178266251
 30
0.0
 10
34.5583180353
 20
12.21652394
 30
0.0
 10
34.5575409821
 20
12.2154931964
 30
0.0
 10
34.5573051301
 20
12.2152126398
 30
0.0
  0
SPLINE
  5
2CA
100
AcDbEntity
  8
0
100
AcDbSpline
 62
7
  6
BYLAYER
 70
0
 71
3
 72
27
 73
23
 74
0
 42
0.0000001
 43
0.0000001
 44
0.0000000001
 40
0.0
 40
0.0
 40
0.0
 40
0.0
 40
0.0010498888
 40
0.0026036301
 40
0.0073565976
 40
0.0143705154
 40
0.0236627901
 40
0.035224562
 40
0.0490296782
 40
0.0650487098
 40
0.0832507793
 40
0.1035962655
 40
0.1260337652
 40
0.1769742681
 40
0.2356117906
 40
0.3013876625
 40
0.3736989176
 40
0.4518644732
 40
0.5351634942
 40
0.6227987896
 40
0.8078154323
 40
1.0
 40
1.0
 40
1.0
 40
1.0
 10
34.5573051301
 20
12.2152126398
 30
0.0
 10
34.55595223
 20
12.2136033041
 30
0.0
 10
34.5515071164
 20
12.2106323303
 30
0.0
 10
34.5379602527
 20
12.2049057655
 30
0.0
 10
34.5119211749
 20
12.1984555702
 30
0.0
 10
34.4704492621
 20
12.1910446229
 30
0.0
 10
34.4151076868
 20
12.1835860335
 30
0.0
 10
34.3461193206
 20
12.1760256966
 30
0.0
 10
34.2635840924
 20
12.1684343218
 30
0.0
 10
34.1677112966
 20
12.1608118019
 30
0.0
 10
34.0587048526
 20
12.1531735687
 30
0.0
 10
33.9368186511
 20
12.1455221587
 30
0.0
 10
33.749435857
 20
12.1348492926
 30
0.0
 10
33.4853916209
 20
12.1217225493
 30
0.0
 10
33.1345657191
 20
12.1065069329
 30
0.0
 10
32.7409096619
 20
12.09125652
 30
0.0
 10
32.3081222624
 20
12.0759882713
 30
0.0
 10
31.8402248044
 20
12.0606942622
 30
0.0
 10
31.3416256866
 20
12.0453785543
 30
0.0
 10
30.6291208664
 20
12.0245729061
 30
0.0
 10
29.6986149695
 20
11.9990037852
 30
0.0
 10
28.9435193619
 20
11.9789106237
 30
0.0
 10
28.5587949466
 20
11.9687518795
 30
0.0
  0
SPLINE
  5
2CB
100
AcDbEntity
  8
0
100
AcDbSpline
 62
7
  6
BYLAYER
 70
0
 71
3
 72
26
 73
22
 74
0
 42
0.0000001
 43
0.0000001
 44
0.0000000001
 40
0.0
 40
0.0
 40
0.0
 40
0.0
 40
0.1894732296
 40
0.3720955225
 40
0.458745028
 40
0.5412457901
 40
0.618831892
 40
0.6908084079
 40
0.7565189506
 40
0.815378207
 40
0.8668439108
 40
0.9104610329
 40
0.9292001667
 40
0.9458331096
 40
0.9603288958
 40
0.9726586339
 40
0.982795228
 40
0.9907208089
 40
0.9964403577
 40
0.9984840131
 40
1.0
 40
1.0
 40
1.0
 40
1.0
 10
28.5587949466
 20
15.8271667435
 30
0.0
 10
28.9377048454
 20
15.8371719005
 30
0.0
 10
29.6818200827
 20
15.8569710474
 30
0.0
 10
30.5991959107
 20
15.8821652087
 30
0.0
 10
31.3026208075
 20
15.9026336936
 30
0.0
 10
31.7959878397
 20
15.9177104658
 30
0.0
 10
32.2599873114
 20
15.9327793179
 30
0.0
 10
32.6903797104
 20
15.9478286819
 30
0.0
 10
33.083284981
 20
15.9628564096
 30
0.0
 10
33.4351273437
 20
15.9778431642
 30
0.0
 10
33.7427281145
 20
15.9927903855
 30
0.0
 10
33.9700659064
 20
16.0057394199
 30
0.0
 10
34.1277309448
 20
16.0163213111
 30
0.0
 10
34.22720931
 20
16.0238390469
 30
0.0
 10
34.3138278809
 20
16.0313321043
 30
0.0
 10
34.3873936995
 20
16.038798338
 30
0.0
 10
34.447755489
 20
16.0461928777
 30
0.0
 10
34.49475401
 20
16.0535430667
 30
0.0
 10
34.5255335169
 20
16.0599757258
 30
0.0
 10
34.5432532746
 20
16.0655235919
 30
0.0
 10
34.5498324352
 20
16.0683434229
 30
0.0
 10
34.5524590587
 20
16.0698594535
 30
0.0
  0
SPLINE
  5
2CC
100
AcDbEntity
  8
0
100
AcDbSpline
 62
7
  6
BYLAYER
 70
0
 71
3
 72
9
 73
5
 74
0
 42
0.0000001
 43
0.0000001
 44
0.0000000001
 40
0.0
 40
0.0
 40
0.0
 40
0.0
 40
0.7172823503
 40
1.0
 40
1.0
 40
1.0
 40
1.0
 10
22.558794947
 20
12.5771653999
 30
0.0
 10
22.558794982
 20
12.5780888464
 30
0.0
 10
22.5592661698
 20
12.5793839615
 30
0.0
 10
22.5600360782
 20
12.5804104849
 30
0.0
 10
22.5602696138
 20
12.5806896636
 30
0.0
  0
SPLINE
  5
2CD
100
AcDbEntity
  8
0
100
AcDbSpline
 62
7
  6
BYLAYER
 70
0
 71
3
 72
27
 73
23
 74
0
 42
0.0000001
 43
0.0000001
 44
0.0000000001
 40
0.0
 40
0.0
 40
0.0
 40
0.0
 40
0.0010477471
 40
0.0025991217
 40
0.007347375
 40
0.0143568473
 40
0.0236449991
 40
0.0352030599
 40
0.0490048657
 40
0.0650209528
 40
0.0832204184
 40
0.1035637046
 40
0.125999405
 40
0.1769373976
 40
0.2355739337
 40
0.3013501525
 40
0.3736629969
 40
0.4518313674
 40
0.5351344009
 40
0.6227745979
 40
0.8078024748
 40
1.0
 40
1.0
 40
1.0
 40
1.0
 10
22.5602696138
 20
12.5806896636
 30
0.0
 10
22.5616158434
 20
12.5822990059
 30
0.0
 10
22.5660507294
 20
12.5852706569
 30
0.0
 10
22.5795774442
 20
12.5909967191
 30
0.0
 10
22.6055939305
 20
12.5974455192
 30
0.0
 10
22.6470388108
 20
12.6048553902
 30
0.0
 10
22.7023559251
 20
12.6123141135
 30
0.0
 10
22.7713218851
 20
12.6198758298
 30
0.0
 10
22.8538372217
 20
12.6274691673
 30
0.0
 10
22.9496924021
 20
12.6350938052
 30
0.0
 10
23.0586835776
 20
12.6427337699
 30
0.0
 10
23.1805569172
 20
12.6503861788
 30
0.0
 10
23.3679273125
 20
12.6610596293
 30
0.0
 10
23.6319619816
 20
12.6741849231
 30
0.0
 10
23.9827830237
 20
12.6893966656
 30
0.0
 10
24.3764423496
 20
12.7046488278
 30
0.0
 10
24.809240463
 20
12.7199282157
 30
0.0
 10
25.2771563709
 20
12.7352266302
 30
0.0
 10
25.7757812054
 20
12.750529876
 30
0.0
 10
26.488329104
 20
12.7713313586
 30
0.0
 10
27.4188953543
 20
12.7969510923
 30
0.0
 10
28.1740456013
 20
12.8169157865
 30
0.0
 10
28.5587949466
 20
12.8271664802
 30
0.0
  0
SPLINE
  5
2CE
100
AcDbEntity
  8
0
100
AcDbSpline
 62
7
  6
BYLAYER
 70
0
 71
3
 72
40
 73
36
 74
0
 42
0.0000001
 43
0.0000001
 44
0.0000000001
 40
0.0
 40
0.0
 40
0.0
 40
0.0
 40
0.0019393827
 40
0.0049372811
 40
0.009019832
 40
0.0141979844
 40
0.020472434
 40
0.0278310533
 40
0.0457233816
 40
0.067667783
 40
0.0934560354
 40
0.1228800747
 40
0.1557130485
 40
0.1916657338
 40
0.2303890566
 40
0.3146876438
 40
0.3595213276
 40
0.4056315026
 40
0.499978432
 40
0.5943265755
 40
0.6852758421
 40
0.7695753571
 40
0.8083003374
 40
0.8442607172
 40
0.8770993708
 40
0.9065278121
 40
0.9323165129
 40
0.9542609727
 40
0.9721612753
 40
0.9795289635
 40
0.9858077503
 40
0.990989546
 40
0.9950734485
 40
0.9980677783
 40
1.0
 40
1.0
 40
1.0
 40
1.0
 10
33.800695996
 20
14.6399279981
 30
0.0
 10
33.7948367952
 20
14.6364996039
 30
0.0
 10
33.7783176537
 20
14.6308017675
 30
0.0
 10
33.7476674743
 20
14.6234784185
 30
0.0
 10
33.7053430161
 20
14.6161000177
 30
0.0
 10
33.6514851366
 20
14.6086511668
 30
0.0
 10
33.5860482091
 20
14.6012342943
 30
0.0
 10
33.4762053637
 20
14.5906540769
 30
0.0
 10
33.3114820224
 20
14.5779358928
 30
0.0
 10
33.0822386757
 20
14.5632619264
 30
0.0
 10
32.8125695585
 20
14.5483924421
 30
0.0
 10
32.5047587166
 20
14.5330946356
 30
0.0
 10
32.1613229499
 20
14.517922414
 30
0.0
 10
31.7852896448
 20
14.5032180169
 30
0.0
 10
31.2291839498
 20
14.4831465395
 30
0.0
 10
30.6419783076
 20
14.4628951872
 30
0.0
 10
30.028892771
 20
14.4429115056
 30
0.0
 10
29.3806137803
 20
14.4230285592
 30
0.0
 10
28.5590798166
 20
14.3984442222
 30
0.0
 10
27.5806873921
 20
14.3683564393
 30
0.0
 10
26.6374725872
 20
14.3385911113
 30
0.0
 10
25.8888885294
 20
14.3140299172
 30
0.0
 10
25.3327815951
 20
14.2929910211
 30
0.0
 10
24.9567218801
 20
14.2776482542
 30
0.0
 10
24.6132081518
 20
14.2628681941
 30
0.0
 10
24.3053245526
 20
14.2482989244
 30
0.0
 10
24.035634575
 20
14.2334694841
 30
0.0
 10
23.8063793858
 20
14.2184991622
 30
0.0
 10
23.6416235424
 20
14.2054318749
 30
0.0
 10
23.531721216
 20
14.1946936746
 30
0.0
 10
23.4662275233
 20
14.1872534821
 30
0.0
 10
23.4123255925
 20
14.1798937947
 30
0.0
 10
23.369967146
 20
14.1726923084
 30
0.0
 10
23.339304573
 20
14.1655716867
 30
0.0
 10
23.3227746935
 20
14.1600298706
 30
0.0
 10
23.3169061822
 20
14.1566675794
 30
0.0
  0
SPLINE
  5
2CF
100
AcDbEntity
  8
0
100
AcDbSpline
 62
7
  6
BYLAYER
 70
0
 71
3
 72
9
 73
5
 74
0
 42
0.0000001
 43
0.0000001
 44
0.0000000001
 40
0.0
 40
0.0
 40
0.0
 40
0.0
 40
0.7171570596
 40
1.0
 40
1.0
 40
1.0
 40
1.0
 10
34.5587949449
 20
13.2187482639
 30
0.0
 10
34.5587948809
 20
13.2178225907
 30
0.0
 10
34.5583210536
 20
13.216524247
 30
0.0
 10
34.5575478315
 20
13.2154961147
 30
0.0
 10
34.5573132239
 20
13.215216395
 30
0.0
  0
SPLINE
  5
2D0
100
AcDbEntity
  8
0
100
AcDbSpline
 62
7
  6
BYLAYER
 70
0
 71
3
 72
27
 73
23
 74
0
 42
0.0000001
 43
0.0000001
 44
0.0000000001
 40
0.0
 40
0.0
 40
0.0
 40
0.0
 40
0.0010485931
 40
0.0026009456
 40
0.0073512229
 40
0.0143626701
 40
0.0236527069
 40
0.0352125295
 40
0.0490159425
 40
0.0650334668
 40
0.0832341921
 40
0.1035785561
 40
0.1260151552
 40
0.1769544137
 40
0.2355915581
 40
0.3013677169
 40
0.3736798742
 40
0.4518469696
 40
0.5351482154
 40
0.6227861881
 40
0.8078085736
 40
1.0
 40
1.0
 40
1.0
 40
1.0
 10
34.5573132239
 20
13.215216395
 30
0.0
 10
34.5559638152
 20
13.2136075115
 30
0.0
 10
34.5515239721
 20
13.2106374377
 30
0.0
 10
34.5379876678
 20
13.2049140781
 30
0.0
 10
34.5119606157
 20
13.198468399
 30
0.0
 10
34.4705032799
 20
13.1910610756
 30
0.0
 10
34.4151750013
 20
13.1836026626
 30
0.0
 10
34.3461988185
 20
13.1760388515
 30
0.0
 10
34.2636742839
 20
13.1684425176
 30
0.0
 10
34.1678108815
 20
13.1608150798
 30
0.0
 10
34.058812441
 20
13.1531739769
 30
0.0
 10
33.9369328081
 20
13.1455225495
 30
0.0
 10
33.7495561477
 20
13.1348520589
 30
0.0
 10
33.4855162939
 20
13.1217309086
 30
0.0
 10
33.1346923704
 20
13.1065195323
 30
0.0
 10
32.7410342313
 20
13.0912659955
 30
0.0
 10
32.3082411747
 20
13.0759847855
 30
0.0
 10
31.8403338291
 20
13.060685328
 30
0.0
 10
31.3417206455
 20
13.0453828605
 30
0.0
 10
30.6291930951
 20
13.0245892637
 30
0.0
 10
29.6986560628
 20
12.998988293
 30
0.0
 10
28.9435328392
 20
12.978941835
 30
0.0
 10
28.5587949466
 20
12.9687513781
 30
0.0
  0
SPLINE
  5
2D1
100
AcDbEntity
  8
0
100
AcDbSpline
 62
7
  6
BYLAYER
 70
0
 71
3
 72
9
 73
5
 74
0
 42
0.0000001
 43
0.0000001
 44
0.0000000001
 40
0.0
 40
0.0
 40
0.0
 40
0.0
 40
0.7168592961
 40
1.0
 40
1.0
 40
1.0
 40
1.0
 10
34.5587949449
 20
9.2187476833
 30
0.0
 10
34.5587948705
 20
9.2178162025
 30
0.0
 10
34.5583146894
 20
9.2165094488
 30
0.0
 10
34.5575334382
 20
9.2154767172
 30
0.0
 10
34.5572962268
 20
9.2151954896
 30
0.0
  0
SPLINE
  5
2D2
100
AcDbEntity
  8
0
100
AcDbSpline
 62
7
  6
BYLAYER
 70
0
 71
3
 72
27
 73
23
 74
0
 42
0.0000001
 43
0.0000001
 44
0.0000000001
 40
0.0
 40
0.0
 40
0.0
 40
0.0
 40
0.0010509338
 40
0.0026058918
 40
0.0073613946
 40
0.0143777907
 40
0.0236724216
 40
0.0352364289
 40
0.0490436067
 40
0.0650644782
 40
0.0832681344
 40
0.1036149896
 40
0.1260536457
 40
0.1769957776
 40
0.2356341469
 40
0.3014099696
 40
0.3737203199
 40
0.4518842778
 40
0.5351811929
 40
0.6228138197
 40
0.807823288
 40
1.0
 40
1.0
 40
1.0
 40
1.0
 10
34.5572962268
 20
9.2151954896
 30
0.0
 10
34.5559393201
 20
9.2135867997
 30
0.0
 10
34.5514879103
 20
9.2106180096
 30
0.0
 10
34.5379288636
 20
9.2048953965
 30
0.0
 10
34.5118763636
 20
9.1984499451
 30
0.0
 10
34.4703887095
 20
9.1910430629
 30
0.0
 10
34.4150330321
 20
9.1835854086
 30
0.0
 10
34.3460317107
 20
9.1760225971
 30
0.0
 10
34.2634847611
 20
9.1684272226
 30
0.0
 10
34.1676015352
 20
9.1608005654
 30
0.0
 10
34.0585859434
 20
9.1531598617
 30
0.0
 10
33.9366918351
 20
9.1455084369
 30
0.0
 10
33.7493011059
 20
9.1348379331
 30
0.0
 10
33.4852500371
 20
9.1217171882
 30
0.0
 10
33.1344199881
 20
9.1065083033
 30
0.0
 10
32.7407652965
 20
9.0912574922
 30
0.0
 10
32.3079846457
 20
9.0759779193
 30
0.0
 10
31.8400979445
 20
9.0606777021
 30
0.0
 10
31.3415127131
 20
9.0453715406
 30
0.0
 10
30.6290333303
 20
9.0245839869
 30
0.0
 10
29.6985654729
 20
8.9990187084
 30
0.0
 10
28.943503665
 20
8.9788666263
 30
0.0
 10
28.5587949466
 20
8.968750935
 30
0.0
  0
SPLINE
  5
2D3
100
AcDbEntity
  8
0
100
AcDbSpline
 62
7
  6
BYLAYER
 70
0
 71
3
 72
40
 73
36
 74
0
 42
0.0000001
 43
0.0000001
 44
0.0000000001
 40
0.0
 40
0.0
 40
0.0
 40
0.0
 40
0.0019360705
 40
0.0049342017
 40
0.0090226347
 40
0.0142111871
 40
0.0205002893
 40
0.0278717359
 40
0.0457655786
 40
0.0676992744
 40
0.0934806989
 40
0.122912632
 40
0.1557633169
 40
0.1917258725
 40
0.2304450622
 40
0.3147373463
 40
0.40569322
 40
0.5000396389
 40
0.5943861973
 40
0.6853244315
 40
0.7284967239
 40
0.7696320963
 40
0.8083574639
 40
0.8443042248
 40
0.8771257623
 40
0.9065513161
 40
0.9323493659
 40
0.9543036601
 40
0.9721928084
 40
0.9795468755
 40
0.9858123642
 40
0.9909831199
 40
0.9950632671
 40
0.9980609839
 40
1.0
 40
1.0
 40
1.0
 40
1.0
 10
33.8007624264
 20
13.6398334894
 30
0.0
 10
33.7949273339
 20
13.6363869104
 30
0.0
 10
33.7784198175
 20
13.6306710062
 30
0.0
 10
33.7477580259
 20
13.6233607234
 30
0.0
 10
33.7053657423
 20
13.6160260605
 30
0.0
 10
33.6513920929
 20
13.608626741
 30
0.0
 10
33.5858149651
 20
13.6012665277
 30
0.0
 10
33.4758637679
 20
13.5907525909
 30
0.0
 10
33.3111309973
 20
13.5779928195
 30
0.0
 10
33.0819468329
 20
13.5632554555
 30
0.0
 10
32.8123183152
 20
13.5482445616
 30
0.0
 10
32.5044394451
 20
13.5329571882
 30
0.0
 10
32.1608703635
 20
13.5179571533
 30
0.0
 10
31.7847487812
 20
13.5033780464
 30
0.0
 10
31.2286493491
 20
13.4831335066
 30
0.0
 10
30.4801397133
 20
13.4569829949
 30
0.0
 10
29.5369081061
 20
13.4278301869
 30
0.0
 10
28.5584762796
 20
13.398411661
 30
0.0
 10
27.5801308519
 20
13.368171992
 30
0.0
 10
26.7808342003
 20
13.343274941
 30
0.0
 10
26.167734904
 20
13.3232683706
 30
0.0
 10
25.7373363475
 20
13.3082167279
 30
0.0
 10
25.3322598618
 20
13.2928037703
 30
0.0
 10
24.9562988191
 20
13.2776163535
 30
0.0
 10
24.612893437
 20
13.2630197194
 30
0.0
 10
24.305050219
 20
13.2483529359
 30
0.0
 10
24.0353082683
 20
13.2334119956
 30
0.0
 10
23.8060280876
 20
13.2183813411
 30
0.0
 10
23.6413227359
 20
13.2053380855
 30
0.0
 10
23.5315470913
 20
13.1946699213
 30
0.0
 10
23.466181278
 20
13.1872795361
 30
0.0
 10
23.4123731456
 20
13.179956055
 30
0.0
 10
23.3700535563
 20
13.1727645949
 30
0.0
 10
23.339369611
 20
13.1656313273
 30
0.0
 10
23.3228099067
 20
13.1600677881
 30
0.0
 10
23.316920363
 20
13.1566943112
 30
0.0
  0
SPLINE
  5
2D4
100
AcDbEntity
  8
0
100
AcDbSpline
 62
7
  6
BYLAYER
 70
0
 71
3
 72
9
 73
5
 74
0
 42
0.0000001
 43
0.0000001
 44
0.0000000001
 40
0.0
 40
0.0
 40
0.0
 40
0.0
 40
0.7168548156
 40
1.0
 40
1.0
 40
1.0
 40
1.0
 10
34.5587949455
 20
10.218755528
 30
0.0
 10
34.5587948766
 20
10.217823793
 30
0.0
 10
34.5583146327
 20
10.2165166872
 30
0.0
 10
34.5575333153
 20
10.2154835541
 30
0.0
 10
34.5572960775
 20
10.2152022069
 30
0.0
  0
SPLINE
  5
2D5
100
AcDbEntity
  8
0
100
AcDbSpline
 62
7
  6
BYLAYER
 70
0
 71
3
 72
27
 73
23
 74
0
 42
0.0000001
 43
0.0000001
 44
0.0000000001
 40
0.0
 40
0.0
 40
0.0
 40
0.0
 40
0.0010511227
 40
0.0026062467
 40
0.0073619978
 40
0.014378557
 40
0.0236732852
 40
0.0352372914
 40
0.0490444171
 40
0.0650652357
 40
0.0832688718
 40
0.1036156941
 40
0.1260543003
 40
0.1769963458
 40
0.2356345287
 40
0.3014102253
 40
0.373720525
 40
0.4518844171
 40
0.535181141
 40
0.6228135867
 40
0.8078232815
 40
1.0
 40
1.0
 40
1.0
 40
1.0
 10
34.5572960775
 20
10.2152022069
 30
0.0
 10
34.5559391749
 20
10.2135930171
 30
0.0
 10
34.551487895
 20
10.2106228098
 30
0.0
 10
34.5379289353
 20
10.2048967042
 30
0.0
 10
34.5118763304
 20
10.1984465404
 30
0.0
 10
34.4703882922
 20
10.1910355534
 30
0.0
 10
34.4150321487
 20
10.1835769241
 30
0.0
 10
34.3460304165
 20
10.1760165901
 30
0.0
 10
34.26348326
 20
10.1684252876
 30
0.0
 10
34.167599891
 20
10.1608029828
 30
0.0
 10
34.0585842548
 20
10.153165197
 30
0.0
 10
33.9366902487
 20
10.1455144489
 30
0.0
 10
33.749299834
 20
10.1348426434
 30
0.0
 10
33.4852495317
 20
10.1217167735
 30
0.0
 10
33.1344203907
 20
10.1065008025
 30
0.0
 10
32.7407661769
 20
10.0912505029
 30
0.0
 10
32.3079853203
 20
10.0759837428
 30
0.0
 10
31.8400987653
 20
10.060690523
 30
0.0
 10
31.3415144748
 20
10.0453736911
 30
0.0
 10
30.6290354219
 20
10.0245713346
 30
0.0
 10
29.6985666032
 20
9.9990183614
 30
0.0
 10
28.9435038237
 20
9.9788701256
 30
0.0
 10
28.5587949466
 20
9.9687520282
 30
0.0
  0
SPLINE
  5
2D6
100
AcDbEntity
  8
0
100
AcDbSpline
 62
7
  6
BYLAYER
 70
0
 71
3
 72
9
 73
5
 74
0
 42
0.0000001
 43
0.0000001
 44
0.0000000001
 40
0.0
 40
0.0
 40
0.0
 40
0.0
 40
0.7172398775
 40
1.0
 40
1.0
 40
1.0
 40
1.0
 10
22.5587949473
 20
13.5771657452
 30
0.0
 10
22.5587949929
 20
13.5780900213
 30
0.0
 10
22.5592670953
 20
13.5793863333
 30
0.0
 10
22.5600381584
 20
13.5804135086
 30
0.0
 10
22.5602720674
 20
13.5806929006
 30
0.0
  0
SPLINE
  5
2D7
100
AcDbEntity
  8
0
100
AcDbSpline
 62
7
  6
BYLAYER
 70
0
 71
3
 72
27
 73
23
 74
0
 42
0.0000001
 43
0.0000001
 44
0.0000000001
 40
0.0
 40
0.0
 40
0.0
 40
0.0
 40
0.001048081
 40
0.0025998282
 40
0.0073488321
 40
0.0143590209
 40
0.0236478458
 40
0.0352065294
 40
0.0490089018
 40
0.0650254954
 40
0.0832254055
 40
0.1035690837
 40
0.1260051216
 40
0.1769436038
 40
0.2355804307
 40
0.3013567152
 40
0.3736694338
 40
0.4518374465
 40
0.5351399252
 40
0.6227793305
 40
0.8078048225
 40
1.0
 40
1.0
 40
1.0
 40
1.0
 10
22.5602720674
 20
13.5806929006
 30
0.0
 10
22.5616193856
 20
13.5823022019
 30
0.0
 10
22.5660559538
 20
13.585273624
 30
0.0
 10
22.5795859727
 20
13.5909994694
 30
0.0
 10
22.6056061534
 20
13.5974480941
 30
0.0
 10
22.64705544
 20
13.6048578153
 30
0.0
 10
22.7023765566
 20
13.6123165179
 30
0.0
 10
22.7713462208
 20
13.6198783429
 30
0.0
 10
22.8538648997
 20
13.6274717986
 30
0.0
 10
22.949723066
 20
13.6350964642
 30
0.0
 10
23.0587168809
 20
13.6427362319
 30
0.0
 10
23.1805925251
 20
13.6503882078
 30
0.0
 10
23.3679652836
 20
13.6610609715
 30
0.0
 10
23.6320020401
 20
13.6741858768
 30
0.0
 10
23.9828245077
 20
13.689398615
 30
0.0
 10
24.3764840273
 20
13.7046512299
 30
0.0
 10
24.8092810665
 20
13.719929447
 30
0.0
 10
25.2771946055
 20
13.735227424
 30
0.0
 10
25.7758156527
 20
13.7505323407
 30
0.0
 10
26.4883556696
 20
13.7713322323
 30
0.0
 10
27.4189105948
 20
13.796938963
 30
0.0
 10
28.1740497504
 20
13.8169460083
 30
0.0
 10
28.5587949466
 20
13.8271665765
 30
0.0
  0
SPLINE
  5
2D8
100
AcDbEntity
  8
0
100
AcDbSpline
 62
7
  6
BYLAYER
 70
0
 71
3
 72
41
 73
37
 74
0
 42
0.0000001
 43
0.0000001
 44
0.0000000001
 40
0.0
 40
0.0
 40
0.0
 40
0.0
 40
0.0019350966
 40
0.0049379538
 40
0.0090397446
 40
0.0142436922
 40
0.0205429438
 40
0.0279194199
 40
0.0458084933
 40
0.0677307959
 40
0.0935095803
 40
0.1229570091
 40
0.1558248048
 40
0.1917877002
 40
0.2305004668
 40
0.2716198649
 40
0.3147876475
 40
0.4057535201
 40
0.5000952171
 40
0.5944354625
 40
0.6853644514
 40
0.7285400898
 40
0.7696778594
 40
0.8083992814
 40
0.8443258991
 40
0.8771373571
 40
0.9065665544
 40
0.9323747953
 40
0.9543337392
 40
0.9722044198
 40
0.9795412074
 40
0.9857964058
 40
0.9909650649
 40
0.995048464
 40
0.998052785
 40
1.0
 40
1.0
 40
1.0
 40
1.0
 10
33.8008854495
 20
12.6397119257
 30
0.0
 10
33.7950606534
 20
12.6362544463
 30
0.0
 10
33.7785353818
 20
12.630534631
 30
0.0
 10
33.7478051748
 20
12.6232563262
 30
0.0
 10
33.705277484
 20
12.616006609
 30
0.0
 10
33.6511561668
 20
12.6086845725
 30
0.0
 10
33.5854681486
 20
12.601346187
 30
0.0
 10
33.4754797033
 20
12.5908232593
 30
0.0
 10
33.3107876996
 20
12.5780115593
 30
0.0
 10
33.0816705931
 20
12.5632034172
 30
0.0
 10
32.812039822
 20
12.5480642834
 30
0.0
 10
32.5040455875
 20
12.5328800779
 30
0.0
 10
32.1603471149
 20
12.5180863119
 30
0.0
 10
31.7841823552
 20
12.5034846952
 30
0.0
 10
31.3791242454
 20
12.4885926885
 30
0.0
 10
30.9488456674
 20
12.4732543919
 30
0.0
 10
30.3357399185
 20
12.4523991433
 30
0.0
 10
29.5363496064
 20
12.4280342054
 30
0.0
 10
28.5579166434
 20
12.39828332
 30
0.0
 10
27.5796261893
 20
12.368083501
 30
0.0
 10
26.7803529476
 20
12.3434140615
 30
0.0
 10
26.1672606785
 20
12.3232781274
 30
0.0
 10
25.7368550469
 20
12.3080626788
 30
0.0
 10
25.3318491543
 20
12.2926353534
 30
0.0
 10
24.95599184
 20
12.2777046867
 30
0.0
 10
24.6126720527
 20
12.2631551202
 30
0.0
 10
24.3048164139
 20
12.2483698633
 30
0.0
 10
24.0350122115
 20
12.2333122257
 30
0.0
 10
23.8057424933
 20
12.2182668725
 30
0.0
 10
23.641139484
 20
12.2052849719
 30
0.0
 10
23.5315157434
 20
12.1947026841
 30
0.0
 10
23.4662488962
 20
12.187351625
 30
0.0
 10
23.4124711489
 20
12.1800335771
 30
0.0
 10
23.3701260988
 20
12.1728267569
 30
0.0
 10
23.3393820827
 20
12.1656681965
 30
0.0
 10
23.3227769175
 20
12.1600759129
 30
0.0
 10
23.3168634019
 20
12.1566863378
 30
0.0
  0
SPLINE
  5
2D9
100
AcDbEntity
  8
0
100
AcDbSpline
 62
7
  6
BYLAYER
 70
0
 71
3
 72
9
 73
5
 74
0
 42
0.0000001
 43
0.0000001
 44
0.0000000001
 40
0.0
 40
0.0
 40
0.0
 40
0.0
 40
0.7171787063
 40
1.0
 40
1.0
 40
1.0
 40
1.0
 10
34.5587949455
 20
14.2187550344
 30
0.0
 10
34.5587948921
 20
14.2178294001
 30
0.0
 10
34.5583214333
 20
14.2165311345
 30
0.0
 10
34.5575486386
 20
14.2155027876
 30
0.0
 10
34.5573141694
 20
14.2152230227
 30
0.0
  0
SPLINE
  5
2DA
100
AcDbEntity
  8
0
100
AcDbSpline
 62
7
  6
BYLAYER
 70
0
 71
3
 72
27
 73
23
 74
0
 42
0.0000001
 43
0.0000001
 44
0.0000000001
 40
0.0
 40
0.0
 40
0.0
 40
0.0
 40
0.0010486519
 40
0.002601007
 40
0.0073511846
 40
0.0143624557
 40
0.0236522724
 40
0.0352118068
 40
0.0490149112
 40
0.065032154
 40
0.0832326548
 40
0.1035768036
 40
0.1260131961
 40
0.1769521552
 40
0.2355890183
 40
0.3013650675
 40
0.3736772807
 40
0.4518445028
 40
0.5351458257
 40
0.6227839769
 40
0.8078075729
 40
1.0
 40
1.0
 40
1.0
 40
1.0
 10
34.5573141694
 20
14.2152230227
 30
0.0
 10
34.5559652793
 20
14.2136135486
 30
0.0
 10
34.5515263399
 20
14.2106418199
 30
0.0
 10
34.5379915879
 20
14.2049148336
 30
0.0
 10
34.5119660563
 20
14.1984646534
 30
0.0
 10
34.4705102966
 20
14.1910537868
 30
0.0
 10
34.4151833154
 20
14.1835952437
 30
0.0
 10
34.3462083389
 20
14.1760348755
 30
0.0
 10
34.2636850583
 20
14.1684433839
 30
0.0
 10
34.1678228523
 20
14.1608206022
 30
0.0
 10
34.0588256137
 20
14.1531818906
 30
0.0
 10
33.9369472263
 20
14.1455298126
 30
0.0
 10
33.7495720597
 20
14.1348559052
 30
0.0
 10
33.4855338891
 20
14.1217283676
 30
0.0
 10
33.1347112195
 20
14.1065132324
 30
0.0
 10
32.7410533143
 20
14.0912626032
 30
0.0
 10
32.3082593742
 20
14.0759924387
 30
0.0
 10
31.8403509883
 20
14.060697812
 30
0.0
 10
31.3417369784
 20
14.0453845169
 30
0.0
 10
30.6292063971
 20
14.0245745184
 30
0.0
 10
29.6986636151
 20
13.9989804528
 30
0.0
 10
28.9435343558
 20
13.9789722085
 30
0.0
 10
28.5587949466
 20
13.9687517755
 30
0.0
  0
SPLINE
  5
2DB
100
AcDbEntity
  8
0
100
AcDbSpline
 62
7
  6
BYLAYER
 70
0
 71
3
 72
42
 73
38
 74
0
 42
0.0000001
 43
0.0000001
 44
0.0000000001
 40
0.0
 40
0.0
 40
0.0
 40
0.0
 40
0.0019388524
 40
0.004950638
 40
0.0090659627
 40
0.0142842904
 40
0.0205906205
 40
0.0279665008
 40
0.0458451026
 40
0.067757198
 40
0.0935407615
 40
0.1230062134
 40
0.1558852853
 40
0.1918420159
 40
0.2305470102
 40
0.2716612872
 40
0.3148330555
 40
0.3596858418
 40
0.4058028975
 40
0.5001365629
 40
0.5944669997
 40
0.6853892793
 40
0.7285679886
 40
0.7697056902
 40
0.8084150021
 40
0.8443257457
 40
0.8771327161
 40
0.9065701101
 40
0.932389052
 40
0.9543436202
 40
0.972191352
 40
0.9795173266
 40
0.9857676949
 40
0.9909394433
 40
0.9950304921
 40
0.99804387
 40
1.0
 40
1.0
 40
1.0
 40
1.0
 10
33.8010389147
 20
11.6395803601
 30
0.0
 10
33.7951960593
 20
11.6361272696
 30
0.0
 10
33.7786076332
 20
11.6304460412
 30
0.0
 10
33.7477720496
 20
11.6232218559
 30
0.0
 10
33.7051025056
 20
11.616028418
 30
0.0
 10
33.6508500257
 20
11.6087581983
 30
0.0
 10
33.5850861065
 20
11.6014306324
 30
0.0
 10
33.4751130807
 20
11.5908682667
 30
0.0
 10
33.3104969685
 20
11.5779928786
 30
0.0
 10
33.0814365775
 20
11.5630875504
 30
0.0
 10
32.8117561328
 20
11.547930227
 30
0.0
 10
32.5036292927
 20
11.532865662
 30
0.0
 10
32.1598347932
 20
11.5182437668
 30
0.0
 10
31.7836747255
 20
11.5035464238
 30
0.0
 10
31.3786802463
 20
11.4884874744
 30
0.0
 10
30.9484255765
 20
11.4730753691
 30
0.0
 10
30.4966310447
 20
11.4578414909
 30
0.0
 10
30.0272972932
 20
11.4431615832
 30
0.0
 10
29.3789459158
 20
11.4233059958
 30
0.0
 10
28.5574797139
 20
11.3981236818
 30
0.0
 10
27.5792480119
 20
11.3680883866
 30
0.0
 10
26.7800001639
 20
11.3435255002
 30
0.0
 10
26.1669116644
 20
11.3232398565
 30
0.0
 10
25.7365336143
 20
11.30787263
 30
0.0
 10
25.3316119836
 20
11.2925753949
 30
0.0
 10
24.9558517972
 20
11.2778461038
 30
0.0
 10
24.6125681708
 20
11.2632567467
 30
0.0
 10
24.3046614815
 20
11.2483359961
 30
0.0
 10
24.0348052381
 20
11.2331902241
 30
0.0
 10
23.8055873998
 20
11.2181741553
 30
0.0
 10
23.6411042543
 20
11.205321317
 30
0.0
 10
23.5316100027
 20
11.1947755398
 30
0.0
 10
23.4663849714
 20
11.1874322068
 30
0.0
 10
23.4125865265
 20
11.1801022795
 30
0.0
 10
23.3701747928
 20
11.1728684811
 30
0.0
 10
23.3393451326
 20
11.1656785365
 30
0.0
 10
23.3226824967
 20
11.1600567614
 30
0.0
 10
23.3167429936
 20
11.1566494586
 30
0.0
  0
SPLINE
  5
2DC
100
AcDbEntity
  8
0
100
AcDbSpline
 62
7
  6
BYLAYER
 70
0
 71
3
 72
9
 73
5
 74
0
 42
0.0000001
 43
0.0000001
 44
0.0000000001
 40
0.0
 40
0.0
 40
0.0
 40
0.0
 40
0.7171762684
 40
1.0
 40
1.0
 40
1.0
 40
1.0
 10
22.5587949477
 20
14.5771667129
 30
0.0
 10
22.5587950059
 20
14.5780922297
 30
0.0
 10
22.5592684835
 20
14.5793903346
 30
0.0
 10
22.5600412868
 20
14.5804184749
 30
0.0
 10
22.5602757584
 20
14.580698183
 30
0.0
  0
SPLINE
  5
2DD
100
AcDbEntity
  8
0
100
AcDbSpline
 62
7
  6
BYLAYER
 70
0
 71
3
 72
27
 73
23
 74
0
 42
0.0000001
 43
0.0000001
 44
0.0000000001
 40
0.0
 40
0.0
 40
0.0
 40
0.0
 40
0.001048573
 40
0.0026008711
 40
0.0073509881
 40
0.0143622416
 40
0.0236520665
 40
0.0352116737
 40
0.0490148841
 40
0.0650322256
 40
0.0832327919
 40
0.1035770386
 40
0.1260135569
 40
0.1769527245
 40
0.2355899134
 40
0.3013662392
 40
0.3736787168
 40
0.4518461232
 40
0.535147644
 40
0.6227857991
 40
0.8078081072
 40
1.0
 40
1.0
 40
1.0
 40
1.0
 10
22.5602757584
 20
14.580698183
 30
0.0
 10
22.5616247151
 20
14.5823073943
 30
0.0
 10
22.5660638226
 20
14.5852783908
 30
0.0
 10
22.5795988175
 20
14.5910037009
 30
0.0
 10
22.6056245426
 20
14.5974517708
 30
0.0
 10
22.6470804153
 20
14.6048610018
 30
0.0
 10
22.7024074806
 20
14.6123195876
 30
0.0
 10
22.7713826198
 20
14.6198816967
 30
0.0
 10
22.8539062203
 20
14.6274755419
 30
0.0
 10
22.9497687753
 20
14.6351004757
 30
0.0
 10
23.0587664524
 20
14.6427400806
 30
0.0
 10
23.1806454358
 20
14.6503914181
 30
0.0
 10
23.3680215464
 20
14.6610630934
 30
0.0
 10
23.6320611262
 20
14.6741873747
 30
0.0
 10
23.9828853425
 20
14.6894019404
 30
0.0
 10
24.3765447703
 20
14.7046552255
 30
0.0
 10
24.809339849
 20
14.7199309628
 30
0.0
 10
25.2772493402
 20
14.7352276707
 30
0.0
 10
25.7758641658
 20
14.7505352478
 30
0.0
 10
26.4883926886
 20
14.7713345917
 30
0.0
 10
27.4189316363
 20
14.7969254098
 30
0.0
 10
28.1740558741
 20
14.8169778191
 30
0.0
 10
28.5587949466
 20
14.8271666313
 30
0.0
  0
SPLINE
  5
2DE
100
AcDbEntity
  8
0
100
AcDbSpline
 62
7
  6
BYLAYER
 70
0
 71
3
 72
42
 73
38
 74
0
 42
0.0000001
 43
0.0000001
 44
0.0000000001
 40
0.0
 40
0.0
 40
0.0
 40
0.0
 40
0.001947418
 40
0.0049733509
 40
0.0091001362
 40
0.0143252532
 40
0.0206328456
 40
0.0280048545
 40
0.0458701895
 40
0.0677753853
 40
0.0935704271
 40
0.123055409
 40
0.1559339293
 40
0.1918808767
 40
0.2305773149
 40
0.2716882676
 40
0.3148664137
 40
0.3597208931
 40
0.4058328582
 40
0.5001561508
 40
0.5944741614
 40
0.6853934668
 40
0.7285739179
 40
0.7697086712
 40
0.8084010912
 40
0.8443016545
 40
0.8771119383
 40
0.9065597478
 40
0.9323868645
 40
0.9543314758
 40
0.9721539818
 40
0.9794774953
 40
0.9857313923
 40
0.9909107906
 40
0.9950118156
 40
0.9980355031
 40
1.0
 40
1.0
 40
1.0
 40
1.0
 10
33.8011941879
 20
10.6394603741
 30
0.0
 10
33.7953080535
 20
10.6360214032
 30
0.0
 10
33.7786081273
 20
10.6304147363
 30
0.0
 10
33.7476306612
 20
10.6232856075
 30
0.0
 10
33.7048404117
 20
10.6161244718
 30
0.0
 10
33.6505201906
 20
10.6088374463
 30
0.0
 10
33.5847427083
 20
10.601483977
 30
0.0
 10
33.4748269411
 20
10.5908771801
 30
0.0
 10
33.3102956678
 20
10.5779416198
 30
0.0
 10
33.0812659583
 20
10.5629390255
 30
0.0
 10
32.8114906506
 20
10.5478300971
 30
0.0
 10
32.5032391152
 20
10.5329734176
 30
0.0
 10
32.159403696
 20
10.5183555103
 30
0.0
 10
31.7833035556
 20
10.5035689162
 30
0.0
 10
31.378381009
 20
10.4883357788
 30
0.0
 10
30.9481350064
 20
10.4729023051
 30
0.0
 10
30.4963034207
 20
10.4579286263
 30
0.0
 10
30.0269459462
 20
10.4432896245
 30
0.0
 10
29.3786300169
 20
10.4233024187
 30
0.0
 10
28.5572458581
 20
10.3979360662
 30
0.0
 10
27.5790696608
 20
10.3682102238
 30
0.0
 10
26.779849832
 20
10.3436120581
 30
0.0
 10
26.1667663839
 20
10.3231358215
 30
0.0
 10
25.7364431189
 20
10.3077020299
 30
0.0
 10
25.3316082077
 20
10.2926192144
 30
0.0
 10
24.9559163874
 20
10.2780170074
 30
0.0
 10
24.6126156659
 20
10.2633209168
 30
0.0
 10
24.3046317194
 20
10.2482497397
 30
0.0
 10
24.0347398086
 20
10.233077728
 30
0.0
 10
23.8056074009
 20
10.2181244894
 30
0.0
 10
23.6412403373
 20
10.2054180099
 30
0.0
 10
23.5318272822
 20
10.1948781103
 30
0.0
 10
23.4665727785
 20
10.1875084214
 30
0.0
 10
23.4127020036
 20
10.1801501251
 30
0.0
 10
23.3701954187
 20
10.1728842096
 30
0.0
 10
23.3392702887
 20
10.1656574223
 30
0.0
 10
23.322547067
 20
10.1600095623
 30
0.0
 10
23.31658149
 20
10.1565884946
 30
0.0
  0
SPLINE
  5
2DF
100
AcDbEntity
  8
0
100
AcDbSpline
 62
7
  6
BYLAYER
 70
0
 71
3
 72
9
 73
5
 74
0
 42
0.0000001
 43
0.0000001
 44
0.0000000001
 40
0.0
 40
0.0
 40
0.0
 40
0.0
 40
0.7172642602
 40
1.0
 40
1.0
 40
1.0
 40
1.0
 10
22.5587949482
 20
10.5771667757
 30
0.0
 10
22.5587949973
 20
10.5780905854
 30
0.0
 10
22.5592666097
 20
10.5793862211
 30
0.0
 10
22.5600370584
 20
10.5804130029
 30
0.0
 10
22.5602707668
 20
10.580692266
 30
0.0
  0
SPLINE
  5
2E0
100
AcDbEntity
  8
0
100
AcDbSpline
 62
7
  6
BYLAYER
 70
0
 71
3
 72
27
 73
23
 74
0
 42
0.0000001
 43
0.0000001
 44
0.0000000001
 40
0.0
 40
0.0
 40
0.0
 40
0.0
 40
0.0010478716
 40
0.0025993853
 40
0.0073479228
 40
0.0143576803
 40
0.023646122
 40
0.035204437
 40
0.0490064605
 40
0.0650227438
 40
0.083222396
 40
0.1035658167
 40
0.1260016046
 40
0.1769397143
 40
0.2355762165
 40
0.3013523384
 40
0.3736650103
 40
0.4518331006
 40
0.5351356782
 40
0.6227754068
 40
0.8078029765
 40
1.0
 40
1.0
 40
1.0
 40
1.0
 10
22.5602707668
 20
10.580692266
 30
0.0
 10
22.5616175026
 20
10.5823015087
 30
0.0
 10
22.5660531697
 20
10.5852728283
 30
0.0
 10
22.5795813762
 20
10.5909982073
 30
0.0
 10
22.6055994633
 20
10.5974461166
 30
0.0
 10
22.6470462293
 20
10.6048552078
 30
0.0
 10
22.7023649967
 20
10.6123137692
 30
0.0
 10
22.7713324044
 20
10.6198760444
 30
0.0
 10
22.8538489775
 20
10.6274701734
 30
0.0
 10
22.9497052722
 20
10.6350955149
 30
0.0
 10
23.0586974339
 20
10.6427356351
 30
0.0
 10
23.1805715751
 20
10.650387584
 30
0.0
 10
23.3679426312
 20
10.6610600776
 30
0.0
 10
23.6319775679
 20
10.6741846788
 30
0.0
 10
23.9827983643
 20
10.6893982127
 30
0.0
 10
24.3764569009
 20
10.7046511585
 30
0.0
 10
24.8092538192
 20
10.7199284146
 30
0.0
 10
25.2771677907
 20
10.7352247014
 30
0.0
 10
25.7757900155
 20
10.7505279118
 30
0.0
 10
26.4883350157
 20
10.7713343886
 30
0.0
 10
27.418898047
 20
10.796965667
 30
0.0
 10
28.1740478649
 20
10.8168744463
 30
0.0
 10
28.5587949466
 20
10.8271666126
 30
0.0
  0
SPLINE
  5
2E1
100
AcDbEntity
  8
0
100
AcDbSpline
 62
7
  6
BYLAYER
 70
0
 71
3
 72
42
 73
38
 74
0
 42
0.0000001
 43
0.0000001
 44
0.0000000001
 40
0.0
 40
0.0
 40
0.0
 40
0.0
 40
0.0019567003
 40
0.004995359
 40
0.0091306517
 40
0.0143568787
 40
0.0206605626
 40
0.0280260266
 40
0.0458771256
 40
0.0677814883
 40
0.0935929062
 40
0.1230900396
 40
0.1559603558
 40
0.1918951608
 40
0.2305828206
 40
0.2716950983
 40
0.314877238
 40
0.3597297467
 40
0.4058340082
 40
0.5001453685
 40
0.5944510662
 40
0.6853703278
 40
0.7285515713
 40
0.7696772322
 40
0.8083564423
 40
0.8442533071
 40
0.8770726813
 40
0.9065328362
 40
0.9323631826
 40
0.954291362
 40
0.9721008328
 40
0.9794277582
 40
0.9856905901
 40
0.9908812724
 40
0.9949939947
 40
0.9980283662
 40
1.0
 40
1.0
 40
1.0
 40
1.0
 10
33.8012760694
 20
9.6394024368
 30
0.0
 10
33.795336739
 20
9.6359901678
 30
0.0
 10
33.7785425932
 20
9.6304361167
 30
0.0
 10
33.7474383306
 20
9.6233748682
 30
0.0
 10
33.7045663672
 20
9.6162370179
 30
0.0
 10
33.6502296204
 20
9.6089125248
 30
0.0
 10
33.5844893592
 20
9.601508576
 30
0.0
 10
33.474663024
 20
9.5908483196
 30
0.0
 10
33.3102091577
 20
9.5778456964
 30
0.0
 10
33.0811709389
 20
9.5628208101
 30
0.0
 10
32.8112876363
 20
9.5477948649
 30
0.0
 10
32.5029495495
 20
9.5331219006
 30
0.0
 10
32.1591384869
 20
9.518438187
 30
0.0
 10
31.7831371822
 20
9.5035235838
 30
0.0
 10
31.3782794566
 20
9.4881562237
 30
0.0
 10
30.9480321332
 20
9.4728303642
 30
0.0
 10
30.4961721726
 20
9.458065277
 30
0.0
 10
30.0268249604
 20
9.4434094959
 30
0.0
 10
29.3785765675
 20
9.4232279142
 30
0.0
 10
28.5572884096
 20
9.3977940016
 30
0.0
 10
27.5791667775
 20
9.3683719654
 30
0.0
 10
26.779972821
 20
9.3436728098
 30
0.0
 10
26.1669126454
 20
9.3229781678
 30
0.0
 10
25.736652537
 20
9.3076267164
 30
0.0
 10
25.331892688
 20
9.2927377579
 30
0.0
 10
24.9562184563
 20
9.2781715638
 30
0.0
 10
24.6128537148
 20
9.2633404896
 30
0.0
 10
24.3047831585
 20
9.2481373403
 30
0.0
 10
24.0348884028
 20
9.2329755059
 30
0.0
 10
23.8058314544
 20
9.2182006905
 30
0.0
 10
23.6415494798
 20
9.2055232063
 30
0.0
 10
23.5321374134
 20
9.1949721207
 30
0.0
 10
23.4668017051
 20
9.1875711201
 30
0.0
 10
23.4128216729
 20
9.1801781708
 30
0.0
 10
23.37020028
 20
9.1728792307
 30
0.0
 10
23.3391770331
 20
9.16561264
 30
0.0
 10
23.322397356
 20
9.1599375901
 30
0.0
 10
23.3164090162
 20
9.1565056933
 30
0.0
  0
SPLINE
  5
2E2
100
AcDbEntity
  8
0
100
AcDbSpline
 62
7
  6
BYLAYER
 70
0
 71
3
 72
9
 73
5
 74
0
 42
0.0000001
 43
0.0000001
 44
0.0000000001
 40
0.0
 40
0.0
 40
0.0
 40
0.0
 40
0.7172100155
 40
1.0
 40
1.0
 40
1.0
 40
1.0
 10
22.5587949493
 20
9.5771676438
 30
0.0
 10
22.5587950127
 20
9.578092508
 30
0.0
 10
22.5592677996
 20
9.5793896659
 30
0.0
 10
22.5600397323
 20
9.5804172646
 30
0.0
 10
22.5602739203
 20
9.5806967955
 30
0.0
  0
SPLINE
  5
2E3
100
AcDbEntity
  8
0
100
AcDbSpline
 62
7
  6
BYLAYER
 70
0
 71
3
 72
27
 73
23
 74
0
 42
0.0000001
 43
0.0000001
 44
0.0000000001
 40
0.0
 40
0.0
 40
0.0
 40
0.0
 40
0.0010482866
 40
0.0026002642
 40
0.0073497374
 40
0.0143603931
 40
0.023649686
 40
0.0352087791
 40
0.0490115022
 40
0.0650284112
 40
0.0832286196
 40
0.1035725137
 40
0.126008693
 40
0.1769473611
 40
0.2355841271
 40
0.3013602408
 40
0.3736726572
 40
0.4518402059
 40
0.5351419594
 40
0.6227806306
 40
0.807805654
 40
1.0
 40
1.0
 40
1.0
 40
1.0
 10
22.5602739203
 20
9.5806967955
 30
0.0
 10
22.5616220528
 20
9.5823059504
 30
0.0
 10
22.5660598756
 20
9.5852768822
 30
0.0
 10
22.5795922954
 20
9.5910017525
 30
0.0
 10
22.6056150638
 20
9.5974491267
 30
0.0
 10
22.6470674033
 20
9.6048577535
 30
0.0
 10
22.7023912001
 20
9.6123162162
 30
0.0
 10
22.7713632163
 20
9.6198788006
 30
0.0
 10
22.8538839049
 20
9.6274733434
 30
0.0
 10
22.9497438748
 20
9.6350989841
 30
0.0
 10
23.0587392741
 20
9.6427389818
 30
0.0
 10
23.1806161977
 20
9.6503903536
 30
0.0
 10
23.3679900036
 20
9.661061836
 30
0.0
 10
23.6320271733
 20
9.674185782
 30
0.0
 10
23.9828492293
 20
9.6894008586
 30
0.0
 10
24.3765074026
 20
9.7046545058
 30
0.0
 10
24.8093023995
 20
9.7199299295
 30
0.0
 10
25.2772127662
 20
9.7352247226
 30
0.0
 10
25.7758296835
 20
9.7505286302
 30
0.0
 10
26.4883651567
 20
9.7713365331
 30
0.0
 10
27.4189148348
 20
9.7969667307
 30
0.0
 10
28.1740536818
 20
9.8168700453
 30
0.0
 10
28.5587949466
 20
9.8271667462
 30
0.0
  0
SPLINE
  5
2E4
100
AcDbEntity
  8
0
100
AcDbSpline
 62
7
  6
BYLAYER
 70
0
 71
3
 72
9
 73
5
 74
0
 42
0.0000001
 43
0.0000001
 44
0.0000000001
 40
0.0
 40
0.0
 40
0.0
 40
0.0
 40
0.7172861701
 40
1.0
 40
1.0
 40
1.0
 40
1.0
 10
34.5587949449
 20
15.2187486787
 30
0.0
 10
34.5587948917
 20
15.2178255226
 30
0.0
 10
34.5583238131
 20
15.2165308217
 30
0.0
 10
34.5575540706
 20
15.2155046854
 30
0.0
 10
34.55732059
 20
15.2152256189
 30
0.0
  0
SPLINE
  5
2E5
100
AcDbEntity
  8
0
100
AcDbSpline
 62
7
  6
BYLAYER
 70
0
 71
3
 72
27
 73
23
 74
0
 42
0.0000001
 43
0.0000001
 44
0.0000000001
 40
0.0
 40
0.0
 40
0.0
 40
0.0
 40
0.0010475774
 40
0.0025987982
 40
0.0073468045
 40
0.0143561001
 40
0.0236441388
 40
0.0352021398
 40
0.0490039133
 40
0.0650199798
 40
0.0832194293
 40
0.1035627089
 40
0.1259984122
 40
0.1769364188
 40
0.2355730272
 40
0.3013493306
 40
0.3736622745
 40
0.4518307347
 40
0.5351338625
 40
0.6227741597
 40
0.8078021681
 40
1.0
 40
1.0
 40
1.0
 40
1.0
 10
34.55732059
 20
15.2152256189
 30
0.0
 10
34.555974447
 20
15.2136166481
 30
0.0
 10
34.5515396411
 20
15.210645995
 30
0.0
 10
34.5380132381
 20
15.2049222637
 30
0.0
 10
34.5119972619
 20
15.198476412
 30
0.0
 10
34.4705531197
 20
15.1910688272
 30
0.0
 10
34.4152367619
 20
15.1836100543
 30
0.0
 10
34.3462715175
 20
15.1760458277
 30
0.0
 10
34.2637567382
 20
15.1684491215
 30
0.0
 10
34.1679019631
 20
15.1608213998
 30
0.0
 10
34.0589109866
 20
15.1531801689
 30
0.0
 10
33.9370376539
 20
15.1455287656
 30
0.0
 10
33.749667119
 20
15.1348582931
 30
0.0
 10
33.4856321557
 20
15.1217369409
 30
0.0
 10
33.1348109115
 20
15.1065244028
 30
0.0
 10
32.7411512856
 20
15.0912695177
 30
0.0
 10
32.3083528389
 20
15.0759873979
 30
0.0
 10
31.8404364965
 20
15.0606887528
 30
0.0
 10
31.3418111096
 20
15.0453894131
 30
0.0
 10
30.629262658
 20
15.0245913678
 30
0.0
 10
29.6986958278
 20
14.9989629096
 30
0.0
 10
28.9435447589
 20
14.9790038536
 30
0.0
 10
28.5587949466
 20
14.9687516158
 30
0.0
  0
SPLINE
  5
2E6
100
AcDbEntity
  8
0
100
AcDbSpline
 62
7
  6
BYLAYER
 70
0
 71
3
 72
41
 73
37
 74
0
 42
0.0000001
 43
0.0000001
 44
0.0000000001
 40
0.0
 40
0.0
 40
0.0
 40
0.0
 40
0.0019662876
 40
0.0050115456
 40
0.0091484606
 40
0.0143710084
 40
0.0206676357
 40
0.028024821
 40
0.0458632939
 40
0.0677722995
 40
0.0936042951
 40
0.123100178
 40
0.1559570607
 40
0.1918789542
 40
0.2305595472
 40
0.271676028
 40
0.3148599027
 40
0.3597052349
 40
0.4058007265
 40
0.5001001779
 40
0.5943954359
 40
0.6853170235
 40
0.7696113726
 40
0.8082820109
 40
0.8441841915
 40
0.8770163094
 40
0.9064889888
 40
0.9323188588
 40
0.9542283205
 40
0.9720404235
 40
0.9793766285
 40
0.9856519002
 40
0.9908562272
 40
0.99498151
 40
0.998024742
 40
1.0
 40
1.0
 40
1.0
 40
1.0
 10
33.8012503081
 20
8.6394270989
 30
0.0
 10
33.7952460631
 20
8.6360610984
 30
0.0
 10
33.778391332
 20
8.630551544
 30
0.0
 10
33.7472204055
 20
8.6234783964
 30
0.0
 10
33.7043392408
 20
8.6163133481
 30
0.0
 10
33.650038113
 20
8.6089529681
 30
0.0
 10
33.5843695664
 20
8.6015052059
 30
0.0
 10
33.4746457368
 20
8.5907903466
 30
0.0
 10
33.3102520252
 20
8.5777286642
 30
0.0
 10
33.0811653561
 20
8.5627297104
 30
0.0
 10
32.811185513
 20
8.5478900192
 30
0.0
 10
32.5028236086
 20
8.5332392498
 30
0.0
 10
32.1591088367
 20
8.5184990826
 30
0.0
 10
31.7832283586
 20
8.5034134244
 30
0.0
 10
31.3784247095
 20
8.4879833066
 30
0.0
 10
30.9481700709
 20
8.4728720644
 30
0.0
 10
30.4963065623
 20
8.4582395134
 30
0.0
 10
30.0270082305
 20
8.443488777
 30
0.0
 10
29.3788581255
 20
8.4231121084
 30
0.0
 10
28.5576706596
 20
8.3977239397
 30
0.0
 10
27.5796036539
 20
8.3685481946
 30
0.0
 10
26.6365819939
 20
8.3391824198
 30
0.0
 10
25.888282127
 20
8.3131176177
 30
0.0
 10
25.3325025858
 20
8.2929282227
 30
0.0
 10
24.9567945794
 20
8.278288269
 30
0.0
 10
24.6133268322
 20
8.2632975482
 30
0.0
 10
24.3051699522
 20
8.2480325673
 30
0.0
 10
24.0352946592
 20
8.2329132594
 30
0.0
 10
23.8062790324
 20
8.2183651915
 30
0.0
 10
23.6420220838
 20
8.2056440409
 30
0.0
 10
23.5325283217
 20
8.1950433981
 30
0.0
 10
23.4670710837
 20
8.1876107724
 30
0.0
 10
23.4129584807
 20
8.1801852274
 30
0.0
 10
23.370217153
 20
8.1728578396
 30
0.0
 10
23.3391085659
 20
8.1655692711
 30
0.0
 10
23.3222887496
 20
8.1598757555
 30
0.0
 10
23.3162893554
 20
8.1564375163
 30
0.0
  0
SPLINE
  5
2E7
100
AcDbEntity
  8
0
100
AcDbSpline
 62
7
  6
BYLAYER
 70
0
 71
3
 72
26
 73
22
 74
0
 42
0.0000001
 43
0.0000001
 44
0.0000000001
 40
0.0
 40
0.0
 40
0.0
 40
0.0
 40
0.191314476
 40
0.3752596461
 40
0.4623871155
 40
0.5452592066
 40
0.6231103828
 40
0.6952263723
 40
0.7609633363
 40
0.8197115453
 40
0.8709282042
 40
0.9141112218
 40
0.9325712153
 40
0.9488869099
 40
0.963016686
 40
0.9749280107
 40
0.9845964108
 40
0.9920001567
 40
0.9971247398
 40
0.9988371645
 40
1.0
 40
1.0
 40
1.0
 40
1.0
 10
28.5587949466
 20
8.2159693395
 30
0.0
 10
28.2137964796
 20
8.2097425659
 30
0.0
 10
27.5370912047
 20
8.197385838
 30
0.0
 10
26.7032836972
 20
8.1813707988
 30
0.0
 10
26.0650399189
 20
8.168451194
 30
0.0
 10
25.6181167305
 20
8.1589808365
 30
0.0
 10
25.1982753021
 20
8.1494797981
 30
0.0
 10
24.809348415
 20
8.1399300754
 30
0.0
 10
24.4548862661
 20
8.1304057439
 30
0.0
 10
24.1381311134
 20
8.1209446316
 30
0.0
 10
23.8620747818
 20
8.1114795904
 30
0.0
 10
23.6586888645
 20
8.1031549643
 30
0.0
 10
23.5182473287
 20
8.0963330417
 30
0.0
 10
23.4301732384
 20
8.0915083841
 30
0.0
 10
23.3539257941
 20
8.086730707
 30
0.0
 10
23.2896963911
 20
8.0819934627
 30
0.0
 10
23.2376176124
 20
8.0773280419
 30
0.0
 10
23.1978709725
 20
8.0726705776
 30
0.0
 10
23.1724497408
 20
8.0686279425
 30
0.0
 10
23.1584951069
 20
8.0650017112
 30
0.0
 10
23.1535971869
 20
8.0631642274
 30
0.0
 10
23.1517843639
 20
8.0621095735
 30
0.0
  0
SPLINE
  5
2E8
100
AcDbEntity
  8
0
100
AcDbSpline
 62
7
  6
BYLAYER
 70
0
 71
3
 72
11
 73
7
 74
0
 42
0.0000001
 43
0.0000001
 44
0.0000000001
 40
0.0
 40
0.0
 40
0.0
 40
0.0
 40
0.2466261606
 40
0.4335013722
 40
0.6216404984
 40
1.0
 40
1.0
 40
1.0
 40
1.0
 10
30.0827341427
 20
20.3804318939
 30
0.0
 10
29.9605115366
 20
20.3467448496
 30
0.0
 10
29.7436845129
 20
20.2944726651
 30
0.0
 10
29.429056073
 20
20.2377779662
 30
0.0
 10
29.0447785495
 20
20.1888322603
 30
0.0
 10
28.7532933243
 20
20.1734133206
 30
0.0
 10
28.5587949466
 20
20.173695115
 30
0.0
  0
SPLINE
  5
2E9
100
AcDbEntity
  8
0
100
AcDbSpline
 62
7
  6
BYLAYER
 70
0
 71
3
 72
29
 73
25
 74
0
 42
0.0000001
 43
0.0000001
 44
0.0000000001
 40
0.0
 40
0.0
 40
0.0
 40
0.0
 40
0.0007162669
 40
0.0018288034
 40
0.0034665481
 40
0.0056668332
 40
0.0084434668
 40
0.0118023887
 40
0.0202756362
 40
0.031089541
 40
0.0442214747
 40
0.0596414859
 40
0.0773178979
 40
0.1192797373
 40
0.1696985607
 40
0.2281071709
 40
0.2939324587
 40
0.3665536531
 40
0.4452665882
 40
0.5293253267
 40
0.6179029571
 40
0.7101510559
 40
0.8052124855
 40
1.0
 40
1.0
 40
1.0
 40
1.0
 10
22.5587949476
 20
16.5771677077
 30
0.0
 10
22.5587950464
 20
16.5786029819
 30
0.0
 10
22.5609027626
 20
16.5820669521
 30
0.0
 10
22.5668827766
 20
16.5856358498
 30
0.0
 10
22.5760694797
 20
16.5894637693
 30
0.0
 10
22.5887919392
 20
16.5932236212
 30
0.0
 10
22.6050528907
 20
16.5970660231
 30
0.0
 10
22.6337979644
 20
16.6026338436
 30
0.0
 10
22.6786959804
 20
16.6093310851
 30
0.0
 10
22.7432110364
 20
16.6169721354
 30
0.0
 10
22.8217225271
 20
16.6246582927
 30
0.0
 10
22.9140353369
 20
16.6323833469
 30
0.0
 10
23.0640413151
 20
16.6433440804
 30
0.0
 10
23.2841796497
 20
16.6566854197
 30
0.0
 10
23.5859466726
 20
16.6720474278
 30
0.0
 10
23.9355828524
 20
16.6874622963
 30
0.0
 10
24.3297439053
 20
16.702928542
 30
0.0
 10
24.7646186797
 20
16.7184146611
 30
0.0
 10
25.2360503812
 20
16.7339246367
 30
0.0
 10
25.7394716388
 20
16.7494481245
 30
0.0
 10
26.2700267966
 20
16.7649829856
 30
0.0
 10
26.8226383589
 20
16.7805205712
 30
0.0
 10
27.5880091502
 20
16.8014186979
 30
0.0
 10
28.1686116092
 20
16.8168278614
 30
0.0
 10
28.5587949466
 20
16.8271666313
 30
0.0
  0
SPLINE
  5
2EA
100
AcDbEntity
  8
0
100
AcDbSpline
 62
7
  6
BYLAYER
 70
0
 71
3
 72
26
 73
22
 74
0
 42
0.0000001
 43
0.0000001
 44
0.0000000001
 40
0.0
 40
0.0
 40
0.0
 40
0.0
 40
0.1894501339
 40
0.3720579487
 40
0.4586969482
 40
0.541190526
 40
0.6187742565
 40
0.6907485109
 40
0.756460057
 40
0.8153182289
 40
0.8667901868
 40
0.9104105605
 40
0.9291558555
 40
0.9457957844
 40
0.9602956678
 40
0.9726298406
 40
0.9827745723
 40
0.9907101016
 40
0.9964352893
 40
0.998481294
 40
1.0
 40
1.0
 40
1.0
 40
1.0
 10
28.5587949466
 20
8.968750935
 30
0.0
 10
28.1799356176
 20
8.95878905
 30
0.0
 10
27.4359074824
 20
8.9389467119
 30
0.0
 10
26.5186411991
 20
8.9137526276
 30
0.0
 10
25.8152906101
 20
8.8932932768
 30
0.0
 10
25.3219707816
 20
8.8782197909
 30
0.0
 10
24.8580015743
 20
8.8631544612
 30
0.0
 10
24.4276226428
 20
8.8481062522
 30
0.0
 10
24.0347277121
 20
8.8330796165
 30
0.0
 10
23.6828782114
 20
8.8180904043
 30
0.0
 10
23.3752646775
 20
8.8031508936
 30
0.0
 10
23.1478985372
 20
8.7902064453
 30
0.0
 10
22.9902026805
 20
8.7796280833
 30
0.0
 10
22.8906911602
 20
8.7721102498
 30
0.0
 10
22.8040430574
 20
8.7646130185
 30
0.0
 10
22.7304452538
 20
8.7571419458
 30
0.0
 10
22.6700395228
 20
8.7497440642
 30
0.0
 10
22.6229929429
 20
8.742398035
 30
0.0
 10
22.5921772803
 20
8.735966519
 30
0.0
 10
22.5744344733
 20
8.7304210948
 30
0.0
 10
22.5678440756
 20
8.7276029618
 30
0.0
 10
22.565210287
 20
8.7260885598
 30
0.0
  0
SPLINE
  5
2EB
100
AcDbEntity
  8
0
100
AcDbSpline
 62
7
  6
BYLAYER
 70
0
 71
3
 72
13
 73
9
 74
0
 42
0.0000001
 43
0.0000001
 44
0.0000000001
 40
0.0
 40
0.0
 40
0.0
 40
0.0
 40
0.0768149439
 40
0.1718845123
 40
0.2832849476
 40
0.4088556733
 40
0.6923147446
 40
1.0
 40
1.0
 40
1.0
 40
1.0
 10
23.1426215485
 20
8.6479591837
 30
0.0
 10
23.281116892
 20
8.6565442406
 30
0.0
 10
23.59120939
 20
8.6726506186
 30
0.0
 10
24.1024805369
 20
8.6944892353
 30
0.0
 10
24.7018901887
 20
8.7164877348
 30
0.0
 10
25.6415148402
 20
8.7471379091
 30
0.0
 10
26.9356875248
 20
8.7841848634
 30
0.0
 10
28.0031801854
 20
8.8123122266
 30
0.0
 10
28.5587949466
 20
8.8271667915
 30
0.0
  0
SPLINE
  5
2EC
100
AcDbEntity
  8
0
100
AcDbSpline
 62
7
  6
BYLAYER
 70
0
 71
3
 72
24
 73
20
 74
0
 42
0.0000001
 43
0.0000001
 44
0.0000000001
 40
0.0
 40
0.0
 40
0.0
 40
0.0
 40
0.1893850052
 40
0.3719295958
 40
0.5410214124
 40
0.618588445
 40
0.6905538051
 40
0.7562619778
 40
0.8151281779
 40
0.8666107906
 40
0.9102548947
 40
0.9456640606
 40
0.9601823224
 40
0.9725370676
 40
0.9827012026
 40
0.9906566121
 40
0.9964079223
 40
0.9984678947
 40
1.0
 40
1.0
 40
1.0
 40
1.0
 10
28.5587949466
 20
8.8271667915
 30
0.0
 10
28.9375091266
 20
8.8372918544
 30
0.0
 10
29.6812659617
 20
8.8569044589
 30
0.0
 10
30.7631263648
 20
8.8866831178
 30
0.0
 10
31.621340107
 20
8.9120469037
 30
0.0
 10
32.2583873222
 20
8.932723242
 30
0.0
 10
32.6886964344
 20
8.9477681275
 30
0.0
 10
33.0815723612
 20
8.962787542
 30
0.0
 10
33.4334427603
 20
8.9777690772
 30
0.0
 10
33.7411340917
 20
8.9926999845
 30
0.0
 10
34.0018405351
 20
9.0075610941
 30
0.0
 10
34.1885836463
 20
9.0205193602
 30
0.0
 10
34.3127174995
 20
9.0312279032
 30
0.0
 10
34.3864313502
 20
9.0386921113
 30
0.0
 10
34.4469565434
 20
9.0460839791
 30
0.0
 10
34.4941343617
 20
9.0534318304
 30
0.0
 10
34.5250703657
 20
9.059863407
 30
0.0
 10
34.5429258523
 20
9.0654054277
 30
0.0
 10
34.5495751898
 20
9.0682218488
 30
0.0
 10
34.5522407305
 20
9.0697345353
 30
0.0
  0
SPLINE
  5
2ED
100
AcDbEntity
  8
0
100
AcDbSpline
 62
7
  6
BYLAYER
 70
0
 71
3
 72
26
 73
22
 74
0
 42
0.0000001
 43
0.0000001
 44
0.0000000001
 40
0.0
 40
0.0
 40
0.0
 40
0.0
 40
0.1894676451
 40
0.3720854692
 40
0.458732761
 40
0.5412316055
 40
0.6188163774
 40
0.6907921031
 40
0.756502416
 40
0.8153619709
 40
0.8668286982
 40
0.9104474648
 40
0.9291877247
 40
0.9458219503
 40
0.9603191704
 40
0.9726505188
 40
0.9827889256
 40
0.9907164834
 40
0.9964381483
 40
0.9984829059
 40
1.0
 40
1.0
 40
1.0
 40
1.0
 10
28.5587949466
 20
9.9687520292
 30
0.0
 10
28.1798962174
 20
9.9587867425
 30
0.0
 10
27.4358047421
 20
9.9389273316
 30
0.0
 10
26.5184551455
 20
9.9137648692
 30
0.0
 10
25.8150495005
 20
9.8932924688
 30
0.0
 10
25.3216950813
 20
9.8782052412
 30
0.0
 10
24.8577049882
 20
9.8631361202
 30
0.0
 10
24.427318266
 20
9.848092966
 30
0.0
 10
24.0344153541
 20
9.8330695985
 30
0.0
 10
23.682571725
 20
9.8180839159
 30
0.0
 10
23.3749659785
 20
9.803134102
 30
0.0
 10
23.1476214
 20
9.7901819102
 30
0.0
 10
22.9899486837
 20
9.7795999205
 30
0.0
 10
22.8904627929
 20
9.7720834548
 30
0.0
 10
22.8038356125
 20
9.7645923382
 30
0.0
 10
22.7302600228
 20
9.7571281469
 30
0.0
 10
22.6698873484
 20
9.749735129
 30
0.0
 10
22.6228768848
 20
9.7423854422
 30
0.0
 10
22.5920869887
 20
9.7359524872
 30
0.0
 10
22.5743582787
 20
9.7304043576
 30
0.0
 10
22.5677744981
 20
9.7275843443
 30
0.0
 10
22.5651453231
 20
9.7260683208
 30
0.0
  0
SPLINE
  5
2EE
100
AcDbEntity
  8
0
100
AcDbSpline
 62
7
  6
BYLAYER
 70
0
 71
3
 72
24
 73
20
 74
0
 42
0.0000001
 43
0.0000001
 44
0.0000000001
 40
0.0
 40
0.0
 40
0.0
 40
0.0
 40
0.1893943008
 40
0.3719472388
 40
0.5410448883
 40
0.6186138157
 40
0.6905802548
 40
0.7562886091
 40
0.8151540059
 40
0.8666348346
 40
0.9102761162
 40
0.9456814335
 40
0.9601973806
 40
0.9725495548
 40
0.9827108676
 40
0.9906632176
 40
0.9964112626
 40
0.9984695555
 40
1.0
 40
1.0
 40
1.0
 40
1.0
 10
28.5587949466
 20
9.8271667462
 30
0.0
 10
28.937529051
 20
9.8373026794
 30
0.0
 10
29.6813246835
 20
9.8569031665
 30
0.0
 10
30.7632365924
 20
9.886685107
 30
0.0
 10
31.6214860495
 20
9.9120526089
 30
0.0
 10
32.2585535974
 20
9.9327291778
 30
0.0
 10
32.6888708679
 20
9.9477738455
 30
0.0
 10
33.0817493542
 20
9.9627941133
 30
0.0
 10
33.4336163761
 20
9.9777770962
 30
0.0
 10
33.7412981541
 20
9.992708629
 30
0.0
 10
34.0019887661
 20
10.0075698426
 30
0.0
 10
34.1887146045
 20
10.0205290069
 30
0.0
 10
34.312831356
 20
10.0312387665
 30
0.0
 10
34.3865299548
 20
10.0387036025
 30
0.0
 10
34.4470383667
 20
10.0460957947
 30
0.0
 10
34.4941978208
 20
10.0534436342
 30
0.0
 10
34.5251178124
 20
10.0598749545
 30
0.0
 10
34.5429594348
 20
10.0654172629
 30
0.0
 10
34.5496016072
 20
10.0682338918
 30
0.0
 10
34.5522631831
 20
10.0697468586
 30
0.0
  0
SPLINE
  5
2EF
100
AcDbEntity
  8
0
100
AcDbSpline
 62
7
  6
BYLAYER
 70
0
 71
3
 72
26
 73
22
 74
0
 42
0.0000001
 43
0.0000001
 44
0.0000000001
 40
0.0
 40
0.0
 40
0.0
 40
0.0
 40
0.1894743439
 40
0.3720976285
 40
0.4587474795
 40
0.5412485048
 40
0.6188348087
 40
0.6908114411
 40
0.7565219972
 40
0.8153811608
 40
0.8668466771
 40
0.9104635219
 40
0.9292024849
 40
0.9458352293
 40
0.9603307872
 40
0.9726602645
 40
0.9827965533
 40
0.9907217665
 40
0.9964408761
 40
0.998484282
 40
1.0
 40
1.0
 40
1.0
 40
1.0
 10
28.5587949466
 20
10.9687511493
 30
0.0
 10
28.1798821177
 20
10.9587683955
 30
0.0
 10
27.4357631005
 20
10.9389444114
 30
0.0
 10
26.5183821687
 20
10.9137483988
 30
0.0
 10
25.8149537812
 20
10.89328282
 30
0.0
 10
25.3215849142
 20
10.878208352
 30
0.0
 10
24.857584089
 20
10.8631411978
 30
0.0
 10
24.4271909009
 20
10.8480917827
 30
0.0
 10
24.0342855797
 20
10.8330603487
 30
0.0
 10
23.682443822
 20
10.8180696798
 30
0.0
 10
23.3748439364
 20
10.8031258461
 30
0.0
 10
23.1475070213
 20
10.7901824603
 30
0.0
 10
22.9898432001
 20
10.7796009313
 30
0.0
 10
22.8903661708
 20
10.7720809082
 30
0.0
 10
22.8037492404
 20
10.7645845185
 30
0.0
 10
22.7301853193
 20
10.7571151024
 30
0.0
 10
22.6698256262
 20
10.7497188072
 30
0.0
 10
22.6228292552
 20
10.7423693407
 30
0.0
 10
22.5920515295
 20
10.7359386303
 30
0.0
 10
22.5743331849
 20
10.7303926934
 30
0.0
 10
22.5677547296
 20
10.7275738404
 30
0.0
 10
22.5651284716
 20
10.7260582511
 30
0.0
  0
SPLINE
  5
2F0
100
AcDbEntity
  8
0
100
AcDbSpline
 62
7
  6
BYLAYER
 70
0
 71
3
 72
24
 73
20
 74
0
 42
0.0000001
 43
0.0000001
 44
0.0000000001
 40
0.0
 40
0.0
 40
0.0
 40
0.0
 40
0.1894076745
 40
0.3719723771
 40
0.5410786099
 40
0.6186503791
 40
0.6906184999
 40
0.7563272098
 40
0.8151915353
 40
0.8666698245
 40
0.9103070456
 40
0.9457067779
 40
0.9602193575
 40
0.9725677883
 40
0.9827249894
 40
0.9906728736
 40
0.9964161453
 40
0.9984719825
 40
1.0
 40
1.0
 40
1.0
 40
1.0
 10
28.5587949466
 20
10.8271666126
 30
0.0
 10
28.9375582685
 20
10.8372987105
 30
0.0
 10
29.6814085638
 20
10.8569089369
 30
0.0
 10
30.7633947884
 20
10.8866868077
 30
0.0
 10
31.6216957961
 20
10.9120608117
 30
0.0
 10
32.2587935151
 20
10.9327378844
 30
0.0
 10
32.6891232582
 20
10.9477816511
 30
0.0
 10
33.0820060637
 20
10.9628034955
 30
0.0
 10
33.433868634
 20
10.9777893397
 30
0.0
 10
33.7415369129
 20
10.9927217991
 30
0.0
 10
34.00220476
 20
11.0075825749
 30
0.0
 10
34.1889056085
 20
11.0205428383
 30
0.0
 10
34.3129974964
 20
11.0312544436
 30
0.0
 10
34.3866738807
 20
11.038720275
 30
0.0
 10
34.4471578235
 20
11.0461130036
 30
0.0
 10
34.4942904698
 20
11.0534608354
 30
0.0
 10
34.5251870687
 20
11.0598917679
 30
0.0
 10
34.5430084252
 20
11.0654344853
 30
0.0
 10
34.5496401239
 20
11.0682514147
 30
0.0
 10
34.5522959024
 20
11.0697647906
 30
0.0
  0
SPLINE
  5
2F1
100
AcDbEntity
  8
0
100
AcDbSpline
 62
7
  6
BYLAYER
 70
0
 71
3
 72
23
 73
19
 74
0
 42
0.0000001
 43
0.0000001
 44
0.0000000001
 40
0.0
 40
0.0
 40
0.0
 40
0.0
 40
0.1886364299
 40
0.3704959274
 40
0.539017484
 40
0.6164295787
 40
0.6883485306
 40
0.7540898644
 40
0.8129870726
 40
0.8645364801
 40
0.9083651712
 40
0.9441313734
 40
0.9588859574
 40
0.9714972773
 40
0.981920791
 40
0.9901304737
 40
0.9961395029
 40
1.0
 40
1.0
 40
1.0
 40
1.0
 10
28.5587949466
 20
16.3979591837
 30
0.0
 10
28.228788522
 20
16.3879549639
 30
0.0
 10
27.5806268547
 20
16.3684465294
 30
0.0
 10
26.6376998311
 20
16.3383623683
 30
0.0
 10
25.8893563093
 20
16.3139933429
 30
0.0
 10
25.3334203686
 20
16.2933799578
 30
0.0
 10
24.9573076829
 20
16.2779753007
 30
0.0
 10
24.6136234555
 20
16.2627269316
 30
0.0
 10
24.3056025868
 20
16.2480365485
 30
0.0
 10
24.0359765645
 20
16.2334187888
 30
0.0
 10
23.8069176928
 20
16.2186204308
 30
0.0
 10
23.6422818261
 20
16.2056342667
 30
0.0
 10
23.5323104622
 20
16.1948691419
 30
0.0
 10
23.4665891789
 20
16.1873503453
 30
0.0
 10
23.4124239927
 20
16.179894725
 30
0.0
 10
23.3698610621
 20
16.1726072163
 30
0.0
 10
23.3391067421
 20
16.1654336455
 30
0.0
 10
23.3225464014
 20
16.1598893964
 30
0.0
 10
23.3166843338
 20
16.1565293092
 30
0.0
  0
SPLINE
  5
2F2
100
AcDbEntity
  8
0
100
AcDbSpline
 62
7
  6
BYLAYER
 70
0
 71
3
 72
26
 73
22
 74
0
 42
0.0000001
 43
0.0000001
 44
0.0000000001
 40
0.0
 40
0.0
 40
0.0
 40
0.0
 40
0.1894735522
 40
0.3720965784
 40
0.4587460173
 40
0.5412466035
 40
0.6188326474
 40
0.6908091192
 40
0.7565195874
 40
0.8153786724
 40
0.8668442689
 40
0.910461235
 40
0.9292003303
 40
0.9458332198
 40
0.9603289356
 40
0.9726586116
 40
0.9827951807
 40
0.9907207517
 40
0.9964403036
 40
0.9984839766
 40
1.0
 40
1.0
 40
1.0
 40
1.0
 10
28.5587949466
 20
11.9687518798
 30
0.0
 10
28.1798843855
 20
11.9587466519
 30
0.0
 10
27.4357671302
 20
11.9389427786
 30
0.0
 10
26.5183888482
 20
11.9137640513
 30
0.0
 10
25.8149631709
 20
11.8932872292
 30
0.0
 10
25.3215969966
 20
11.8782013682
 30
0.0
 10
24.8575980517
 20
11.8631329624
 30
0.0
 10
24.4272057766
 20
11.8480896156
 30
0.0
 10
24.0343009328
 20
11.8330652974
 30
0.0
 10
23.6824592602
 20
11.8180784236
 30
0.0
 10
23.3748594898
 20
11.8031280473
 30
0.0
 10
23.1475224819
 20
11.7901757907
 30
0.0
 10
22.9898579523
 20
11.7795936819
 30
0.0
 10
22.8903798221
 20
11.7720771352
 30
0.0
 10
22.8037614669
 20
11.7645858757
 30
0.0
 10
22.7301957798
 20
11.7571214525
 30
0.0
 10
22.669834023
 20
11.7497281429
 30
0.0
 10
22.6228355447
 20
11.7423780349
 30
0.0
 10
22.5920561155
 20
11.7359447419
 30
0.0
 10
22.574336493
 20
11.7303960357
 30
0.0
 10
22.56775741
 20
11.7275757215
 30
0.0
 10
22.5651308429
 20
11.726059447
 30
0.0
  0
SPLINE
  5
2F3
100
AcDbEntity
  8
0
100
AcDbSpline
 62
7
  6
BYLAYER
 70
0
 71
3
 72
25
 73
21
 74
0
 42
0.0000001
 43
0.0000001
 44
0.0000000001
 40
0.0
 40
0.0
 40
0.0
 40
0.0
 40
0.1894231593
 40
0.3720013484
 40
0.5411177703
 40
0.6186929227
 40
0.6906630779
 40
0.756372251
 40
0.8152353813
 40
0.866710705
 40
0.9103431788
 40
0.9290922908
 40
0.9457366478
 40
0.9602452644
 40
0.9725892855
 40
0.9827416312
 40
0.9906842457
 40
0.9964218943
 40
0.9984748399
 40
1.0
 40
1.0
 40
1.0
 40
1.0
 10
28.5587949466
 20
11.8271664933
 30
0.0
 10
28.9375925715
 20
11.8372832245
 30
0.0
 10
29.6815058646
 20
11.856918999
 30
0.0
 10
30.7635789545
 20
11.8866893165
 30
0.0
 10
31.62194053
 20
11.912069488
 30
0.0
 10
32.2590743141
 20
11.9327478749
 30
0.0
 10
32.6894191934
 20
11.9477908474
 30
0.0
 10
33.0823074087
 20
11.9628154946
 30
0.0
 10
33.4341656037
 20
11.977801497
 30
0.0
 10
33.7418169494
 20
11.9927440161
 30
0.0
 10
33.9692196357
 20
12.005686751
 30
0.0
 10
34.1269547973
 20
12.0162647184
 30
0.0
 10
34.2264995043
 20
12.0237813245
 30
0.0
 10
34.3131933593
 20
12.031273787
 30
0.0
 10
34.3868436926
 20
12.0387393429
 30
0.0
 10
34.4472987806
 20
12.0461329071
 30
0.0
 10
34.4943997992
 20
12.0534808497
 30
0.0
 10
34.5252687921
 20
12.0599115673
 30
0.0
 10
34.5430662215
 20
12.0654549681
 30
0.0
 10
34.5496855511
 20
12.0682723441
 30
0.0
 10
34.5523344762
 20
12.0697862438
 30
0.0
  0
SPLINE
  5
2F4
100
AcDbEntity
  8
0
100
AcDbSpline
 62
7
  6
BYLAYER
 70
0
 71
3
 72
26
 73
22
 74
0
 42
0.0000001
 43
0.0000001
 44
0.0000000001
 40
0.0
 40
0.0
 40
0.0
 40
0.0
 40
0.1894228872
 40
0.3720011305
 40
0.4586320973
 40
0.5411177068
 40
0.6186928602
 40
0.6906629953
 40
0.7563721427
 40
0.8152352467
 40
0.8667105526
 40
0.9103430028
 40
0.9290920903
 40
0.9457364162
 40
0.9602450001
 40
0.9725889945
 40
0.9827413368
 40
0.9906839921
 40
0.9964217341
 40
0.9984747507
 40
1.0
 40
1.0
 40
1.0
 40
1.0
 10
28.5587949466
 20
15.9687517361
 30
0.0
 10
28.1799962153
 20
15.9586929488
 30
0.0
 10
27.4360853983
 20
15.9389756088
 30
0.0
 10
26.518957338
 20
15.9137810861
 30
0.0
 10
25.8157049679
 20
15.8933050157
 30
0.0
 10
25.3224390642
 20
15.8782264134
 30
0.0
 10
24.8585154184
 20
15.8631644785
 30
0.0
 10
24.428170349
 20
15.848126145
 30
0.0
 10
24.0352820257
 20
15.8331051326
 30
0.0
 10
23.6834237906
 20
15.8181208756
 30
0.0
 10
23.3757726575
 20
15.8031746376
 30
0.0
 10
23.1483703105
 20
15.7902273063
 30
0.0
 10
22.9906352631
 20
15.7796494566
 30
0.0
 10
22.8910905355
 20
15.7721351776
 30
0.0
 10
22.8043965678
 20
15.7646458603
 30
0.0
 10
22.730746056
 20
15.7571831139
 30
0.0
 10
22.670290752
 20
15.7497908151
 30
0.0
 10
22.6231896354
 20
15.7424415678
 30
0.0
 10
22.5923206623
 20
15.7360084316
 30
0.0
 10
22.5745233811
 20
15.73046279
 30
0.0
 10
22.5679041503
 20
15.7276443314
 30
0.0
 10
22.5652552999
 20
15.7261299395
 30
0.0
  0
SPLINE
  5
2F5
100
AcDbEntity
  8
0
100
AcDbSpline
 62
7
  6
BYLAYER
 70
0
 71
3
 72
26
 73
22
 74
0
 42
0.0000001
 43
0.0000001
 44
0.0000000001
 40
0.0
 40
0.0
 40
0.0
 40
0.0
 40
0.1894656191
 40
0.372080849
 40
0.4587276178
 40
0.5412262519
 40
0.6188108729
 40
0.6907866495
 40
0.7564971444
 40
0.8153571244
 40
0.8668243233
 40
0.9104437766
 40
0.9291843888
 40
0.9458190182
 40
0.960316699
 40
0.9726485387
 40
0.9827874367
 40
0.9907154986
 40
0.9964376783
 40
0.9984826824
 40
1.0
 40
1.0
 40
1.0
 40
1.0
 10
28.5587949466
 20
14.8271666313
 30
0.0
 10
28.9376875285
 20
14.8372006144
 30
0.0
 10
29.6817718803
 20
14.8569588002
 30
0.0
 10
30.5991094449
 20
14.8821614758
 30
0.0
 10
31.302507944
 20
14.9026321084
 30
0.0
 10
31.7958605962
 20
14.9177073758
 30
0.0
 10
32.2598498069
 20
14.932774223
 30
0.0
 10
32.6902362164
 20
14.9478220166
 30
0.0
 10
33.0831399752
 20
14.9628500643
 30
0.0
 10
33.4349854079
 20
14.9778378594
 30
0.0
 10
33.7425942451
 20
14.9927843254
 30
0.0
 10
33.9699419663
 20
15.0057316296
 30
0.0
 10
34.1276175292
 20
15.0163126575
 30
0.0
 10
34.2271057055
 20
15.0238302772
 30
0.0
 10
34.3137353707
 20
15.0313234178
 30
0.0
 10
34.3873135951
 20
15.0387897421
 30
0.0
 10
34.447689023
 20
15.0461842411
 30
0.0
 10
34.4947024937
 20
15.0535340245
 30
0.0
 10
34.5254950427
 20
15.0599662554
 30
0.0
 10
34.5432261206
 20
15.0655133552
 30
0.0
 10
34.5498111331
 20
15.0683327813
 30
0.0
 10
34.5524410066
 20
15.069848484
 30
0.0
  0
SPLINE
  5
2F6
100
AcDbEntity
  8
0
100
AcDbSpline
 62
7
  6
BYLAYER
 70
0
 71
3
 72
26
 73
22
 74
0
 42
0.0000001
 43
0.0000001
 44
0.0000000001
 40
0.0
 40
0.0
 40
0.0
 40
0.0
 40
0.1894659862
 40
0.372081904
 40
0.4587287154
 40
0.5412272709
 40
0.6188117734
 40
0.6907873536
 40
0.7564976915
 40
0.8153575191
 40
0.8668246352
 40
0.9104440287
 40
0.9291846397
 40
0.9458192734
 40
0.9603169583
 40
0.9726488007
 40
0.9827876905
 40
0.9907157172
 40
0.9964378208
 40
0.998482764
 40
1.0
 40
1.0
 40
1.0
 40
1.0
 10
28.5587949466
 20
12.9687513781
 30
0.0
 10
28.1799017387
 20
12.958715728
 30
0.0
 10
27.4358151723
 20
12.9389660918
 30
0.0
 10
26.5184758913
 20
12.9137516631
 30
0.0
 10
25.8150761265
 20
12.8932839863
 30
0.0
 10
25.3217237238
 20
12.8782134054
 30
0.0
 10
24.8577353601
 20
12.8631470698
 30
0.0
 10
24.4273500541
 20
12.8480967916
 30
0.0
 10
24.0344474755
 20
12.83306612
 30
0.0
 10
23.6826029387
 20
12.8180772581
 30
0.0
 10
23.3749945861
 20
12.8031343471
 30
0.0
 10
23.1476469497
 20
12.7901911192
 30
0.0
 10
22.9899715364
 20
12.7796098448
 30
0.0
 10
22.8904835243
 20
12.772090009
 30
0.0
 10
22.8038541081
 20
12.7645938775
 30
0.0
 10
22.7302761765
 20
12.7571248061
 30
0.0
 10
22.6699010356
 20
12.7497288764
 30
0.0
 10
22.6228877095
 20
12.7423798795
 30
0.0
 10
22.5920951818
 20
12.7359495085
 30
0.0
 10
22.5743639906
 20
12.7304042842
 30
0.0
 10
22.567778895
 20
12.7275858136
 30
0.0
 10
22.5651489506
 20
12.7260705622
 30
0.0
  0
SPLINE
  5
2F7
100
AcDbEntity
  8
0
100
AcDbSpline
 62
7
  6
BYLAYER
 70
0
 71
3
 72
25
 73
21
 74
0
 42
0.0000001
 43
0.0000001
 44
0.0000000001
 40
0.0
 40
0.0
 40
0.0
 40
0.0
 40
0.1894389341
 40
0.372030984
 40
0.541158459
 40
0.618737141
 40
0.6907093282
 40
0.7564189611
 40
0.8152809366
 40
0.8667532361
 40
0.9103808902
 40
0.9291268374
 40
0.945767583
 40
0.9602721467
 40
0.972611641
 40
0.982758954
 40
0.9906960993
 40
0.9964279101
 40
0.9984778395
 40
1.0
 40
1.0
 40
1.0
 40
1.0
 10
28.5587949466
 20
14.9687516175
 30
0.0
 10
28.1799622948
 20
14.9586570513
 30
0.0
 10
27.4359847156
 20
14.9389965662
 30
0.0
 10
26.3538223938
 20
14.9092131112
 30
0.0
 10
25.4953969481
 20
14.8838478917
 30
0.0
 10
24.8582252187
 20
14.863165067
 30
0.0
 10
24.4278652905
 20
14.848114559
 30
0.0
 10
24.0349715597
 20
14.8330864717
 30
0.0
 10
23.6831181278
 20
14.8181009513
 30
0.0
 10
23.3754823784
 20
14.8031604351
 30
0.0
 10
23.1480999535
 20
14.7902187119
 30
0.0
 10
22.9903869497
 20
14.7796390428
 30
0.0
 10
22.8908633765
 20
14.7721201974
 30
0.0
 10
22.8041935571
 20
14.7646250926
 30
0.0
 10
22.7305702913
 20
14.7571570993
 30
0.0
 10
22.6701451576
 20
14.7497620564
 30
0.0
 10
22.6230769741
 20
14.74241401
 30
0.0
 10
22.5922365717
 20
14.7359841681
 30
0.0
 10
22.5744638508
 20
14.730440859
 30
0.0
 10
22.5678572866
 20
14.7276234759
 30
0.0
 10
22.5652154284
 20
14.7261092623
 30
0.0
  0
SPLINE
  5
2F8
100
AcDbEntity
  8
0
100
AcDbSpline
 62
7
  6
BYLAYER
 70
0
 71
3
 72
26
 73
22
 74
0
 42
0.0000001
 43
0.0000001
 44
0.0000000001
 40
0.0
 40
0.0
 40
0.0
 40
0.0
 40
0.1894390289
 40
0.3720309962
 40
0.4586677868
 40
0.5411582247
 40
0.6187369486
 40
0.6907092804
 40
0.7564189968
 40
0.815280977
 40
0.8667532747
 40
0.9103808858
 40
0.9291268215
 40
0.9457675405
 40
0.9602720649
 40
0.972611526
 40
0.982758835
 40
0.990695991
 40
0.9964278295
 40
0.9984777898
 40
1.0
 40
1.0
 40
1.0
 40
1.0
 10
28.5587949466
 20
12.8271664802
 30
0.0
 10
28.9376278785
 20
12.8372595458
 30
0.0
 10
29.6816051298
 20
12.8569336969
 30
0.0
 10
30.5988108536
 20
12.8821492431
 30
0.0
 10
31.3021172593
 20
12.9026238771
 30
0.0
 10
31.7954154759
 20
12.9176963849
 30
0.0
 10
32.259363777
 20
12.9327583161
 30
0.0
 10
32.6897245665
 20
12.9478012291
 30
0.0
 10
33.0826188841
 20
12.9628277569
 30
0.0
 10
33.4344724341
 20
12.9778157585
 30
0.0
 10
33.7421079811
 20
12.9927596938
 30
0.0
 10
33.9694902081
 20
13.0057032778
 30
0.0
 10
34.1272031149
 20
13.0162822165
 30
0.0
 10
34.2267266657
 20
13.0237994353
 30
0.0
 10
34.3133964712
 20
13.0312925227
 30
0.0
 10
34.3870197758
 20
13.0387587037
 30
0.0
 10
34.4474449996
 20
13.0461527365
 30
0.0
 10
34.4945132156
 20
13.0535011206
 30
0.0
 10
34.5253535772
 20
13.0599320283
 30
0.0
 10
34.543126173
 20
13.0654764998
 30
0.0
 10
34.5497326602
 20
13.0682945037
 30
0.0
 10
34.5523744603
 20
13.0698090195
 30
0.0
  0
SPLINE
  5
2F9
100
AcDbEntity
  8
0
100
AcDbSpline
 62
7
  6
BYLAYER
 70
0
 71
3
 72
26
 73
22
 74
0
 42
0.0000001
 43
0.0000001
 44
0.0000000001
 40
0.0
 40
0.0
 40
0.0
 40
0.0
 40
0.1894536786
 40
0.3720583712
 40
0.458700671
 40
0.5411956614
 40
0.6187776948
 40
0.6907520132
 40
0.75646222
 40
0.8153231414
 40
0.8667926419
 40
0.9104157529
 40
0.9291587459
 40
0.9457960945
 40
0.9602968284
 40
0.9726320671
 40
0.9827747156
 40
0.9907068266
 40
0.996433301
 40
0.9984805079
 40
1.0
 40
1.0
 40
1.0
 40
1.0
 10
28.5587949466
 20
13.8271665765
 30
0.0
 10
28.9376606554
 20
13.837230959
 30
0.0
 10
29.6816968956
 20
13.856946195
 30
0.0
 10
30.5989751095
 20
13.8821556139
 30
0.0
 10
31.3023321758
 20
13.9026286982
 30
0.0
 10
31.7956606178
 20
13.917702814
 30
0.0
 10
32.2596318622
 20
13.9327670093
 30
0.0
 10
32.6900072235
 20
13.9478121076
 30
0.0
 10
33.0829071348
 20
13.9628397693
 30
0.0
 10
33.4347564317
 20
13.9778283156
 30
0.0
 10
33.7423773715
 20
13.9927736666
 30
0.0
 10
33.9697406105
 20
14.0057189383
 30
0.0
 10
34.1274328952
 20
14.0162989238
 30
0.0
 10
34.2269368657
 20
14.0238164248
 30
0.0
 10
34.3135844313
 20
14.0313096589
 30
0.0
 10
34.3871827501
 20
14.0387760321
 30
0.0
 10
34.4475803656
 20
14.0461703604
 30
0.0
 10
34.4946182236
 20
14.0535194315
 30
0.0
 10
34.5254320654
 20
14.0599509451
 30
0.0
 10
34.5431816339
 20
14.0654967718
 30
0.0
 10
34.5497762106
 20
14.0683155209
 30
0.0
 10
34.552411398
 20
14.0698306772
 30
0.0
  0
SPLINE
  5
2FA
100
AcDbEntity
  8
0
100
AcDbSpline
 62
7
  6
BYLAYER
 70
0
 71
3
 72
26
 73
22
 74
0
 42
0.0000001
 43
0.0000001
 44
0.0000000001
 40
0.0
 40
0.0
 40
0.0
 40
0.0
 40
0.1894541279
 40
0.3720599823
 40
0.4587023386
 40
0.5411971813
 40
0.61877905
 40
0.6907530945
 40
0.7564630571
 40
0.8153236826
 40
0.8667930018
 40
0.9104159054
 40
0.9291588318
 40
0.9457961054
 40
0.9602967537
 40
0.9726319186
 40
0.9827745352
 40
0.9907066571
 40
0.9964331841
 40
0.9984804398
 40
1.0
 40
1.0
 40
1.0
 40
1.0
 10
28.5587949466
 20
13.9687517756
 30
0.0
 10
28.1799282728
 20
13.9586873493
 30
0.0
 10
27.4358887187
 20
13.938970691
 30
0.0
 10
26.5186067246
 20
13.9137713177
 30
0.0
 10
25.8152475745
 20
13.8932917885
 30
0.0
 10
25.3219197697
 20
13.8782107667
 30
0.0
 10
24.8579496539
 20
13.8631455665
 30
0.0
 10
24.4275754689
 20
13.8481038204
 30
0.0
 10
24.0346769516
 20
13.8330805196
 30
0.0
 10
23.6828289197
 20
13.8180945889
 30
0.0
 10
23.3752094448
 20
13.803145821
 30
0.0
 10
23.147847373
 20
13.7901955123
 30
0.0
 10
22.990155797
 20
13.7796150938
 30
0.0
 10
22.8906521302
 20
13.7720994556
 30
0.0
 10
22.8040047846
 20
13.7646089677
 30
0.0
 10
22.7304065755
 20
13.7571451927
 30
0.0
 10
22.6700089533
 20
13.7497522441
 30
0.0
 10
22.6229711255
 20
13.7424024017
 30
0.0
 10
22.5921573742
 20
13.7359690981
 30
0.0
 10
22.5744079837
 20
13.7304215183
 30
0.0
 10
22.5678135128
 20
13.7276018971
 30
0.0
 10
22.5651783998
 20
13.7260863375
 30
0.0
  0
ENDSEC
  0
SECTION
  2
OBJECTS
  0
DICTIONARY
  5
C
100
AcDbDictionary
280
0
281
1
  3
ACAD_GROUP
350
D
  3
ACAD_MLINESTYLE
350
17
  3
ACAD_LAYOUT
350
1A
  3
ACAD_PLOTSETTINGS
350
19
  3
ACAD_PLOTSTYLENAME
350
E
  0
DICTIONARY
  5
D
102
{ACAD_REACTORS
330
C
102
}
100
AcDbDictionary
280
0
281
1
  0
ACDBDICTIONARYWDFLT
  5
E
102
{ACAD_REACTORS
330
C
102
}
100
AcDbDictionary
281
1
  3
Normal
350
F
100
AcDbDictionaryWithDefault
340
F
  0
DICTIONARY
  5
17
102
{ACAD_REACTORS
330
C
102
}
100
AcDbDictionary
280
0
281
1
  3
Standard
350
18
  0
DICTIONARY
  5
19
102
{ACAD_REACTORS
330
C
102
}
100
AcDbDictionary
281
1
  0
DICTIONARY
  5
1A
102
{ACAD_REACTORS
330
C
102
}
100
AcDbDictionary
281
1
  3
Model
350
2FB
  3
Layout1
350
2FC
  0
ACDBPLACEHOLDER
  5
F
102
{ACAD_REACTORS
330
E
102
}
  0
MLINESTYLE
  5
18
102
{ACAD_REACTORS
330
17
102
}
100
AcDbMlineStyle
  2
STANDARD
 70
0
  3

 62
256
 51
90.0
 52
90.0
 71
2
 49
0.5
 62
256
  6
BYLAYER
 49
-0.5
 62
256
  6
BYLAYER
  0
LAYOUT
  5
2FB
102
{ACAD_REACTORS
330
1A
102
}
100
AcDbPlotSettings
  1

  2
none_device
  4

  6

 40
0.0
 41
0.0
 42
0.0
 43
0.0
 44
210.0
 45
297.0
 46
0.0
 47
0.0
 48
0.0
 49
0.0
140
0.0
141
0.0
142
1.0
143
1.0
 70
1024
 72
1
 73
0
 74
0
  7

 75
0
147
1.0
148
0.0
149
0.0
100
AcDbLayout
  1
Model
 70
0
 71
0
 10
0.0
 20
0.0
 11
210.0
 21
297.0
 12
0.0
 22
0.0
 32
0.0
 14
0.0
 24
0.0
 34
0.0
 15
0.0
 25
0.0
 35
0.0
146
0.0
 13
0.0
 23
0.0
 33
0.0
 16
1.0
 26
0.0
 36
0.0
 17
0.0
 27
1.0
 37
0.0
 76
0
330
210
345
0
346
0
  0
LAYOUT
  5
2FC
102
{ACAD_REACTORS
330
1A
102
}
100
AcDbPlotSettings
  1

  2
none_device
  4

  6

 40
0.0
 41
0.0
 42
0.0
 43
0.0
 44
210.0
 45
297.0
 46
0.0
 47
0.0
 48
0.0
 49
0.0
140
0.0
141
0.0
142
1.0
143
1.0
 70
0
 72
1
 73
0
 74
0
  7

 75
0
147
1.0
148
0.0
149
0.0
100
AcDbLayout
  1
Layout1
 70
0
 71
1
 10
0.0
 20
0.0
 11
210.0
 21
297.0
 12
0.0
 22
0.0
 32
0.0
 14
0.0
 24
0.0
 34
0.0
 15
0.0
 25
0.0
 35
0.0
146
0.0
 13
0.0
 23
0.0
 33
0.0
 16
1.0
 26
0.0
 36
0.0
 17
0.0
 27
1.0
 37
0.0
 76
0
330
211
345
0
346
0
  0
ENDSEC
  0
EOF
