999
DXF file: C:\Users\sesa63760\Dev\_Creo\CAD\MCADID0004735_3D-CAD\drw0001_1.dxf
999
Pro/ENGINEER 2019471 by Parametric Technology Corporation
  0
SECTION
  2
HEADER
  9
$ACADVER
  1
AC1024
  9
$DWGCODEPAGE
  3
ANSI_1252
  9
$EXTMAX
 10
46.7037044625
 20
66.0523820256
 30
0.0
  9
$EXTMIN
 10
0.0
 20
0.0
 30
0.0
  9
$LIMMIN
 10
0.0
 20
0.0
  9
$LIMMAX
 10
46.7037044625
 20
66.0523820256
  9
$VIEWCTR
 10
23.3518522313
 20
33.0261910128
  9
$VIEWSIZE
 40
66.0523820256
  9
$CLAYER
  8
0
  9
$LTSCALE
 40
4.3056367543
  9
$CELTYPE
  6
BYLAYER
  9
$DIMSCALE
 40
1.0
  9
$DIMASZ
 40
0.5559964817
  9
$DIMEXO
 40
1.0
  9
$DIMDLI
 40
2.9748035757
  9
$DIMEXE
 40
1.0
  9
$DIMCEN
 40
0.7045587416
  9
$DIMLFAC
 40
1.0
  9
$DIMBLK
  1
_FILLED
  9
$DIMALT
 70
0
  9
$DIMALTF
 40
0.0393700787
  9
$DIMTXT
 40
0.7783950744
  9
$DIMTOL
 70
1
  9
$DIMLIM
 70
0
  9
$DIMTFAC
 40
1.0
  9
$DIMTP
 40
0.01
  9
$DIMTM
 40
0.01
  9
$DIMGAP
 40
0.625
  9
$DIMDSEP
 70
46
  9
$AUNITS
 70
0
  9
$PDMODE
 70
3
  9
$PDSIZE
 40
0.3125
  9
$HANDSEED
  5
324
  9
$TILEMODE
 70
1
  9
$MEASUREMENT
 70
1
  9
$INSUNITS
 70
4
  0
ENDSEC
  0
SECTION
  2
CLASSES
  0
CLASS
  1
ACDBDICTIONARYWDFLT
  2
AcDbDictionaryWithDefault
  3
AutoCAD 2000
 90
0
 91
1
280
0
281
0
  0
CLASS
  1
ACDBPLACEHOLDER
  2
AcDbPlaceHolder
  3
AutoCAD 2000
 90
0
 91
1
280
0
281
0
  0
CLASS
  1
LAYOUT
  2
AcDbLayout
  3
AutoCAD 2000
 90
0
 91
0
280
0
281
0
  0
ENDSEC
  0
SECTION
  2
TABLES
  0
TABLE
  2
VPORT
  5
8
100
AcDbSymbolTable
 70
2
  0
VPORT
  5
1F4
100
AcDbSymbolTableRecord
100
AcDbViewportTableRecord
  2
*ACTIVE
 70
0
 10
0.0
 20
0.0
 11
1.0
 21
1.0
 12
23.3518522313
 22
33.0261910128
 13
0.0
 23
0.0
 14
1.0
 24
1.0
 15
0.0
 25
0.0
 16
0.0
 26
0.0
 36
1.0
 17
0.0
 27
0.0
 37
0.0
 40
66.0523820256
 41
0.7070707071
 42
50.0
 43
0.0
 44
0.0
 50
0.0
 51
0.0
 71
0
 72
100
 73
1
 74
1
 75
0
 76
0
 77
0
 78
0
  0
ENDTAB
  0
TABLE
  2
LTYPE
  5
5
100
AcDbSymbolTable
 70
6
  0
LTYPE
  5
14
100
AcDbSymbolTableRecord
100
AcDbLinetypeTableRecord
  2
BYBLOCK
 70
0
  3

 72
65
 73
0
 40
0.0
  0
LTYPE
  5
15
100
AcDbSymbolTableRecord
100
AcDbLinetypeTableRecord
  2
BYLAYER
 70
0
  3

 72
65
 73
0
 40
0.0
  0
LTYPE
  5
16
100
AcDbSymbolTableRecord
100
AcDbLinetypeTableRecord
  2
CONTINUOUS
 70
64
  3
Solid line
 72
65
 73
0
 40
0.0
  0
LTYPE
  5
1F5
100
AcDbSymbolTableRecord
100
AcDbLinetypeTableRecord
  2
CENTER
 70
64
  3
____ _ ____ _ ____ _ ____ _ ____ _ ____ _ ____
 72
65
 73
4
 40
0.6
 49
0.375
 74
0
 49
-0.075
 74
0
 49
0.075
 74
0
 49
-0.075
 74
0
  0
LTYPE
  5
1F6
100
AcDbSymbolTableRecord
100
AcDbLinetypeTableRecord
  2
HIDDEN
 70
64
  3
- - - - - - - - - - - - - - - - - - - -
 72
65
 73
2
 40
0.2
 49
0.1
 74
0
 49
-0.1
 74
0
  0
LTYPE
  5
1F7
100
AcDbSymbolTableRecord
100
AcDbLinetypeTableRecord
  2
PHANTOM
 70
64
  3
_____ _ _ _____ _ _ _____ _ _ _____
 72
65
 73
6
 40
0.8
 49
0.45
 74
0
 49
-0.05
 74
0
 49
0.1
 74
0
 49
-0.05
 74
0
 49
0.1
 74
0
 49
-0.05
 74
0
  0
LTYPE
  5
1F8
100
AcDbSymbolTableRecord
100
AcDbLinetypeTableRecord
  2
DOT
 70
64
  3
. . . . . . . . . . . . . . . . . . . .
 72
65
 73
2
 40
0.2
 49
0.1
 74
0
 49
-0.1
 74
0
  0
LTYPE
  5
1F9
100
AcDbSymbolTableRecord
100
AcDbLinetypeTableRecord
  2
DASHED
 70
64
  3
- - - - - - - - - - - - - - - - - - - -
 72
65
 73
2
 40
0.2
 49
0.1
 74
0
 49
-0.1
 74
0
  0
ENDTAB
  0
TABLE
  2
LAYER
  5
2
100
AcDbSymbolTable
 70
36
  0
LAYER
  5
10
100
AcDbSymbolTableRecord
100
AcDbLayerTableRecord
  2
0
 70
0
 62
7
  6
CONTINUOUS
370
-3
390
F
  0
LAYER
  5
1FA
100
AcDbSymbolTableRecord
100
AcDbLayerTableRecord
  2
DEFAULT_1
 70
0
 62
7
  6
CENTER
370
-3
390
F
  0
LAYER
  5
1FB
100
AcDbSymbolTableRecord
100
AcDbLayerTableRecord
  2
DEFAULT_2
 70
0
 62
7
  6
HIDDEN
370
-3
390
F
  0
LAYER
  5
1FC
100
AcDbSymbolTableRecord
100
AcDbLayerTableRecord
  2
DEFAULT_3
 70
0
 62
7
  6
PHANTOM
370
-3
390
F
  0
LAYER
  5
1FD
100
AcDbSymbolTableRecord
100
AcDbLayerTableRecord
  2
00_COMPONENTS
 70
0
 62
7
  6
CONTINUOUS
370
-3
390
F
  0
LAYER
  5
1FE
100
AcDbSymbolTableRecord
100
AcDbLayerTableRecord
  2
01_1_DEFAULT_DATUMS
 70
0
 62
7
  6
CONTINUOUS
370
-3
390
F
  0
LAYER
  5
1FF
100
AcDbSymbolTableRecord
100
AcDbLayerTableRecord
  2
01_PLANES
 70
0
 62
7
  6
CONTINUOUS
370
-3
390
F
  0
LAYER
  5
200
100
AcDbSymbolTableRecord
100
AcDbLayerTableRecord
  2
02_COORD_SYS
 70
0
 62
7
  6
CONTINUOUS
370
-3
390
F
  0
LAYER
  5
201
100
AcDbSymbolTableRecord
100
AcDbLayerTableRecord
  2
03_AXES
 70
0
 62
7
  6
CONTINUOUS
370
-3
390
F
  0
LAYER
  5
202
100
AcDbSymbolTableRecord
100
AcDbLayerTableRecord
  2
04_POINTS
 70
0
 62
7
  6
CONTINUOUS
370
-3
390
F
  0
LAYER
  5
203
100
AcDbSymbolTableRecord
100
AcDbLayerTableRecord
  2
05_CURVES
 70
0
 62
7
  6
CONTINUOUS
370
-3
390
F
  0
LAYER
  5
204
100
AcDbSymbolTableRecord
100
AcDbLayerTableRecord
  2
06_SURFS
 70
0
 62
7
  6
CONTINUOUS
370
-3
390
F
  0
LAYER
  5
205
100
AcDbSymbolTableRecord
100
AcDbLayerTableRecord
  2
07_COSMETICS
 70
0
 62
7
  6
CONTINUOUS
370
-3
390
F
  0
LAYER
  5
206
100
AcDbSymbolTableRecord
100
AcDbLayerTableRecord
  2
10_NOTES
 70
0
 62
7
  6
CONTINUOUS
370
-3
390
F
  0
LAYER
  5
207
100
AcDbSymbolTableRecord
100
AcDbLayerTableRecord
  2
11_NOTES_PUB
 70
0
 62
7
  6
CONTINUOUS
370
-3
390
F
  0
LAYER
  5
208
100
AcDbSymbolTableRecord
100
AcDbLayerTableRecord
  2
13_REF_GTOL
 70
0
 62
7
  6
CONTINUOUS
370
-3
390
F
  0
LAYER
  5
209
100
AcDbSymbolTableRecord
100
AcDbLayerTableRecord
  2
16_MISC
 70
0
 62
7
  6
CONTINUOUS
370
-3
390
F
  0
LAYER
  5
20A
100
AcDbSymbolTableRecord
100
AcDbLayerTableRecord
  2
17_NO_PRINT
 70
0
 62
7
  6
CONTINUOUS
370
-3
390
F
  0
LAYER
  5
20B
100
AcDbSymbolTableRecord
100
AcDbLayerTableRecord
  2
18_DATUM_CAMS_JOINTS
 70
0
 62
7
  6
CONTINUOUS
370
-3
390
F
  0
LAYER
  5
20C
100
AcDbSymbolTableRecord
100
AcDbLayerTableRecord
  2
19_DATUM_FUNCTIONAL
 70
0
 62
7
  6
CONTINUOUS
370
-3
390
F
  0
LAYER
  5
20D
100
AcDbSymbolTableRecord
100
AcDbLayerTableRecord
  2
20_DATUM_KINEMATIC_SCHEME
 70
0
 62
7
  6
CONTINUOUS
370
-3
390
F
  0
ENDTAB
  0
TABLE
  2
STYLE
  5
3
100
AcDbSymbolTable
 70
1
  0
STYLE
  5
11
100
AcDbSymbolTableRecord
100
AcDbTextStyleTableRecord
  2
STANDARD
 70
0
 40
0.0
 41
1.0
 50
0.0
 71
0
 42
0.2
  3
ARIAL.TTF
  4

  0
STYLE
  5
20E
100
AcDbSymbolTableRecord
100
AcDbTextStyleTableRecord
  2
TEXTSTYLE_1
 70
0
 40
0.0
 41
0.8
 50
0.0
 71
0
 42
0.2
  3
gdt
  4

  0
ENDTAB
  0
TABLE
  2
VIEW
  5
6
100
AcDbSymbolTable
 70
0
  0
ENDTAB
  0
TABLE
  2
UCS
  5
7
100
AcDbSymbolTable
 70
0
  0
ENDTAB
  0
TABLE
  2
APPID
  5
9
100
AcDbSymbolTable
 70
1
  0
APPID
  5
20F
100
AcDbSymbolTableRecord
100
AcDbRegAppTableRecord
  2
ACAD
 70
0
  0
ENDTAB
  0
TABLE
  2
BLOCK_RECORD
  5
1
100
AcDbSymbolTable
 70
0
  0
BLOCK_RECORD
  5
210
100
AcDbSymbolTableRecord
100
AcDbBlockTableRecord
  2
*Model_Space
  0
BLOCK_RECORD
  5
211
100
AcDbSymbolTableRecord
100
AcDbBlockTableRecord
  2
*Paper_Space
  0
BLOCK_RECORD
  5
212
100
AcDbSymbolTableRecord
100
AcDbBlockTableRecord
  2
_FILLED
  0
ENDTAB
  0
TABLE
  2
DIMSTYLE
  5
A
100
AcDbSymbolTable
 70
1
100
AcDbDimStyleTable
 71
0
  0
DIMSTYLE
105
213
100
AcDbSymbolTableRecord
100
AcDbDimStyleTableRecord
  2
STANDARD
 70
0
  3

  4

 40
1.0
 41
0.5559964817
 42
1.0
 43
0.38
 44
1.0
 45
0.0
 46
0.0
 47
0.01
 48
0.01
140
0.7783950744
141
0.09
142
0.0
143
25.4
144
1.0
145
0.0
146
1.0
147
0.625
 71
1
 72
0
 73
0
 74
0
 75
0
 76
0
 77
1
 78
8
 79
2
170
0
171
1
172
0
173
0
174
0
175
0
176
0
177
0
178
0
270
2
179
2
271
2
272
2
273
2
274
2
275
0
280
0
281
0
282
0
283
1
284
8
285
0
286
0
287
3
288
0
340
11
278
46
341
212
342
212
343
212
344
212
  0
ENDTAB
  0
ENDSEC
  0
SECTION
  2
BLOCKS
  0
BLOCK
  5
20
100
AcDbEntity
  8
0
100
AcDbBlockBegin
  2
*Model_Space
 70
0
 10
0.0
 20
0.0
 30
0.0
  3
*Model_Space
  1

  0
ENDBLK
  5
21
100
AcDbEntity
  8
0
100
AcDbBlockEnd
  0
BLOCK
  5
1C
100
AcDbEntity
  8
0
100
AcDbBlockBegin
  2
*Paper_Space
 70
0
 10
0.0
 20
0.0
 30
0.0
  3
*Paper_Space
  1

  0
ENDBLK
  5
1D
100
AcDbEntity
  8
0
100
AcDbBlockEnd
  0
BLOCK
  5
214
100
AcDbEntity
  8
0
100
AcDbBlockBegin
  2
_FILLED
 70
64
 10
0.0
 20
0.0
  3
_FILLED
  1

  0
SOLID
  5
215
100
AcDbEntity
  8
0
  6
BYBLOCK
 62
0
100
AcDbTrace
 10
0.0
 20
0.0
 11
-1.0
 21
0.25
 12
-1.0
 22
-0.25
 13
-1.0
 23
-0.25
  0
ENDBLK
  5
216
100
AcDbEntity
  8
0
  6
BYBLOCK
 62
0
100
AcDbBlockEnd
  0
ENDSEC
  0
SECTION
  2
ENTITIES
  0
LINE
  5
217
100
AcDbEntity
  8
0
100
AcDbLine
 62
7
  6
BYLAYER
 10
5.7819535152
 20
41.4105557439
 11
5.7407270015
 21
41.3493463643
  0
LINE
  5
218
100
AcDbEntity
  8
0
100
AcDbLine
 62
7
  6
BYLAYER
 10
5.4181670565
 20
25.8549515019
 11
5.4535225428
 21
25.7937143433
  0
LINE
  5
219
100
AcDbEntity
  8
0
100
AcDbLine
 62
7
  6
BYLAYER
 10
5.4181670565
 20
38.0208375171
 11
5.4181670565
 21
25.8549515019
  0
LINE
  5
21A
100
AcDbEntity
  8
0
100
AcDbLine
 62
7
  6
BYLAYER
 10
5.7363652553
 20
41.3103050373
 11
5.7363652553
 21
38.2045517635
  0
LINE
  5
21B
100
AcDbEntity
  8
0
100
AcDbLine
 62
7
  6
BYLAYER
 10
5.7363652553
 20
22.5246631244
 11
5.7363652553
 21
25.6304145397
  0
LINE
  5
21C
100
AcDbEntity
  8
0
100
AcDbLine
 62
7
  6
BYLAYER
 10
8.3233827299
 20
20.9218777947
 11
5.8467527797
 21
22.3517284156
  0
LINE
  5
21D
100
AcDbEntity
  8
0
100
AcDbLine
 62
7
  6
BYLAYER
 10
8.2819602658
 20
21.0134350243
 11
5.7407267343
 21
22.4805836964
  0
LINE
  5
21E
100
AcDbEntity
  8
0
100
AcDbLine
 62
7
  6
BYLAYER
 10
8.1405236009
 20
42.3700272528
 11
8.1405236009
 21
41.1655703256
  0
LINE
  5
21F
100
AcDbEntity
  8
0
100
AcDbLine
 62
7
  6
BYLAYER
 10
8.1405394983
 20
24.2423994761
 11
8.1405394983
 21
36.4899357331
  0
LINE
  5
220
100
AcDbEntity
  8
0
100
AcDbLine
 62
7
  6
BYLAYER
 10
8.2819602658
 20
24.1607478235
 11
8.2819602658
 21
21.0134350243
  0
LINE
  5
221
100
AcDbEntity
  8
0
100
AcDbLine
 62
7
  6
BYLAYER
 10
8.2819602658
 20
36.7348850473
 11
8.2819602658
 21
39.8821978465
  0
LINE
  5
222
100
AcDbEntity
  8
0
100
AcDbLine
 62
7
  6
BYLAYER
 10
8.4541980928
 20
41.0566205404
 11
8.454187233
 21
41.0566115958
  0
LINE
  5
223
100
AcDbEntity
  8
0
100
AcDbLine
 62
7
  6
BYLAYER
 10
12.1356644027
 20
44.6344724674
 11
12.8074130481
 21
45.0223044136
  0
LINE
  5
224
100
AcDbEntity
  8
0
100
AcDbLine
 62
7
  6
BYLAYER
 10
18.5349541295
 20
48.32908206
 11
19.2067027749
 21
48.7169140062
  0
LINE
  5
225
100
AcDbEntity
  8
0
100
AcDbLine
 62
7
  6
BYLAYER
 10
21.9416356215
 20
49.2190887357
 11
21.9598470901
 21
49.2272684796
  0
LINE
  5
226
100
AcDbEntity
  8
0
100
AcDbLine
 62
7
  6
BYLAYER
 10
24.4279742478
 20
50.2692861108
 11
24.4278758656
 21
50.269253758
  0
LINE
  5
227
100
AcDbEntity
  8
0
100
AcDbLine
 62
7
  6
BYLAYER
 10
8.2819602658
 20
24.1607478235
 11
5.4535225428
 21
25.7937143433
  0
LINE
  5
228
100
AcDbEntity
  8
0
100
AcDbLine
 62
7
  6
BYLAYER
 10
8.8122654752
 20
41.3440728639
 11
8.8122654752
 21
43.966524411
  0
LINE
  5
229
100
AcDbEntity
  8
0
100
AcDbLine
 62
7
  6
BYLAYER
 10
8.2819602658
 20
36.7348850473
 11
8.1405394983
 21
36.4899357331
  0
LWPOLYLINE
  5
22A
100
AcDbEntity
  8
0
100
AcDbPolyline
 62
7
  6
BYLAYER
 90
4
 70
0
 10
17.6052500851
 20
46.415880855
 10
17.5733978227
 20
46.3941965191
 10
17.5138117831
 20
46.3272595611
 10
17.5081817551
 20
46.3178966361
  0
LWPOLYLINE
  5
22B
100
AcDbEntity
  8
0
100
AcDbPolyline
 62
7
  6
BYLAYER
 90
4
 70
0
 10
8.4541974502
 20
41.0566204231
 10
8.4325981771
 20
41.0432171088
 10
8.3889141736
 20
41.0348185789
 10
8.3449469268
 20
41.0475488487
  0
LINE
  5
22C
100
AcDbEntity
  8
0
100
AcDbLine
 62
7
  6
BYLAYER
 10
19.6648674293
 20
47.6049981603
 11
17.6049161089
 21
46.4156918102
  0
LINE
  5
22D
100
AcDbEntity
  8
0
100
AcDbLine
 62
7
  6
BYLAYER
 10
15.9972777169
 20
45.4875268922
 11
13.9994584185
 21
44.3340922676
  0
LINE
  5
22E
100
AcDbEntity
  8
0
100
AcDbLine
 62
7
  6
BYLAYER
 10
14.0873256763
 20
44.2833632303
 11
16.1417312557
 21
45.4694677644
  0
LINE
  5
22F
100
AcDbEntity
  8
0
100
AcDbLine
 62
7
  6
BYLAYER
 10
17.7604611784
 20
46.4040363424
 11
19.8148667577
 21
47.5901408766
  0
LINE
  5
230
100
AcDbEntity
  8
0
100
AcDbLine
 62
7
  6
BYLAYER
 10
13.549883853
 20
43.8179909584
 11
16.2381444973
 21
45.3700497005
  0
LINE
  5
231
100
AcDbEntity
  8
0
100
AcDbLine
 62
7
  6
BYLAYER
 10
17.9326615809
 20
46.348373755
 11
20.6209222252
 21
47.9004324971
  0
LINE
  5
232
100
AcDbEntity
  8
0
100
AcDbLine
 62
7
  6
BYLAYER
 10
17.1622133722
 20
45.7160577998
 11
16.3574399481
 21
45.2514244203
  0
LINE
  5
233
100
AcDbEntity
  8
0
100
AcDbLine
 62
7
  6
BYLAYER
 10
16.37313552
 20
45.1928469292
 11
17.2052185056
 21
45.6732473974
  0
LINE
  5
234
100
AcDbEntity
  8
0
100
AcDbLine
 62
7
  6
BYLAYER
 10
17.474308972
 20
45.5121908186
 11
16.44655907
 21
44.918822678
  0
LINE
  5
235
100
AcDbEntity
  8
0
100
AcDbLine
 62
7
  6
BYLAYER
 10
21.9416356215
 20
49.2190887357
 11
21.9598817829
 21
49.2277328796
  0
LINE
  5
236
100
AcDbEntity
  8
0
100
AcDbLine
 62
7
  6
BYLAYER
 10
20.6764705735
 20
18.5616465451
 11
26.4394148335
 21
15.2344843958
  0
LINE
  5
237
100
AcDbEntity
  8
0
100
AcDbLine
 62
7
  6
BYLAYER
 10
17.5081556752
 20
46.3178511641
 11
17.1622133482
 21
45.7160577758
  0
LINE
  5
238
100
AcDbEntity
  8
0
100
AcDbLine
 62
7
  6
BYLAYER
 10
16.4465591897
 20
44.5922246021
 11
17.7242468885
 21
45.3298935357
  0
LINE
  5
239
100
AcDbEntity
  8
0
100
AcDbLine
 62
7
  6
BYLAYER
 10
5.7363652553
 20
38.2045517635
 11
5.4181670565
 21
38.0208375171
  0
LINE
  5
23A
100
AcDbEntity
  8
0
100
AcDbLine
 62
7
  6
BYLAYER
 10
8.3233989883
 20
20.9219059822
 11
8.388974974
 21
20.9168256774
  0
LINE
  5
23B
100
AcDbEntity
  8
0
100
AcDbLine
 62
7
  6
BYLAYER
 10
23.060550283
 20
18.2985021196
 11
18.7118254733
 21
20.8091827599
  0
LINE
  5
23C
100
AcDbEntity
  8
0
100
AcDbLine
 62
7
  6
BYLAYER
 10
13.6439631167
 20
24.1806116767
 11
14.5751269735
 21
23.6430161353
  0
LINE
  5
23D
100
AcDbEntity
  8
0
100
AcDbLine
 62
7
  6
BYLAYER
 10
17.0375468774
 20
23.2028594096
 11
17.1558162667
 21
23.1345780906
  0
LWPOLYLINE
  5
23E
100
AcDbEntity
  8
0
100
AcDbPolyline
 62
7
  6
BYLAYER
 90
9
 70
0
 10
11.4397126904
 20
28.0963893754
 10
11.0590697578
 20
28.6379208639
 10
10.5994278858
 20
30.6979364582
 10
10.5994278858
 20
31.8938755783
 10
11.0590697578
 20
34.4846367216
 10
12.0918756694
 20
37.1465591211
 10
13.6060762828
 20
39.6431192901
 10
15.4671282285
 20
41.7524869015
 10
17.5096688742
 20
43.2872353862
  0
LINE
  5
23F
100
AcDbEntity
  8
0
100
AcDbLine
 62
7
  6
BYLAYER
 10
17.5449460213
 20
46.1815747324
 11
17.2384326237
 21
45.648371011
  0
LINE
  5
240
100
AcDbEntity
  8
0
100
AcDbLine
 62
7
  6
BYLAYER
 10
17.5731071161
 20
22.8366545718
 11
17.3338234847
 21
22.8478964381
  0
LINE
  5
241
100
AcDbEntity
  8
0
100
AcDbLine
 62
7
  6
BYLAYER
 10
16.1754848546
 20
23.6922376442
 11
17.1860553923
 21
23.1961815454
  0
LINE
  5
242
100
AcDbEntity
  8
0
100
AcDbLine
 62
7
  6
BYLAYER
 10
17.616647843
 20
46.207771936
 11
17.474308972
 21
45.5121908186
  0
LINE
  5
243
100
AcDbEntity
  8
0
100
AcDbLine
 62
7
  6
BYLAYER
 10
15.3176434461
 20
42.7524770971
 11
15.3176434461
 21
43.5181471274
  0
LINE
  5
244
100
AcDbEntity
  8
0
100
AcDbLine
 62
7
  6
BYLAYER
 10
15.4590653911
 20
43.4364989765
 11
15.4590653911
 21
42.2941276929
  0
LINE
  5
245
100
AcDbEntity
  8
0
100
AcDbLine
 62
7
  6
BYLAYER
 10
15.8833294598
 20
42.2327212633
 11
15.8833294598
 21
43.4364999963
  0
LINE
  5
246
100
AcDbEntity
  8
0
100
AcDbLine
 62
7
  6
BYLAYER
 10
17.9326615809
 20
46.348373755
 11
17.7242468885
 21
45.3298935357
  0
LWPOLYLINE
  5
247
100
AcDbEntity
  8
0
100
AcDbPolyline
 62
7
  6
BYLAYER
 90
9
 70
0
 10
22.0748071203
 20
41.3905961759
 10
19.8360142367
 20
39.6925832403
 10
17.7995875701
 20
37.3688322547
 10
16.1457563996
 20
34.6250014792
 10
15.0208892661
 20
31.7039273738
 10
14.5245399594
 20
28.8641329134
 10
14.528102052
 20
27.554158463
 10
15.0383052194
 20
25.2991376047
 10
16.1754848546
 20
23.6922376442
  0
LINE
  5
248
100
AcDbEntity
  8
0
100
AcDbLine
 62
7
  6
BYLAYER
 10
18.5349541295
 20
48.32908206
 11
18.5349541295
 21
46.9526463066
  0
LINE
  5
249
100
AcDbEntity
  8
0
100
AcDbLine
 62
7
  6
BYLAYER
 10
18.7118254733
 20
28.9414812517
 11
23.060550283
 21
26.4308006114
  0
LINE
  5
24A
100
AcDbEntity
  8
0
100
AcDbLine
 62
7
  6
BYLAYER
 10
18.9592055392
 20
50.0538876315
 11
18.9592055392
 21
48.5740222634
  0
LINE
  5
24B
100
AcDbEntity
  8
0
100
AcDbLine
 62
7
  6
BYLAYER
 10
18.9945863435
 20
45.2327742733
 11
18.9945863435
 21
44.0289955404
  0
LINE
  5
24C
100
AcDbEntity
  8
0
100
AcDbLine
 62
7
  6
BYLAYER
 10
19.082453426
 20
45.3552464997
 11
19.082453426
 21
44.1279120213
  0
LINE
  5
24D
100
AcDbEntity
  8
0
100
AcDbLine
 62
7
  6
BYLAYER
 10
21.4960506504
 20
44.3340448821
 11
21.5326530384
 21
44.5129133089
  0
LINE
  5
24E
100
AcDbEntity
  8
0
100
AcDbLine
 62
7
  6
BYLAYER
 10
8.1405394983
 20
36.4899357331
 11
5.4535225428
 21
38.0412506002
  0
LINE
  5
24F
100
AcDbEntity
  8
0
100
AcDbLine
 62
7
  6
BYLAYER
 10
8.2819602658
 20
36.7348850473
 11
5.7363652553
 21
38.2045517635
  0
LINE
  5
250
100
AcDbEntity
  8
0
100
AcDbLine
 62
7
  6
BYLAYER
 10
16.4465591897
 20
44.5922246021
 11
16.2381444973
 21
45.3700497005
  0
LINE
  5
251
100
AcDbEntity
  8
0
100
AcDbLine
 62
7
  6
BYLAYER
 10
16.306668831
 20
45.4409074585
 11
16.4753906031
 21
44.811220427
  0
LINE
  5
252
100
AcDbEntity
  8
0
100
AcDbLine
 62
7
  6
BYLAYER
 10
21.5754912089
 20
50.8615025939
 11
21.5754912089
 21
49.484241492
  0
LINE
  5
253
100
AcDbEntity
  8
0
100
AcDbLine
 62
7
  6
BYLAYER
 10
22.2118899615
 20
50.4940859148
 11
22.2118899615
 21
49.3968238517
  0
LINE
  5
254
100
AcDbEntity
  8
0
100
AcDbLine
 62
7
  6
BYLAYER
 10
32.6276170781
 20
40.3397815789
 11
25.5849196551
 21
36.2737025972
  0
LINE
  5
255
100
AcDbEntity
  8
0
100
AcDbLine
 62
7
  6
BYLAYER
 10
32.79203652
 20
40.3530583796
 11
25.4205002132
 21
36.0971253131
  0
LINE
  5
256
100
AcDbEntity
  8
0
100
AcDbLine
 62
7
  6
BYLAYER
 10
5.740726734
 20
41.3493465188
 11
8.2819602658
 21
39.8821978465
  0
LINE
  5
257
100
AcDbEntity
  8
0
100
AcDbLine
 62
7
  6
BYLAYER
 10
5.9848019085
 20
41.4903949623
 11
8.388974974
 21
40.1023763969
  0
LINE
  5
258
100
AcDbEntity
  8
0
100
AcDbLine
 62
7
  6
BYLAYER
 10
23.1311249499
 20
50.8141298497
 11
23.1311249499
 21
49.7891236612
  0
LINE
  5
259
100
AcDbEntity
  8
0
100
AcDbLine
 62
7
  6
BYLAYER
 10
34.0418365284
 20
39.5233000699
 11
26.9991391054
 21
35.4572210882
  0
LINE
  5
25A
100
AcDbEntity
  8
0
100
AcDbLine
 62
7
  6
BYLAYER
 10
8.3927677108
 20
40.9130880619
 11
6.907837288
 21
41.7703936464
  0
LINE
  5
25B
100
AcDbEntity
  8
0
100
AcDbLine
 62
7
  6
BYLAYER
 10
8.3449500807
 20
41.0475473125
 11
7.1575026003
 21
41.7331049256
  0
LINE
  5
25C
100
AcDbEntity
  8
0
100
AcDbLine
 62
7
  6
BYLAYER
 10
7.8332407223
 20
42.5167595255
 11
7.4796858597
 21
42.7208799028
  0
LINE
  5
25D
100
AcDbEntity
  8
0
100
AcDbLine
 62
7
  6
BYLAYER
 10
8.0732329734
 20
42.4765191356
 11
7.4885705476
 21
42.8140665082
  0
LINE
  5
25E
100
AcDbEntity
  8
0
100
AcDbLine
 62
7
  6
BYLAYER
 10
8.8122654752
 20
43.966524411
 11
10.7907395148
 21
42.8242777327
  0
LINE
  5
25F
100
AcDbEntity
  8
0
100
AcDbLine
 62
7
  6
BYLAYER
 10
16.3067133969
 20
45.4408850793
 11
16.3053092442
 21
45.4426664229
  0
LINE
  5
260
100
AcDbEntity
  8
0
100
AcDbLine
 62
7
  6
BYLAYER
 10
25.8888458124
 20
46.9001644787
 11
25.8888458124
 21
50.0474772779
  0
LINE
  5
261
100
AcDbEntity
  8
0
100
AcDbLine
 62
7
  6
BYLAYER
 10
26.0302665799
 20
46.818512826
 11
26.0302665799
 21
43.7029693988
  0
LINE
  5
262
100
AcDbEntity
  8
0
100
AcDbLine
 62
7
  6
BYLAYER
 10
14.4803958392
 20
23.6977079439
 11
13.549883853
 21
23.160479805
  0
LINE
  5
263
100
AcDbEntity
  8
0
100
AcDbLine
 62
7
  6
BYLAYER
 10
8.9411102348
 20
44.2035660464
 11
11.0977948965
 21
42.9584317451
  0
LINE
  5
264
100
AcDbEntity
  8
0
100
AcDbLine
 62
7
  6
BYLAYER
 10
11.0750086469
 20
43.9914682353
 11
9.7668556554
 21
44.7467136311
  0
LINE
  5
265
100
AcDbEntity
  8
0
100
AcDbLine
 62
7
  6
BYLAYER
 10
26.8347196635
 20
35.280643804
 11
25.4205002132
 21
36.0971253131
  0
LINE
  5
266
100
AcDbEntity
  8
0
100
AcDbLine
 62
7
  6
BYLAYER
 10
27.9537372344
 20
34.9060960696
 11
26.9991391054
 21
35.4572210882
  0
LINE
  5
267
100
AcDbEntity
  8
0
100
AcDbLine
 62
7
  6
BYLAYER
 10
25.5849196551
 20
36.2737025972
 11
23.6050124247
 21
37.4167767099
  0
LINE
  5
268
100
AcDbEntity
  8
0
100
AcDbLine
 62
7
  6
BYLAYER
 10
23.3776580387
 20
51.5321051901
 11
23.3707991231
 21
51.568881823
  0
LINE
  5
269
100
AcDbEntity
  8
0
100
AcDbLine
 62
7
  6
BYLAYER
 10
13.549883853
 20
43.8179909584
 11
12.1356644027
 21
44.6344724674
  0
LINE
  5
26A
100
AcDbEntity
  8
0
100
AcDbLine
 62
7
  6
BYLAYER
 10
18.2362410827
 20
41.5345403037
 11
17.3050772258
 21
42.072135845
  0
LINE
  5
26B
100
AcDbEntity
  8
0
100
AcDbLine
 62
7
  6
BYLAYER
 10
15.3176434461
 20
43.5181471274
 11
15.4590653911
 21
43.4364989765
  0
LINE
  5
26C
100
AcDbEntity
  8
0
100
AcDbLine
 62
7
  6
BYLAYER
 10
12.8074130481
 20
45.0223044136
 11
14.0873256763
 21
44.2833632303
  0
LINE
  5
26D
100
AcDbEntity
  8
0
100
AcDbLine
 62
7
  6
BYLAYER
 10
15.4882911721
 20
43.8568914195
 11
15.6297131171
 21
43.7752432686
  0
LINE
  5
26E
100
AcDbEntity
  8
0
100
AcDbLine
 62
7
  6
BYLAYER
 10
17.1621861793
 20
45.7160104719
 11
17.1651702025
 21
45.7131449738
  0
LINE
  5
26F
100
AcDbEntity
  8
0
100
AcDbLine
 62
7
  6
BYLAYER
 10
17.1622129009
 20
45.716064278
 11
17.2052185056
 21
45.6732473974
  0
LINE
  5
270
100
AcDbEntity
  8
0
100
AcDbLine
 62
7
  6
BYLAYER
 10
16.1417312557
 20
45.4694677644
 11
16.2712192418
 21
45.394709532
  0
LINE
  5
271
100
AcDbEntity
  8
0
100
AcDbLine
 62
7
  6
BYLAYER
 10
16.2417454345
 20
45.4793641758
 11
16.3053269766
 21
45.4426561858
  0
LWPOLYLINE
  5
272
100
AcDbEntity
  8
0
100
AcDbPolyline
 62
7
  6
BYLAYER
 90
6
 70
0
 10
26.3244409194
 20
24.0191862471
 10
27.0994492113
 20
24.6015211956
 10
28.9111263096
 20
26.6549259929
 10
30.3851542536
 20
29.085250892
 10
31.390559192
 20
31.6765508606
 10
31.6756030821
 20
33.2831943794
  0
LINE
  5
273
100
AcDbEntity
  8
0
100
AcDbLine
 62
7
  6
BYLAYER
 10
17.2384326237
 20
45.648371011
 11
17.474308972
 21
45.5121908186
  0
LINE
  5
274
100
AcDbEntity
  8
0
100
AcDbLine
 62
7
  6
BYLAYER
 10
18.6825149061
 20
45.7010663439
 11
18.8239368511
 21
45.619418193
  0
LINE
  5
275
100
AcDbEntity
  8
0
100
AcDbLine
 62
7
  6
BYLAYER
 10
18.7910289359
 20
45.6967037411
 11
18.932450881
 21
45.6150555902
  0
LINE
  5
276
100
AcDbEntity
  8
0
100
AcDbLine
 62
7
  6
BYLAYER
 10
17.8899491645
 20
46.32927811
 11
17.7604611784
 21
46.4040363424
  0
LINE
  5
277
100
AcDbEntity
  8
0
100
AcDbLine
 62
7
  6
BYLAYER
 10
23.1887949886
 20
43.3567605919
 11
21.4960506504
 21
44.3340448821
  0
LINE
  5
278
100
AcDbEntity
  8
0
100
AcDbLine
 62
7
  6
BYLAYER
 10
21.5326530384
 20
44.5129133089
 11
22.4638168952
 21
43.9753177676
  0
LINE
  5
279
100
AcDbEntity
  8
0
100
AcDbLine
 62
7
  6
BYLAYER
 10
28.3222780384
 20
41.455237285
 11
28.1929121342
 21
41.6568152079
  0
LINE
  5
27A
100
AcDbEntity
  8
0
100
AcDbLine
 62
7
  6
BYLAYER
 10
29.0450268067
 20
41.2976224987
 11
29.6643557935
 21
41.1751622016
  0
LWPOLYLINE
  5
27B
100
AcDbEntity
  8
0
100
AcDbPolyline
 62
7
  6
BYLAYER
 90
4
 70
0
 10
16.2417807249
 20
45.4793434177
 10
16.1376278652
 20
45.5153499452
 10
16.0562116735
 20
45.5109513203
 10
15.9973637146
 20
45.4875731563
  0
LINE
  5
27C
100
AcDbEntity
  8
0
100
AcDbLine
 62
7
  6
BYLAYER
 10
27.7373653302
 20
41.7359078657
 11
27.8556347195
 21
41.6676265467
  0
LINE
  5
27D
100
AcDbEntity
  8
0
100
AcDbLine
 62
7
  6
BYLAYER
 10
25.1937671475
 20
44.1859116456
 11
26.1249310044
 21
43.6483161043
  0
LINE
  5
27E
100
AcDbEntity
  8
0
100
AcDbLine
 62
7
  6
BYLAYER
 10
19.8148667577
 20
47.5901408766
 11
18.5349541295
 21
48.32908206
  0
LWPOLYLINE
  5
27F
100
AcDbEntity
  8
0
100
AcDbPolyline
 62
7
  6
BYLAYER
 90
3
 70
0
 10
19.082453426
 20
44.8171480265
 10
20.8528204173
 20
44.9982080184
 10
22.0627314925
 20
44.5548482239
  0
LINE
  5
280
100
AcDbEntity
  8
0
100
AcDbLine
 62
7
  6
BYLAYER
 10
7.4867671301
 20
42.8139541981
 11
7.4885667375
 21
42.8140687079
  0
LINE
  5
281
100
AcDbEntity
  8
0
100
AcDbLine
 62
7
  6
BYLAYER
 10
18.932450881
 20
45.6150555902
 11
18.8239368511
 21
45.619418193
  0
LINE
  5
282
100
AcDbEntity
  8
0
100
AcDbLine
 62
7
  6
BYLAYER
 10
30.6477098477
 20
41.4828556916
 11
32.6276170781
 21
40.3397815789
  0
LINE
  5
283
100
AcDbEntity
  8
0
100
AcDbLine
 62
7
  6
BYLAYER
 10
34.0418365284
 20
39.5233000699
 11
34.9964346573
 21
38.9721750513
  0
LINE
  5
284
100
AcDbEntity
  8
0
100
AcDbLine
 62
7
  6
BYLAYER
 10
32.79203652
 20
40.3530583796
 11
34.2062559703
 21
39.5365768706
  0
LINE
  5
285
100
AcDbEntity
  8
0
100
AcDbLine
 62
7
  6
BYLAYER
 10
19.2067027749
 20
48.7169140062
 11
20.6209222252
 21
47.9004324971
  0
LINE
  5
286
100
AcDbEntity
  8
0
100
AcDbLine
 62
7
  6
BYLAYER
 10
33.5762516989
 20
40.9052283287
 11
39.3391959588
 21
37.5780661793
  0
LINE
  5
287
100
AcDbEntity
  8
0
100
AcDbLine
 62
7
  6
BYLAYER
 10
18.9592055392
 20
50.0538876315
 11
20.2673585307
 21
49.2986422356
  0
LINE
  5
288
100
AcDbEntity
  8
0
100
AcDbLine
 62
7
  6
BYLAYER
 10
18.6825149061
 20
45.7010663439
 11
18.7910058391
 21
45.6966636551
  0
LINE
  5
289
100
AcDbEntity
  8
0
100
AcDbLine
 62
7
  6
BYLAYER
 10
26.0302665799
 20
46.818512826
 11
25.8888458124
 21
46.9001644787
  0
LINE
  5
28A
100
AcDbEntity
  8
0
100
AcDbLine
 62
7
  6
BYLAYER
 10
21.9416356215
 20
49.2190887357
 11
19.7849509598
 21
50.464223037
  0
LINE
  5
28B
100
AcDbEntity
  8
0
100
AcDbLine
 62
7
  6
BYLAYER
 10
21.9385805646
 20
49.274616497
 11
19.8723732553
 21
50.4675148563
  0
LINE
  5
28C
100
AcDbEntity
  8
0
100
AcDbLine
 62
7
  6
BYLAYER
 10
21.5754912089
 20
50.8615025939
 11
22.2118899615
 21
50.4940859148
  0
LINE
  5
28D
100
AcDbEntity
  8
0
100
AcDbLine
 62
7
  6
BYLAYER
 10
21.8827740875
 20
51.036457131
 11
22.2363289501
 21
50.8323367537
  0
LINE
  5
28E
100
AcDbEntity
  8
0
100
AcDbLine
 62
7
  6
BYLAYER
 10
23.1311249499
 20
50.8141298497
 11
24.2083495295
 21
50.1922080184
  0
LINE
  5
28F
100
AcDbEntity
  8
0
100
AcDbLine
 62
7
  6
BYLAYER
 10
23.1617303056
 20
51.154527672
 11
24.6466607284
 21
50.2972220875
  0
LINE
  5
290
100
AcDbEntity
  8
0
100
AcDbLine
 62
7
  6
BYLAYER
 10
25.7818311042
 20
50.1440866247
 11
23.3776580387
 21
51.5321051901
  0
LINE
  5
291
100
AcDbEntity
  8
0
100
AcDbLine
 62
7
  6
BYLAYER
 10
25.8474233483
 20
50.1390345075
 11
23.3707933981
 21
51.5688851283
  0
LINE
  5
292
100
AcDbEntity
  8
0
100
AcDbLine
 62
7
  6
BYLAYER
 10
19.7849509598
 20
50.464223037
 11
19.8723660205
 21
50.4675022901
  0
LINE
  5
293
100
AcDbEntity
  8
0
100
AcDbLine
 62
7
  6
BYLAYER
 10
25.8474070899
 20
50.13900632
 11
25.7818311042
 21
50.1440866247
  0
LINE
  5
294
100
AcDbEntity
  8
0
100
AcDbLine
 62
7
  6
BYLAYER
 10
23.3707991231
 20
51.568881823
 11
23.3688040467
 21
51.5691509137
  0
ARC
  5
295
100
AcDbEntity
  8
0
100
AcDbCircle
 62
7
  6
BYLAYER
 10
30.6171152095
 20
13.0885323504
 40
37.5954340098
100
AcDbArc
 50
127.9833095516
 51
130.9343829015
  0
ARC
  5
296
100
AcDbEntity
  8
0
100
AcDbCircle
 62
7
  6
BYLAYER
 10
32.4568069808
 20
12.0367372943
 40
37.5888496717
100
AcDbArc
 50
129.594276369
 51
129.8060554456
  0
ARC
  5
297
100
AcDbEntity
  8
0
100
AcDbCircle
 62
7
  6
BYLAYER
 10
30.1404305148
 20
13.5575945404
 40
37.0016430891
100
AcDbArc
 50
127.7511724841
 51
131.1709405883
  0
ARC
  5
298
100
AcDbEntity
  8
0
100
AcDbCircle
 62
7
  6
BYLAYER
 10
30.3437782096
 20
13.6595380569
 40
36.5986820645
100
AcDbArc
 50
127.9565821114
 51
129.8178718336
  0
ARC
  5
299
100
AcDbEntity
  8
0
100
AcDbCircle
 62
7
  6
BYLAYER
 10
30.1672723468
 20
13.8648285371
 40
36.0461599936
100
AcDbArc
 50
127.671064731
 51
129.489376722
  0
ARC
  5
29A
100
AcDbEntity
  8
0
100
AcDbCircle
 62
7
  6
BYLAYER
 10
29.2783609215
 20
16.2400594689
 40
32.3172461401
100
AcDbArc
 50
124.2334018358
 51
124.5888054033
  0
ARC
  5
29B
100
AcDbEntity
  8
0
100
AcDbCircle
 62
7
  6
BYLAYER
 10
26.6152075594
 20
18.2329589278
 40
31.4141075052
100
AcDbArc
 50
122.4342048228
 51
124.2369446393
  0
ARC
  5
29C
100
AcDbEntity
  8
0
100
AcDbCircle
 62
7
  6
BYLAYER
 10
26.9092034585
 20
19.0687592917
 40
29.527328806
100
AcDbArc
 50
120.0221277932
 51
122.4291018307
  0
ARC
  5
29D
100
AcDbEntity
  8
0
100
AcDbCircle
 62
7
  6
BYLAYER
 10
32.9110370994
 20
24.9878233414
 40
27.4021627441
100
AcDbArc
 50
117.4782396732
 51
120.0078542021
  0
ARC
  5
29E
100
AcDbEntity
  8
0
100
AcDbCircle
 62
7
  6
BYLAYER
 10
30.7294355556
 20
27.4038845155
 40
25.5256920727
100
AcDbArc
 50
115.3891131263
 51
117.4589546711
  0
ARC
  5
29F
100
AcDbEntity
  8
0
100
AcDbCircle
 62
7
  6
BYLAYER
 10
29.5679217672
 20
31.3336694646
 40
20.5501714811
100
AcDbArc
 50
108.2440595536
 51
110.9685331379
  0
ARC
  5
2A0
100
AcDbEntity
  8
0
100
AcDbCircle
 62
7
  6
BYLAYER
 10
29.4216688665
 20
31.6845718096
 40
20.4515528034
100
AcDbArc
 50
107.823525642
 51
110.5689723192
  0
ARC
  5
2A1
100
AcDbEntity
  8
0
100
AcDbCircle
 62
7
  6
BYLAYER
 10
29.0166740493
 20
32.0226026918
 40
20.3081064922
100
AcDbArc
 50
106.1213803203
 51
110.5658314826
  0
ARC
  5
2A2
100
AcDbEntity
  8
0
100
AcDbCircle
 62
7
  6
BYLAYER
 10
30.7671227485
 20
31.2525819987
 40
20.0039588945
100
AcDbArc
 50
107.8160818238
 51
108.4281444737
  0
ARC
  5
2A3
100
AcDbEntity
  8
0
100
AcDbCircle
 62
7
  6
BYLAYER
 10
41.0965753193
 20
22.1655949799
 40
19.3753718004
100
AcDbArc
 50
136.6852056946
 51
137.3986933548
  0
ARC
  5
2A4
100
AcDbEntity
  8
0
100
AcDbCircle
 62
7
  6
BYLAYER
 10
39.6472935457
 20
23.0147246727
 40
19.3274637508
100
AcDbArc
 50
136.6843214026
 51
137.3995776468
  0
ARC
  5
2A5
100
AcDbEntity
  8
0
100
AcDbCircle
 62
7
  6
BYLAYER
 10
26.4624363217
 20
33.2285419736
 40
10.635463125
100
AcDbArc
 50
119.7029768423
 51
120.0000740151
  0
ARC
  5
2A6
100
AcDbEntity
  8
0
100
AcDbCircle
 62
7
  6
BYLAYER
 10
27.2247251662
 20
32.5811821968
 40
10.2042849105
100
AcDbArc
 50
120.000094502
 51
120.3102394244
  0
ARC
  5
2A7
100
AcDbEntity
  8
0
100
AcDbCircle
 62
7
  6
BYLAYER
 10
27.4551263847
 20
32.4285305321
 40
10.1353116073
100
AcDbArc
 50
120.000094502
 51
120.3102394244
  0
ARC
  5
2A8
100
AcDbEntity
  8
0
100
AcDbCircle
 62
7
  6
BYLAYER
 10
34.6230789907
 20
33.3499342137
 40
6.2006684151
100
AcDbArc
 50
93.8544591589
 51
95.3787274412
  0
ARC
  5
2A9
100
AcDbEntity
  8
0
100
AcDbCircle
 62
7
  6
BYLAYER
 10
33.2062233558
 20
34.1990621426
 40
6.1679186458
100
AcDbArc
 50
93.8504122182
 51
95.382774382
  0
ARC
  5
2AA
100
AcDbEntity
  8
0
100
AcDbCircle
 62
7
  6
BYLAYER
 10
25.6886175727
 20
38.8052258916
 40
3.6353380144
100
AcDbArc
 50
52.9155433434
 51
55.0703691244
  0
ARC
  5
2AB
100
AcDbEntity
  8
0
100
AcDbCircle
 62
7
  6
BYLAYER
 10
18.9413038376
 20
26.2268230518
 40
3.5706988153
100
AcDbArc
 50
237.8240466198
 51
239.9975110275
  0
ARC
  5
2AC
100
AcDbEntity
  8
0
100
AcDbCircle
 62
7
  6
BYLAYER
 10
18.782453426
 20
45.3552464997
 40
0.3
100
AcDbArc
 50
0.0000000013
 51
60.0005612615
  0
ARC
  5
2AD
100
AcDbEntity
  8
0
100
AcDbCircle
 62
7
  6
BYLAYER
 10
17.6897355895
 20
46.0936507372
 40
0.135519469
100
AcDbArc
 50
118.114644007
 51
122.637021289
  0
ARC
  5
2AE
100
AcDbEntity
  8
0
100
AcDbCircle
 62
7
  6
BYLAYER
 10
16.2086065804
 20
45.4234172643
 40
0.0649193881
100
AcDbArc
 50
59.3760422735
 51
77.5818495048
  0
SPLINE
  5
2AF
100
AcDbEntity
  8
0
100
AcDbSpline
 62
7
  6
BYLAYER
 70
0
 71
3
 72
11
 73
7
 74
0
 42
0.0000001
 43
0.0000001
 44
0.0000000001
 40
0.0
 40
0.0
 40
0.0
 40
0.0
 40
0.2347571893
 40
0.494669406
 40
0.7574535117
 40
1.0
 40
1.0
 40
1.0
 40
1.0
 10
8.8122654752
 20
43.966524411
 30
0.0
 10
8.8122654752
 20
43.9883144041
 30
0.0
 10
8.8199757515
 20
44.0342666072
 30
0.0
 10
8.8472656825
 20
44.0995748434
 30
0.0
 10
8.8877122535
 20
44.1585412396
 30
0.0
 10
8.9224974512
 20
44.1909011729
 30
0.0
 10
8.9411102348
 20
44.2035660464
 30
0.0
  0
SPLINE
  5
2B0
100
AcDbEntity
  8
0
100
AcDbSpline
 62
7
  6
BYLAYER
 70
0
 71
3
 72
11
 73
7
 74
0
 42
0.0000001
 43
0.0000001
 44
0.0000000001
 40
0.0
 40
0.0
 40
0.0
 40
0.0
 40
0.2704047994
 40
0.5271149399
 40
0.7699952908
 40
1.0
 40
1.0
 40
1.0
 40
1.0
 10
8.0732325335
 20
42.4765193991
 30
0.0
 10
8.0815402202
 20
42.4717227522
 30
0.0
 10
8.0971660761
 20
42.4613140517
 30
0.0
 10
8.1171616709
 20
42.4424432066
 30
0.0
 10
8.1317119371
 20
42.420749389
 30
0.0
 10
8.1371644707
 20
42.4045806153
 30
0.0
 10
8.1384769623
 20
42.3965271229
 30
0.0
  0
SPLINE
  5
2B1
100
AcDbEntity
  8
0
100
AcDbSpline
 62
7
  6
BYLAYER
 70
0
 71
3
 72
11
 73
7
 74
0
 42
0.0000001
 43
0.0000001
 44
0.0000000001
 40
0.0
 40
0.0
 40
0.0
 40
0.0
 40
0.2606464739
 40
0.5154169953
 40
0.7619142944
 40
1.0
 40
1.0
 40
1.0
 40
1.0
 10
21.6993923479
 20
51.0152984432
 30
0.0
 10
21.6845717941
 20
51.0096700398
 30
0.0
 10
21.6560426553
 20
50.996272155
 30
0.0
 10
21.6183230949
 20
50.9687033678
 30
0.0
 10
21.5896205859
 20
50.9332741959
 30
0.0
 10
21.5795056594
 20
50.9047124846
 30
0.0
 10
21.5775378475
 20
50.8903657046
 30
0.0
  0
SPLINE
  5
2B2
100
AcDbEntity
  8
0
100
AcDbSpline
 62
7
  6
BYLAYER
 70
0
 71
3
 72
9
 73
5
 74
0
 42
0.0000001
 43
0.0000001
 44
0.0000000001
 40
0.0
 40
0.0
 40
0.0
 40
0.0
 40
0.2458347264
 40
1.0
 40
1.0
 40
1.0
 40
1.0
 10
23.3688393833
 20
51.5691278103
 30
0.0
 10
23.2301234518
 20
51.5298846266
 30
0.0
 10
22.6677027062
 20
51.363778334
 30
0.0
 10
22.1128307581
 20
51.1723148258
 30
0.0
 10
21.6993918823
 20
51.0152993356
 30
0.0
  0
SPLINE
  5
2B3
100
AcDbEntity
  8
0
100
AcDbSpline
 62
7
  6
BYLAYER
 70
0
 71
3
 72
9
 73
5
 74
0
 42
0.0000001
 43
0.0000001
 44
0.0000000001
 40
0.0
 40
0.0
 40
0.0
 40
0.0
 40
0.2439684303
 40
1.0
 40
1.0
 40
1.0
 40
1.0
 10
24.4279741999
 20
50.2692859744
 30
0.0
 10
24.2207746067
 20
50.2011725681
 30
0.0
 10
23.3760611416
 20
49.9081613837
 30
0.0
 10
22.5501637235
 20
49.5616436649
 30
0.0
 10
21.9382364772
 20
49.274630853
 30
0.0
  0
SPLINE
  5
2B4
100
AcDbEntity
  8
0
100
AcDbSpline
 62
7
  6
BYLAYER
 70
0
 71
3
 72
11
 73
7
 74
0
 42
0.0000001
 43
0.0000001
 44
0.0000000001
 40
0.0
 40
0.0
 40
0.0
 40
0.0
 40
0.2373306847
 40
0.4831104658
 40
0.7373682064
 40
1.0
 40
1.0
 40
1.0
 40
1.0
 10
8.388974974
 20
20.9168256774
 30
0.0
 10
8.8177982373
 20
21.0402049543
 30
0.0
 10
9.6820479568
 20
21.3223499146
 30
0.0
 10
10.9701358522
 20
21.8373533437
 30
0.0
 10
12.267692736
 20
22.4495823045
 30
0.0
 10
13.1222488696
 20
22.9135861044
 30
0.0
 10
13.549883853
 20
23.160479805
 30
0.0
  0
SPLINE
  5
2B5
100
AcDbEntity
  8
0
100
AcDbSpline
 62
7
  6
BYLAYER
 70
0
 71
3
 72
32
 73
28
 74
0
 42
0.0000001
 43
0.0000001
 44
0.0000000001
 40
0.0
 40
0.0
 40
0.0
 40
0.0
 40
0.0213270746
 40
0.0428823909
 40
0.0648826028
 40
0.0875219258
 40
0.1109660175
 40
0.1353468599
 40
0.1607637254
 40
0.1872823147
 40
0.2149392313
 40
0.2437424521
 40
0.2736768407
 40
0.3047043978
 40
0.3367698319
 40
0.3698002199
 40
0.4383804561
 40
0.509649029
 40
0.5826548757
 40
0.6563678135
 40
0.7297263551
 40
0.8016846088
 40
0.8712597593
 40
0.9048843841
 40
0.9376050641
 40
0.9693403039
 40
1.0
 40
1.0
 40
1.0
 40
1.0
 10
28.1193916
 20
18.1443553044
 30
0.0
 10
28.0021860471
 20
18.2120298708
 30
0.0
 10
27.7749736554
 20
18.3633702183
 30
0.0
 10
27.4631322605
 20
18.6337900222
 30
0.0
 10
27.1811484839
 20
18.9465201814
 30
0.0
 10
26.9305906325
 20
19.2996272363
 30
0.0
 10
26.7127445132
 20
19.6910819189
 30
0.0
 10
26.5286485641
 20
20.1186533325
 30
0.0
 10
26.3792315911
 20
20.580004302
 30
0.0
 10
26.2651566779
 20
21.0726236245
 30
0.0
 10
26.1870145947
 20
21.5938761565
 30
0.0
 10
26.1451227021
 20
22.1409703706
 30
0.0
 10
26.1397214628
 20
22.7109831106
 30
0.0
 10
26.1707653039
 20
23.300863561
 30
0.0
 10
26.2381223862
 20
23.9074579681
 30
0.0
 10
26.377542634
 20
24.7445742251
 30
0.0
 10
26.6420073008
 20
25.8113179652
 30
0.0
 10
27.0886405792
 20
27.0879738755
 30
0.0
 10
27.6590668845
 20
28.3501284896
 30
0.0
 10
28.341079419
 20
29.5707718092
 30
0.0
 10
29.1201584926
 20
30.7239209982
 30
0.0
 10
29.9796277582
 20
31.7848911849
 30
0.0
 10
30.7564544367
 20
32.5825280706
 30
0.0
 10
31.4032915583
 20
33.1536159466
 30
0.0
 10
31.8910710425
 20
33.5407390527
 30
0.0
 10
32.3842565802
 20
33.8892633331
 30
0.0
 10
32.720807348
 20
34.0984265342
 30
0.0
 10
32.8893053961
 20
34.195708347
 30
0.0
  0
SPLINE
  5
2B6
100
AcDbEntity
  8
0
100
AcDbSpline
 62
7
  6
BYLAYER
 70
0
 71
3
 72
27
 73
23
 74
0
 42
0.0000001
 43
0.0000001
 44
0.0000000001
 40
0.0
 40
0.0
 40
0.0
 40
0.0
 40
0.0215353076
 40
0.0432307488
 40
0.0652406797
 40
0.0877081321
 40
0.1107616429
 40
0.1345107404
 40
0.1590471432
 40
0.184441335
 40
0.2379631461
 40
0.2953201715
 40
0.3564719746
 40
0.4211781386
 40
0.4890394254
 40
0.5595331903
 40
0.6320438257
 40
0.7058878241
 40
0.780344157
 40
0.8546663544
 40
0.928128183
 40
1.0
 40
1.0
 40
1.0
 40
1.0
 10
26.4394243369
 20
15.2345008755
 30
0.0
 10
26.5712072491
 20
15.1584205376
 30
0.0
 10
26.8440910911
 20
15.0196450046
 30
0.0
 10
27.2755043897
 20
14.8549290883
 30
0.0
 10
27.7279687088
 20
14.7338355663
 30
0.0
 10
28.1996423252
 20
14.6567996774
 30
0.0
 10
28.6887083384
 20
14.6241031202
 30
0.0
 10
29.1932869936
 20
14.6356805685
 30
0.0
 10
29.7114919494
 20
14.6915436425
 30
0.0
 10
30.4304856003
 20
14.8269167689
 30
0.0
 10
31.3541655
 20
15.1106494087
 30
0.0
 10
32.4640053075
 20
15.6130574422
 30
0.0
 10
33.579045504
 20
16.275489641
 30
0.0
 10
34.6830789929
 20
17.0879807259
 30
0.0
 10
35.7601518195
 20
18.0385409592
 30
0.0
 10
36.7944677153
 20
19.1131407851
 30
0.0
 10
37.7707782414
 20
20.2958938063
 30
0.0
 10
38.6746652111
 20
21.5692819084
 30
0.0
 10
39.4926821136
 20
22.9144184743
 30
0.0
 10
40.2128060688
 20
24.3114077878
 30
0.0
 10
40.8241831317
 20
25.7393912022
 30
0.0
 10
41.1580455047
 20
26.7117664597
 30
0.0
 10
41.303841059
 20
27.1982314727
 30
0.0
  0
SPLINE
  5
2B7
100
AcDbEntity
  8
0
100
AcDbSpline
 62
7
  6
BYLAYER
 70
0
 71
3
 72
11
 73
7
 74
0
 42
0.0000001
 43
0.0000001
 44
0.0000000001
 40
0.0
 40
0.0
 40
0.0
 40
0.0
 40
0.2394845177
 40
0.4833868594
 40
0.735806927
 40
1.0
 40
1.0
 40
1.0
 40
1.0
 10
20.6764705735
 20
18.5616465451
 30
0.0
 10
20.466928864
 20
18.6826227606
 30
0.0
 10
20.0639657747
 20
18.9633380976
 30
0.0
 10
19.5306522525
 20
19.4857398706
 30
0.0
 10
19.0711558298
 20
20.1051564086
 30
0.0
 10
18.8230342692
 20
20.5665328609
 30
0.0
 10
18.7118254733
 20
20.8091827599
 30
0.0
  0
SPLINE
  5
2B8
100
AcDbEntity
  8
0
100
AcDbSpline
 62
7
  6
BYLAYER
 70
0
 71
3
 72
15
 73
11
 74
0
 42
0.0000001
 43
0.0000001
 44
0.0000000001
 40
0.0
 40
0.0
 40
0.0
 40
0.0
 40
0.1644591832
 40
0.3230454152
 40
0.4739319247
 40
0.6148391565
 40
0.7419664712
 40
0.851001309
 40
0.9380999813
 40
1.0
 40
1.0
 40
1.0
 40
1.0
 10
17.1558162667
 20
23.1345780906
 30
0.0
 10
17.215522403
 20
23.1001075165
 30
0.0
 10
17.330561859
 20
23.0284293383
 30
0.0
 10
17.492052183
 20
22.9124778703
 30
0.0
 10
17.6380310043
 20
22.7925159548
 30
0.0
 10
17.765984281
 20
22.6720510748
 30
0.0
 10
17.874271312
 20
22.5567677896
 30
0.0
 10
17.9607837866
 20
22.4523326322
 30
0.0
 10
18.0241997216
 20
22.3646221689
 30
0.0
 10
18.0578353562
 20
22.3119382338
 30
0.0
 10
18.070961771
 20
22.2895542811
 30
0.0
  0
SPLINE
  5
2B9
100
AcDbEntity
  8
0
100
AcDbSpline
 62
7
  6
BYLAYER
 70
0
 71
3
 72
9
 73
5
 74
0
 42
0.0000001
 43
0.0000001
 44
0.0000000001
 40
0.0
 40
0.0
 40
0.0
 40
0.0
 40
0.2465591894
 40
1.0
 40
1.0
 40
1.0
 40
1.0
 10
18.4048880353
 20
21.7933472402
 30
0.0
 10
18.3748670684
 20
21.8322945338
 30
0.0
 10
18.2557111284
 20
21.9922532822
 30
0.0
 10
18.1469840365
 20
22.1599362933
 30
0.0
 10
18.0709656859
 20
22.2895588283
 30
0.0
  0
SPLINE
  5
2BA
100
AcDbEntity
  8
0
100
AcDbSpline
 62
7
  6
BYLAYER
 70
0
 71
3
 72
15
 73
11
 74
0
 42
0.0000001
 43
0.0000001
 44
0.0000000001
 40
0.0
 40
0.0
 40
0.0
 40
0.0
 40
0.0618918861
 40
0.1489961646
 40
0.2580359144
 40
0.38516253
 40
0.5260672084
 40
0.6769532939
 40
0.8355407281
 40
1.0
 40
1.0
 40
1.0
 40
1.0
 10
29.0450268067
 20
41.2976224987
 30
0.0
 10
29.0190819341
 20
41.2977977997
 30
0.0
 10
28.9566395301
 20
41.3005844628
 30
0.0
 10
28.8489707884
 20
41.3116460969
 30
0.0
 10
28.7152664421
 20
41.3343480563
 30
0.0
 10
28.5612831303
 20
41.3704822237
 30
0.0
 10
28.3929815703
 20
41.4210577028
 30
0.0
 10
28.2161018501
 20
41.4874952586
 30
0.0
 10
28.0349376681
 20
41.569370405
 30
0.0
 10
27.9153408861
 20
41.6331559551
 30
0.0
 10
27.8556347195
 20
41.6676265467
 30
0.0
  0
SPLINE
  5
2BB
100
AcDbEntity
  8
0
100
AcDbSpline
 62
7
  6
BYLAYER
 70
0
 71
3
 72
16
 73
12
 74
0
 42
0.0000001
 43
0.0000001
 44
0.0000000001
 40
0.0
 40
0.0
 40
0.0
 40
0.0
 40
0.0539197956
 40
0.1080982743
 40
0.218136301
 40
0.3320628337
 40
0.4514109094
 40
0.5773171073
 40
0.7105191068
 40
0.8514309171
 40
1.0
 40
1.0
 40
1.0
 40
1.0
 10
13.6439710687
 20
24.1806254617
 30
0.0
 10
13.5494278849
 20
24.2352066809
 30
0.0
 10
13.3644425114
 20
24.3527715567
 30
0.0
 10
13.0127765093
 20
24.6206405464
 30
0.0
 10
12.6093381878
 20
25.0174944291
 30
0.0
 10
12.195720414
 20
25.5793690849
 30
0.0
 10
11.8531136525
 20
26.2234725392
 30
0.0
 10
11.5843732009
 20
26.9431248762
 30
0.0
 10
11.3915103882
 20
27.7314383755
 30
0.0
 10
11.2760766755
 20
28.5807507414
 30
0.0
 10
11.2518158123
 20
29.167244888
 30
0.0
 10
11.2518158123
 20
29.4680416839
 30
0.0
  0
SPLINE
  5
2BC
100
AcDbEntity
  8
0
100
AcDbSpline
 62
7
  6
BYLAYER
 70
0
 71
3
 72
11
 73
7
 74
0
 42
0.0000001
 43
0.0000001
 44
0.0000000001
 40
0.0
 40
0.0
 40
0.0
 40
0.0
 40
0.2499407413
 40
0.4997527216
 40
0.7496510244
 40
1.0
 40
1.0
 40
1.0
 40
1.0
 10
26.1249310044
 20
43.6483161043
 30
0.0
 10
26.3339440818
 20
43.5276450777
 30
0.0
 10
26.7373742699
 20
43.2601972691
 30
0.0
 10
27.2881349646
 20
42.7878097672
 30
0.0
 10
27.7787750107
 20
42.2528172115
 30
0.0
 10
28.062346231
 20
41.8602629619
 30
0.0
 10
28.1929120789
 20
41.656815294
 30
0.0
  0
SPLINE
  5
2BD
100
AcDbEntity
  8
0
100
AcDbSpline
 62
7
  6
BYLAYER
 70
0
 71
3
 72
11
 73
7
 74
0
 42
0.0000001
 43
0.0000001
 44
0.0000000001
 40
0.0
 40
0.0
 40
0.0
 40
0.0
 40
0.2503476063
 40
0.5002465316
 40
0.750058454
 40
1.0
 40
1.0
 40
1.0
 40
1.0
 10
17.3338234848
 20
22.8478964381
 30
0.0
 10
17.0923508028
 20
22.859241149
 30
0.0
 10
16.6106031238
 20
22.908535098
 30
0.0
 10
15.9019630701
 20
23.0659292612
 30
0.0
 10
15.2174776156
 20
23.3066967136
 30
0.0
 10
14.7841407305
 20
23.5223447164
 30
0.0
 10
14.5751269735
 20
23.6430161353
 30
0.0
  0
SPLINE
  5
2BE
100
AcDbEntity
  8
0
100
AcDbSpline
 62
7
  6
BYLAYER
 70
0
 71
3
 72
9
 73
5
 74
0
 42
0.0000001
 43
0.0000001
 44
0.0000000001
 40
0.0
 40
0.0
 40
0.0
 40
0.0
 40
0.2401555878
 40
1.0
 40
1.0
 40
1.0
 40
1.0
 10
5.7363652553
 20
22.5246612557
 30
0.0
 10
5.7363652553
 20
22.521112552
 30
0.0
 10
5.736756372
 20
22.5063367346
 30
0.0
 10
5.7386322908
 20
22.4916146027
 30
0.0
 10
5.7407267343
 20
22.4805836964
 30
0.0
  0
SPLINE
  5
2BF
100
AcDbEntity
  8
0
100
AcDbSpline
 62
7
  6
BYLAYER
 70
0
 71
3
 72
11
 73
7
 74
0
 42
0.0000001
 43
0.0000001
 44
0.0000000001
 40
0.0
 40
0.0
 40
0.0
 40
0.0
 40
0.2564601028
 40
0.5089096299
 40
0.7571509902
 40
1.0
 40
1.0
 40
1.0
 40
1.0
 10
5.8467514179
 20
22.3517248096
 30
0.0
 10
5.834046447
 20
22.3590632492
 30
0.0
 10
5.8097733973
 20
22.3753463093
 30
0.0
 10
5.7779223694
 20
22.4050588763
 30
0.0
 10
5.7532619906
 20
22.4401341171
 30
0.0
 10
5.7433186385
 20
22.4669340426
 30
0.0
 10
5.7407270015
 20
22.4805835421
 30
0.0
  0
SPLINE
  5
2C0
100
AcDbEntity
  8
0
100
AcDbSpline
 62
7
  6
BYLAYER
 70
0
 71
3
 72
9
 73
5
 74
0
 42
0.0000001
 43
0.0000001
 44
0.0000000001
 40
0.0
 40
0.0
 40
0.0
 40
0.0
 40
0.2455132619
 40
1.0
 40
1.0
 40
1.0
 40
1.0
 10
10.8937002856
 20
42.8972174254
 30
0.0
 10
10.687447658
 20
42.7556899428
 30
0.0
 10
9.8540696153
 20
42.1694944483
 30
0.0
 10
9.0474244103
 20
41.5454754571
 30
0.0
 10
8.4541919001
 20
41.056615267
 30
0.0
  0
SPLINE
  5
2C1
100
AcDbEntity
  8
0
100
AcDbSpline
 62
7
  6
BYLAYER
 70
0
 71
3
 72
11
 73
7
 74
0
 42
0.0000001
 43
0.0000001
 44
0.0000000001
 40
0.0
 40
0.0
 40
0.0
 40
0.0
 40
0.2894992989
 40
0.5491682545
 40
0.7823317341
 40
1.0
 40
1.0
 40
1.0
 40
1.0
 10
25.8888458124
 20
50.0474772779
 30
0.0
 10
25.8888458124
 20
50.0576035301
 30
0.0
 10
25.8872954458
 20
50.0768755305
 30
0.0
 10
25.8795093429
 20
50.1033632278
 30
0.0
 10
25.866357825
 20
50.1248528168
 30
0.0
 10
25.8540148648
 20
50.135223903
 30
0.0
 10
25.8474209622
 20
50.1390303491
 30
0.0
  0
SPLINE
  5
2C2
100
AcDbEntity
  8
0
100
AcDbSpline
 62
7
  6
BYLAYER
 70
0
 71
3
 72
9
 73
5
 74
0
 42
0.0000001
 43
0.0000001
 44
0.0000000001
 40
0.0
 40
0.0
 40
0.0
 40
0.0
 40
0.2626270927
 40
1.0
 40
1.0
 40
1.0
 40
1.0
 10
5.7363652553
 20
41.3103050373
 30
0.0
 10
5.7363652553
 20
41.3137484828
 30
0.0
 10
5.7367019429
 20
41.3268541061
 30
0.0
 10
5.7384421698
 20
41.3399522223
 30
0.0
 10
5.740726734
 20
41.3493465188
 30
0.0
  0
SPLINE
  5
2C3
100
AcDbEntity
  8
0
100
AcDbSpline
 62
7
  6
BYLAYER
 70
0
 71
3
 72
9
 73
5
 74
0
 42
0.0000001
 43
0.0000001
 44
0.0000000001
 40
0.0
 40
0.0
 40
0.0
 40
0.0
 40
0.2586586606
 40
1.0
 40
1.0
 40
1.0
 40
1.0
 10
8.1405236009
 20
42.3700272528
 30
0.0
 10
8.1405236009
 20
42.3723202293
 30
0.0
 10
8.1403619256
 20
42.3811835894
 30
0.0
 10
8.1395340498
 20
42.3900407983
 30
0.0
 10
8.1384769623
 20
42.3965271229
 30
0.0
  0
SPLINE
  5
2C4
100
AcDbEntity
  8
0
100
AcDbSpline
 62
7
  6
BYLAYER
 70
0
 71
3
 72
12
 73
8
 74
0
 42
0.0000001
 43
0.0000001
 44
0.0000000001
 40
0.0
 40
0.0
 40
0.0
 40
0.0
 40
0.273235082
 40
0.5317284789
 40
0.6550352447
 40
0.7742300726
 40
1.0
 40
1.0
 40
1.0
 40
1.0
 10
17.4272829201
 20
42.010856199
 30
0.0
 10
17.7513120051
 20
42.2937709138
 30
0.0
 10
18.4062474278
 20
42.817309861
 30
0.0
 10
19.2727559999
 20
43.3801071862
 30
0.0
 10
19.9685515014
 20
43.7525051156
 30
0.0
 10
20.6382746475
 20
44.0611923585
 30
0.0
 10
21.1527285245
 20
44.2420543805
 30
0.0
 10
21.4960506504
 20
44.3340448821
 30
0.0
  0
SPLINE
  5
2C5
100
AcDbEntity
  8
0
100
AcDbSpline
 62
7
  6
BYLAYER
 70
0
 71
3
 72
20
 73
16
 74
0
 42
0.0000001
 43
0.0000001
 44
0.0000000001
 40
0.0
 40
0.0
 40
0.0
 40
0.0
 40
0.0548094515
 40
0.1117284501
 40
0.1705642502
 40
0.2311387975
 40
0.2932431057
 40
0.3566327135
 40
0.4861747549
 40
0.6175793957
 40
0.7485173172
 40
0.8131006099
 40
0.8767161803
 40
0.9391124559
 40
1.0
 40
1.0
 40
1.0
 40
1.0
 10
11.2518158123
 20
29.4680416839
 30
0.0
 10
11.2518158123
 20
29.7302937012
 30
0.0
 10
11.2711357073
 20
30.2650345961
 30
0.0
 10
11.3537347023
 20
31.0774660195
 30
0.0
 10
11.4901366498
 20
31.9105738357
 30
0.0
 10
11.6793234152
 20
32.7586796938
 30
0.0
 10
11.920033166
 20
33.6162702425
 30
0.0
 10
12.3103672523
 20
34.7729228609
 30
0.0
 10
12.9167283278
 20
36.2043845729
 30
0.0
 10
13.8094883028
 20
37.8562497387
 30
0.0
 10
14.6803554942
 20
39.1588281309
 30
0.0
 10
15.44274735
 20
40.1371776553
 30
0.0
 10
16.0385749438
 20
40.8281245395
 30
0.0
 10
16.6569079098
 20
41.4747119241
 30
0.0
 10
17.0870999452
 20
41.8788441864
 30
0.0
 10
17.3050772258
 20
42.072135845
 30
0.0
  0
SPLINE
  5
2C6
100
AcDbEntity
  8
0
100
AcDbSpline
 62
7
  6
BYLAYER
 70
0
 71
3
 72
15
 73
11
 74
0
 42
0.0000001
 43
0.0000001
 44
0.0000000001
 40
0.0
 40
0.0
 40
0.0
 40
0.0
 40
0.1389736418
 40
0.2729462483
 40
0.4021974831
 40
0.5272321284
 40
0.6487161857
 40
0.7674204762
 40
0.8842023874
 40
1.0
 40
1.0
 40
1.0
 40
1.0
 10
21.5326530384
 20
44.5129133089
 30
0.0
 10
21.7014492637
 20
44.5581409487
 30
0.0
 10
22.0364375109
 20
44.6346910948
 30
0.0
 10
22.5375523115
 20
44.707068293
 30
0.0
 10
23.0256822357
 20
44.7342793173
 30
0.0
 10
23.4985829835
 20
44.7161518178
 30
0.0
 10
23.9542332291
 20
44.6526580972
 30
0.0
 10
24.3906604828
 20
44.5440064585
 30
0.0
 10
24.805829896
 20
44.3906446721
 30
0.0
 10
25.0676570174
 20
44.2586985676
 30
0.0
 10
25.1937591955
 20
44.1858978606
 30
0.0
  0
SPLINE
  5
2C7
100
AcDbEntity
  8
0
100
AcDbSpline
 62
7
  6
BYLAYER
 70
0
 71
3
 72
9
 73
5
 74
0
 42
0.0000001
 43
0.0000001
 44
0.0000000001
 40
0.0
 40
0.0
 40
0.0
 40
0.0
 40
0.4800324096
 40
1.0
 40
1.0
 40
1.0
 40
1.0
 10
18.2362410827
 20
41.5345403037
 30
0.0
 10
18.3728130651
 20
41.4556922166
 30
0.0
 10
18.6478517626
 20
41.2748358989
 30
0.0
 10
18.9051023961
 20
41.069848775
 30
0.0
 10
19.034423952
 20
40.9582476728
 30
0.0
  0
SPLINE
  5
2C8
100
AcDbEntity
  8
0
100
AcDbSpline
 62
7
  6
BYLAYER
 70
0
 71
3
 72
11
 73
7
 74
0
 42
0.0000001
 43
0.0000001
 44
0.0000000001
 40
0.0
 40
0.0
 40
0.0
 40
0.0
 40
0.2641914628
 40
0.5166112244
 40
0.7605142508
 40
1.0
 40
1.0
 40
1.0
 40
1.0
 10
30.6477098477
 20
41.4828556916
 30
0.0
 10
30.9134350471
 20
41.5078651186
 30
0.0
 10
31.4370203596
 20
41.5236659582
 30
0.0
 10
32.2031424065
 20
41.4354407039
 30
0.0
 10
32.9221630162
 20
41.2347948075
 30
0.0
 10
33.366723836
 20
41.0261965499
 30
0.0
 10
33.5762516989
 20
40.9052283287
 30
0.0
  0
SPLINE
  5
2C9
100
AcDbEntity
  8
0
100
AcDbSpline
 62
7
  6
BYLAYER
 70
0
 71
3
 72
11
 73
7
 74
0
 42
0.0000001
 43
0.0000001
 44
0.0000000001
 40
0.0
 40
0.0
 40
0.0
 40
0.0
 40
0.2354881809
 40
0.4819927735
 40
0.7375361862
 40
1.0
 40
1.0
 40
1.0
 40
1.0
 10
26.419251411
 20
39.8580569552
 30
0.0
 10
26.7280831891
 20
40.0363600011
 30
0.0
 10
27.3778800805
 20
40.3712476773
 30
0.0
 10
28.4097272213
 20
40.8011720547
 30
0.0
 10
29.5067375135
 20
41.1734148745
 30
0.0
 10
30.2626448339
 20
41.3843791126
 30
0.0
 10
30.6477098477
 20
41.4828556916
 30
0.0
  0
SPLINE
  5
2CA
100
AcDbEntity
  8
0
100
AcDbSpline
 62
7
  6
BYLAYER
 70
0
 71
3
 72
12
 73
8
 74
0
 42
0.0000001
 43
0.0000001
 44
0.0000000001
 40
0.0
 40
0.0
 40
0.0
 40
0.0
 40
0.2624400224
 40
0.5179768507
 40
0.7644638194
 40
0.8837101986
 40
1.0
 40
1.0
 40
1.0
 40
1.0
 10
18.7118254733
 20
20.8091827599
 30
0.0
 10
18.6045814304
 20
21.1918790532
 30
0.0
 10
18.4093127597
 20
21.9519946292
 30
0.0
 10
18.1832110365
 20
23.088074846
 30
0.0
 10
18.062290738
 20
24.0221220342
 30
0.0
 10
18.0130967949
 20
24.7506232841
 30
0.0
 10
18.0047397667
 20
25.1073696208
 30
0.0
 10
18.0047383412
 20
25.283478809
 30
0.0
  0
SPLINE
  5
2CB
100
AcDbEntity
  8
0
100
AcDbSpline
 62
7
  6
BYLAYER
 70
0
 71
3
 72
10
 73
6
 74
0
 42
0.0000001
 43
0.0000001
 44
0.0000000001
 40
0.0
 40
0.0
 40
0.0
 40
0.0
 40
0.471628231
 40
0.7287297548
 40
1.0
 40
1.0
 40
1.0
 40
1.0
 10
23.060550283
 20
18.2985021196
 30
0.0
 10
22.814988674
 20
18.8343005618
 30
0.0
 10
22.5509478075
 20
19.717670959
 30
0.0
 10
22.3810805374
 20
20.9563892785
 30
0.0
 10
22.3534464458
 20
21.6174030197
 30
0.0
 10
22.3534464458
 20
21.9564072116
 30
0.0
  0
SPLINE
  5
2CC
100
AcDbEntity
  8
0
100
AcDbSpline
 62
7
  6
BYLAYER
 70
0
 71
3
 72
11
 73
7
 74
0
 42
0.0000001
 43
0.0000001
 44
0.0000000001
 40
0.0
 40
0.0
 40
0.0
 40
0.0
 40
0.2351383775
 40
0.4809331331
 40
0.7363277217
 40
1.0
 40
1.0
 40
1.0
 40
1.0
 10
22.3534464458
 20
21.9564072116
 30
0.0
 10
22.3534464458
 20
22.3126192933
 30
0.0
 10
22.3854060646
 20
23.0414535486
 30
0.0
 10
22.5207866431
 20
24.1496538967
 30
0.0
 10
22.7435378722
 20
25.287654016
 30
0.0
 10
22.9458764374
 20
26.0481770527
 30
0.0
 10
23.060550283
 20
26.4308006114
 30
0.0
  0
SPLINE
  5
2CD
100
AcDbEntity
  8
0
100
AcDbSpline
 62
7
  6
BYLAYER
 70
0
 71
3
 72
14
 73
10
 74
0
 42
0.0000001
 43
0.0000001
 44
0.0000000001
 40
0.0
 40
0.0
 40
0.0
 40
0.0
 40
0.1444829266
 40
0.2844371219
 40
0.419108523
 40
0.5479668113
 40
0.6706007838
 40
0.7868035712
 40
1.0
 40
1.0
 40
1.0
 40
1.0
 10
27.9537372344
 20
34.9060960696
 30
0.0
 10
28.2277569295
 20
35.1967147851
 30
0.0
 10
28.7852230468
 20
35.7522237668
 30
0.0
 10
29.6593454235
 20
36.5140749469
 30
0.0
 10
30.5514419661
 20
37.185480619
 30
0.0
 10
31.4526295641
 20
37.7598542162
 30
0.0
 10
32.3548844184
 20
38.2316993481
 30
0.0
 10
33.5126673904
 20
38.7039376876
 30
0.0
 10
34.4096329762
 20
38.9169466656
 30
0.0
 10
34.9964346573
 20
38.9721750513
 30
0.0
  0
SPLINE
  5
2CE
100
AcDbEntity
  8
0
100
AcDbSpline
 62
7
  6
BYLAYER
 70
0
 71
3
 72
16
 73
12
 74
0
 42
0.0000001
 43
0.0000001
 44
0.0000000001
 40
0.0
 40
0.0
 40
0.0
 40
0.0
 40
0.1485725588
 40
0.2894795697
 40
0.4226814221
 40
0.5485891219
 40
0.6679362521
 40
0.7818625017
 40
0.8919011767
 40
0.9460797379
 40
1.0
 40
1.0
 40
1.0
 40
1.0
 10
42.0109448962
 20
31.6726248725
 30
0.0
 10
42.0109448962
 20
32.0085876922
 30
0.0
 10
41.9838551469
 20
32.6636306922
 30
0.0
 10
41.8549210938
 20
33.6122096066
 30
0.0
 10
41.6395141832
 20
34.4926545788
 30
0.0
 10
41.339379116
 20
35.296429526
 30
0.0
 10
40.9567183766
 20
36.0158162106
 30
0.0
 10
40.4947460469
 20
36.6433519222
 30
0.0
 10
40.0441771771
 20
37.0866211156
 30
0.0
 10
39.6513830434
 20
37.3857728907
 30
0.0
 10
39.4447795228
 20
37.517085637
 30
0.0
 10
39.3391868729
 20
37.578050453
 30
0.0
  0
SPLINE
  5
2CF
100
AcDbEntity
  8
0
100
AcDbSpline
 62
7
  6
BYLAYER
 70
0
 71
3
 72
11
 73
7
 74
0
 42
0.0000001
 43
0.0000001
 44
0.0000000001
 40
0.0
 40
0.0
 40
0.0
 40
0.0
 40
0.2636722783
 40
0.5190668669
 40
0.7648616225
 40
1.0
 40
1.0
 40
1.0
 40
1.0
 10
41.303841059
 20
27.1982314727
 30
0.0
 10
41.4185149046
 20
27.5808550314
 30
0.0
 10
41.6208534698
 20
28.3413780681
 30
0.0
 10
41.8436046989
 20
29.4793781874
 30
0.0
 10
41.9789852774
 20
30.5875785356
 30
0.0
 10
42.0109448962
 20
31.3164127908
 30
0.0
 10
42.0109448962
 20
31.6726248725
 30
0.0
  0
SPLINE
  5
2D0
100
AcDbEntity
  8
0
100
AcDbSpline
 62
7
  6
BYLAYER
 70
0
 71
3
 72
16
 73
12
 74
0
 42
0.0000001
 43
0.0000001
 44
0.0000000001
 40
0.0
 40
0.0
 40
0.0
 40
0.0
 40
0.1485640174
 40
0.2894780953
 40
0.4226801654
 40
0.5485851005
 40
0.667933668
 40
0.7818598581
 40
0.8918989154
 40
0.9460788341
 40
1.0
 40
1.0
 40
1.0
 40
1.0
 10
32.8893053961
 20
34.195708347
 30
0.0
 10
33.1044541831
 20
34.3199238155
 30
0.0
 10
33.5339822202
 20
34.5447690759
 30
0.0
 10
34.1891477084
 20
34.8129453123
 30
0.0
 10
34.8326653715
 20
35.0005483196
 30
0.0
 10
35.4584046575
 20
35.1055073655
 30
0.0
 10
36.0606065921
 20
35.1264574288
 30
0.0
 10
36.6333231378
 20
35.0626432709
 30
0.0
 10
37.0837975989
 20
34.9379547595
 30
0.0
 10
37.4206382278
 20
34.7970431489
 30
0.0
 10
37.5811329701
 20
34.7132823087
 30
0.0
 10
37.6592191923
 20
34.6681952707
 30
0.0
  0
SPLINE
  5
2D1
100
AcDbEntity
  8
0
100
AcDbSpline
 62
7
  6
BYLAYER
 70
0
 71
3
 72
9
 73
5
 74
0
 42
0.0000001
 43
0.0000001
 44
0.0000000001
 40
0.0
 40
0.0
 40
0.0
 40
0.0
 40
0.2427405312
 40
1.0
 40
1.0
 40
1.0
 40
1.0
 10
21.5754912089
 20
50.8615025939
 30
0.0
 10
21.5754912089
 20
50.8638449094
 30
0.0
 10
21.5756710692
 20
50.873493994
 30
0.0
 10
21.5765448921
 20
50.8831263379
 30
0.0
 10
21.5775378475
 20
50.8903657046
 30
0.0
  0
SPLINE
  5
2D2
100
AcDbEntity
  8
0
100
AcDbSpline
 62
7
  6
BYLAYER
 70
0
 71
3
 72
23
 73
19
 74
0
 42
0.0000001
 43
0.0000001
 44
0.0000000001
 40
0.0
 40
0.0
 40
0.0
 40
0.0
 40
0.0486054684
 40
0.0977347548
 40
0.1478834086
 40
0.1994974956
 40
0.2529546854
 40
0.308558571
 40
0.3665341064
 40
0.4270317531
 40
0.490131951
 40
0.5558530059
 40
0.6241588201
 40
0.6949584705
 40
0.7681199163
 40
0.8434888303
 40
0.9208769601
 40
1.0
 40
1.0
 40
1.0
 40
1.0
 10
39.3391868729
 20
37.578050453
 30
0.0
 10
39.1802126488
 20
37.6698355757
 30
0.0
 10
38.8483004813
 20
37.8340343051
 30
0.0
 10
38.3190048877
 20
38.01661774
 30
0.0
 10
37.7602011678
 20
38.1352843487
 30
0.0
 10
37.1752296116
 20
38.1893954363
 30
0.0
 10
36.5673718404
 20
38.1789294416
 30
0.0
 10
35.939975546
 20
38.1040868028
 30
0.0
 10
35.296424011
 20
37.9654534603
 30
0.0
 10
34.6401574389
 20
37.7639003642
 30
0.0
 10
33.9746783172
 20
37.500585372
 30
0.0
 10
33.3035153099
 20
37.1770104054
 30
0.0
 10
32.6302888802
 20
36.7949080155
 30
0.0
 10
31.9585817385
 20
36.3564420894
 30
0.0
 10
31.2920206313
 20
35.8639286848
 30
0.0
 10
30.6341106129
 20
35.3200187031
 30
0.0
 10
29.9885880255
 20
34.7277000574
 30
0.0
 10
29.5729568646
 20
34.3070328338
 30
0.0
 10
29.3679566847
 20
34.0896145605
 30
0.0
  0
SPLINE
  5
2D3
100
AcDbEntity
  8
0
100
AcDbSpline
 62
7
  6
BYLAYER
 70
0
 71
3
 72
11
 73
7
 74
0
 42
0.0000001
 43
0.0000001
 44
0.0000000001
 40
0.0
 40
0.0
 40
0.0
 40
0.0
 40
0.2258229799
 40
0.4669716135
 40
0.7249420426
 40
1.0
 40
1.0
 40
1.0
 40
1.0
 10
18.0709656859
 20
22.2895588283
 30
0.0
 10
17.922726099
 20
22.5423292567
 30
0.0
 10
17.6616923763
 20
23.092597699
 30
0.0
 10
17.3888564724
 20
23.9958350072
 30
0.0
 10
17.2254340185
 20
24.9895319723
 30
0.0
 10
17.1915375035
 20
25.6818989133
 30
0.0
 10
17.1915375035
 20
26.038819346
 30
0.0
  0
SPLINE
  5
2D4
100
AcDbEntity
  8
0
100
AcDbSpline
 62
7
  6
BYLAYER
 70
0
 71
3
 72
13
 73
9
 74
0
 42
0.0000001
 43
0.0000001
 44
0.0000000001
 40
0.0
 40
0.0
 40
0.0
 40
0.0
 40
0.1371901878
 40
0.2705930348
 40
0.4002844323
 40
0.5263890982
 40
0.7687512928
 40
1.0
 40
1.0
 40
1.0
 40
1.0
 10
18.0047383412
 20
25.283478809
 30
0.0
 10
18.0047369533
 20
25.454949417
 30
0.0
 10
18.0124399915
 20
25.7932212823
 30
0.0
 10
18.0483470884
 20
26.2924316541
 30
0.0
 10
18.1074998905
 20
26.7754927208
 30
0.0
 10
18.2146734438
 20
27.3890662613
 30
0.0
 10
18.3994595822
 20
28.1168840143
 30
0.0
 10
18.6012010498
 20
28.6744573903
 30
0.0
 10
18.7118254733
 20
28.9414812517
 30
0.0
  0
SPLINE
  5
2D5
100
AcDbEntity
  8
0
100
AcDbSpline
 62
7
  6
BYLAYER
 70
0
 71
3
 72
9
 73
5
 74
0
 42
0.0000001
 43
0.0000001
 44
0.0000000001
 40
0.0
 40
0.0
 40
0.0
 40
0.0
 40
0.2544803628
 40
1.0
 40
1.0
 40
1.0
 40
1.0
 10
8.4996658371
 20
41.0018371191
 30
0.0
 10
8.699211359
 20
41.1668813759
 30
0.0
 10
9.4900293678
 20
41.8072844131
 30
0.0
 10
10.3078711193
 20
42.4144853764
 30
0.0
 10
10.9324126633
 20
42.845145084
 30
0.0
  0
SPLINE
  5
2D6
100
AcDbEntity
  8
0
100
AcDbSpline
 62
7
  6
BYLAYER
 70
0
 71
3
 72
9
 73
5
 74
0
 42
0.0000001
 43
0.0000001
 44
0.0000000001
 40
0.0
 40
0.0
 40
0.0
 40
0.0
 40
0.5133525
 40
1.0
 40
1.0
 40
1.0
 40
1.0
 10
17.0854030391
 20
44.9610590689
 30
0.0
 10
17.3465457294
 20
45.1118289715
 30
0.0
 10
17.8677044193
 20
45.3846323539
 30
0.0
 10
18.4124644354
 20
45.607334386
 30
0.0
 10
18.6825149061
 20
45.7010663439
 30
0.0
  0
SPLINE
  5
2D7
100
AcDbEntity
  8
0
100
AcDbSpline
 62
7
  6
BYLAYER
 70
0
 71
3
 72
11
 73
7
 74
0
 42
0.0000001
 43
0.0000001
 44
0.0000000001
 40
0.0
 40
0.0
 40
0.0
 40
0.0
 40
0.2373306847
 40
0.4831104658
 40
0.7373682064
 40
1.0
 40
1.0
 40
1.0
 40
1.0
 10
25.7818311042
 20
50.1440866247
 30
0.0
 10
25.3530078409
 20
50.0207073479
 30
0.0
 10
24.4887581215
 20
49.7385623873
 30
0.0
 10
23.2006702257
 20
49.223558959
 30
0.0
 10
21.9031133423
 20
48.6113299972
 30
0.0
 10
21.0485572093
 20
48.1473261965
 30
0.0
 10
20.6209222252
 20
47.9004324971
 30
0.0
  0
SPLINE
  5
2D8
100
AcDbEntity
  8
0
100
AcDbSpline
 62
7
  6
BYLAYER
 70
0
 71
3
 72
10
 73
6
 74
0
 42
0.0000001
 43
0.0000001
 44
0.0000000001
 40
0.0
 40
0.0
 40
0.0
 40
0.0
 40
0.5106310586
 40
0.7595095112
 40
1.0
 40
1.0
 40
1.0
 40
1.0
 10
11.0977948965
 20
42.9584317451
 30
0.0
 10
11.0612025741
 20
42.9565526576
 30
0.0
 10
11.0067188059
 20
42.9480226451
 30
0.0
 10
10.9390107199
 20
42.9238186576
 30
0.0
 10
10.9079292095
 20
42.9069787045
 30
0.0
 10
10.893702215
 20
42.8972124795
 30
0.0
  0
SPLINE
  5
2D9
100
AcDbEntity
  8
0
100
AcDbSpline
 62
7
  6
BYLAYER
 70
0
 71
3
 72
17
 73
13
 74
0
 42
0.0000001
 43
0.0000001
 44
0.0000000001
 40
0.0
 40
0.0
 40
0.0
 40
0.0
 40
0.0539155025
 40
0.1080897043
 40
0.1627742498
 40
0.2182093318
 40
0.3321260547
 40
0.4514642493
 40
0.5773573564
 40
0.7105470766
 40
0.851448972
 40
1.0
 40
1.0
 40
1.0
 40
1.0
 10
27.8556308871
 20
41.6676199089
 30
0.0
 10
27.7680509474
 20
41.7181883346
 30
0.0
 10
27.5880557665
 20
41.8121334579
 30
0.0
 10
27.306065661
 20
41.9300740008
 30
0.0
 10
27.0124885028
 20
42.0249790019
 30
0.0
 10
26.603045473
 20
42.1213205548
 30
0.0
 10
26.0625728201
 20
42.1816326062
 30
0.0
 10
25.3872372503
 20
42.1580963275
 30
0.0
 10
24.6853853125
 20
42.0403856859
 30
0.0
 10
23.9636272003
 20
41.8299688891
 30
0.0
 10
23.228793732
 20
41.5291837815
 30
0.0
 10
22.7470359538
 20
41.2769980097
 30
0.0
 10
22.5057254931
 20
41.1376781819
 30
0.0
  0
SPLINE
  5
2DA
100
AcDbEntity
  8
0
100
AcDbSpline
 62
7
  6
BYLAYER
 70
0
 71
3
 72
10
 73
6
 74
0
 42
0.0000001
 43
0.0000001
 44
0.0000000001
 40
0.0
 40
0.0
 40
0.0
 40
0.0
 40
0.5195188731
 40
0.7668897229
 40
1.0
 40
1.0
 40
1.0
 40
1.0
 10
5.9848019085
 20
41.4903949623
 30
0.0
 10
5.9469655903
 20
41.4852866746
 30
0.0
 10
5.8914674407
 20
41.4721321026
 30
0.0
 10
5.8244078839
 20
41.4416818292
 30
0.0
 10
5.7948341125
 20
41.4218277629
 30
0.0
 10
5.7819378648
 20
41.4105508073
 30
0.0
  0
SPLINE
  5
2DB
100
AcDbEntity
  8
0
100
AcDbSpline
 62
7
  6
BYLAYER
 70
0
 71
3
 72
15
 73
11
 74
0
 42
0.0000001
 43
0.0000001
 44
0.0000000001
 40
0.0
 40
0.0
 40
0.0
 40
0.0
 40
0.3763820525
 40
0.5376197075
 40
0.6787845254
 40
0.7977562683
 40
0.8922250059
 40
0.9600848099
 40
0.9834498215
 40
1.0
 40
1.0
 40
1.0
 40
1.0
 10
7.4796858597
 20
42.7208799028
 30
0.0
 10
7.4795830587
 20
42.7326697095
 30
0.0
 10
7.479613149
 20
42.7495138319
 30
0.0
 10
7.4802378892
 20
42.7707698765
 30
0.0
 10
7.4809332292
 20
42.7839507754
 30
0.0
 10
7.48187091
 20
42.7950276407
 30
0.0
 10
7.4830714277
 20
42.8037488582
 30
0.0
 10
7.484332398
 20
42.8094676836
 30
0.0
 10
7.4856303974
 20
42.8125815649
 30
0.0
 10
7.4863754156
 20
42.81363182
 30
0.0
 10
7.4867857423
 20
42.8139486956
 30
0.0
  0
SPLINE
  5
2DC
100
AcDbEntity
  8
0
100
AcDbSpline
 62
7
  6
BYLAYER
 70
0
 71
3
 72
33
 73
29
 74
0
 42
0.0000001
 43
0.0000001
 44
0.0000000001
 40
0.0
 40
0.0
 40
0.0
 40
0.0
 40
0.0213242162
 40
0.0428754963
 40
0.0648693271
 40
0.0874990726
 40
0.11092972
 40
0.1352932237
 40
0.1606887155
 40
0.1871821714
 40
0.2148103676
 40
0.2435817902
 40
0.2734818234
 40
0.3044732842
 40
0.3365016922
 40
0.3694951062
 40
0.4380054138
 40
0.5092158019
 40
0.5821825488
 40
0.6558822931
 40
0.7292595362
 40
0.8012729881
 40
0.8364680247
 40
0.8709612568
 40
0.9046471066
 40
0.9374383504
 40
0.9692529697
 40
1.0
 40
1.0
 40
1.0
 40
1.0
 10
17.0375508947
 20
23.2028663676
 30
0.0
 10
16.9064460657
 20
23.2785657846
 30
0.0
 10
16.6522694234
 20
23.4477993962
 30
0.0
 10
16.3033262394
 20
23.7500883088
 30
0.0
 10
15.9876722437
 20
24.0995820974
 30
0.0
 10
15.7070698705
 20
24.4941451648
 30
0.0
 10
15.4629338082
 20
24.9315113459
 30
0.0
 10
15.2564439853
 20
25.4092139787
 30
0.0
 10
15.0886150384
 20
25.9246472671
 30
0.0
 10
14.9602103145
 20
26.4750260887
 30
0.0
 10
14.8718758691
 20
27.0574160495
 30
0.0
 10
14.8239822072
 20
27.6687141113
 30
0.0
 10
14.8167930723
 20
28.3056693322
 30
0.0
 10
14.8502702249
 20
28.9648900651
 30
0.0
 10
14.9242673183
 20
29.6428716716
 30
0.0
 10
15.0782917699
 20
30.5786706485
 30
0.0
 10
15.3715399983
 20
31.7715088712
 30
0.0
 10
15.8678850014
 20
33.1996457994
 30
0.0
 10
16.5026342826
 20
34.6123244452
 30
0.0
 10
17.262294128
 20
35.9795017845
 30
0.0
 10
18.1307055973
 20
37.2721131645
 30
0.0
 10
18.935918007
 20
38.2721450566
 30
0.0
 10
19.6195009903
 20
39.0106408605
 30
0.0
 10
20.1431712095
 20
39.5252390124
 30
0.0
 10
20.6789397676
 20
40.0019300277
 30
0.0
 10
21.2239618868
 20
40.4382478785
 30
0.0
 10
21.7752633935
 20
40.8316849214
 30
0.0
 10
22.1515695892
 20
41.0682350618
 30
0.0
 10
22.3400179175
 20
41.1783994881
 30
0.0
  0
SPLINE
  5
2DD
100
AcDbEntity
  8
0
100
AcDbSpline
 62
7
  6
BYLAYER
 70
0
 71
3
 72
11
 73
7
 74
0
 42
0.0000001
 43
0.0000001
 44
0.0000000001
 40
0.0
 40
0.0
 40
0.0
 40
0.0
 40
0.2895373801
 40
0.5491091728
 40
0.7822513189
 40
1.0
 40
1.0
 40
1.0
 40
1.0
 10
18.9945863435
 20
45.2327742733
 30
0.0
 10
19.0077422093
 20
45.2403697707
 30
0.0
 10
19.0316162314
 20
45.2568305727
 30
0.0
 10
19.0601740866
 20
45.2868112347
 30
0.0
 10
19.0782438997
 20
45.3200028024
 30
0.0
 10
19.0824394891
 20
45.3438219512
 30
0.0
 10
19.0824394886
 20
45.3552464997
 30
0.0
  0
SPLINE
  5
2DE
100
AcDbEntity
  8
0
100
AcDbSpline
 62
7
  6
BYLAYER
 70
0
 71
3
 72
11
 73
7
 74
0
 42
0.0000001
 43
0.0000001
 44
0.0000000001
 40
0.0
 40
0.0
 40
0.0
 40
0.0
 40
0.2315790832
 40
0.4881856628
 40
0.7513266516
 40
1.0
 40
1.0
 40
1.0
 40
1.0
 10
18.8239368511
 20
45.619418193
 30
0.0
 10
18.8536240646
 20
45.6022786601
 30
0.0
 10
18.9086975743
 20
45.5528625964
 30
0.0
 10
18.9667399972
 20
45.4565456461
 30
0.0
 10
18.9990742022
 20
45.3462411936
 30
0.0
 10
19.000296722
 20
45.269138685
 30
0.0
 10
18.9945863435
 20
45.2327742733
 30
0.0
  0
SPLINE
  5
2DF
100
AcDbEntity
  8
0
100
AcDbSpline
 62
7
  6
BYLAYER
 70
0
 71
3
 72
12
 73
8
 74
0
 42
0.0000001
 43
0.0000001
 44
0.0000000001
 40
0.0
 40
0.0
 40
0.0
 40
0.0
 40
0.2809106216
 40
0.5278717078
 40
0.6431709288
 40
0.7574524702
 40
1.0
 40
1.0
 40
1.0
 40
1.0
 10
18.9945863435
 20
44.0289955404
 30
0.0
 10
19.0073322702
 20
44.0329668591
 30
0.0
 10
19.0307597274
 20
44.0424487536
 30
0.0
 10
19.0557531077
 20
44.0609500923
 30
0.0
 10
19.069731035
 20
44.0789422789
 30
0.0
 10
19.0798447611
 20
44.0991230751
 30
0.0
 10
19.0824281855
 20
44.1164074665
 30
0.0
 10
19.0824114198
 20
44.1279345294
 30
0.0
  0
SPLINE
  5
2E0
100
AcDbEntity
  8
0
100
AcDbSpline
 62
7
  6
BYLAYER
 70
0
 71
3
 72
11
 73
7
 74
0
 42
0.0000001
 43
0.0000001
 44
0.0000000001
 40
0.0
 40
0.0
 40
0.0
 40
0.0
 40
0.2555326738
 40
0.5103783967
 40
0.7602821128
 40
1.0
 40
1.0
 40
1.0
 40
1.0
 10
7.8332407223
 20
42.5167595255
 30
0.0
 10
7.8541543873
 20
42.5187943177
 30
0.0
 10
7.8962025148
 20
42.5204116521
 30
0.0
 10
7.9586826871
 20
42.5152909752
 30
0.0
 10
8.0186206351
 20
42.5019297081
 30
0.0
 10
8.056161645
 20
42.4863756957
 30
0.0
 10
8.0732325335
 20
42.4765193991
 30
0.0
  0
SPLINE
  5
2E1
100
AcDbEntity
  8
0
100
AcDbSpline
 62
7
  6
BYLAYER
 70
0
 71
3
 72
14
 73
10
 74
0
 42
0.0000001
 43
0.0000001
 44
0.0000000001
 40
0.0
 40
0.0
 40
0.0
 40
0.0
 40
0.1418952928
 40
0.2788874817
 40
0.5375576076
 40
0.6596228455
 40
0.7771150929
 40
0.8904073151
 40
1.0
 40
1.0
 40
1.0
 40
1.0
 10
17.5096688742
 20
43.2872353862
 30
0.0
 10
17.6628044652
 20
43.3756477332
 30
0.0
 10
17.9689074467
 20
43.5408252915
 30
0.0
 10
18.5773395678
 20
43.8216768277
 30
0.0
 10
19.1895495903
 20
44.0338608266
 30
0.0
 10
19.7968641143
 20
44.1657493897
 30
0.0
 10
20.2335167163
 20
44.2223580292
 30
0.0
 10
20.6579831075
 20
44.238241071
 30
0.0
 10
20.9357862923
 20
44.2212548872
 30
0.0
 10
21.071469978
 20
44.2057123318
 30
0.0
  0
SPLINE
  5
2E2
100
AcDbEntity
  8
0
100
AcDbSpline
 62
7
  6
BYLAYER
 70
0
 71
3
 72
11
 73
7
 74
0
 42
0.0000001
 43
0.0000001
 44
0.0000000001
 40
0.0
 40
0.0
 40
0.0
 40
0.0
 40
0.2558722872
 40
0.5113495815
 40
0.7615682969
 40
1.0
 40
1.0
 40
1.0
 40
1.0
 10
6.9078382064
 20
41.7703931162
 30
0.0
 10
6.9295252396
 20
41.7730111371
 30
0.0
 10
6.9732174427
 20
41.7756684226
 30
0.0
 10
7.0382990868
 20
41.7717020914
 30
0.0
 10
7.1007474898
 20
41.7589782564
 30
0.0
 10
7.1398719338
 20
41.743277638
 30
0.0
 10
7.1575037844
 20
41.733105831
 30
0.0
  0
SPLINE
  5
2E3
100
AcDbEntity
  8
0
100
AcDbSpline
 62
7
  6
BYLAYER
 70
0
 71
3
 72
9
 73
5
 74
0
 42
0.0000001
 43
0.0000001
 44
0.0000000001
 40
0.0
 40
0.0
 40
0.0
 40
0.0
 40
0.5109819676
 40
1.0
 40
1.0
 40
1.0
 40
1.0
 10
15.4882911721
 20
43.8568914195
 30
0.0
 10
15.7457724244
 20
44.0648340841
 30
0.0
 10
16.2640869199
 20
44.4543282091
 30
0.0
 10
16.811100076
 20
44.8026911246
 30
0.0
 10
17.0854030391
 20
44.9610590689
 30
0.0
  0
SPLINE
  5
2E4
100
AcDbEntity
  8
0
100
AcDbSpline
 62
7
  6
BYLAYER
 70
0
 71
3
 72
11
 73
7
 74
0
 42
0.0000001
 43
0.0000001
 44
0.0000000001
 40
0.0
 40
0.0
 40
0.0
 40
0.0
 40
0.2533142618
 40
0.4928342014
 40
0.7368742569
 40
1.0
 40
1.0
 40
1.0
 40
1.0
 10
17.616647843
 20
46.207771936
 30
0.0
 10
17.6101495004
 20
46.2105873195
 30
0.0
 10
17.5964336866
 20
46.2140549223
 30
0.0
 10
17.5754970849
 20
46.2108487829
 30
0.0
 10
17.5574334678
 20
46.1993933869
 30
0.0
 10
17.5486118978
 20
46.1879525591
 30
0.0
 10
17.5449460213
 20
46.1815747324
 30
0.0
  0
SPLINE
  5
2E5
100
AcDbEntity
  8
0
100
AcDbSpline
 62
7
  6
BYLAYER
 70
0
 71
3
 72
11
 73
7
 74
0
 42
0.0000001
 43
0.0000001
 44
0.0000000001
 40
0.0
 40
0.0
 40
0.0
 40
0.0
 40
0.2657467436
 40
0.5254281848
 40
0.7720052103
 40
1.0
 40
1.0
 40
1.0
 40
1.0
 10
15.4590653911
 20
42.2941276929
 30
0.0
 10
15.4367430497
 20
42.3308333313
 30
0.0
 10
15.397013327
 20
42.4061841259
 30
0.0
 10
15.35240103
 20
42.523077175
 30
0.0
 10
15.3246581989
 20
42.6388312468
 30
0.0
 10
15.3176434461
 20
42.7156196984
 30
0.0
 10
15.3176434461
 20
42.7524770971
 30
0.0
  0
SPLINE
  5
2E6
100
AcDbEntity
  8
0
100
AcDbSpline
 62
7
  6
BYLAYER
 70
0
 71
3
 72
12
 73
8
 74
0
 42
0.0000001
 43
0.0000001
 44
0.0000000001
 40
0.0
 40
0.0
 40
0.0
 40
0.0
 40
0.1121245963
 40
0.2325970643
 40
0.4892616027
 40
0.7517734288
 40
1.0
 40
1.0
 40
1.0
 40
1.0
 10
15.3176434461
 20
43.5181471274
 30
0.0
 10
15.3176434461
 20
43.532719421
 30
0.0
 10
15.3199912106
 20
43.5629731706
 30
0.0
 10
15.33276745
 20
43.6253844949
 30
0.0
 10
15.363220327
 20
43.7034744285
 30
0.0
 10
15.4168300745
 20
43.7881959405
 30
0.0
 10
15.4631930642
 20
43.8366221091
 30
0.0
 10
15.4882911721
 20
43.8568914195
 30
0.0
  0
SPLINE
  5
2E7
100
AcDbEntity
  8
0
100
AcDbSpline
 62
7
  6
BYLAYER
 70
0
 71
3
 72
12
 73
8
 74
0
 42
0.0000001
 43
0.0000001
 44
0.0000000001
 40
0.0
 40
0.0
 40
0.0
 40
0.0
 40
0.2482120375
 40
0.5107389112
 40
0.7674174569
 40
0.8878812187
 40
1.0
 40
1.0
 40
1.0
 40
1.0
 10
15.6297131171
 20
43.7752432686
 30
0.0
 10
15.6046164055
 20
43.7549750858
 30
0.0
 10
15.5582516515
 20
43.7065504949
 30
0.0
 10
15.5046396072
 20
43.6218274181
 30
0.0
 10
15.4741870543
 20
43.5437342407
 30
0.0
 10
15.4614113668
 20
43.4813226017
 30
0.0
 10
15.4590653911
 20
43.4510705569
 30
0.0
 10
15.4590653911
 20
43.4364989765
 30
0.0
  0
SPLINE
  5
2E8
100
AcDbEntity
  8
0
100
AcDbSpline
 62
7
  6
BYLAYER
 70
0
 71
3
 72
13
 73
9
 74
0
 42
0.0000001
 43
0.0000001
 44
0.0000000001
 40
0.0
 40
0.0
 40
0.0
 40
0.0
 40
0.1065057574
 40
0.2255110532
 40
0.4874870458
 40
0.7561853397
 40
0.8831704121
 40
1.0
 40
1.0
 40
1.0
 40
1.0
 10
15.8833294598
 20
43.4364999963
 30
0.0
 10
15.8804317963
 20
43.45160677
 30
0.0
 10
15.8715206663
 20
43.4830765753
 30
0.0
 10
15.844007329
 20
43.5480189171
 30
0.0
 10
15.7938513174
 20
43.6280316223
 30
0.0
 10
15.7303062263
 20
43.699322292
 30
0.0
 10
15.6736128182
 20
43.7470717971
 30
0.0
 10
15.644325814
 20
43.766806815
 30
0.0
 10
15.6297131171
 20
43.7752432686
 30
0.0
  0
SPLINE
  5
2E9
100
AcDbEntity
  8
0
100
AcDbSpline
 62
7
  6
BYLAYER
 70
0
 71
3
 72
13
 73
9
 74
0
 42
0.0000001
 43
0.0000001
 44
0.0000000001
 40
0.0
 40
0.0
 40
0.0
 40
0.0
 40
0.1141735313
 40
0.237564654
 40
0.5000005225
 40
0.7624361052
 40
0.8858268933
 40
1.0
 40
1.0
 40
1.0
 40
1.0
 10
15.4590653911
 20
43.4364989765
 30
0.0
 10
15.4735768688
 20
43.4281209605
 30
0.0
 10
15.5053436581
 20
43.4133458301
 30
0.0
 10
15.5757157394
 20
43.391935557
 30
0.0
 10
15.6711977577
 20
43.3815889734
 30
0.0
 10
15.7666796844
 20
43.3919359984
 30
0.0
 10
15.8370515017
 20
43.4133466178
 30
0.0
 10
15.8688180964
 20
43.4281219068
 30
0.0
 10
15.8833294598
 20
43.4364999963
 30
0.0
  0
SPLINE
  5
2EA
100
AcDbEntity
  8
0
100
AcDbSpline
 62
7
  6
BYLAYER
 70
0
 71
3
 72
11
 73
7
 74
0
 42
0.0000001
 43
0.0000001
 44
0.0000000001
 40
0.0
 40
0.0
 40
0.0
 40
0.0
 40
0.2314282133
 40
0.4755860149
 40
0.7320549008
 40
1.0
 40
1.0
 40
1.0
 40
1.0
 10
18.8239368511
 20
45.619418193
 30
0.0
 10
18.5539040263
 20
45.5256923598
 30
0.0
 10
18.0091246127
 20
45.3029477231
 30
0.0
 10
17.2070499351
 20
44.883171193
 30
0.0
 10
16.4055408613
 20
44.3726659746
 30
0.0
 10
15.8871745839
 20
43.9831699543
 30
0.0
 10
15.6297131171
 20
43.7752432686
 30
0.0
  0
SPLINE
  5
2EB
100
AcDbEntity
  8
0
100
AcDbSpline
 62
7
  6
BYLAYER
 70
0
 71
3
 72
11
 73
7
 74
0
 42
0.0000001
 43
0.0000001
 44
0.0000000001
 40
0.0
 40
0.0
 40
0.0
 40
0.0
 40
0.2314283693
 40
0.4755863027
 40
0.732055065
 40
1.0
 40
1.0
 40
1.0
 40
1.0
 10
18.9945863435
 20
45.2327742733
 30
0.0
 10
18.7315672056
 20
45.1414828244
 30
0.0
 10
18.2009380972
 20
44.9245224211
 30
0.0
 10
17.4196969336
 20
44.5156483088
 30
0.0
 10
16.6390059642
 20
44.0184040486
 30
0.0
 10
16.1341034387
 20
43.6390258459
 30
0.0
 10
15.8833294598
 20
43.4364999963
 30
0.0
  0
SPLINE
  5
2EC
100
AcDbEntity
  8
0
100
AcDbSpline
 62
7
  6
BYLAYER
 70
0
 71
3
 72
9
 73
5
 74
0
 42
0.0000001
 43
0.0000001
 44
0.0000000001
 40
0.0
 40
0.0
 40
0.0
 40
0.0
 40
0.5154885695
 40
1.0
 40
1.0
 40
1.0
 40
1.0
 10
17.4389579017
 20
43.3349115677
 30
0.0
 10
17.6928327293
 20
43.4814853928
 30
0.0
 10
18.199181206
 20
43.74273089
 30
0.0
 10
18.7315266326
 20
43.9470325752
 30
0.0
 10
18.9945863435
 20
44.0289955404
 30
0.0
  0
SPLINE
  5
2ED
100
AcDbEntity
  8
0
100
AcDbSpline
 62
7
  6
BYLAYER
 70
0
 71
3
 72
9
 73
5
 74
0
 42
0.0000001
 43
0.0000001
 44
0.0000000001
 40
0.0
 40
0.0
 40
0.0
 40
0.0
 40
0.5123786369
 40
1.0
 40
1.0
 40
1.0
 40
1.0
 10
15.8833294598
 20
42.2327212633
 30
0.0
 10
16.1325170455
 20
42.4428158346
 30
0.0
 10
16.6351568707
 20
42.8340074977
 30
0.0
 10
17.1703275204
 20
43.1798186705
 30
0.0
 10
17.4389579017
 20
43.3349115677
 30
0.0
  0
SPLINE
  5
2EE
100
AcDbEntity
  8
0
100
AcDbSpline
 62
7
  6
BYLAYER
 70
0
 71
3
 72
16
 73
12
 74
0
 42
0.0000001
 43
0.0000001
 44
0.0000000001
 40
0.0
 40
0.0
 40
0.0
 40
0.0
 40
0.126877283
 40
0.2537648887
 40
0.317380409
 40
0.3809652403
 40
0.5080177148
 40
0.6349306172
 40
0.7602853007
 40
0.8826768764
 40
1.0
 40
1.0
 40
1.0
 40
1.0
 10
15.4590653911
 20
42.2941276929
 30
0.0
 10
15.469871653
 20
42.2763584663
 30
0.0
 10
15.4944287727
 20
42.2424651618
 30
0.0
 10
15.5334208753
 20
42.2072670368
 30
0.0
 10
15.5690627673
 20
42.1855269499
 30
0.0
 10
15.6071567626
 20
42.1683624327
 30
0.0
 10
15.6585810371
 20
42.1568772393
 30
0.0
 10
15.7212700274
 20
42.1582845734
 30
0.0
 10
15.7813457569
 20
42.1729404671
 30
0.0
 10
15.8360964543
 20
42.1978318909
 30
0.0
 10
15.8686267473
 20
42.2203251399
 30
0.0
 10
15.8833294598
 20
42.2327212633
 30
0.0
  0
SPLINE
  5
2EF
100
AcDbEntity
  8
0
100
AcDbSpline
 62
7
  6
BYLAYER
 70
0
 71
3
 72
19
 73
15
 74
0
 42
0.0000001
 43
0.0000001
 44
0.0000000001
 40
0.0
 40
0.0
 40
0.0
 40
0.0
 40
0.0543538031
 40
0.1087212519
 40
0.1633970259
 40
0.2186662485
 40
0.2747995916
 40
0.332046965
 40
0.450661322
 40
0.5124727604
 40
0.5761082678
 40
0.7091796814
 40
0.8504804022
 40
1.0
 40
1.0
 40
1.0
 40
1.0
 10
27.7701028548
 20
41.7856791289
 30
0.0
 10
27.6813402978
 20
41.8476645414
 30
0.0
 10
27.4981129848
 20
41.9637435766
 30
0.0
 10
27.2081701424
 20
42.1125140953
 30
0.0
 10
26.9043003646
 20
42.2352613169
 30
0.0
 10
26.5874376741
 20
42.3317069328
 30
0.0
 10
26.2584276598
 20
42.4015485414
 30
0.0
 10
25.7995701287
 20
42.4596610896
 30
0.0
 10
25.3239970563
 20
42.4620549028
 30
0.0
 10
24.8401130185
 20
42.4127774141
 30
0.0
 10
24.3321720174
 20
42.32604651
 30
0.0
 10
23.6809121988
 20
42.148347781
 30
0.0
 10
22.8952780323
 20
41.8350822293
 30
0.0
 10
22.3804860319
 20
41.5672518196
 30
0.0
 10
22.1225681352
 20
41.4183437414
 30
0.0
  0
SPLINE
  5
2F0
100
AcDbEntity
  8
0
100
AcDbSpline
 62
7
  6
BYLAYER
 70
0
 71
3
 72
26
 73
22
 74
0
 42
0.0000001
 43
0.0000001
 44
0.0000000001
 40
0.0
 40
0.0
 40
0.0
 40
0.0
 40
0.0213364557
 40
0.0429217486
 40
0.0649228032
 40
0.0874910119
 40
0.1107567202
 40
0.1348289379
 40
0.1856671765
 40
0.2404623841
 40
0.299300106
 40
0.3620018949
 40
0.4281806202
 40
0.4972881754
 40
0.5686560242
 40
0.6415305951
 40
0.7151034361
 40
0.7885447869
 40
0.8610245643
 40
0.9317573028
 40
1.0
 40
1.0
 40
1.0
 40
1.0
 10
11.753307291
 20
26.6040441544
 30
0.0
 10
11.6428894035
 20
26.674529971
 30
0.0
 10
11.4286394477
 20
26.8290893311
 30
0.0
 10
11.1327605609
 20
27.0973170722
 30
0.0
 10
10.8625000445
 20
27.4015444456
 30
0.0
 10
10.6190817317
 20
27.740338692
 30
0.0
 10
10.4034093454
 20
28.1121650529
 30
0.0
 10
10.149546932
 20
28.6596455805
 30
0.0
 10
9.9095910733
 20
29.4228711022
 30
0.0
 10
9.7495372005
 20
30.4228433073
 30
0.0
 10
9.7135222338
 20
31.5073813901
 30
0.0
 10
9.8017356492
 20
32.6585508911
 30
0.0
 10
10.0124352931
 20
33.857487575
 30
0.0
 10
10.3420216154
 20
35.0842893633
 30
0.0
 10
10.784942086
 20
36.3184958078
 30
0.0
 10
11.3337647741
 20
37.539422261
 30
0.0
 10
11.9792613471
 20
38.7265852765
 30
0.0
 10
12.7105950623
 20
39.8599964966
 30
0.0
 10
13.5154876381
 20
40.920705035
 30
0.0
 10
14.3803583275
 20
41.8907189197
 30
0.0
 10
15.0004953262
 20
42.478680836
 30
0.0
 10
15.3176434461
 20
42.7524770971
 30
0.0
  0
SPLINE
  5
2F1
100
AcDbEntity
  8
0
100
AcDbSpline
 62
7
  6
BYLAYER
 70
0
 71
3
 72
16
 73
12
 74
0
 42
0.0000001
 43
0.0000001
 44
0.0000000001
 40
0.0
 40
0.0
 40
0.0
 40
0.0
 40
0.1485712555
 40
0.2894797532
 40
0.4226816649
 40
0.5485890071
 40
0.667936641
 40
0.7818630892
 40
0.8919014008
 40
0.9460798791
 40
1.0
 40
1.0
 40
1.0
 40
1.0
 10
12.1829796691
 20
28.9304461425
 30
0.0
 10
12.1829796691
 20
28.62964473
 30
0.0
 10
12.2072361448
 20
28.0431522256
 30
0.0
 10
12.3226742954
 20
27.1938420811
 30
0.0
 10
12.5155371898
 20
26.405533283
 30
0.0
 10
12.7842669829
 20
25.6858749932
 30
0.0
 10
13.1268799788
 20
25.0417715704
 30
0.0
 10
13.5405021717
 20
24.4799026008
 30
0.0
 10
13.9439260344
 20
24.0830310289
 30
0.0
 10
14.2956059647
 20
23.8151772667
 30
0.0
 10
14.4805902421
 20
23.6976100056
 30
0.0
 10
14.575132929
 20
23.6430264505
 30
0.0
  0
SPLINE
  5
2F2
100
AcDbEntity
  8
0
100
AcDbSpline
 62
7
  6
BYLAYER
 70
0
 71
3
 72
20
 73
16
 74
0
 42
0.0000001
 43
0.0000001
 44
0.0000000001
 40
0.0
 40
0.0
 40
0.0
 40
0.0
 40
0.0608874735
 40
0.1232835889
 40
0.1868990799
 40
0.2514823909
 40
0.3824204259
 40
0.5138252721
 40
0.6433675056
 40
0.7067571724
 40
0.7688615057
 40
0.8294360554
 40
0.8882717693
 40
0.9451906161
 40
1.0
 40
1.0
 40
1.0
 40
1.0
 10
18.2362410827
 20
41.5345403036
 30
0.0
 10
18.0182640313
 20
41.3412488483
 30
0.0
 10
17.5880724873
 20
40.9371175902
 30
0.0
 10
16.969740216
 20
40.2905314657
 30
0.0
 10
16.3739125425
 20
39.5995859284
 30
0.0
 10
15.6115195903
 20
38.6212367667
 30
0.0
 10
14.7406503865
 20
37.3186575606
 30
0.0
 10
13.8478886113
 20
35.6667903081
 30
0.0
 10
13.2415271263
 20
34.2353261906
 30
0.0
 10
12.8511931581
 20
33.0786719909
 30
0.0
 10
12.6104842409
 20
32.221080676
 30
0.0
 10
12.4212983029
 20
31.372974823
 30
0.0
 10
12.2848975396
 20
30.53986787
 30
0.0
 10
12.2022990875
 20
29.727437776
 30
0.0
 10
12.1829796691
 20
29.1926978642
 30
0.0
 10
12.1829796691
 20
28.9304461425
 30
0.0
  0
SPLINE
  5
2F3
100
AcDbEntity
  8
0
100
AcDbSpline
 62
7
  6
BYLAYER
 70
0
 71
3
 72
9
 73
5
 74
0
 42
0.0000001
 43
0.0000001
 44
0.0000000001
 40
0.0
 40
0.0
 40
0.0
 40
0.0
 40
0.4856437829
 40
1.0
 40
1.0
 40
1.0
 40
1.0
 10
21.1595184296
 20
42.5007747697
 30
0.0
 10
20.7897949273
 20
42.2898646514
 30
0.0
 10
20.0541191483
 20
41.8097356236
 30
0.0
 10
19.3717259683
 20
41.2573507078
 30
0.0
 10
19.034423952
 20
40.9582476728
 30
0.0
  0
SPLINE
  5
2F4
100
AcDbEntity
  8
0
100
AcDbSpline
 62
7
  6
BYLAYER
 70
0
 71
3
 72
9
 73
5
 74
0
 42
0.0000001
 43
0.0000001
 44
0.0000000001
 40
0.0
 40
0.0
 40
0.0
 40
0.0
 40
0.4822774883
 40
1.0
 40
1.0
 40
1.0
 40
1.0
 10
23.1887949886
 20
43.3567605919
 30
0.0
 10
22.8460998438
 20
43.264938085
 30
0.0
 10
22.1495226847
 20
43.0201594372
 30
0.0
 10
21.4903349212
 20
42.6894902421
 30
0.0
 10
21.1595184296
 20
42.5007747697
 30
0.0
  0
SPLINE
  5
2F5
100
AcDbEntity
  8
0
100
AcDbSpline
 62
7
  6
BYLAYER
 70
0
 71
3
 72
15
 73
11
 74
0
 42
0.0000001
 43
0.0000001
 44
0.0000000001
 40
0.0
 40
0.0
 40
0.0
 40
0.0
 40
0.4005121833
 40
0.5666225481
 40
0.708329597
 40
0.8241749156
 40
0.9122960152
 40
0.9709955179
 40
0.9890596387
 40
1.0
 40
1.0
 40
1.0
 40
1.0
 10
21.9416356215
 20
49.2190887357
 30
0.0
 10
21.9416311304
 20
49.2265443651
 30
0.0
 10
21.9415627791
 20
49.2370923165
 30
0.0
 10
21.9412465506
 20
49.2502756435
 30
0.0
 10
21.9409350112
 20
49.2581541612
 30
0.0
 10
21.9405429655
 20
49.2645841585
 30
0.0
 10
21.9400584805
 20
49.2694359182
 30
0.0
 10
21.9395655885
 20
49.2724985302
 30
0.0
 10
21.9390520728
 20
49.2740276885
 30
0.0
 10
21.9387508879
 20
49.2745183506
 30
0.0
 10
21.9385749234
 20
49.2746208829
 30
0.0
  0
SPLINE
  5
2F6
100
AcDbEntity
  8
0
100
AcDbSpline
 62
7
  6
BYLAYER
 70
0
 71
3
 72
22
 73
18
 74
0
 42
0.0000001
 43
0.0000001
 44
0.0000000001
 40
0.0
 40
0.0
 40
0.0
 40
0.0
 40
0.0771535476
 40
0.1516506814
 40
0.2923785262
 40
0.3588266835
 40
0.4228119899
 40
0.4845349311
 40
0.5442673464
 40
0.6023466269
 40
0.6591703476
 40
0.7151847786
 40
0.7708706681
 40
0.8267229564
 40
0.8832299471
 40
0.9408503255
 40
1.0
 40
1.0
 40
1.0
 40
1.0
 10
21.1925239485
 20
42.4665666251
 30
0.0
 10
21.3678840286
 20
42.5666014214
 30
0.0
 10
21.7183409115
 20
42.7534261121
 30
0.0
 10
22.4147561595
 20
43.070819992
 30
0.0
 10
23.1151709281
 20
43.3101333955
 30
0.0
 10
23.8097622841
 20
43.458291813
 30
0.0
 10
24.3092537652
 20
43.5214938412
 30
0.0
 10
24.7949100062
 20
43.538455538
 30
0.0
 10
25.2645687507
 20
43.5090337775
 30
0.0
 10
25.716083102
 20
43.4332455936
 30
0.0
 10
26.1473448454
 20
43.3113341123
 30
0.0
 10
26.5563087096
 20
43.1438174343
 30
0.0
 10
26.9409717443
 20
42.9313964072
 30
0.0
 10
27.2995161155
 20
42.675156567
 30
0.0
 10
27.6301919292
 20
42.3762715944
 30
0.0
 10
27.9315308637
 20
42.0363476901
 30
0.0
 10
28.1093095866
 20
41.7870661404
 30
0.0
 10
28.192905833
 20
41.6568076783
 30
0.0
  0
SPLINE
  5
2F7
100
AcDbEntity
  8
0
100
AcDbSpline
 62
7
  6
BYLAYER
 70
0
 71
3
 72
9
 73
5
 74
0
 42
0.0000001
 43
0.0000001
 44
0.0000000001
 40
0.0
 40
0.0
 40
0.0
 40
0.0
 40
0.5150875926
 40
1.0
 40
1.0
 40
1.0
 40
1.0
 10
23.1887949886
 20
43.3567605919
 30
0.0
 10
23.0826929331
 20
43.4821163029
 30
0.0
 10
22.8582256778
 20
43.7106435718
 30
0.0
 10
22.5977134675
 20
43.8980142943
 30
0.0
 10
22.4638168952
 20
43.9753177676
 30
0.0
  0
SPLINE
  5
2F8
100
AcDbEntity
  8
0
100
AcDbSpline
 62
7
  6
BYLAYER
 70
0
 71
3
 72
15
 73
11
 74
0
 42
0.0000001
 43
0.0000001
 44
0.0000000001
 40
0.0
 40
0.0
 40
0.0
 40
0.0
 40
0.1157977554
 40
0.2325797846
 40
0.3512842043
 40
0.4727683843
 40
0.5978030558
 40
0.7270540847
 40
0.8610264492
 40
1.0
 40
1.0
 40
1.0
 40
1.0
 10
26.1249258469
 20
43.6483071709
 30
0.0
 10
25.9988233509
 20
43.7211078535
 30
0.0
 10
25.7369955917
 20
43.8530537912
 30
0.0
 10
25.3218252602
 20
44.0064152909
 30
0.0
 10
24.8853969883
 20
44.1150658513
 30
0.0
 10
24.4297460192
 20
44.1785588103
 30
0.0
 10
23.9568450261
 20
44.1966850496
 30
0.0
 10
23.4687153992
 20
44.1694735177
 30
0.0
 10
22.9676010643
 20
44.0970957664
 30
0.0
 10
22.632613107
 20
44.0205454037
 30
0.0
 10
22.4638168952
 20
43.9753177675
 30
0.0
  0
SPLINE
  5
2F9
100
AcDbEntity
  8
0
100
AcDbSpline
 62
7
  6
BYLAYER
 70
0
 71
3
 72
17
 73
13
 74
0
 42
0.0000001
 43
0.0000001
 44
0.0000000001
 40
0.0
 40
0.0
 40
0.0
 40
0.0
 40
0.1485512798
 40
0.2894528874
 40
0.4226425764
 40
0.5485357995
 40
0.6678739376
 40
0.7817906611
 40
0.837225739
 40
0.8919103028
 40
0.9460844979
 40
1.0
 40
1.0
 40
1.0
 40
1.0
 10
22.3874561038
 20
41.2059595009
 30
0.0
 10
22.6287669758
 20
41.3452795662
 30
0.0
 10
23.110524533
 20
41.5974656406
 30
0.0
 10
23.8453581334
 20
41.898250188
 30
0.0
 10
24.5671158572
 20
42.1086667181
 30
0.0
 10
25.2689677759
 20
42.2263783237
 30
0.0
 10
25.9443034429
 20
42.2499132807
 30
0.0
 10
26.4847761767
 20
42.1896025044
 30
0.0
 10
26.8942189471
 20
42.0932597329
 30
0.0
 10
27.1877964228
 20
41.9983557768
 30
0.0
 10
27.4697866391
 20
41.8804152534
 30
0.0
 10
27.6497813255
 20
41.7864692508
 30
0.0
 10
27.7373613129
 20
41.7359009076
 30
0.0
  0
SPLINE
  5
2FA
100
AcDbEntity
  8
0
100
AcDbSpline
 62
7
  6
BYLAYER
 70
0
 71
3
 72
35
 73
31
 74
0
 42
0.0000001
 43
0.0000001
 44
0.0000000001
 40
0.0
 40
0.0
 40
0.0
 40
0.0
 40
0.0233146379
 40
0.0459273404
 40
0.0681000112
 40
0.0901217016
 40
0.112291851
 40
0.1349002543
 40
0.1582082584
 40
0.18243736
 40
0.2077605227
 40
0.2343020544
 40
0.2621389102
 40
0.2913044347
 40
0.3217947269
 40
0.3535710565
 40
0.3865677723
 40
0.4206929959
 40
0.455835804
 40
0.4918667937
 40
0.5659873451
 40
0.6418168074
 40
0.7179935774
 40
0.7931364889
 40
0.8299150267
 40
0.8659483937
 40
0.9010911917
 40
0.9352197718
 40
0.9682277689
 40
1.0
 40
1.0
 40
1.0
 40
1.0
 10
17.3338259395
 20
22.8479030976
 30
0.0
 10
17.143186571
 20
22.8568660497
 30
0.0
 10
16.7682008163
 20
22.8972719194
 30
0.0
 10
16.2251064328
 20
23.0301581211
 30
0.0
 10
15.7154021786
 20
23.2333933718
 30
0.0
 10
15.2431723506
 20
23.5057162244
 30
0.0
 10
14.8119286114
 20
23.8449104064
 30
0.0
 10
14.4249376036
 20
24.2483993641
 30
0.0
 10
14.0847540755
 20
24.7129265482
 30
0.0
 10
13.7936280225
 20
25.2350659336
 30
0.0
 10
13.5532646291
 20
25.8110280782
 30
0.0
 10
13.3650842949
 20
26.4368237628
 30
0.0
 10
13.2302038508
 20
27.1081954545
 30
0.0
 10
13.1493350967
 20
27.8206120215
 30
0.0
 10
13.1230246703
 20
28.5692905121
 30
0.0
 10
13.1512830332
 20
29.3491996761
 30
0.0
 10
13.2339931873
 20
30.1550790714
 30
0.0
 10
13.3704744088
 20
30.9814973133
 30
0.0
 10
13.5598674306
 20
31.8228731968
 30
0.0
 10
13.8841910957
 20
32.9676629033
 30
0.0
 10
14.4142108141
 20
34.3978654113
 30
0.0
 10
15.2244382768
 20
36.0652240891
 30
0.0
 10
16.1932944173
 20
37.6554689048
 30
0.0
 10
17.1180124129
 20
38.8899957505
 30
0.0
 10
17.9157689793
 20
39.8018769457
 30
0.0
 10
18.531880443
 20
40.4359925859
 30
0.0
 10
19.1657632476
 20
41.0208148027
 30
0.0
 10
19.8132156891
 20
41.552442251
 30
0.0
 10
20.4697796691
 20
42.0270851331
 30
0.0
 10
20.9194545184
 20
42.3090756709
 30
0.0
 10
21.1446928849
 20
42.4391163263
 30
0.0
  0
SPLINE
  5
2FB
100
AcDbEntity
  8
0
100
AcDbSpline
 62
7
  6
BYLAYER
 70
0
 71
3
 72
11
 73
7
 74
0
 42
0.0000001
 43
0.0000001
 44
0.0000000001
 40
0.0
 40
0.0
 40
0.0
 40
0.0
 40
0.2894992989
 40
0.5491682545
 40
0.7823317341
 40
1.0
 40
1.0
 40
1.0
 40
1.0
 10
8.2819602658
 20
21.0134350243
 30
0.0
 10
8.2819602658
 20
21.003308772
 30
0.0
 10
8.2835106324
 20
20.9840367717
 30
0.0
 10
8.2912967353
 20
20.9575490743
 30
0.0
 10
8.3044482532
 20
20.9360594854
 30
0.0
 10
8.3167912135
 20
20.9256883992
 30
0.0
 10
8.323385116
 20
20.921881953
 30
0.0
  0
SPLINE
  5
2FC
100
AcDbEntity
  8
0
100
AcDbSpline
 62
7
  6
BYLAYER
 70
0
 71
3
 72
11
 73
7
 74
0
 42
0.0000001
 43
0.0000001
 44
0.0000000001
 40
0.0
 40
0.0
 40
0.0
 40
0.0
 40
0.2750567127
 40
0.5330266955
 40
0.7741757564
 40
1.0
 40
1.0
 40
1.0
 40
1.0
 10
25.3585868233
 20
40.184642241
 30
0.0
 10
25.6676689061
 20
40.3630897995
 30
0.0
 10
26.2841847
 20
40.6798965876
 30
0.0
 10
27.2264017887
 20
41.0351968049
 30
0.0
 10
28.144989013
 20
41.2505266
 30
0.0
 10
28.7520158899
 20
41.2996050237
 30
0.0
 10
29.0450248281
 20
41.29761684
 30
0.0
  0
SPLINE
  5
2FD
100
AcDbEntity
  8
0
100
AcDbSpline
 62
7
  6
BYLAYER
 70
0
 71
3
 72
23
 73
19
 74
0
 42
0.0000001
 43
0.0000001
 44
0.0000000001
 40
0.0
 40
0.0
 40
0.0
 40
0.0
 40
0.0558310783
 40
0.1141817273
 40
0.1747816748
 40
0.2373517384
 40
0.3015474794
 40
0.366990834
 40
0.4332809888
 40
0.4999984004
 40
0.566715868
 40
0.6330061894
 40
0.6984498182
 40
0.7626459352
 40
0.8252164689
 40
0.8858169702
 40
0.9441682436
 40
1.0
 40
1.0
 40
1.0
 40
1.0
 10
26.1717630072
 20
39.7151653733
 30
0.0
 10
25.8981700065
 20
39.5572073236
 30
0.0
 10
25.3524738576
 20
39.2097271584
 30
0.0
 10
24.5609675126
 20
38.6153457093
 30
0.0
 10
23.7849452525
 20
37.9412039481
 30
0.0
 10
23.0318847136
 20
37.1938990392
 30
0.0
 10
22.3088816792
 20
36.3804916359
 30
0.0
 10
21.6228507158
 20
35.508769789
 30
0.0
 10
20.9803599686
 20
34.5870588477
 30
0.0
 10
20.3875505207
 20
33.6241740263
 30
0.0
 10
19.8500768872
 20
32.6293401492
 30
0.0
 10
19.3731007014
 20
31.6120666155
 30
0.0
 10
18.9611855877
 20
30.5820794131
 30
0.0
 10
18.6182574123
 20
29.5492294578
 30
0.0
 10
18.3476035249
 20
28.5233990381
 30
0.0
 10
18.1517907298
 20
27.5142636957
 30
0.0
 10
18.0327935173
 20
26.5315979306
 30
0.0
 10
18.0047136874
 20
25.8852638294
 30
0.0
 10
18.0047136874
 20
25.5693424783
 30
0.0
  0
SPLINE
  5
2FE
100
AcDbEntity
  8
0
100
AcDbSpline
 62
7
  6
BYLAYER
 70
0
 71
3
 72
11
 73
7
 74
0
 42
0.0000001
 43
0.0000001
 44
0.0000000001
 40
0.0
 40
0.0
 40
0.0
 40
0.0
 40
0.2312970977
 40
0.4736855496
 40
0.729443753
 40
1.0
 40
1.0
 40
1.0
 40
1.0
 10
23.6050124247
 20
37.4167767099
 30
0.0
 10
23.7809499793
 20
37.6460934468
 30
0.0
 10
24.1629801383
 20
38.0995604982
 30
0.0
 10
24.8169631056
 20
38.736706016
 30
0.0
 10
25.5713284731
 20
39.3340459859
 30
0.0
 10
26.1264545684
 20
39.6890116284
 30
0.0
 10
26.419251411
 20
39.8580569552
 30
0.0
  0
SPLINE
  5
2FF
100
AcDbEntity
  8
0
100
AcDbSpline
 62
7
  6
BYLAYER
 70
0
 71
3
 72
15
 73
11
 74
0
 42
0.0000001
 43
0.0000001
 44
0.0000000001
 40
0.0
 40
0.0
 40
0.0
 40
0.0
 40
0.1222505841
 40
0.2468583371
 40
0.3730266153
 40
0.5000008232
 40
0.6269749256
 40
0.7531428896
 40
0.8777501255
 40
1.0
 40
1.0
 40
1.0
 40
1.0
 10
18.7118254733
 20
28.9414812517
 30
0.0
 10
18.8272946464
 20
29.3267585192
 30
0.0
 10
19.0849315519
 20
30.0976073443
 30
0.0
 10
19.5424252311
 20
31.2371248205
 30
0.0
 10
20.0712255844
 20
32.3625751822
 30
0.0
 10
20.6662481598
 20
33.4632914419
 30
0.0
 10
21.3219794264
 20
34.5289565265
 30
0.0
 10
22.0322413556
 20
35.5496370202
 30
0.0
 10
22.7903383534
 20
36.5155961579
 30
0.0
 10
23.3290896594
 20
37.1241396438
 30
0.0
 10
23.6050124247
 20
37.4167767099
 30
0.0
  0
SPLINE
  5
300
100
AcDbEntity
  8
0
100
AcDbSpline
 62
7
  6
BYLAYER
 70
0
 71
3
 72
11
 73
7
 74
0
 42
0.0000001
 43
0.0000001
 44
0.0000000001
 40
0.0
 40
0.0
 40
0.0
 40
0.0
 40
0.2507331243
 40
0.5132414674
 40
0.76872511
 40
1.0
 40
1.0
 40
1.0
 40
1.0
 10
8.388974974
 20
40.1023763969
 30
0.0
 10
8.3731206379
 20
40.0886310405
 30
0.0
 10
8.3439676661
 20
40.0565815322
 30
0.0
 10
8.3103114118
 20
40.0013400984
 30
0.0
 10
8.2880730504
 20
39.942329945
 30
0.0
 10
8.2819602658
 20
39.9015526402
 30
0.0
 10
8.2819602658
 20
39.8821978465
 30
0.0
  0
SPLINE
  5
301
100
AcDbEntity
  8
0
100
AcDbSpline
 62
7
  6
BYLAYER
 70
0
 71
3
 72
23
 73
19
 74
0
 42
0.0000001
 43
0.0000001
 44
0.0000000001
 40
0.0
 40
0.0
 40
0.0
 40
0.0
 40
0.0558317564
 40
0.1141830298
 40
0.1747835311
 40
0.2373540648
 40
0.3015501818
 40
0.3669938106
 40
0.433284132
 40
0.5000015996
 40
0.5667190112
 40
0.633009166
 40
0.6984525206
 40
0.7626482616
 40
0.8252183252
 40
0.8858182727
 40
0.9441689217
 40
1.0
 40
1.0
 40
1.0
 40
1.0
 10
17.1915375035
 20
26.038819346
 30
0.0
 10
17.1915375035
 20
26.3547406971
 30
0.0
 10
17.2196173334
 20
27.0010747983
 30
0.0
 10
17.3386145459
 20
27.9837405634
 30
0.0
 10
17.534427341
 20
28.9928759058
 30
0.0
 10
17.8050812284
 20
30.0187063255
 30
0.0
 10
18.1480094037
 20
31.0515562808
 30
0.0
 10
18.5599245175
 20
32.0815434832
 30
0.0
 10
19.0369007033
 20
33.0988170169
 30
0.0
 10
19.5743743368
 20
34.093650894
 30
0.0
 10
20.1671837847
 20
35.0565357154
 30
0.0
 10
20.8096745319
 20
35.9782466567
 30
0.0
 10
21.4957054953
 20
36.8499685036
 30
0.0
 10
22.2187085297
 20
37.6633759069
 30
0.0
 10
22.9717690686
 20
38.4106808158
 30
0.0
 10
23.7477913287
 20
39.084822577
 30
0.0
 10
24.5392976736
 20
39.6792040261
 30
0.0
 10
25.0849938226
 20
40.0266841913
 30
0.0
 10
25.3585868233
 20
40.184642241
 30
0.0
  0
SPLINE
  5
302
100
AcDbEntity
  8
0
100
AcDbSpline
 62
7
  6
BYLAYER
 70
0
 71
3
 72
32
 73
28
 74
0
 42
0.0000001
 43
0.0000001
 44
0.0000000001
 40
0.0
 40
0.0
 40
0.0
 40
0.0
 40
0.0305630247
 40
0.0621891178
 40
0.0947900285
 40
0.1282860397
 40
0.1625926623
 40
0.1976073179
 40
0.2692896547
 40
0.3423926246
 40
0.4158945073
 40
0.4887561639
 40
0.5599661495
 40
0.6285865692
 40
0.6938026164
 40
0.7249399841
 40
0.755006827
 40
0.7839626849
 40
0.8117873934
 40
0.8384838887
 40
0.8640807548
 40
0.8886357594
 40
0.9122372837
 40
0.935006909
 40
0.9570978702
 40
0.9786934276
 40
1.0
 40
1.0
 40
1.0
 40
1.0
 10
22.5057254931
 20
41.1376781819
 30
0.0
 10
22.3185286858
 20
41.0296007
 30
0.0
 10
21.9446189857
 20
40.797377559
 30
0.0
 10
21.3965372952
 20
40.4107317281
 30
0.0
 10
20.8543635882
 20
39.9815555477
 30
0.0
 10
20.3210209164
 20
39.5122862984
 30
0.0
 10
19.799303081
 20
39.0053188468
 30
0.0
 10
19.1175194279
 20
38.2771194404
 30
0.0
 10
18.3130780433
 20
37.2899146831
 30
0.0
 10
17.4432279062
 20
36.0123076324
 30
0.0
 10
16.6793916203
 20
34.658982601
 30
0.0
 10
16.0376219845
 20
33.2583809292
 30
0.0
 10
15.5313266153
 20
31.8397375403
 30
0.0
 10
15.1711357561
 20
30.432804148
 30
0.0
 10
14.9963160546
 20
29.2766963498
 30
0.0
 10
14.9391335818
 20
28.3839666792
 30
0.0
 10
14.9370582431
 20
27.7458857158
 30
0.0
 10
14.9751309175
 20
27.1323731256
 30
0.0
 10
15.0532142295
 20
26.5466357352
 30
0.0
 10
15.1709140255
 20
25.9917484079
 30
0.0
 10
15.3277235889
 20
25.4706411836
 30
0.0
 10
15.5228552379
 20
24.9860611313
 30
0.0
 10
15.7554517282
 20
24.5406370741
 30
0.0
 10
16.0243208792
 20
24.1367829156
 30
0.0
 10
16.328228445
 20
23.7768217919
 30
0.0
 10
16.6654371852
 20
23.4628378659
 30
0.0
 10
16.9122845083
 20
23.2847688142
 30
0.0
 10
17.0398314193
 20
23.2045238158
 30
0.0
  0
SPLINE
  5
303
100
AcDbEntity
  8
0
100
AcDbSpline
 62
7
  6
BYLAYER
 70
0
 71
3
 72
11
 73
7
 74
0
 42
0.0000001
 43
0.0000001
 44
0.0000000001
 40
0.0
 40
0.0
 40
0.0
 40
0.0
 40
0.2398718135
 40
0.4867454711
 40
0.7402653476
 40
1.0
 40
1.0
 40
1.0
 40
1.0
 10
13.549883853
 20
43.8179909584
 30
0.0
 10
13.1089111221
 20
43.5633967532
 30
0.0
 10
12.2278905916
 20
43.0225417218
 30
0.0
 10
10.9310119642
 20
42.1341282701
 30
0.0
 10
9.6440789622
 20
41.1598498276
 30
0.0
 10
8.8055636071
 20
40.4635494653
 30
0.0
 10
8.388974974
 20
40.1023763969
 30
0.0
  0
SPLINE
  5
304
100
AcDbEntity
  8
0
100
AcDbSpline
 62
7
  6
BYLAYER
 70
0
 71
3
 72
11
 73
7
 74
0
 42
0.0000001
 43
0.0000001
 44
0.0000000001
 40
0.0
 40
0.0
 40
0.0
 40
0.0
 40
0.2636722783
 40
0.5190668669
 40
0.7648616225
 40
1.0
 40
1.0
 40
1.0
 40
1.0
 10
24.4747697333
 20
25.6143191024
 30
0.0
 10
24.3600958877
 20
25.2316955437
 30
0.0
 10
24.1577573225
 20
24.471172507
 30
0.0
 10
23.9350060934
 20
23.3331723876
 30
0.0
 10
23.7996255149
 20
22.2249720395
 30
0.0
 10
23.7676658961
 20
21.4961377842
 30
0.0
 10
23.7676658961
 20
21.1399257026
 30
0.0
  0
SPLINE
  5
305
100
AcDbEntity
  8
0
100
AcDbSpline
 62
7
  6
BYLAYER
 70
0
 71
3
 72
15
 73
11
 74
0
 42
0.0000001
 43
0.0000001
 44
0.0000000001
 40
0.0
 40
0.0
 40
0.0
 40
0.0
 40
0.1222498748
 40
0.246857118
 40
0.373025083
 40
0.4999991768
 40
0.6269733761
 40
0.7531416554
 40
0.8777494157
 40
1.0
 40
1.0
 40
1.0
 40
1.0
 10
29.3679566847
 20
34.0896145605
 30
0.0
 10
29.0920339341
 20
33.7969775101
 30
0.0
 10
28.5532829226
 20
33.1884337739
 30
0.0
 10
27.7951866741
 20
32.2224741001
 30
0.0
 10
27.0849253998
 20
31.2017932436
 30
0.0
 10
26.429194442
 20
30.136128125
 30
0.0
 10
25.8341716827
 20
29.0354121156
 30
0.0
 10
25.3053706879
 20
27.9099621397
 30
0.0
 10
24.8478761697
 20
26.7704450444
 30
0.0
 10
24.5902389001
 20
25.9995963492
 30
0.0
 10
24.4747697333
 20
25.6143191024
 30
0.0
  0
SPLINE
  5
306
100
AcDbEntity
  8
0
100
AcDbSpline
 62
7
  6
BYLAYER
 70
0
 71
3
 72
11
 73
7
 74
0
 42
0.0000001
 43
0.0000001
 44
0.0000000001
 40
0.0
 40
0.0
 40
0.0
 40
0.0
 40
0.2677540748
 40
0.5506159749
 40
0.8012930836
 40
1.0
 40
1.0
 40
1.0
 40
1.0
 10
17.474308972
 20
45.5121908186
 30
0.0
 10
17.4982545389
 20
45.4983661519
 30
0.0
 10
17.5462063569
 20
45.467718095
 30
0.0
 10
17.6138451636
 20
45.4200211384
 30
0.0
 10
17.6737524476
 20
45.3738540801
 30
0.0
 10
17.7092022621
 20
45.3438475056
 30
0.0
 10
17.7242468885
 20
45.3298935357
 30
0.0
  0
SPLINE
  5
307
100
AcDbEntity
  8
0
100
AcDbSpline
 62
7
  6
BYLAYER
 70
0
 71
3
 72
17
 73
13
 74
0
 42
0.0000001
 43
0.0000001
 44
0.0000000001
 40
0.0
 40
0.0
 40
0.0
 40
0.0
 40
0.148555643
 40
0.2894530433
 40
0.4226429367
 40
0.5485380566
 40
0.6678744519
 40
0.7817900247
 40
0.8372252245
 40
0.8919102497
 40
0.9460844342
 40
1.0
 40
1.0
 40
1.0
 40
1.0
 10
23.7676658961
 20
21.1399257026
 30
0.0
 10
23.7676658961
 20
20.8039704543
 30
0.0
 10
23.7947595134
 20
20.1489283786
 30
0.0
 10
23.9236890121
 20
19.2003467721
 30
0.0
 10
24.1390842559
 20
18.3199010096
 30
0.0
 10
24.4392593155
 20
17.5161105702
 30
0.0
 10
24.8218139256
 20
16.7967983433
 30
0.0
 10
25.2105892148
 20
16.2688332959
 30
0.0
 10
25.5580187563
 20
15.8994144232
 30
0.0
 10
25.834075927
 20
15.6500782967
 30
0.0
 10
26.1272261293
 20
15.4267567464
 30
0.0
 10
26.3338292809
 20
15.2954625542
 30
0.0
 10
26.4394243369
 20
15.2345008755
 30
0.0
  0
SPLINE
  5
308
100
AcDbEntity
  8
0
100
AcDbSpline
 62
7
  6
BYLAYER
 70
0
 71
3
 72
16
 73
12
 74
0
 42
0.0000001
 43
0.0000001
 44
0.0000000001
 40
0.0
 40
0.0
 40
0.0
 40
0.0
 40
0.1485640174
 40
0.2894780953
 40
0.4226801654
 40
0.5485851005
 40
0.667933668
 40
0.7818598581
 40
0.8918989154
 40
0.9460788341
 40
1.0
 40
1.0
 40
1.0
 40
1.0
 10
32.8893053961
 20
18.6168422281
 30
0.0
 10
32.6741566092
 20
18.4926267595
 30
0.0
 10
32.244628572
 20
18.2677814991
 30
0.0
 10
31.5894630838
 20
17.9996052628
 30
0.0
 10
30.9459454208
 20
17.8120022555
 30
0.0
 10
30.3202061348
 20
17.7070432096
 30
0.0
 10
29.7180042002
 20
17.6860931463
 30
0.0
 10
29.1452876545
 20
17.7499073042
 30
0.0
 10
28.6948131934
 20
17.8745958155
 30
0.0
 10
28.3579725645
 20
18.0155074262
 30
0.0
 10
28.1974778221
 20
18.0992682664
 30
0.0
 10
28.1193916
 20
18.1443553044
 30
0.0
  0
SPLINE
  5
309
100
AcDbEntity
  8
0
100
AcDbSpline
 62
7
  6
BYLAYER
 70
0
 71
3
 72
11
 73
7
 74
0
 42
0.0000001
 43
0.0000001
 44
0.0000000001
 40
0.0
 40
0.0
 40
0.0
 40
0.0
 40
0.2656693284
 40
0.5337136277
 40
0.781525605
 40
1.0
 40
1.0
 40
1.0
 40
1.0
 10
17.8899491645
 20
46.32927811
 30
0.0
 10
17.865741687
 20
46.3210490964
 30
0.0
 10
17.8177034325
 20
46.3027781658
 30
0.0
 10
17.7484997653
 20
46.2732894498
 30
0.0
 10
17.6844366032
 20
46.2434204636
 30
0.0
 10
17.6444073068
 20
46.2231093323
 30
0.0
 10
17.6258737574
 20
46.2131797833
 30
0.0
  0
SPLINE
  5
30A
100
AcDbEntity
  8
0
100
AcDbSpline
 62
7
  6
BYLAYER
 70
0
 71
3
 72
11
 73
7
 74
0
 42
0.0000001
 43
0.0000001
 44
0.0000000001
 40
0.0
 40
0.0
 40
0.0
 40
0.0
 40
0.2177086629
 40
0.4508456793
 40
0.7104048118
 40
1.0
 40
1.0
 40
1.0
 40
1.0
 10
19.6648695021
 20
47.6049945408
 30
0.0
 10
19.6747630175
 20
47.6107035478
 30
0.0
 10
19.6974912493
 20
47.6189647592
 30
0.0
 10
19.7352653694
 20
47.6199190539
 30
0.0
 10
19.7755143809
 20
47.6101870232
 30
0.0
 10
19.8017081061
 20
47.5977378558
 30
0.0
 10
19.8148667577
 20
47.5901408766
 30
0.0
  0
SPLINE
  5
30B
100
AcDbEntity
  8
0
100
AcDbSpline
 62
7
  6
BYLAYER
 70
0
 71
3
 72
11
 73
7
 74
0
 42
0.0000001
 43
0.0000001
 44
0.0000000001
 40
0.0
 40
0.0
 40
0.0
 40
0.0
 40
0.2812129506
 40
0.5375089179
 40
0.7735748256
 40
1.0
 40
1.0
 40
1.0
 40
1.0
 10
17.7604611784
 20
46.4040363424
 30
0.0
 10
17.7472523294
 20
46.4116606181
 30
0.0
 10
17.7206234721
 20
46.4240631771
 30
0.0
 10
17.6792414215
 20
46.4331294633
 30
0.0
 10
17.6397827857
 20
46.4310443952
 30
0.0
 10
17.6158758869
 20
46.4219716126
 30
0.0
 10
17.6052214468
 20
46.4158658313
 30
0.0
  0
SPLINE
  5
30C
100
AcDbEntity
  8
0
100
AcDbSpline
 62
7
  6
BYLAYER
 70
0
 71
3
 72
12
 73
8
 74
0
 42
0.0000001
 43
0.0000001
 44
0.0000000001
 40
0.0
 40
0.0
 40
0.0
 40
0.0
 40
0.2443914429
 40
0.5104671349
 40
0.7708115197
 40
0.8909600223
 40
1.0
 40
1.0
 40
1.0
 40
1.0
 10
17.6258737089
 20
46.2131798885
 30
0.0
 10
17.6304280679
 20
46.2321070637
 30
0.0
 10
17.644322118
 20
46.270608404
 30
0.0
 10
17.6744936786
 20
46.3244265399
 30
0.0
 10
17.7082632045
 20
46.3638412223
 30
0.0
 10
17.7378144898
 20
46.3893564703
 30
0.0
 10
17.7529390791
 20
46.3996926806
 30
0.0
 10
17.7604611913
 20
46.4040355266
 30
0.0
  0
SPLINE
  5
30D
100
AcDbEntity
  8
0
100
AcDbSpline
 62
7
  6
BYLAYER
 70
0
 71
3
 72
18
 73
14
 74
0
 42
0.0000001
 43
0.0000001
 44
0.0000000001
 40
0.0
 40
0.0
 40
0.0
 40
0.0
 40
0.1885333342
 40
0.3633781986
 40
0.5231593778
 40
0.6661069751
 40
0.7896835386
 40
0.8431468993
 40
0.8902886607
 40
0.9304482673
 40
0.9627348161
 40
0.9862252394
 40
1.0
 40
1.0
 40
1.0
 40
1.0
 10
8.3927672646
 20
40.9130883195
 30
0.0
 10
8.3901160412
 20
40.9216760609
 30
0.0
 10
8.3849695465
 20
40.9382168148
 30
0.0
 10
8.3774083588
 20
40.9619830078
 30
0.0
 10
8.3703195905
 20
40.9836184549
 30
0.0
 10
8.363783426
 20
41.0028614179
 30
0.0
 10
8.3586612258
 20
41.0172320487
 30
0.0
 10
8.354878992
 20
41.0272265412
 30
0.0
 10
8.3523968085
 20
41.0334647273
 30
0.0
 10
8.3501596274
 20
41.0386998546
 30
0.0
 10
8.3482096364
 20
41.0428636742
 30
0.0
 10
8.3465886215
 20
41.0457036869
 30
0.0
 10
8.3455171718
 20
41.0472212509
 30
0.0
 10
8.3449480542
 20
41.0475488374
 30
0.0
  0
SPLINE
  5
30E
100
AcDbEntity
  8
0
100
AcDbSpline
 62
7
  6
BYLAYER
 70
0
 71
3
 72
11
 73
7
 74
0
 42
0.0000001
 43
0.0000001
 44
0.0000000001
 40
0.0
 40
0.0
 40
0.0
 40
0.0
 40
0.2078643564
 40
0.4378274693
 40
0.7011398656
 40
1.0
 40
1.0
 40
1.0
 40
1.0
 10
15.9973458489
 20
45.4875619585
 30
0.0
 10
16.0064560314
 20
45.4928088481
 30
0.0
 10
16.0279540496
 20
45.5001250212
 30
0.0
 10
16.0638960263
 20
45.4998841896
 30
0.0
 10
16.1029149748
 20
45.4894944747
 30
0.0
 10
16.1286408023
 20
45.477025173
 30
0.0
 10
16.1417312557
 20
45.4694677644
 30
0.0
  0
SPLINE
  5
30F
100
AcDbEntity
  8
0
100
AcDbSpline
 62
7
  6
BYLAYER
 70
0
 71
3
 72
9
 73
5
 74
0
 42
0.0000001
 43
0.0000001
 44
0.0000000001
 40
0.0
 40
0.0
 40
0.0
 40
0.0
 40
0.5327830133
 40
1.0
 40
1.0
 40
1.0
 40
1.0
 10
16.1417312848
 20
45.4694669051
 30
0.0
 10
16.1546520867
 20
45.4769267279
 30
0.0
 10
16.1808061905
 20
45.4879005765
 30
0.0
 10
16.209792306
 20
45.489643358
 30
0.0
 10
16.2225671516
 20
45.4868178116
 30
0.0
  0
SPLINE
  5
310
100
AcDbEntity
  8
0
100
AcDbSpline
 62
7
  6
BYLAYER
 70
0
 71
3
 72
32
 73
28
 74
0
 42
0.0000001
 43
0.0000001
 44
0.0000000001
 40
0.0
 40
0.0
 40
0.0
 40
0.0
 40
0.0213270746
 40
0.0428823909
 40
0.0648826028
 40
0.0875219258
 40
0.1109660175
 40
0.1353468599
 40
0.1607637254
 40
0.1872823147
 40
0.2149392313
 40
0.2437424521
 40
0.2736768407
 40
0.3047043978
 40
0.3367698319
 40
0.3698002199
 40
0.4383804561
 40
0.509649029
 40
0.5826548757
 40
0.6563678135
 40
0.7297263551
 40
0.8016846088
 40
0.8712597593
 40
0.9048843841
 40
0.9376050641
 40
0.9693403039
 40
1.0
 40
1.0
 40
1.0
 40
1.0
 10
37.6592191923
 20
34.6681952707
 30
0.0
 10
37.7764247452
 20
34.6005207043
 30
0.0
 10
38.0036371369
 20
34.4491803567
 30
0.0
 10
38.3154785317
 20
34.1787605528
 30
0.0
 10
38.5974623083
 20
33.8660303937
 30
0.0
 10
38.8480201598
 20
33.5129233388
 30
0.0
 10
39.0658662791
 20
33.1214686562
 30
0.0
 10
39.2499622282
 20
32.6938972426
 30
0.0
 10
39.3993792012
 20
32.2325462731
 30
0.0
 10
39.5134541144
 20
31.7399269506
 30
0.0
 10
39.5915961976
 20
31.2186744185
 30
0.0
 10
39.6334880902
 20
30.6715802045
 30
0.0
 10
39.6388893295
 20
30.1015674645
 30
0.0
 10
39.6078454884
 20
29.5116870141
 30
0.0
 10
39.5404884061
 20
28.9050926069
 30
0.0
 10
39.4010681583
 20
28.06797635
 30
0.0
 10
39.1366034915
 20
27.0012326098
 30
0.0
 10
38.6899702131
 20
25.7245766996
 30
0.0
 10
38.1195439078
 20
24.4624220855
 30
0.0
 10
37.4375313733
 20
23.2417787659
 30
0.0
 10
36.6584522997
 20
22.0886295769
 30
0.0
 10
35.798983034
 20
21.0276593902
 30
0.0
 10
35.0221563556
 20
20.2300225045
 30
0.0
 10
34.375319234
 20
19.6589346284
 30
0.0
 10
33.8875397498
 20
19.2718115224
 30
0.0
 10
33.3943542121
 20
18.923287242
 30
0.0
 10
33.0578034442
 20
18.7141240409
 30
0.0
 10
32.8893053961
 20
18.6168422281
 30
0.0
  0
SPLINE
  5
311
100
AcDbEntity
  8
0
100
AcDbSpline
 62
7
  6
BYLAYER
 70
0
 71
3
 72
11
 73
7
 74
0
 42
0.0000001
 43
0.0000001
 44
0.0000000001
 40
0.0
 40
0.0
 40
0.0
 40
0.0
 40
0.2100899433
 40
0.4474433619
 40
0.7150498692
 40
1.0
 40
1.0
 40
1.0
 40
1.0
 10
17.5081774273
 20
46.317838699
 30
0.0
 10
17.502980844
 20
46.3087352027
 30
0.0
 10
17.4965789233
 20
46.2864117334
 30
0.0
 10
17.5019615707
 20
46.2503866249
 30
0.0
 10
17.5187426668
 20
46.2143230721
 30
0.0
 10
17.5354972161
 20
46.1921979879
 30
0.0
 10
17.5449460166
 20
46.1815747242
 30
0.0
  0
SPLINE
  5
312
100
AcDbEntity
  8
0
100
AcDbSpline
 62
7
  6
BYLAYER
 70
0
 71
3
 72
12
 73
8
 74
0
 42
0.0000001
 43
0.0000001
 44
0.0000000001
 40
0.0
 40
0.0
 40
0.0
 40
0.0
 40
0.4186721222
 40
0.7168054775
 40
0.9024492002
 40
0.9600683423
 40
1.0
 40
1.0
 40
1.0
 40
1.0
 10
16.2712192418
 20
45.394709532
 30
0.0
 10
16.2771115512
 20
45.4004873239
 30
0.0
 10
16.2870266977
 20
45.4105854947
 30
0.0
 10
16.2985945527
 20
45.4240618434
 30
0.0
 10
16.304732578
 20
45.4329275191
 30
0.0
 10
16.3067331707
 20
45.4381528688
 30
0.0
 10
16.3068707191
 20
45.4401476951
 30
0.0
 10
16.3066689376
 20
45.4409084797
 30
0.0
  0
SPLINE
  5
313
100
AcDbEntity
  8
0
100
AcDbSpline
 62
7
  6
BYLAYER
 70
0
 71
3
 72
11
 73
7
 74
0
 42
0.0000001
 43
0.0000001
 44
0.0000000001
 40
0.0
 40
0.0
 40
0.0
 40
0.0
 40
0.2424715095
 40
0.4925921757
 40
0.7464495083
 40
1.0
 40
1.0
 40
1.0
 40
1.0
 10
16.4753984945
 20
44.8112210779
 30
0.0
 10
16.4801061846
 20
44.793655242
 30
0.0
 10
16.4850279387
 20
44.7566623903
 30
0.0
 10
16.4815331747
 20
44.7005286622
 30
0.0
 10
16.4687582512
 20
44.6449379144
 30
0.0
 10
16.4547919391
 20
44.6093668239
 30
0.0
 10
16.4465591897
 20
44.5922246021
 30
0.0
  0
SPLINE
  5
314
100
AcDbEntity
  8
0
100
AcDbSpline
 62
7
  6
BYLAYER
 70
0
 71
3
 72
9
 73
5
 74
0
 42
0.0000001
 43
0.0000001
 44
0.0000000001
 40
0.0
 40
0.0
 40
0.0
 40
0.0
 40
0.5017143552
 40
1.0
 40
1.0
 40
1.0
 40
1.0
 10
21.8827740875
 20
51.036457131
 30
0.0
 10
21.8518667968
 20
51.03967495
 30
0.0
 10
21.7894707509
 20
51.0397994475
 30
0.0
 10
21.7282438259
 20
51.0262553722
 30
0.0
 10
21.6993923479
 20
51.0152984432
 30
0.0
  0
SPLINE
  5
315
100
AcDbEntity
  8
0
100
AcDbSpline
 62
7
  6
BYLAYER
 70
0
 71
3
 72
9
 73
5
 74
0
 42
0.0000001
 43
0.0000001
 44
0.0000000001
 40
0.0
 40
0.0
 40
0.0
 40
0.0
 40
0.2410896796
 40
1.0
 40
1.0
 40
1.0
 40
1.0
 10
23.1311249499
 20
50.8141298497
 30
0.0
 10
23.1311249499
 20
50.8170916686
 30
0.0
 10
23.131414559
 20
50.8293761782
 30
0.0
 10
23.1328095653
 20
50.8416256084
 30
0.0
 10
23.1343753523
 20
50.8508165008
 30
0.0
  0
SPLINE
  5
316
100
AcDbEntity
  8
0
100
AcDbSpline
 62
7
  6
BYLAYER
 70
0
 71
3
 72
12
 73
8
 74
0
 42
0.0000001
 43
0.0000001
 44
0.0000000001
 40
0.0
 40
0.0
 40
0.0
 40
0.0
 40
0.0774011308
 40
0.171583863
 40
0.4020027922
 40
0.680778053
 40
1.0
 40
1.0
 40
1.0
 40
1.0
 10
8.4541827054
 20
41.0568288027
 30
0.0
 10
8.4510532372
 20
41.054225835
 30
0.0
 10
8.4450642415
 20
41.0473553973
 30
0.0
 10
8.4335825676
 20
41.0295857755
 30
0.0
 10
8.4201844523
 20
41.0006756444
 30
0.0
 10
8.4055883632
 20
40.9596136961
 30
0.0
 10
8.3969840153
 20
40.9293383908
 30
0.0
 10
8.3927670348
 20
40.9130888599
 30
0.0
  0
SPLINE
  5
317
100
AcDbEntity
  8
0
100
AcDbSpline
 62
7
  6
BYLAYER
 70
0
 71
3
 72
9
 73
5
 74
0
 42
0.0000001
 43
0.0000001
 44
0.0000000001
 40
0.0
 40
0.0
 40
0.0
 40
0.0
 40
0.2572335649
 40
1.0
 40
1.0
 40
1.0
 40
1.0
 10
22.2139366001
 20
50.5229490255
 30
0.0
 10
22.2135993087
 20
50.5204899254
 30
0.0
 10
22.2124379993
 20
50.5109106815
 30
0.0
 10
22.2118899615
 20
50.501253091
 30
0.0
 10
22.2118899615
 20
50.4940859148
 30
0.0
  0
SPLINE
  5
318
100
AcDbEntity
  8
0
100
AcDbSpline
 62
7
  6
BYLAYER
 70
0
 71
3
 72
11
 73
7
 74
0
 42
0.0000001
 43
0.0000001
 44
0.0000000001
 40
0.0
 40
0.0
 40
0.0
 40
0.0
 40
0.176632023
 40
0.4125213798
 40
0.7002828314
 40
1.0
 40
1.0
 40
1.0
 40
1.0
 10
22.2363289501
 20
50.8323367537
 30
0.0
 10
22.2365556088
 20
50.8140636475
 30
0.0
 10
22.2355881383
 20
50.7713753021
 30
0.0
 10
22.2316822627
 20
50.6990238542
 30
0.0
 10
22.2247835567
 20
50.6141085493
 30
0.0
 10
22.2181503609
 20
50.5536704058
 30
0.0
 10
22.2139366001
 20
50.5229490255
 30
0.0
  0
SPLINE
  5
319
100
AcDbEntity
  8
0
100
AcDbSpline
 62
7
  6
BYLAYER
 70
0
 71
3
 72
11
 73
7
 74
0
 42
0.0000001
 43
0.0000001
 44
0.0000000001
 40
0.0
 40
0.0
 40
0.0
 40
0.0
 40
0.1714259452
 40
0.4047002896
 40
0.6936662197
 40
1.0
 40
1.0
 40
1.0
 40
1.0
 10
23.1617333073
 20
51.154525939
 30
0.0
 10
23.1621328193
 20
51.1370885871
 30
0.0
 10
23.1610815827
 20
51.0958906266
 30
0.0
 10
23.1563977003
 20
51.0254620961
 30
0.0
 10
23.1478745342
 20
50.9415742231
 30
0.0
 10
23.1396098517
 20
50.8815420869
 30
0.0
 10
23.1343753523
 20
50.8508165008
 30
0.0
  0
SPLINE
  5
31A
100
AcDbEntity
  8
0
100
AcDbSpline
 62
7
  6
BYLAYER
 70
0
 71
3
 72
9
 73
5
 74
0
 42
0.0000001
 43
0.0000001
 44
0.0000000001
 40
0.0
 40
0.0
 40
0.0
 40
0.0
 40
0.503042778
 40
1.0
 40
1.0
 40
1.0
 40
1.0
 10
24.6466592025
 20
50.2972229684
 30
0.0
 10
24.6151373226
 20
50.3043345183
 30
0.0
 10
24.5513906109
 20
50.3138936422
 30
0.0
 10
24.4868078263
 20
50.3142189505
 30
0.0
 10
24.4550221362
 20
50.3112590003
 30
0.0
  0
SPLINE
  5
31B
100
AcDbEntity
  8
0
100
AcDbSpline
 62
7
  6
BYLAYER
 70
0
 71
3
 72
9
 73
5
 74
0
 42
0.0000001
 43
0.0000001
 44
0.0000000001
 40
0.0
 40
0.0
 40
0.0
 40
0.0
 40
0.5056492219
 40
1.0
 40
1.0
 40
1.0
 40
1.0
 10
24.4550221362
 20
50.3112590003
 30
0.0
 10
24.4337799
 20
50.3092808787
 30
0.0
 10
24.391993947
 20
50.3025896525
 30
0.0
 10
24.3517318702
 20
50.288460436
 30
0.0
 10
24.333306659
 20
50.2786857513
 30
0.0
  0
SPLINE
  5
31C
100
AcDbEntity
  8
0
100
AcDbSpline
 62
7
  6
BYLAYER
 70
0
 71
3
 72
9
 73
5
 74
0
 42
0.0000001
 43
0.0000001
 44
0.0000000001
 40
0.0
 40
0.0
 40
0.0
 40
0.0
 40
0.5054012757
 40
1.0
 40
1.0
 40
1.0
 40
1.0
 10
24.333306659
 20
50.2786857513
 30
0.0
 10
24.3210858989
 20
50.2722025649
 30
0.0
 10
24.2980573845
 20
50.2569238831
 30
0.0
 10
24.2803024847
 20
50.2351650644
 30
0.0
 10
24.2741265552
 20
50.2231175386
 30
0.0
  0
SPLINE
  5
31D
100
AcDbEntity
  8
0
100
AcDbSpline
 62
7
  6
BYLAYER
 70
0
 71
3
 72
9
 73
5
 74
0
 42
0.0000001
 43
0.0000001
 44
0.0000000001
 40
0.0
 40
0.0
 40
0.0
 40
0.0
 40
0.4982642825
 40
1.0
 40
1.0
 40
1.0
 40
1.0
 10
24.6466562956
 20
50.2972243484
 30
0.0
 10
24.6099316929
 20
50.2987882914
 30
0.0
 10
24.5358753742
 20
50.2960674238
 30
0.0
 10
24.4631595379
 20
50.2807774844
 30
0.0
 10
24.427977325
 20
50.2692776233
 30
0.0
  0
SPLINE
  5
31E
100
AcDbEntity
  8
0
100
AcDbSpline
 62
7
  6
BYLAYER
 70
0
 71
3
 72
9
 73
5
 74
0
 42
0.0000001
 43
0.0000001
 44
0.0000000001
 40
0.0
 40
0.0
 40
0.0
 40
0.0
 40
0.2562732917
 40
1.0
 40
1.0
 40
1.0
 40
1.0
 10
21.9598817829
 20
49.2277328796
 30
0.0
 10
22.1667749726
 20
49.3256447879
 30
0.0
 10
22.9793587428
 20
49.6963971079
 30
0.0
 10
23.8133667677
 20
50.0207757974
 30
0.0
 10
24.4435692867
 20
50.230754805
 30
0.0
  0
ELLIPSE
  5
31F
100
AcDbEntity
  8
0
100
AcDbEllipse
 62
7
  6
BYLAYER
 10
17.3981644663
 20
45.7252086466
 30
0.0
 11
0.219045592
 21
-0.0044346563
 31
0.0
 40
0.5279688279
 41
-2.637652926
 42
-2.3772244213
  0
ELLIPSE
  5
320
100
AcDbEntity
  8
0
100
AcDbEllipse
 62
7
  6
BYLAYER
 10
17.7912396359
 20
46.4300219059
 30
0.0
 11
0.2035277376
 21
0.0061025199
 31
0.0
 40
0.5766494756
 41
-1.0818124124
 42
-0.8200130246
  0
ELLIPSE
  5
321
100
AcDbEntity
  8
0
100
AcDbEllipse
 62
7
  6
BYLAYER
 10
16.0967225523
 20
45.4516978514
 30
0.0
 11
0.2035277376
 21
0.0061025199
 31
0.0
 40
0.5766494756
 41
-0.8200130246
 42
-0.5582136368
  0
ENDSEC
  0
SECTION
  2
OBJECTS
  0
DICTIONARY
  5
C
100
AcDbDictionary
280
0
281
1
  3
ACAD_GROUP
350
D
  3
ACAD_MLINESTYLE
350
17
  3
ACAD_LAYOUT
350
1A
  3
ACAD_PLOTSETTINGS
350
19
  3
ACAD_PLOTSTYLENAME
350
E
  0
DICTIONARY
  5
D
102
{ACAD_REACTORS
330
C
102
}
100
AcDbDictionary
280
0
281
1
  0
ACDBDICTIONARYWDFLT
  5
E
102
{ACAD_REACTORS
330
C
102
}
100
AcDbDictionary
281
1
  3
Normal
350
F
100
AcDbDictionaryWithDefault
340
F
  0
DICTIONARY
  5
17
102
{ACAD_REACTORS
330
C
102
}
100
AcDbDictionary
280
0
281
1
  3
Standard
350
18
  0
DICTIONARY
  5
19
102
{ACAD_REACTORS
330
C
102
}
100
AcDbDictionary
281
1
  0
DICTIONARY
  5
1A
102
{ACAD_REACTORS
330
C
102
}
100
AcDbDictionary
281
1
  3
Model
350
322
  3
Layout1
350
323
  0
ACDBPLACEHOLDER
  5
F
102
{ACAD_REACTORS
330
E
102
}
  0
MLINESTYLE
  5
18
102
{ACAD_REACTORS
330
17
102
}
100
AcDbMlineStyle
  2
STANDARD
 70
0
  3

 62
256
 51
90.0
 52
90.0
 71
2
 49
0.5
 62
256
  6
BYLAYER
 49
-0.5
 62
256
  6
BYLAYER
  0
LAYOUT
  5
322
102
{ACAD_REACTORS
330
1A
102
}
100
AcDbPlotSettings
  1

  2
none_device
  4

  6

 40
0.0
 41
0.0
 42
0.0
 43
0.0
 44
210.0
 45
297.0
 46
0.0
 47
0.0
 48
0.0
 49
0.0
140
0.0
141
0.0
142
1.0
143
1.0
 70
1024
 72
1
 73
0
 74
0
  7

 75
0
147
1.0
148
0.0
149
0.0
100
AcDbLayout
  1
Model
 70
0
 71
0
 10
0.0
 20
0.0
 11
210.0
 21
297.0
 12
0.0
 22
0.0
 32
0.0
 14
0.0
 24
0.0
 34
0.0
 15
0.0
 25
0.0
 35
0.0
146
0.0
 13
0.0
 23
0.0
 33
0.0
 16
1.0
 26
0.0
 36
0.0
 17
0.0
 27
1.0
 37
0.0
 76
0
330
210
345
0
346
0
  0
LAYOUT
  5
323
102
{ACAD_REACTORS
330
1A
102
}
100
AcDbPlotSettings
  1

  2
none_device
  4

  6

 40
0.0
 41
0.0
 42
0.0
 43
0.0
 44
210.0
 45
297.0
 46
0.0
 47
0.0
 48
0.0
 49
0.0
140
0.0
141
0.0
142
1.0
143
1.0
 70
0
 72
1
 73
0
 74
0
  7

 75
0
147
1.0
148
0.0
149
0.0
100
AcDbLayout
  1
Layout1
 70
0
 71
1
 10
0.0
 20
0.0
 11
210.0
 21
297.0
 12
0.0
 22
0.0
 32
0.0
 14
0.0
 24
0.0
 34
0.0
 15
0.0
 25
0.0
 35
0.0
146
0.0
 13
0.0
 23
0.0
 33
0.0
 16
1.0
 26
0.0
 36
0.0
 17
0.0
 27
1.0
 37
0.0
 76
0
330
211
345
0
346
0
  0
ENDSEC
  0
EOF
