999
DXF file: C:\Users\sesa63760\Dev\_Creo\CAD\MCADID0004756_3D-CAD\drw0001_1.dxf
999
Pro/ENGINEER 2019471 by Parametric Technology Corporation
  0
SECTION
  2
HEADER
  9
$ACADVER
  1
AC1024
  9
$DWGCODEPAGE
  3
ANSI_1252
  9
$EXTMAX
 10
27.2441988943
 20
38.5310812933
 30
0.0
  9
$EXTMIN
 10
0.0
 20
0.0
 30
0.0
  9
$LIMMIN
 10
0.0
 20
0.0
  9
$LIMMAX
 10
27.2441988943
 20
38.5310812933
  9
$VIEWCTR
 10
13.6220994471
 20
19.2655406467
  9
$VIEWSIZE
 40
38.5310812933
  9
$CLAYER
  8
0
  9
$LTSCALE
 40
2.5116556695
  9
$CELTYPE
  6
BYLAYER
  9
$DIMSCALE
 40
1.0
  9
$DIMASZ
 40
0.3243357011
  9
$DIMEXO
 40
1.0
  9
$DIMDLI
 40
1.7353257353
  9
$DIMEXE
 40
1.0
  9
$DIMCEN
 40
0.4109982005
  9
$DIMLFAC
 40
1.0
  9
$DIMBLK
  1
_FILLED
  9
$DIMALT
 70
0
  9
$DIMALTF
 40
0.0393700787
  9
$DIMTXT
 40
0.4540699816
  9
$DIMTOL
 70
1
  9
$DIMLIM
 70
0
  9
$DIMTFAC
 40
1.0
  9
$DIMTP
 40
0.01
  9
$DIMTM
 40
0.01
  9
$DIMGAP
 40
0.625
  9
$DIMDSEP
 70
46
  9
$AUNITS
 70
0
  9
$PDMODE
 70
3
  9
$PDSIZE
 40
0.3125
  9
$HANDSEED
  5
2E4
  9
$TILEMODE
 70
1
  9
$MEASUREMENT
 70
1
  9
$INSUNITS
 70
4
  0
ENDSEC
  0
SECTION
  2
CLASSES
  0
CLASS
  1
ACDBDICTIONARYWDFLT
  2
AcDbDictionaryWithDefault
  3
AutoCAD 2000
 90
0
 91
1
280
0
281
0
  0
CLASS
  1
ACDBPLACEHOLDER
  2
AcDbPlaceHolder
  3
AutoCAD 2000
 90
0
 91
1
280
0
281
0
  0
CLASS
  1
LAYOUT
  2
AcDbLayout
  3
AutoCAD 2000
 90
0
 91
0
280
0
281
0
  0
ENDSEC
  0
SECTION
  2
TABLES
  0
TABLE
  2
VPORT
  5
8
100
AcDbSymbolTable
 70
2
  0
VPORT
  5
1F4
100
AcDbSymbolTableRecord
100
AcDbViewportTableRecord
  2
*ACTIVE
 70
0
 10
0.0
 20
0.0
 11
1.0
 21
1.0
 12
13.6220994471
 22
19.2655406467
 13
0.0
 23
0.0
 14
1.0
 24
1.0
 15
0.0
 25
0.0
 16
0.0
 26
0.0
 36
1.0
 17
0.0
 27
0.0
 37
0.0
 40
38.5310812933
 41
0.7070707071
 42
50.0
 43
0.0
 44
0.0
 50
0.0
 51
0.0
 71
0
 72
100
 73
1
 74
1
 75
0
 76
0
 77
0
 78
0
  0
ENDTAB
  0
TABLE
  2
LTYPE
  5
5
100
AcDbSymbolTable
 70
6
  0
LTYPE
  5
14
100
AcDbSymbolTableRecord
100
AcDbLinetypeTableRecord
  2
BYBLOCK
 70
0
  3

 72
65
 73
0
 40
0.0
  0
LTYPE
  5
15
100
AcDbSymbolTableRecord
100
AcDbLinetypeTableRecord
  2
BYLAYER
 70
0
  3

 72
65
 73
0
 40
0.0
  0
LTYPE
  5
16
100
AcDbSymbolTableRecord
100
AcDbLinetypeTableRecord
  2
CONTINUOUS
 70
64
  3
Solid line
 72
65
 73
0
 40
0.0
  0
LTYPE
  5
1F5
100
AcDbSymbolTableRecord
100
AcDbLinetypeTableRecord
  2
CENTER
 70
64
  3
____ _ ____ _ ____ _ ____ _ ____ _ ____ _ ____
 72
65
 73
4
 40
0.6
 49
0.375
 74
0
 49
-0.075
 74
0
 49
0.075
 74
0
 49
-0.075
 74
0
  0
LTYPE
  5
1F6
100
AcDbSymbolTableRecord
100
AcDbLinetypeTableRecord
  2
HIDDEN
 70
64
  3
- - - - - - - - - - - - - - - - - - - -
 72
65
 73
2
 40
0.2
 49
0.1
 74
0
 49
-0.1
 74
0
  0
LTYPE
  5
1F7
100
AcDbSymbolTableRecord
100
AcDbLinetypeTableRecord
  2
PHANTOM
 70
64
  3
_____ _ _ _____ _ _ _____ _ _ _____
 72
65
 73
6
 40
0.8
 49
0.45
 74
0
 49
-0.05
 74
0
 49
0.1
 74
0
 49
-0.05
 74
0
 49
0.1
 74
0
 49
-0.05
 74
0
  0
LTYPE
  5
1F8
100
AcDbSymbolTableRecord
100
AcDbLinetypeTableRecord
  2
DOT
 70
64
  3
. . . . . . . . . . . . . . . . . . . .
 72
65
 73
2
 40
0.2
 49
0.1
 74
0
 49
-0.1
 74
0
  0
LTYPE
  5
1F9
100
AcDbSymbolTableRecord
100
AcDbLinetypeTableRecord
  2
DASHED
 70
64
  3
- - - - - - - - - - - - - - - - - - - -
 72
65
 73
2
 40
0.2
 49
0.1
 74
0
 49
-0.1
 74
0
  0
ENDTAB
  0
TABLE
  2
LAYER
  5
2
100
AcDbSymbolTable
 70
36
  0
LAYER
  5
10
100
AcDbSymbolTableRecord
100
AcDbLayerTableRecord
  2
0
 70
0
 62
7
  6
CONTINUOUS
370
-3
390
F
  0
LAYER
  5
1FA
100
AcDbSymbolTableRecord
100
AcDbLayerTableRecord
  2
DEFAULT_1
 70
0
 62
7
  6
CENTER
370
-3
390
F
  0
LAYER
  5
1FB
100
AcDbSymbolTableRecord
100
AcDbLayerTableRecord
  2
DEFAULT_2
 70
0
 62
7
  6
HIDDEN
370
-3
390
F
  0
LAYER
  5
1FC
100
AcDbSymbolTableRecord
100
AcDbLayerTableRecord
  2
DEFAULT_3
 70
0
 62
7
  6
PHANTOM
370
-3
390
F
  0
LAYER
  5
1FD
100
AcDbSymbolTableRecord
100
AcDbLayerTableRecord
  2
00_COMPONENTS
 70
0
 62
7
  6
CONTINUOUS
370
-3
390
F
  0
LAYER
  5
1FE
100
AcDbSymbolTableRecord
100
AcDbLayerTableRecord
  2
01_1_DEFAULT_DATUMS
 70
0
 62
7
  6
CONTINUOUS
370
-3
390
F
  0
LAYER
  5
1FF
100
AcDbSymbolTableRecord
100
AcDbLayerTableRecord
  2
01_PLANES
 70
0
 62
7
  6
CONTINUOUS
370
-3
390
F
  0
LAYER
  5
200
100
AcDbSymbolTableRecord
100
AcDbLayerTableRecord
  2
02_COORD_SYS
 70
0
 62
7
  6
CONTINUOUS
370
-3
390
F
  0
LAYER
  5
201
100
AcDbSymbolTableRecord
100
AcDbLayerTableRecord
  2
03_AXES
 70
0
 62
7
  6
CONTINUOUS
370
-3
390
F
  0
LAYER
  5
202
100
AcDbSymbolTableRecord
100
AcDbLayerTableRecord
  2
04_POINTS
 70
0
 62
7
  6
CONTINUOUS
370
-3
390
F
  0
LAYER
  5
203
100
AcDbSymbolTableRecord
100
AcDbLayerTableRecord
  2
05_CURVES
 70
0
 62
7
  6
CONTINUOUS
370
-3
390
F
  0
LAYER
  5
204
100
AcDbSymbolTableRecord
100
AcDbLayerTableRecord
  2
06_SURFS
 70
0
 62
7
  6
CONTINUOUS
370
-3
390
F
  0
LAYER
  5
205
100
AcDbSymbolTableRecord
100
AcDbLayerTableRecord
  2
07_COSMETICS
 70
0
 62
7
  6
CONTINUOUS
370
-3
390
F
  0
LAYER
  5
206
100
AcDbSymbolTableRecord
100
AcDbLayerTableRecord
  2
10_NOTES
 70
0
 62
7
  6
CONTINUOUS
370
-3
390
F
  0
LAYER
  5
207
100
AcDbSymbolTableRecord
100
AcDbLayerTableRecord
  2
11_NOTES_PUB
 70
0
 62
7
  6
CONTINUOUS
370
-3
390
F
  0
LAYER
  5
208
100
AcDbSymbolTableRecord
100
AcDbLayerTableRecord
  2
13_REF_GTOL
 70
0
 62
7
  6
CONTINUOUS
370
-3
390
F
  0
LAYER
  5
209
100
AcDbSymbolTableRecord
100
AcDbLayerTableRecord
  2
16_MISC
 70
0
 62
7
  6
CONTINUOUS
370
-3
390
F
  0
LAYER
  5
20A
100
AcDbSymbolTableRecord
100
AcDbLayerTableRecord
  2
17_NO_PRINT
 70
0
 62
7
  6
CONTINUOUS
370
-3
390
F
  0
LAYER
  5
20B
100
AcDbSymbolTableRecord
100
AcDbLayerTableRecord
  2
18_DATUM_CAMS_JOINTS
 70
0
 62
7
  6
CONTINUOUS
370
-3
390
F
  0
LAYER
  5
20C
100
AcDbSymbolTableRecord
100
AcDbLayerTableRecord
  2
19_DATUM_FUNCTIONAL
 70
0
 62
7
  6
CONTINUOUS
370
-3
390
F
  0
LAYER
  5
20D
100
AcDbSymbolTableRecord
100
AcDbLayerTableRecord
  2
20_DATUM_KINEMATIC_SCHEME
 70
0
 62
7
  6
CONTINUOUS
370
-3
390
F
  0
ENDTAB
  0
TABLE
  2
STYLE
  5
3
100
AcDbSymbolTable
 70
1
  0
STYLE
  5
11
100
AcDbSymbolTableRecord
100
AcDbTextStyleTableRecord
  2
STANDARD
 70
0
 40
0.0
 41
1.0
 50
0.0
 71
0
 42
0.2
  3
ARIAL.TTF
  4

  0
STYLE
  5
20E
100
AcDbSymbolTableRecord
100
AcDbTextStyleTableRecord
  2
TEXTSTYLE_1
 70
0
 40
0.0
 41
0.8
 50
0.0
 71
0
 42
0.2
  3
gdt
  4

  0
ENDTAB
  0
TABLE
  2
VIEW
  5
6
100
AcDbSymbolTable
 70
0
  0
ENDTAB
  0
TABLE
  2
UCS
  5
7
100
AcDbSymbolTable
 70
0
  0
ENDTAB
  0
TABLE
  2
APPID
  5
9
100
AcDbSymbolTable
 70
1
  0
APPID
  5
20F
100
AcDbSymbolTableRecord
100
AcDbRegAppTableRecord
  2
ACAD
 70
0
  0
ENDTAB
  0
TABLE
  2
BLOCK_RECORD
  5
1
100
AcDbSymbolTable
 70
0
  0
BLOCK_RECORD
  5
210
100
AcDbSymbolTableRecord
100
AcDbBlockTableRecord
  2
*Model_Space
  0
BLOCK_RECORD
  5
211
100
AcDbSymbolTableRecord
100
AcDbBlockTableRecord
  2
*Paper_Space
  0
BLOCK_RECORD
  5
212
100
AcDbSymbolTableRecord
100
AcDbBlockTableRecord
  2
_FILLED
  0
ENDTAB
  0
TABLE
  2
DIMSTYLE
  5
A
100
AcDbSymbolTable
 70
1
100
AcDbDimStyleTable
 71
0
  0
DIMSTYLE
105
213
100
AcDbSymbolTableRecord
100
AcDbDimStyleTableRecord
  2
STANDARD
 70
0
  3

  4

 40
1.0
 41
0.3243357011
 42
1.0
 43
0.38
 44
1.0
 45
0.0
 46
0.0
 47
0.01
 48
0.01
140
0.4540699816
141
0.09
142
0.0
143
25.4
144
1.0
145
0.0
146
1.0
147
0.625
 71
1
 72
0
 73
0
 74
0
 75
0
 76
0
 77
1
 78
8
 79
2
170
0
171
1
172
0
173
0
174
0
175
0
176
0
177
0
178
0
270
2
179
2
271
2
272
2
273
2
274
2
275
0
280
0
281
0
282
0
283
1
284
8
285
0
286
0
287
3
288
0
340
11
278
46
341
212
342
212
343
212
344
212
  0
ENDTAB
  0
ENDSEC
  0
SECTION
  2
BLOCKS
  0
BLOCK
  5
20
100
AcDbEntity
  8
0
100
AcDbBlockBegin
  2
*Model_Space
 70
0
 10
0.0
 20
0.0
 30
0.0
  3
*Model_Space
  1

  0
ENDBLK
  5
21
100
AcDbEntity
  8
0
100
AcDbBlockEnd
  0
BLOCK
  5
1C
100
AcDbEntity
  8
0
100
AcDbBlockBegin
  2
*Paper_Space
 70
0
 10
0.0
 20
0.0
 30
0.0
  3
*Paper_Space
  1

  0
ENDBLK
  5
1D
100
AcDbEntity
  8
0
100
AcDbBlockEnd
  0
BLOCK
  5
214
100
AcDbEntity
  8
0
100
AcDbBlockBegin
  2
_FILLED
 70
64
 10
0.0
 20
0.0
  3
_FILLED
  1

  0
SOLID
  5
215
100
AcDbEntity
  8
0
  6
BYBLOCK
 62
0
100
AcDbTrace
 10
0.0
 20
0.0
 11
-1.0
 21
0.25
 12
-1.0
 22
-0.25
 13
-1.0
 23
-0.25
  0
ENDBLK
  5
216
100
AcDbEntity
  8
0
  6
BYBLOCK
 62
0
100
AcDbBlockEnd
  0
ENDSEC
  0
SECTION
  2
ENTITIES
  0
LWPOLYLINE
  5
217
100
AcDbEntity
  8
0
100
AcDbPolyline
 62
7
  6
BYLAYER
 90
3
 70
0
 10
11.1293582502
 20
34.8656958585
 10
11.9041048256
 20
35.304677558
 10
12.0701460072
 20
35.3485306831
  0
LWPOLYLINE
  5
218
100
AcDbEntity
  8
0
100
AcDbPolyline
 62
7
  6
BYLAYER
 90
3
 70
0
 10
7.7573311641
 20
5.9256264111
 10
7.5682044723
 20
6.2551461306
 10
7.4836795152
 20
6.8513261923
  0
LINE
  5
219
100
AcDbEntity
  8
0
100
AcDbLine
 62
7
  6
BYLAYER
 10
8.1450626369
 20
5.1069970782
 11
7.666348219
 21
6.0418787631
  0
LINE
  5
21A
100
AcDbEntity
  8
0
100
AcDbLine
 62
7
  6
BYLAYER
 10
9.5910211644
 20
29.5500306642
 11
10.2981308895
 21
29.9582923269
  0
LWPOLYLINE
  5
21B
100
AcDbEntity
  8
0
100
AcDbPolyline
 62
7
  6
BYLAYER
 90
4
 70
0
 10
7.8105770162
 20
10.2242767928
 10
6.5494843941
 20
11.3813285722
 10
5.9346934601
 20
12.7009315887
 10
5.8837260204
 20
13.2200450522
  0
LINE
  5
21C
100
AcDbEntity
  8
0
100
AcDbLine
 62
7
  6
BYLAYER
 10
4.35315083
 20
23.5519473504
 11
4.35315083
 21
21.2695634741
  0
LINE
  5
21D
100
AcDbEntity
  8
0
100
AcDbLine
 62
7
  6
BYLAYER
 10
4.35315083
 20
20.2859376819
 11
4.35315083
 21
18.0035538056
  0
LINE
  5
21E
100
AcDbEntity
  8
0
100
AcDbLine
 62
7
  6
BYLAYER
 10
7.833679662
 20
25.849104094
 11
7.8232468519
 21
25.8430835556
  0
LWPOLYLINE
  5
21F
100
AcDbEntity
  8
0
100
AcDbPolyline
 62
7
  6
BYLAYER
 90
8
 70
0
 10
6.5383983193
 20
12.8657348784
 10
7.7902209448
 20
11.7076726198
 10
8.6255083908
 20
11.2219728743
 10
10.6223768834
 20
10.4909986619
 10
12.9032972058
 20
10.1314197886
 10
15.2665133527
 20
10.1750423617
 10
17.5029899424
 20
10.6180078003
 10
19.4149021852
 20
11.4211341405
  0
LWPOLYLINE
  5
220
100
AcDbEntity
  8
0
100
AcDbPolyline
 62
7
  6
BYLAYER
 90
8
 70
0
 10
7.4631688555
 20
12.3881860287
 10
7.9209944786
 20
11.9604237467
 10
8.7334829667
 20
11.4841014243
 10
10.6785234439
 20
10.7662424782
 10
12.9022558533
 20
10.4110833441
 10
15.2101097107
 20
10.4497843733
 10
17.3990102133
 20
10.880244384
 10
19.2744940447
 20
11.666663952
  0
LINE
  5
221
100
AcDbEntity
  8
0
100
AcDbLine
 62
7
  6
BYLAYER
 10
6.8318164554
 20
10.4413862315
 11
6.7791972603
 21
10.5988247427
  0
LWPOLYLINE
  5
222
100
AcDbEntity
  8
0
100
AcDbPolyline
 62
7
  6
BYLAYER
 90
3
 70
0
 10
5.9130025843
 20
14.3827075247
 10
5.9318708312
 20
14.1851381009
 10
6.5383983193
 20
12.8657348784
  0
LINE
  5
223
100
AcDbEntity
  8
0
100
AcDbLine
 62
7
  6
BYLAYER
 10
5.8836795152
 20
14.4430789802
 11
5.8836795152
 21
13.2200450459
  0
LINE
  5
224
100
AcDbEntity
  8
0
100
AcDbLine
 62
7
  6
BYLAYER
 10
7.8336795152
 20
25.8487410072
 11
7.8232468519
 21
25.8430835556
  0
LINE
  5
225
100
AcDbEntity
  8
0
100
AcDbLine
 62
7
  6
BYLAYER
 10
7.8336795152
 20
25.8477053813
 11
7.8232468515
 21
25.8430835554
  0
LINE
  5
226
100
AcDbEntity
  8
0
100
AcDbLine
 62
7
  6
BYLAYER
 10
5.6233191506
 20
17.8368773117
 11
6.2654042592
 21
16.9419349186
  0
LINE
  5
227
100
AcDbEntity
  8
0
100
AcDbLine
 62
7
  6
BYLAYER
 10
5.4320768978
 20
18.6755069945
 11
5.6233191506
 21
17.8368773117
  0
LINE
  5
228
100
AcDbEntity
  8
0
100
AcDbLine
 62
7
  6
BYLAYER
 10
6.7700504715
 20
11.1789593188
 11
6.7700504715
 21
10.6540646173
  0
LINE
  5
229
100
AcDbEntity
  8
0
100
AcDbLine
 62
7
  6
BYLAYER
 10
6.8934874723
 20
18.0784520238
 11
6.8934874723
 21
15.7960681476
  0
LINE
  5
22A
100
AcDbEntity
  8
0
100
AcDbLine
 62
7
  6
BYLAYER
 10
6.8934874723
 20
14.8124423553
 11
6.8934874723
 21
12.5300584791
  0
LINE
  5
22B
100
AcDbEntity
  8
0
100
AcDbLine
 62
7
  6
BYLAYER
 10
7.4565967664
 20
10.2558854474
 11
7.4565967664
 21
10.2279999682
  0
LINE
  5
22C
100
AcDbEntity
  8
0
100
AcDbLine
 62
7
  6
BYLAYER
 10
7.4836795152
 20
6.8513261923
 11
7.4836795152
 21
8.4843310266
  0
LINE
  5
22D
100
AcDbEntity
  8
0
100
AcDbLine
 62
7
  6
BYLAYER
 10
7.4836795152
 20
9.6274344105
 11
7.4836795152
 21
10.1982699281
  0
LINE
  5
22E
100
AcDbEntity
  8
0
100
AcDbLine
 62
7
  6
BYLAYER
 10
7.6493985063
 20
6.0331995131
 11
7.6493985063
 21
7.6522434885
  0
LINE
  5
22F
100
AcDbEntity
  8
0
100
AcDbLine
 62
7
  6
BYLAYER
 10
7.6493985063
 20
8.7953468725
 11
7.6493985063
 21
9.5710241687
  0
LINE
  5
230
100
AcDbEntity
  8
0
100
AcDbLine
 62
7
  6
BYLAYER
 10
7.7573311641
 20
5.8006441549
 11
7.7573311641
 21
7.4196881302
  0
LINE
  5
231
100
AcDbEntity
  8
0
100
AcDbLine
 62
7
  6
BYLAYER
 10
7.7573311641
 20
8.5627915142
 11
7.7573311641
 21
9.3384688105
  0
LINE
  5
232
100
AcDbEntity
  8
0
100
AcDbLine
 62
7
  6
BYLAYER
 10
7.8336795152
 20
22.5770738871
 11
7.8336795152
 21
27.1005861371
  0
LWPOLYLINE
  5
233
100
AcDbEntity
  8
0
100
AcDbPolyline
 62
7
  6
BYLAYER
 90
3
 70
0
 10
16.9413812172
 20
14.5839179348
 10
18.0837362481
 20
14.857108217
 10
19.844112179
 20
15.63698106
  0
LWPOLYLINE
  5
234
100
AcDbEntity
  8
0
100
AcDbPolyline
 62
7
  6
BYLAYER
 90
3
 70
0
 10
8.1967732162
 20
15.4715001567
 10
9.5837113047
 20
14.8570791556
 10
11.633751817
 20
14.3668308967
  0
LINE
  5
235
100
AcDbEntity
  8
0
100
AcDbLine
 62
7
  6
BYLAYER
 10
10.3336795152
 20
27.523737439
 11
10.3336795152
 21
33.5460128263
  0
LINE
  5
236
100
AcDbEntity
  8
0
100
AcDbLine
 62
7
  6
BYLAYER
 10
16.3740161575
 20
16.6118545235
 11
16.3740161575
 21
14.3294706473
  0
LINE
  5
237
100
AcDbEntity
  8
0
100
AcDbLine
 62
7
  6
BYLAYER
 10
16.3740161575
 20
13.345844855
 11
16.3740161575
 21
11.0634609788
  0
LINE
  5
238
100
AcDbEntity
  8
0
100
AcDbLine
 62
7
  6
BYLAYER
 10
19.0781885651
 20
12.0488228177
 11
19.0922359175
 21
12.0067926374
  0
LINE
  5
239
100
AcDbEntity
  8
0
100
AcDbLine
 62
7
  6
BYLAYER
 10
17.3336795152
 20
27.5085177953
 11
17.3336795152
 21
33.5460128263
  0
LINE
  5
23A
100
AcDbEntity
  8
0
100
AcDbLine
 62
7
  6
BYLAYER
 10
18.1739691702
 20
4.1892345206
 11
18.1739691702
 21
5.808278496
  0
LINE
  5
23B
100
AcDbEntity
  8
0
100
AcDbLine
 62
7
  6
BYLAYER
 10
18.1739691702
 20
6.95138188
 11
18.1739691702
 21
7.7270591762
  0
LINE
  5
23C
100
AcDbEntity
  8
0
100
AcDbLine
 62
7
  6
BYLAYER
 10
18.2501696759
 20
8.6044293255
 11
18.2501696759
 21
8.5582801061
  0
LINE
  5
23D
100
AcDbEntity
  8
0
100
AcDbLine
 62
7
  6
BYLAYER
 10
18.4688408656
 20
4.3594777571
 11
18.4688408656
 21
5.9785217325
  0
LINE
  5
23E
100
AcDbEntity
  8
0
100
AcDbLine
 62
7
  6
BYLAYER
 10
18.4688408656
 20
7.1216251165
 11
18.4688408656
 21
7.8973024127
  0
LINE
  5
23F
100
AcDbEntity
  8
0
100
AcDbLine
 62
7
  6
BYLAYER
 10
19.139954549
 20
9.8402399285
 11
19.139954549
 21
8.8967357302
  0
LINE
  5
240
100
AcDbEntity
  8
0
100
AcDbLine
 62
7
  6
BYLAYER
 10
19.8336795152
 20
16.0452322689
 11
19.8336795152
 21
27.1005861371
  0
LINE
  5
241
100
AcDbEntity
  8
0
100
AcDbLine
 62
7
  6
BYLAYER
 10
20.1836795152
 20
6.8513261923
 11
20.1836795152
 21
8.4843310266
  0
LINE
  5
242
100
AcDbEntity
  8
0
100
AcDbLine
 62
7
  6
BYLAYER
 10
20.1836795152
 20
9.6274344105
 11
20.1836795152
 21
10.3002162939
  0
LINE
  5
243
100
AcDbEntity
  8
0
100
AcDbLine
 62
7
  6
BYLAYER
 10
19.139954549
 20
8.8967357302
 11
19.1308077602
 21
8.8414958556
  0
LWPOLYLINE
  5
244
100
AcDbEntity
  8
0
100
AcDbPolyline
 62
7
  6
BYLAYER
 90
3
 70
0
 10
19.844112179
 20
15.63698106
 10
21.1948962191
 20
16.6533265417
 10
21.4925520236
 20
17.0682106161
  0
LINE
  5
245
100
AcDbEntity
  8
0
100
AcDbLine
 62
7
  6
BYLAYER
 10
21.7836795152
 20
13.9950845318
 11
21.7836795152
 21
13.2200450459
  0
LWPOLYLINE
  5
246
100
AcDbEntity
  8
0
100
AcDbPolyline
 62
7
  6
BYLAYER
 90
3
 70
0
 10
21.7836330101
 20
13.2200450396
 10
21.6469825636
 20
12.3725591188
 10
20.8662146843
 20
11.0795199327
  0
LINE
  5
247
100
AcDbEntity
  8
0
100
AcDbLine
 62
7
  6
BYLAYER
 10
19.0781885651
 20
8.6840573444
 11
19.1308077602
 21
8.8414958556
  0
LINE
  5
248
100
AcDbEntity
  8
0
100
AcDbLine
 62
7
  6
BYLAYER
 10
19.8440621316
 20
25.8431124498
 11
19.8336795152
 21
25.8477120045
  0
LINE
  5
249
100
AcDbEntity
  8
0
100
AcDbLine
 62
7
  6
BYLAYER
 10
19.8440621316
 20
25.8431124498
 11
19.8348785293
 21
25.8484063742
  0
LINE
  5
24A
100
AcDbEntity
  8
0
100
AcDbLine
 62
7
  6
BYLAYER
 10
23.3142082005
 20
20.6187523498
 11
23.3142082005
 21
18.3363684735
  0
LINE
  5
24B
100
AcDbEntity
  8
0
100
AcDbLine
 62
7
  6
BYLAYER
 10
23.3142082005
 20
17.3527426813
 11
23.3142082005
 21
15.070358805
  0
LWPOLYLINE
  5
24C
100
AcDbEntity
  8
0
100
AcDbPolyline
 62
7
  6
BYLAYER
 90
9
 70
0
 10
19.2107002237
 20
7.7524084271
 10
19.0465636657
 20
7.3031363161
 10
18.0993629002
 20
6.3896148945
 10
17.4456467003
 20
6.0136287855
 10
15.8664332424
 20
5.4717418268
 10
14.0660765918
 20
5.2540029266
 10
12.2430402108
 20
5.3843836214
 10
10.5833364587
 20
5.851545934
 10
9.8738980269
 20
6.1981637649
  0
LWPOLYLINE
  5
24D
100
AcDbEntity
  8
0
100
AcDbPolyline
 62
7
  6
BYLAYER
 90
3
 70
0
 10
20.3634033272
 20
10.6857595503
 10
20.0166896837
 20
9.9419899534
 10
19.139954549
 20
9.1400174178
  0
LWPOLYLINE
  5
24E
100
AcDbEntity
  8
0
100
AcDbPolyline
 62
7
  6
BYLAYER
 90
3
 70
0
 10
19.313779862
 20
11.689184046
 10
20.6839823344
 20
12.760566095
 10
21.2001779615
 20
13.6096924004
  0
LINE
  5
24F
100
AcDbEntity
  8
0
100
AcDbLine
 62
7
  6
BYLAYER
 10
20.8662146843
 20
11.0795199327
 11
19.4552018302
 21
9.9745310475
  0
LWPOLYLINE
  5
250
100
AcDbEntity
  8
0
100
AcDbPolyline
 62
7
  6
BYLAYER
 90
7
 70
0
 10
19.4552018302
 20
9.9745310475
 10
17.5466864804
 20
9.1615290736
 10
15.3123138918
 20
8.7102644158
 10
12.9426605925
 20
8.6590968878
 10
10.6559202884
 20
9.0127991825
 10
8.6507832686
 20
9.7396732403
 10
7.8105770162
 20
10.2242767928
  0
LINE
  5
251
100
AcDbEntity
  8
0
100
AcDbLine
 62
7
  6
BYLAYER
 10
17.369289234
 20
29.9582570544
 11
18.0764111778
 21
29.5499883372
  0
LWPOLYLINE
  5
252
100
AcDbEntity
  8
0
100
AcDbPolyline
 62
7
  6
BYLAYER
 90
8
 70
0
 10
17.7227830036
 20
8.157787557
 10
17.0306539442
 20
7.819265756
 10
15.4028275713
 20
7.3597055613
 10
13.6042236139
 20
7.2304971265
 10
11.8243807764
 20
7.4472184516
 10
10.2704172746
 20
7.984255182
 10
9.630848939
 20
8.3548769659
 10
9.3077865181
 20
8.6686556804
  0
LWPOLYLINE
  5
253
100
AcDbEntity
  8
0
100
AcDbPolyline
 62
7
  6
BYLAYER
 90
8
 70
0
 10
18.2604602247
 20
4.0535164523
 10
17.4885706709
 20
3.6675007524
 10
15.7064379519
 20
3.1426933422
 10
13.7565937799
 20
2.974154845
 10
11.8159279539
 20
3.1706124167
 10
10.9035338768
 20
3.4026815181
 10
9.3045315497
 20
4.1150925818
 10
8.1450626369
 20
5.1069970782
  0
LWPOLYLINE
  5
254
100
AcDbEntity
  8
0
100
AcDbPolyline
 62
7
  6
BYLAYER
 90
8
 70
0
 10
18.3238262699
 20
4.2589974011
 10
16.7216016229
 20
3.5862845145
 10
14.8382810788
 20
3.2313744582
 10
12.8571776418
 20
3.2288124025
 10
10.9711220143
 20
3.578847725
 10
9.36369342
 20
4.2474097377
 10
8.1913509204
 20
5.1694239575
 10
7.8112895979
 20
5.8316134094
  0
LINE
  5
255
100
AcDbEntity
  8
0
100
AcDbLine
 62
7
  6
BYLAYER
 10
12.8919823287
 20
35.5655858173
 11
12.9730368756
 21
35.5869931281
  0
LINE
  5
256
100
AcDbEntity
  8
0
100
AcDbLine
 62
7
  6
BYLAYER
 10
12.9730368756
 20
35.5869931281
 11
14.0978884016
 21
35.6404035758
  0
ARC
  5
257
100
AcDbEntity
  8
0
100
AcDbCircle
 62
7
  6
BYLAYER
 10
-47.5603431564
 20
-10.1376519902
 40
76.019233285
100
AcDbArc
 50
21.199977459
 51
21.8285275043
  0
ARC
  5
258
100
AcDbEntity
  8
0
100
AcDbCircle
 62
7
  6
BYLAYER
 10
5.7657819967
 20
-29.895292196
 40
57.964190439
100
AcDbArc
 50
74.9940101739
 51
75.9527922876
  0
ARC
  5
259
100
AcDbEntity
  8
0
100
AcDbCircle
 62
7
  6
BYLAYER
 10
36.4488129264
 20
-23.5512797416
 40
54.3307754117
100
AcDbArc
 50
125.8116826116
 51
126.2099303261
  0
ARC
  5
25A
100
AcDbEntity
  8
0
100
AcDbCircle
 62
7
  6
BYLAYER
 10
15.6875111565
 20
17.9701887973
 40
7.5354867645
100
AcDbArc
 50
299.6463455193
 51
299.9995372344
  0
ARC
  5
25B
100
AcDbEntity
  8
0
100
AcDbCircle
 62
7
  6
BYLAYER
 10
15.2266122118
 20
9.6402551288
 40
6.1968226213
100
AcDbArc
 50
298.3998882595
 51
299.9872185319
  0
ARC
  5
25C
100
AcDbEntity
  8
0
100
AcDbCircle
 62
7
  6
BYLAYER
 10
12.4164806965
 20
12.3597286814
 40
6.1477318859
100
AcDbArc
 50
240.0090545586
 51
241.4908988476
  0
ARC
  5
25D
100
AcDbEntity
  8
0
100
AcDbCircle
 62
7
  6
BYLAYER
 10
15.3538982765
 20
9.4032497923
 40
5.9400172517
100
AcDbArc
 50
299.999101926
 51
300.4453605077
  0
ARC
  5
25E
100
AcDbEntity
  8
0
100
AcDbCircle
 62
7
  6
BYLAYER
 10
15.3920593019
 20
9.3516566381
 40
5.8641653089
100
AcDbArc
 50
299.9964384915
 51
301.6463742236
  0
ARC
  5
25F
100
AcDbEntity
  8
0
100
AcDbCircle
 62
7
  6
BYLAYER
 10
15.3658957341
 20
8.9817311457
 40
5.7154005682
100
AcDbArc
 50
300.4276525036
 51
302.8069207155
  0
ARC
  5
260
100
AcDbEntity
  8
0
100
AcDbCircle
 62
7
  6
BYLAYER
 10
13.9743727296
 20
30.6426783356
 40
4.9955991118
100
AcDbArc
 50
74.2737954634
 51
77.2605584066
  0
ARC
  5
261
100
AcDbEntity
  8
0
100
AcDbCircle
 62
7
  6
BYLAYER
 10
12.6653196639
 20
25.8580308973
 40
4.7345249481
100
AcDbArc
 50
119.5389913568
 51
119.9989701389
  0
ARC
  5
262
100
AcDbEntity
  8
0
100
AcDbCircle
 62
7
  6
BYLAYER
 10
14.6153060073
 20
32.2050233609
 40
3.3039513584
100
AcDbArc
 50
59.5331888289
 51
60.357837796
  0
ARC
  5
263
100
AcDbEntity
  8
0
100
AcDbCircle
 62
7
  6
BYLAYER
 10
12.9815237389
 20
34.9282112835
 40
3.2457971305
100
AcDbArc
 50
239.0617325944
 51
240.003891293
  0
ARC
  5
264
100
AcDbEntity
  8
0
100
AcDbCircle
 62
7
  6
BYLAYER
 10
14.6522613411
 20
32.2680756492
 40
3.2308673405
100
AcDbArc
 50
59.061189492
 51
59.5311081541
  0
ARC
  5
265
100
AcDbEntity
  8
0
100
AcDbCircle
 62
7
  6
BYLAYER
 10
14.6510010422
 20
32.3206495799
 40
3.1805164989
100
AcDbArc
 50
59.2656336575
 51
60.0012413982
  0
ARC
  5
266
100
AcDbEntity
  8
0
100
AcDbCircle
 62
7
  6
BYLAYER
 10
13.0123102819
 20
35.0426223432
 40
3.172461509
100
AcDbArc
 50
239.0639578486
 51
240.0016660375
  0
ARC
  5
267
100
AcDbEntity
  8
0
100
AcDbCircle
 62
7
  6
BYLAYER
 10
12.8908060955
 20
29.03842458
 40
3.1618638241
100
AcDbArc
 50
237.077225597
 51
238.5863398561
  0
ARC
  5
268
100
AcDbEntity
  8
0
100
AcDbCircle
 62
7
  6
BYLAYER
 10
14.676853522
 20
32.3643393633
 40
3.1297509955
100
AcDbArc
 50
59.0607160717
 51
59.2636813183
  0
ARC
  5
269
100
AcDbEntity
  8
0
100
AcDbCircle
 62
7
  6
BYLAYER
 10
14.7943494865
 20
29.0092991663
 40
3.1277338042
100
AcDbArc
 50
301.4141392679
 51
303.1021106892
  0
ARC
  5
26A
100
AcDbEntity
  8
0
100
AcDbCircle
 62
7
  6
BYLAYER
 10
14.7035376258
 20
32.4087624548
 40
3.0779296668
100
AcDbArc
 50
58.5183750439
 51
59.0616109434
  0
ARC
  5
26B
100
AcDbEntity
  8
0
100
AcDbCircle
 62
7
  6
BYLAYER
 10
12.804321341
 20
28.9044313684
 40
3.0023842411
100
AcDbArc
 50
235.2044961376
 51
237.0728218592
  0
ARC
  5
26C
100
AcDbEntity
  8
0
100
AcDbCircle
 62
7
  6
BYLAYER
 10
10.010357058
 20
6.9878085725
 40
2.5466615467
100
AcDbArc
 50
202.0143823133
 51
207.785643352
  0
ARC
  5
26D
100
AcDbEntity
  8
0
100
AcDbCircle
 62
7
  6
BYLAYER
 10
16.1956744711
 20
27.7531135877
 40
1.2029985748
100
AcDbArc
 50
0.0321239169
 51
11.1916760107
  0
ARC
  5
26E
100
AcDbEntity
  8
0
100
AcDbCircle
 62
7
  6
BYLAYER
 10
11.4708288373
 20
27.7532354135
 40
1.2021427906
100
AcDbArc
 50
168.0673290594
 51
179.9736595798
  0
ARC
  5
26F
100
AcDbEntity
  8
0
100
AcDbCircle
 62
7
  6
BYLAYER
 10
7.2940192796
 20
10.8931826914
 40
0.6613245242
100
AcDbArc
 50
283.6792047295
 51
284.4466546676
  0
SPLINE
  5
270
100
AcDbEntity
  8
0
100
AcDbSpline
 62
7
  6
BYLAYER
 70
0
 71
3
 72
15
 73
11
 74
0
 42
0.0000001
 43
0.0000001
 44
0.0000000001
 40
0.0
 40
0.0
 40
0.0
 40
0.0
 40
0.1435199101
 40
0.2815987896
 40
0.4140474924
 40
0.5409072695
 40
0.6624492216
 40
0.7790813309
 40
0.8913628296
 40
1.0
 40
1.0
 40
1.0
 40
1.0
 10
6.9558566141
 20
10.3064785744
 30
0.0
 10
6.9481010334
 20
10.3109561597
 30
0.0
 10
6.9331567297
 20
10.3202270514
 30
0.0
 10
6.9121784838
 20
10.335343331
 30
0.0
 10
6.8931883743
 20
10.351327714
 30
0.0
 10
6.8763034852
 20
10.3680911888
 30
0.0
 10
6.861612379
 20
10.385540389
 30
0.0
 10
6.8492018611
 20
10.403591398
 30
0.0
 10
6.8391383188
 20
10.4221390457
 30
0.0
 10
6.8339654081
 20
10.4349570104
 30
0.0
 10
6.8318171063
 20
10.4413863034
 30
0.0
  0
SPLINE
  5
271
100
AcDbEntity
  8
0
100
AcDbSpline
 62
7
  6
BYLAYER
 70
0
 71
3
 72
16
 73
12
 74
0
 42
0.0000001
 43
0.0000001
 44
0.0000000001
 40
0.0
 40
0.0
 40
0.0
 40
0.0
 40
0.1267429927
 40
0.2566635604
 40
0.3879107105
 40
0.5185713216
 40
0.6467688515
 40
0.7707171005
 40
0.8888862603
 40
0.9454153729
 40
1.0
 40
1.0
 40
1.0
 40
1.0
 10
7.4504129474
 20
10.2506166271
 30
0.0
 10
7.4295360889
 20
10.2455348071
 30
0.0
 10
7.3867416218
 20
10.2372759254
 30
0.0
 10
7.3212453285
 20
10.2305655721
 30
0.0
 10
7.2547470657
 20
10.2294645103
 30
0.0
 10
7.1886881695
 20
10.2339978705
 30
0.0
 10
7.1244900335
 20
10.2440701082
 30
0.0
 10
7.0635333355
 20
10.2594580206
 30
0.0
 10
7.0158189481
 20
10.2767006586
 30
0.0
 10
6.9804959882
 20
10.2929651021
 30
0.0
 10
6.9638705233
 20
10.3018518465
 30
0.0
 10
6.9558566141
 20
10.3064785744
 30
0.0
  0
SPLINE
  5
272
100
AcDbEntity
  8
0
100
AcDbSpline
 62
7
  6
BYLAYER
 70
0
 71
3
 72
9
 73
5
 74
0
 42
0.0000001
 43
0.0000001
 44
0.0000000001
 40
0.0
 40
0.0
 40
0.0
 40
0.0
 40
0.504410018
 40
1.0
 40
1.0
 40
1.0
 40
1.0
 10
6.7791981873
 20
10.598824846
 30
0.0
 10
6.776204472
 20
10.6077831092
 30
0.0
 10
6.7716108139
 20
10.6260272616
 30
0.0
 10
6.770051777
 20
10.6447845222
 30
0.0
 10
6.7700517654
 20
10.6540646173
 30
0.0
  0
SPLINE
  5
273
100
AcDbEntity
  8
0
100
AcDbSpline
 62
7
  6
BYLAYER
 70
0
 71
3
 72
16
 73
12
 74
0
 42
0.0000001
 43
0.0000001
 44
0.0000000001
 40
0.0
 40
0.0
 40
0.0
 40
0.0
 40
0.1273947161
 40
0.2576249461
 40
0.3889069388
 40
0.5194113764
 40
0.6473465382
 40
0.7710175833
 40
0.8889668421
 40
0.9454329104
 40
1.0
 40
1.0
 40
1.0
 40
1.0
 10
7.459025939
 20
10.3825438168
 30
0.0
 10
7.4359773726
 20
10.3773386966
 30
0.0
 10
7.3888564472
 20
10.3689691544
 30
0.0
 10
7.3169323367
 20
10.3624969653
 30
0.0
 10
7.2441377485
 20
10.3620410405
 30
0.0
 10
7.1719827431
 20
10.3676113604
 30
0.0
 10
7.1019529205
 20
10.3790953064
 30
0.0
 10
7.0354916044
 20
10.3962512636
 30
0.0
 10
6.9834573823
 20
10.4152656494
 30
0.0
 10
6.9448968423
 20
10.4331117642
 30
0.0
 10
6.9267281529
 20
10.4428408902
 30
0.0
 10
6.9179630337
 20
10.4479013196
 30
0.0
  0
SPLINE
  5
274
100
AcDbEntity
  8
0
100
AcDbSpline
 62
7
  6
BYLAYER
 70
0
 71
3
 72
14
 73
10
 74
0
 42
0.0000001
 43
0.0000001
 44
0.0000000001
 40
0.0
 40
0.0
 40
0.0
 40
0.0
 40
0.1435661363
 40
0.2816736844
 40
0.5408016212
 40
0.6623714252
 40
0.7790338151
 40
0.891340381
 40
1.0
 40
1.0
 40
1.0
 40
1.0
 10
6.9179630337
 20
10.4479013196
 30
0.0
 10
6.9092858346
 20
10.4529109895
 30
0.0
 10
6.8925642081
 20
10.4632843765
 30
0.0
 10
6.8619298346
 20
10.48535772
 30
0.0
 10
6.8349152563
 20
10.5097611394
 30
0.0
 10
6.8125318764
 20
10.5363483733
 30
0.0
 10
6.7986460015
 20
10.5565427814
 30
0.0
 10
6.7873866937
 20
10.5772919679
 30
0.0
 10
6.7816017725
 20
10.5916324623
 30
0.0
 10
6.7791981873
 20
10.598824846
 30
0.0
  0
SPLINE
  5
275
100
AcDbEntity
  8
0
100
AcDbSpline
 62
7
  6
BYLAYER
 70
0
 71
3
 72
9
 73
5
 74
0
 42
0.0000001
 43
0.0000001
 44
0.0000000001
 40
0.0
 40
0.0
 40
0.0
 40
0.0
 40
0.5110846605
 40
1.0
 40
1.0
 40
1.0
 40
1.0
 10
18.3157606916
 20
8.5491496873
 30
0.0
 10
18.3069819973
 20
8.5542179542
 30
0.0
 10
18.2901537079
 20
8.5647541095
 30
0.0
 10
18.2742081301
 20
8.5765932776
 30
0.0
 10
18.2666886242
 20
8.5827160999
 30
0.0
  0
SPLINE
  5
276
100
AcDbEntity
  8
0
100
AcDbSpline
 62
7
  6
BYLAYER
 70
0
 71
3
 72
9
 73
5
 74
0
 42
0.0000001
 43
0.0000001
 44
0.0000000001
 40
0.0
 40
0.0
 40
0.0
 40
0.0
 40
0.2549785486
 40
1.0
 40
1.0
 40
1.0
 40
1.0
 10
18.2666886242
 20
8.5827160999
 30
0.0
 10
18.2647307681
 20
8.5843103011
 30
0.0
 10
18.2571257487
 20
8.5906520418
 30
0.0
 10
18.2498222888
 20
8.5973575498
 30
0.0
 10
18.244590753
 20
8.6025589714
 30
0.0
  0
SPLINE
  5
277
100
AcDbEntity
  8
0
100
AcDbSpline
 62
7
  6
BYLAYER
 70
0
 71
3
 72
10
 73
6
 74
0
 42
0.0000001
 43
0.0000001
 44
0.0000000001
 40
0.0
 40
0.0
 40
0.0
 40
0.0
 40
0.237149134
 40
0.4834934556
 40
1.0
 40
1.0
 40
1.0
 40
1.0
 10
18.9541484064
 20
12.1837304747
 30
0.0
 10
18.9453161768
 20
12.1888296495
 30
0.0
 10
18.9269289067
 20
12.1985798431
 30
0.0
 10
18.8876919468
 20
12.2162313132
 30
0.0
 10
18.8565699568
 20
12.2269099111
 30
0.0
 10
18.8352128475
 20
12.2330136515
 30
0.0
  0
SPLINE
  5
278
100
AcDbEntity
  8
0
100
AcDbSpline
 62
7
  6
BYLAYER
 70
0
 71
3
 72
25
 73
21
 74
0
 42
0.0000001
 43
0.0000001
 44
0.0000000001
 40
0.0
 40
0.0
 40
0.0
 40
0.0
 40
0.0217372584
 40
0.0441247275
 40
0.0672875679
 40
0.0913225771
 40
0.1422399705
 40
0.1972255182
 40
0.2562538309
 40
0.3190370181
 40
0.3850831865
 40
0.4537491207
 40
0.5242816763
 40
0.5958535003
 40
0.6675964029
 40
0.7386399308
 40
0.8081388558
 40
0.875297573
 40
0.939452682
 40
1.0
 40
1.0
 40
1.0
 40
1.0
 10
19.0781872111
 20
8.6840574977
 30
0.0
 10
19.0762333882
 20
8.6782131014
 30
0.0
 10
19.0716064442
 20
8.6665609196
 30
0.0
 10
19.062754284
 20
8.649629611
 30
0.0
 10
19.0519387412
 20
8.6330959533
 30
0.0
 10
19.034653527
 20
8.6112633288
 30
0.0
 10
19.0081685869
 20
8.5854222533
 30
0.0
 10
18.9702929571
 20
8.5577880496
 30
0.0
 10
18.9263916209
 20
8.5333760298
 30
0.0
 10
18.8772536038
 20
8.5126076597
 30
0.0
 10
18.8237534018
 20
8.4958380319
 30
0.0
 10
18.7668495109
 20
8.4833640557
 30
0.0
 10
18.70756436
 20
8.4754101398
 30
0.0
 10
18.6469677522
 20
8.4721200945
 30
0.0
 10
18.586154384
 20
8.4735502169
 30
0.0
 10
18.526222029
 20
8.479676277
 30
0.0
 10
18.4682552411
 20
8.4903896832
 30
0.0
 10
18.4132877142
 20
8.5054952663
 30
0.0
 10
18.3623258572
 20
8.5247277899
 30
0.0
 10
18.3306258193
 20
8.540567496
 30
0.0
 10
18.3157606916
 20
8.5491496873
 30
0.0
  0
SPLINE
  5
279
100
AcDbEntity
  8
0
100
AcDbSpline
 62
7
  6
BYLAYER
 70
0
 71
3
 72
15
 73
11
 74
0
 42
0.0000001
 43
0.0000001
 44
0.0000000001
 40
0.0
 40
0.0
 40
0.0
 40
0.0
 40
0.108636383
 40
0.2209169702
 40
0.3375481776
 40
0.4590897846
 40
0.5859501538
 40
0.7184007959
 40
0.8564806559
 40
1.0
 40
1.0
 40
1.0
 40
1.0
 10
19.078187912
 20
12.0488227457
 30
0.0
 10
19.0760396199
 20
12.0552519892
 30
0.0
 10
19.0708666038
 20
12.0680697914
 30
0.0
 10
19.0608033173
 20
12.086617379
 30
0.0
 10
19.0483929136
 20
12.1046683095
 30
0.0
 10
19.0337018395
 20
12.1221174735
 30
0.0
 10
19.0168169373
 20
12.1388811284
 30
0.0
 10
18.9978265813
 20
12.1548655572
 30
0.0
 10
18.9768482613
 20
12.1699819712
 30
0.0
 10
18.9619039554
 20
12.1792529077
 30
0.0
 10
18.9541484064
 20
12.1837304747
 30
0.0
  0
SPLINE
  5
27A
100
AcDbEntity
  8
0
100
AcDbSpline
 62
7
  6
BYLAYER
 70
0
 71
3
 72
27
 73
23
 74
0
 42
0.0000001
 43
0.0000001
 44
0.0000000001
 40
0.0
 40
0.0
 40
0.0
 40
0.0
 40
0.0217356164
 40
0.0441226366
 40
0.0912690053
 40
0.1162489236
 40
0.1422221876
 40
0.1692165469
 40
0.1972366865
 40
0.2562627673
 40
0.3190428411
 40
0.3850866261
 40
0.4537507047
 40
0.5242804464
 40
0.5958488248
 40
0.6675898201
 40
0.7386310888
 40
0.8081269658
 40
0.8752832721
 40
0.9394301404
 40
0.9702029124
 40
1.0
 40
1.0
 40
1.0
 40
1.0
 10
19.1308066507
 20
8.8414959792
 30
0.0
 10
19.1286216594
 20
8.8349577212
 30
0.0
 10
19.1234464933
 20
8.8219206623
 30
0.0
 10
19.110011692
 20
8.7962352889
 30
0.0
 10
19.0922317205
 20
8.7718557284
 30
0.0
 10
19.0709256537
 20
8.7491561577
 30
0.0
 10
19.052646305
 20
8.7324731992
 30
0.0
 10
19.032463017
 20
8.7165532944
 30
0.0
 10
19.0026221979
 20
8.6960748178
 30
0.0
 10
18.9609876272
 20
8.6729261177
 30
0.0
 10
18.9060207003
 20
8.6496920149
 30
0.0
 10
18.8461676982
 20
8.6309302145
 30
0.0
 10
18.7825077095
 20
8.6169768708
 30
0.0
 10
18.716183915
 20
8.6080792576
 30
0.0
 10
18.6483931983
 20
8.604397352
 30
0.0
 10
18.5803595101
 20
8.6059973965
 30
0.0
 10
18.5133119968
 20
8.6128512468
 30
0.0
 10
18.4484616484
 20
8.6248377296
 30
0.0
 10
18.3869757938
 20
8.641734829
 30
0.0
 10
18.3387955038
 20
8.6599148699
 30
0.0
 10
18.30297865
 20
8.6767370882
 30
0.0
 10
18.2860515121
 20
8.6858472733
 30
0.0
 10
18.2778671112
 20
8.6905724325
 30
0.0
  0
SPLINE
  5
27B
100
AcDbEntity
  8
0
100
AcDbSpline
 62
7
  6
BYLAYER
 70
0
 71
3
 72
9
 73
5
 74
0
 42
0.0000001
 43
0.0000001
 44
0.0000000001
 40
0.0
 40
0.0
 40
0.0
 40
0.0
 40
0.2545318168
 40
1.0
 40
1.0
 40
1.0
 40
1.0
 10
18.2778671112
 20
8.6905724325
 30
0.0
 10
18.2750451822
 20
8.6922016371
 30
0.0
 10
18.2640249304
 20
8.6987165837
 30
0.0
 10
18.2532761985
 20
8.7056933725
 30
0.0
 10
18.2454565526
 20
8.7111640511
 30
0.0
  0
SPLINE
  5
27C
100
AcDbEntity
  8
0
100
AcDbSpline
 62
7
  6
BYLAYER
 70
0
 71
3
 72
11
 73
7
 74
0
 42
0.0000001
 43
0.0000001
 44
0.0000000001
 40
0.0
 40
0.0
 40
0.0
 40
0.0
 40
0.2494424135
 40
0.4973034961
 40
0.7465309244
 40
1.0
 40
1.0
 40
1.0
 40
1.0
 10
19.0831832216
 20
11.9685609437
 30
0.0
 10
19.0845513602
 20
11.9751819135
 30
0.0
 10
19.0864237467
 20
11.9885767856
 30
0.0
 10
19.0865238977
 20
12.00886952
 30
0.0
 10
19.0838878803
 20
12.0290999329
 30
0.0
 10
19.0803651443
 20
12.0423068923
 30
0.0
 10
19.078187912
 20
12.0488227457
 30
0.0
  0
SPLINE
  5
27D
100
AcDbEntity
  8
0
100
AcDbSpline
 62
7
  6
BYLAYER
 70
0
 71
3
 72
11
 73
7
 74
0
 42
0.0000001
 43
0.0000001
 44
0.0000000001
 40
0.0
 40
0.0
 40
0.0
 40
0.0
 40
0.2333903495
 40
0.4769721225
 40
0.7321930905
 40
1.0
 40
1.0
 40
1.0
 40
1.0
 10
6.8934874723
 20
12.5300584791
 30
0.0
 10
6.7861355721
 20
12.7159906463
 30
0.0
 10
6.570567601
 20
13.0981986533
 30
0.0
 10
6.2526078475
 20
13.6920413018
 30
0.0
 10
5.9342317776
 20
14.3213646675
 30
0.0
 10
5.7270321027
 20
14.7556554141
 30
0.0
 10
5.6233191508
 20
14.9791188514
 30
0.0
  0
SPLINE
  5
27E
100
AcDbEntity
  8
0
100
AcDbSpline
 62
7
  6
BYLAYER
 70
0
 71
3
 72
11
 73
7
 74
0
 42
0.0000001
 43
0.0000001
 44
0.0000000001
 40
0.0
 40
0.0
 40
0.0
 40
0.0
 40
0.2485938726
 40
0.4982560849
 40
0.7487906236
 40
1.0
 40
1.0
 40
1.0
 40
1.0
 10
11.6337518158
 20
11.5090724369
 30
0.0
 10
11.2364809251
 20
11.5705285555
 30
0.0
 10
10.4421659915
 20
11.7065695605
 30
0.0
 10
9.2553945456
 20
11.9477053091
 30
0.0
 10
8.0716820221
 20
12.2226204523
 30
0.0
 10
7.285871835
 20
12.4249210166
 30
0.0
 10
6.8934874723
 20
12.5300584791
 30
0.0
  0
SPLINE
  5
27F
100
AcDbEntity
  8
0
100
AcDbSpline
 62
7
  6
BYLAYER
 70
0
 71
3
 72
10
 73
6
 74
0
 42
0.0000001
 43
0.0000001
 44
0.0000000001
 40
0.0
 40
0.0
 40
0.0
 40
0.0
 40
0.4821075936
 40
0.7372484867
 40
1.0
 40
1.0
 40
1.0
 40
1.0
 10
5.6233191508
 20
14.9791188514
 30
0.0
 10
5.4013633288
 20
15.4573523791
 30
0.0
 10
5.078550693
 20
16.196437736
 30
0.0
 10
4.6646404087
 20
17.2086818387
 30
0.0
 10
4.4570919622
 20
17.7356684007
 30
0.0
 10
4.35315083
 20
18.0035538056
 30
0.0
  0
SPLINE
  5
280
100
AcDbEntity
  8
0
100
AcDbSpline
 62
7
  6
BYLAYER
 70
0
 71
3
 72
11
 73
7
 74
0
 42
0.0000001
 43
0.0000001
 44
0.0000000001
 40
0.0
 40
0.0
 40
0.0
 40
0.0
 40
0.25554799
 40
0.5077855537
 40
0.7561002628
 40
1.0
 40
1.0
 40
1.0
 40
1.0
 10
23.3142082005
 20
15.070358805
 30
0.0
 10
23.0282644166
 20
14.8610339122
 30
0.0
 10
22.456187347
 20
14.4503684488
 30
0.0
 10
21.5904724953
 20
13.8586567559
 30
0.0
 10
20.7223611754
 20
13.2997135861
 30
0.0
 10
20.1370204896
 20
12.9483322826
 30
0.0
 10
19.8441121795
 20
12.7792226003
 30
0.0
  0
SPLINE
  5
281
100
AcDbEntity
  8
0
100
AcDbSpline
 62
7
  6
BYLAYER
 70
0
 71
3
 72
11
 73
7
 74
0
 42
0.0000001
 43
0.0000001
 44
0.0000000001
 40
0.0
 40
0.0
 40
0.0
 40
0.0
 40
0.2569455556
 40
0.5089662712
 40
0.7564557643
 40
1.0
 40
1.0
 40
1.0
 40
1.0
 10
19.8441121795
 20
12.7792226003
 30
0.0
 10
19.5568007549
 20
12.6133442621
 30
0.0
 10
18.9821359323
 20
12.2942613027
 30
0.0
 10
18.1124571764
 20
11.8493420991
 30
0.0
 10
17.2446397119
 20
11.4399187648
 30
0.0
 10
16.663663741
 20
11.1858789469
 30
0.0
 10
16.3740161575
 20
11.0634609788
 30
0.0
  0
SPLINE
  5
282
100
AcDbEntity
  8
0
100
AcDbSpline
 62
7
  6
BYLAYER
 70
0
 71
3
 72
11
 73
7
 74
0
 42
0.0000001
 43
0.0000001
 44
0.0000000001
 40
0.0
 40
0.0
 40
0.0
 40
0.0
 40
0.2481426854
 40
0.4974652347
 40
0.7480747499
 40
1.0
 40
1.0
 40
1.0
 40
1.0
 10
16.3740161575
 20
11.0634609788
 30
0.0
 10
15.9803400536
 20
11.0797774413
 30
0.0
 10
15.1914252911
 20
11.1208230186
 30
0.0
 10
14.0069786369
 20
11.2123250623
 30
0.0
 10
12.8196596203
 20
11.3385926635
 30
0.0
 10
12.0290698917
 20
11.4479184105
 30
0.0
 10
11.6337518158
 20
11.5090724369
 30
0.0
  0
SPLINE
  5
283
100
AcDbEntity
  8
0
100
AcDbSpline
 62
7
  6
BYLAYER
 70
0
 71
3
 72
11
 73
7
 74
0
 42
0.0000001
 43
0.0000001
 44
0.0000000001
 40
0.0
 40
0.0
 40
0.0
 40
0.0
 40
0.2485938728
 40
0.4982560852
 40
0.7487906222
 40
1.0
 40
1.0
 40
1.0
 40
1.0
 10
11.6337518158
 20
14.3668308969
 30
0.0
 10
12.0310227066
 20
14.3053747783
 30
0.0
 10
12.8253376424
 20
14.1693337805
 30
0.0
 10
14.0121090772
 20
13.9281979947
 30
0.0
 10
15.1958216245
 20
13.6532829546
 30
0.0
 10
15.9816317927
 20
13.4509823181
 30
0.0
 10
16.3740161575
 20
13.345844855
 30
0.0
  0
SPLINE
  5
284
100
AcDbEntity
  8
0
100
AcDbSpline
 62
7
  6
BYLAYER
 70
0
 71
3
 72
11
 73
7
 74
0
 42
0.0000001
 43
0.0000001
 44
0.0000000001
 40
0.0
 40
0.0
 40
0.0
 40
0.0
 40
0.2555479851
 40
0.5077855548
 40
0.7561002631
 40
1.0
 40
1.0
 40
1.0
 40
1.0
 10
16.3740161575
 20
13.345844855
 30
0.0
 10
16.6599599358
 20
13.5551697438
 30
0.0
 10
17.2320370429
 20
13.9658351567
 30
0.0
 10
18.0977518443
 20
14.5575469233
 30
0.0
 10
18.9658631879
 20
15.1164900699
 30
0.0
 10
19.5512038689
 20
15.4678713778
 30
0.0
 10
19.8441121786
 20
15.6369810598
 30
0.0
  0
SPLINE
  5
285
100
AcDbEntity
  8
0
100
AcDbSpline
 62
7
  6
BYLAYER
 70
0
 71
3
 72
12
 73
8
 74
0
 42
0.0000001
 43
0.0000001
 44
0.0000000001
 40
0.0
 40
0.0
 40
0.0
 40
0.0
 40
0.1236759083
 40
0.248452163
 40
0.49971526
 40
0.7511300736
 40
1.0
 40
1.0
 40
1.0
 40
1.0
 10
11.633751817
 20
14.3668308967
 30
0.0
 10
11.8087376477
 20
14.3397613323
 30
0.0
 10
12.1613580019
 20
14.2921778376
 30
0.0
 10
12.8735984852
 20
14.2232096917
 30
0.0
 10
13.7720860689
 20
14.186584389
 30
0.0
 10
14.8483991545
 20
14.2214485672
 30
0.0
 10
15.5614200848
 20
14.2974877709
 30
0.0
 10
15.91400399
 20
14.3488680524
 30
0.0
  0
SPLINE
  5
286
100
AcDbEntity
  8
0
100
AcDbSpline
 62
7
  6
BYLAYER
 70
0
 71
3
 72
10
 73
6
 74
0
 42
0.0000001
 43
0.0000001
 44
0.0000000001
 40
0.0
 40
0.0
 40
0.0
 40
0.0
 40
0.4821075958
 40
0.7372484761
 40
1.0
 40
1.0
 40
1.0
 40
1.0
 10
5.6233191508
 20
17.8368773113
 30
0.0
 10
5.8452749739
 20
17.3586437812
 30
0.0
 10
6.1680875862
 20
16.6195584266
 30
0.0
 10
6.581997916
 20
15.6073143417
 30
0.0
 10
6.7895463359
 20
15.0803277712
 30
0.0
 10
6.8934874723
 20
14.8124423553
 30
0.0
  0
SPLINE
  5
287
100
AcDbEntity
  8
0
100
AcDbSpline
 62
7
  6
BYLAYER
 70
0
 71
3
 72
11
 73
7
 74
0
 42
0.0000001
 43
0.0000001
 44
0.0000000001
 40
0.0
 40
0.0
 40
0.0
 40
0.0
 40
0.2481426864
 40
0.4974652346
 40
0.7480747501
 40
1.0
 40
1.0
 40
1.0
 40
1.0
 10
6.8934874723
 20
14.8124423553
 30
0.0
 10
7.287163578
 20
14.7961258927
 30
0.0
 10
8.076078336
 20
14.7550802388
 30
0.0
 10
9.2605249987
 20
14.6635783034
 30
0.0
 10
10.4478440105
 20
14.5373106624
 30
0.0
 10
11.23843374
 20
14.4279849233
 30
0.0
 10
11.6337518158
 20
14.3668308969
 30
0.0
  0
SPLINE
  5
288
100
AcDbEntity
  8
0
100
AcDbSpline
 62
7
  6
BYLAYER
 70
0
 71
3
 72
11
 73
7
 74
0
 42
0.0000001
 43
0.0000001
 44
0.0000000001
 40
0.0
 40
0.0
 40
0.0
 40
0.0
 40
0.2333903625
 40
0.4769721203
 40
0.7321930904
 40
1.0
 40
1.0
 40
1.0
 40
1.0
 10
4.35315083
 20
20.2859376819
 30
0.0
 10
4.4605027361
 20
20.1000055044
 30
0.0
 10
4.6760706736
 20
19.7177974814
 30
0.0
 10
4.9940304731
 20
19.1239548583
 30
0.0
 10
5.3124065195
 20
18.4946314944
 30
0.0
 10
5.5196061989
 20
18.0603407484
 30
0.0
 10
5.6233191508
 20
17.8368773113
 30
0.0
  0
SPLINE
  5
289
100
AcDbEntity
  8
0
100
AcDbSpline
 62
7
  6
BYLAYER
 70
0
 71
3
 72
11
 73
7
 74
0
 42
0.0000001
 43
0.0000001
 44
0.0000000001
 40
0.0
 40
0.0
 40
0.0
 40
0.0
 40
0.2569455556
 40
0.5089662704
 40
0.756455769
 40
1.0
 40
1.0
 40
1.0
 40
1.0
 10
19.8441121786
 20
15.6369810598
 30
0.0
 10
20.1314236034
 20
15.8028593981
 30
0.0
 10
20.7060884219
 20
16.1219423639
 30
0.0
 10
21.5757671993
 20
16.5668615369
 30
0.0
 10
22.4435846221
 20
16.976284961
 30
0.0
 10
23.0245606225
 20
17.2303247155
 30
0.0
 10
23.3142082005
 20
17.3527426813
 30
0.0
  0
SPLINE
  5
28A
100
AcDbEntity
  8
0
100
AcDbSpline
 62
7
  6
BYLAYER
 70
0
 71
3
 72
11
 73
7
 74
0
 42
0.0000001
 43
0.0000001
 44
0.0000000001
 40
0.0
 40
0.0
 40
0.0
 40
0.0
 40
0.2333903495
 40
0.4769721225
 40
0.7321930905
 40
1.0
 40
1.0
 40
1.0
 40
1.0
 10
6.8934874723
 20
15.7960681476
 30
0.0
 10
6.7861355721
 20
15.9820003148
 30
0.0
 10
6.570567601
 20
16.3642083219
 30
0.0
 10
6.2526078475
 20
16.9580509703
 30
0.0
 10
5.9342317776
 20
17.5873743361
 30
0.0
 10
5.7270321027
 20
18.0216650826
 30
0.0
 10
5.6233191508
 20
18.2451285199
 30
0.0
  0
SPLINE
  5
28B
100
AcDbEntity
  8
0
100
AcDbSpline
 62
7
  6
BYLAYER
 70
0
 71
3
 72
11
 73
7
 74
0
 42
0.0000001
 43
0.0000001
 44
0.0000000001
 40
0.0
 40
0.0
 40
0.0
 40
0.0
 40
0.2485938726
 40
0.4982560849
 40
0.7487906236
 40
1.0
 40
1.0
 40
1.0
 40
1.0
 10
11.6337518158
 20
14.7750821054
 30
0.0
 10
11.2364809251
 20
14.836538224
 30
0.0
 10
10.4421659915
 20
14.9725792291
 30
0.0
 10
9.2553945456
 20
15.2137149776
 30
0.0
 10
8.0716820221
 20
15.4886301208
 30
0.0
 10
7.285871835
 20
15.6909306851
 30
0.0
 10
6.8934874723
 20
15.7960681476
 30
0.0
  0
SPLINE
  5
28C
100
AcDbEntity
  8
0
100
AcDbSpline
 62
7
  6
BYLAYER
 70
0
 71
3
 72
10
 73
6
 74
0
 42
0.0000001
 43
0.0000001
 44
0.0000000001
 40
0.0
 40
0.0
 40
0.0
 40
0.0
 40
0.4821075936
 40
0.7372484867
 40
1.0
 40
1.0
 40
1.0
 40
1.0
 10
5.6233191508
 20
18.2451285199
 30
0.0
 10
5.4013633288
 20
18.7233620476
 30
0.0
 10
5.078550693
 20
19.4624474045
 30
0.0
 10
4.6646404087
 20
20.4746915072
 30
0.0
 10
4.4570919622
 20
21.0016780692
 30
0.0
 10
4.35315083
 20
21.2695634741
 30
0.0
  0
SPLINE
  5
28D
100
AcDbEntity
  8
0
100
AcDbSpline
 62
7
  6
BYLAYER
 70
0
 71
3
 72
11
 73
7
 74
0
 42
0.0000001
 43
0.0000001
 44
0.0000000001
 40
0.0
 40
0.0
 40
0.0
 40
0.0
 40
0.25554799
 40
0.5077855537
 40
0.7561002628
 40
1.0
 40
1.0
 40
1.0
 40
1.0
 10
23.3142082005
 20
18.3363684735
 30
0.0
 10
23.0282644166
 20
18.1270435808
 30
0.0
 10
22.456187347
 20
17.7163781173
 30
0.0
 10
21.5904724953
 20
17.1246664244
 30
0.0
 10
20.7223611754
 20
16.5657232546
 30
0.0
 10
20.1370204896
 20
16.2143419511
 30
0.0
 10
19.8441121795
 20
16.0452322689
 30
0.0
  0
SPLINE
  5
28E
100
AcDbEntity
  8
0
100
AcDbSpline
 62
7
  6
BYLAYER
 70
0
 71
3
 72
11
 73
7
 74
0
 42
0.0000001
 43
0.0000001
 44
0.0000000001
 40
0.0
 40
0.0
 40
0.0
 40
0.0
 40
0.2569455556
 40
0.5089662712
 40
0.7564557643
 40
1.0
 40
1.0
 40
1.0
 40
1.0
 10
19.8441121795
 20
16.0452322689
 30
0.0
 10
19.5568007549
 20
15.8793539307
 30
0.0
 10
18.9821359323
 20
15.5602709712
 30
0.0
 10
18.1124571764
 20
15.1153517676
 30
0.0
 10
17.2446397119
 20
14.7059284334
 30
0.0
 10
16.663663741
 20
14.4518886154
 30
0.0
 10
16.3740161575
 20
14.3294706473
 30
0.0
  0
SPLINE
  5
28F
100
AcDbEntity
  8
0
100
AcDbSpline
 62
7
  6
BYLAYER
 70
0
 71
3
 72
11
 73
7
 74
0
 42
0.0000001
 43
0.0000001
 44
0.0000000001
 40
0.0
 40
0.0
 40
0.0
 40
0.0
 40
0.2481426854
 40
0.4974652347
 40
0.7480747499
 40
1.0
 40
1.0
 40
1.0
 40
1.0
 10
16.3740161575
 20
14.3294706473
 30
0.0
 10
15.9803400536
 20
14.3457871098
 30
0.0
 10
15.1914252911
 20
14.3868326871
 30
0.0
 10
14.0069786369
 20
14.4783347308
 30
0.0
 10
12.8196596203
 20
14.604602332
 30
0.0
 10
12.0290698917
 20
14.713928079
 30
0.0
 10
11.6337518158
 20
14.7750821054
 30
0.0
  0
SPLINE
  5
290
100
AcDbEntity
  8
0
100
AcDbSpline
 62
7
  6
BYLAYER
 70
0
 71
3
 72
11
 73
7
 74
0
 42
0.0000001
 43
0.0000001
 44
0.0000000001
 40
0.0
 40
0.0
 40
0.0
 40
0.0
 40
0.2438997387
 40
0.4922144482
 40
0.7444520112
 40
1.0
 40
1.0
 40
1.0
 40
1.0
 10
7.8232468519
 20
25.8430835556
 30
0.0
 10
7.5303385399
 20
25.6739738722
 30
0.0
 10
6.9449978514
 20
25.3225925675
 30
0.0
 10
6.0768865315
 20
24.7636493943
 30
0.0
 10
5.2111716802
 20
24.1719377041
 30
0.0
 10
4.6390946126
 20
23.7612722422
 30
0.0
 10
4.35315083
 20
23.5519473504
 30
0.0
  0
SPLINE
  5
291
100
AcDbEntity
  8
0
100
AcDbSpline
 62
7
  6
BYLAYER
 70
0
 71
3
 72
10
 73
6
 74
0
 42
0.0000001
 43
0.0000001
 44
0.0000000001
 40
0.0
 40
0.0
 40
0.0
 40
0.0
 40
0.2627515146
 40
0.5178924086
 40
1.0
 40
1.0
 40
1.0
 40
1.0
 10
23.3142082005
 20
20.6187523498
 30
0.0
 10
23.2102670678
 20
20.886637756
 30
0.0
 10
23.0027186204
 20
21.4136243204
 30
0.0
 10
22.588808337
 20
22.4258684234
 30
0.0
 10
22.2659957006
 20
23.1649537785
 30
0.0
 10
22.0440398797
 20
23.643187304
 30
0.0
  0
SPLINE
  5
292
100
AcDbEntity
  8
0
100
AcDbSpline
 62
7
  6
BYLAYER
 70
0
 71
3
 72
11
 73
7
 74
0
 42
0.0000001
 43
0.0000001
 44
0.0000000001
 40
0.0
 40
0.0
 40
0.0
 40
0.0
 40
0.2678069111
 40
0.5230278787
 40
0.7666096514
 40
1.0
 40
1.0
 40
1.0
 40
1.0
 10
22.0440398797
 20
23.643187304
 30
0.0
 10
21.9403269271
 20
23.8666507426
 30
0.0
 10
21.7331272521
 20
24.3009414902
 30
0.0
 10
21.4147511804
 20
24.9302648559
 30
0.0
 10
21.0967914284
 20
25.5241075036
 30
0.0
 10
20.881223458
 20
25.9063155098
 30
0.0
 10
20.7738715582
 20
26.0922476763
 30
0.0
  0
SPLINE
  5
293
100
AcDbEntity
  8
0
100
AcDbSpline
 62
7
  6
BYLAYER
 70
0
 71
3
 72
11
 73
7
 74
0
 42
0.0000001
 43
0.0000001
 44
0.0000000001
 40
0.0
 40
0.0
 40
0.0
 40
0.0
 40
0.2485938728
 40
0.4982560852
 40
0.7487906222
 40
1.0
 40
1.0
 40
1.0
 40
1.0
 10
11.6337518158
 20
17.6328405654
 30
0.0
 10
12.0310227066
 20
17.5713844468
 30
0.0
 10
12.8253376424
 20
17.435343449
 30
0.0
 10
14.0121090772
 20
17.1942076632
 30
0.0
 10
15.1958216245
 20
16.9192926231
 30
0.0
 10
15.9816317927
 20
16.7169919866
 30
0.0
 10
16.3740161575
 20
16.6118545235
 30
0.0
  0
SPLINE
  5
294
100
AcDbEntity
  8
0
100
AcDbSpline
 62
7
  6
BYLAYER
 70
0
 71
3
 72
11
 73
7
 74
0
 42
0.0000001
 43
0.0000001
 44
0.0000000001
 40
0.0
 40
0.0
 40
0.0
 40
0.0
 40
0.2555479851
 40
0.5077855548
 40
0.7561002631
 40
1.0
 40
1.0
 40
1.0
 40
1.0
 10
16.3740161575
 20
16.6118545235
 30
0.0
 10
16.6599599358
 20
16.8211794123
 30
0.0
 10
17.2320370429
 20
17.2318448252
 30
0.0
 10
18.0977518443
 20
17.8235565918
 30
0.0
 10
18.9658631879
 20
18.3824997384
 30
0.0
 10
19.5512038689
 20
18.7338810463
 30
0.0
 10
19.8441121786
 20
18.9029907283
 30
0.0
  0
SPLINE
  5
295
100
AcDbEntity
  8
0
100
AcDbSpline
 62
7
  6
BYLAYER
 70
0
 71
3
 72
15
 73
11
 74
0
 42
0.0000001
 43
0.0000001
 44
0.0000000001
 40
0.0
 40
0.0
 40
0.0
 40
0.0
 40
0.1098769269
 40
0.2234850586
 40
0.3412120343
 40
0.4633917702
 40
0.5902725915
 40
0.722002149
 40
0.8586235557
 40
1.0
 40
1.0
 40
1.0
 40
1.0
 10
22.0440398799
 20
23.6431873037
 30
0.0
 10
21.9953369888
 20
23.7481242016
 30
0.0
 10
21.8853533632
 20
23.9566405249
 30
0.0
 10
21.6884527768
 20
24.2576888815
 30
0.0
 10
21.4579118486
 20
24.5504832467
 30
0.0
 10
21.1948680496
 20
24.8337694618
 30
0.0
 10
20.9004120831
 20
25.1063912028
 30
0.0
 10
20.5757987376
 20
25.3672722786
 30
0.0
 10
20.2224491552
 20
25.6152266793
 30
0.0
 10
19.9729737695
 20
25.7686869647
 30
0.0
 10
19.8440621316
 20
25.8431124498
 30
0.0
  0
SPLINE
  5
296
100
AcDbEntity
  8
0
100
AcDbSpline
 62
7
  6
BYLAYER
 70
0
 71
3
 72
23
 73
19
 74
0
 42
0.0000001
 43
0.0000001
 44
0.0000000001
 40
0.0
 40
0.0
 40
0.0
 40
0.0
 40
0.0772106104
 40
0.1518240126
 40
0.2237651063
 40
0.2930598015
 40
0.359789549
 40
0.4240806721
 40
0.4861127325
 40
0.5461334311
 40
0.6044496895
 40
0.6614284059
 40
0.7174839465
 40
0.7730665051
 40
0.8286466178
 40
0.8847048775
 40
0.9416966446
 40
1.0
 40
1.0
 40
1.0
 40
1.0
 10
19.844112179
 20
18.9029907285
 30
0.0
 10
19.9730230151
 20
18.9774169902
 30
0.0
 10
20.2224959095
 20
19.130879059
 30
0.0
 10
20.5758409083
 20
19.3788337612
 30
0.0
 10
20.900452942
 20
19.6397132533
 30
0.0
 10
21.1949085396
 20
19.9123415659
 30
0.0
 10
21.4579419381
 20
20.1956396202
 30
0.0
 10
21.688462756
 20
20.4884036855
 30
0.0
 10
21.8853813852
 20
20.7894654971
 30
0.0
 10
22.0478544509
 20
21.0975229484
 30
0.0
 10
22.1750555973
 20
21.4113057994
 30
0.0
 10
22.2664201627
 20
21.7294316911
 30
0.0
 10
22.3214001822
 20
22.0505067369
 30
0.0
 10
22.3397877966
 20
22.3730531474
 30
0.0
 10
22.3214114875
 20
22.6956039739
 30
0.0
 10
22.2664077246
 20
23.0167089574
 30
0.0
 10
22.1750304576
 20
23.3348087748
 30
0.0
 10
22.0913594688
 20
23.5412309154
 30
0.0
 10
22.0440398799
 20
23.6431873037
 30
0.0
  0
SPLINE
  5
297
100
AcDbEntity
  8
0
100
AcDbSpline
 62
7
  6
BYLAYER
 70
0
 71
3
 72
23
 73
19
 74
0
 42
0.0000001
 43
0.0000001
 44
0.0000000001
 40
0.0
 40
0.0
 40
0.0
 40
0.0
 40
0.0646292952
 40
0.1298435212
 40
0.1954207029
 40
0.2611776038
 40
0.3269373077
 40
0.3925116082
 40
0.4577116039
 40
0.5223550051
 40
0.5862642598
 40
0.6492693209
 40
0.7112066475
 40
0.7719221586
 40
0.8312738727
 40
0.8891453758
 40
0.9454283024
 40
1.0
 40
1.0
 40
1.0
 40
1.0
 10
11.633751817
 20
17.6328405652
 30
0.0
 10
11.8137635237
 20
17.6049935192
 30
0.0
 10
12.1765674583
 20
17.5562412057
 30
0.0
 10
12.7249939878
 20
17.5040203423
 30
0.0
 10
13.2781955996
 20
17.4726171318
 30
0.0
 10
13.8337224876
 20
17.4621300798
 30
0.0
 10
14.3892415545
 20
17.4726287625
 30
0.0
 10
14.9424010053
 20
17.5040253285
 30
0.0
 10
15.4908270484
 20
17.5562380322
 30
0.0
 10
16.0321760961
 20
17.6289960777
 30
0.0
 10
16.5641367365
 20
17.722032374
 30
0.0
 10
17.0844486576
 20
17.8349075986
 30
0.0
 10
17.590878578
 20
17.9671884464
 30
0.0
 10
18.0812717725
 20
18.1182554915
 30
0.0
 10
18.5535420641
 20
18.2875162042
 30
0.0
 10
19.0057182445
 20
18.4742374339
 30
0.0
 10
19.4357829842
 20
18.6776400586
 30
0.0
 10
19.7109118273
 20
18.8260879287
 30
0.0
 10
19.844112179
 20
18.9029907285
 30
0.0
  0
SPLINE
  5
298
100
AcDbEntity
  8
0
100
AcDbSpline
 62
7
  6
BYLAYER
 70
0
 71
3
 72
15
 73
11
 74
0
 42
0.0000001
 43
0.0000001
 44
0.0000000001
 40
0.0
 40
0.0
 40
0.0
 40
0.0
 40
0.1142513674
 40
0.2320861695
 40
0.3532484163
 40
0.4775054186
 40
0.6046117
 40
0.7342919087
 40
0.8662295397
 40
1.0
 40
1.0
 40
1.0
 40
1.0
 10
7.8232968989
 20
18.902961834
 30
0.0
 10
7.9564979102
 20
18.8260599341
 30
0.0
 10
8.2316286397
 20
18.677612783
 30
0.0
 10
8.6616993108
 20
18.4742115717
 30
0.0
 10
9.1138800175
 20
18.2874954766
 30
0.0
 10
9.5861419287
 20
18.118238981
 30
0.0
 10
10.0765316777
 20
17.9671674116
 30
0.0
 10
10.5830055383
 20
17.8348825926
 30
0.0
 10
11.1033248418
 20
17.7220193052
 30
0.0
 10
11.4557854434
 20
17.6603712069
 30
0.0
 10
11.633751817
 20
17.6328405652
 30
0.0
  0
SPLINE
  5
299
100
AcDbEntity
  8
0
100
AcDbSpline
 62
7
  6
BYLAYER
 70
0
 71
3
 72
15
 73
11
 74
0
 42
0.0000001
 43
0.0000001
 44
0.0000000001
 40
0.0
 40
0.0
 40
0.0
 40
0.0
 40
0.1098769269
 40
0.2234850586
 40
0.3412120343
 40
0.4633917702
 40
0.5902725915
 40
0.722002149
 40
0.8586235557
 40
1.0
 40
1.0
 40
1.0
 40
1.0
 10
5.6233191506
 20
21.1028869802
 30
0.0
 10
5.6720220417
 20
20.9979500823
 30
0.0
 10
5.7820056673
 20
20.789433759
 30
0.0
 10
5.9789062537
 20
20.4883854024
 30
0.0
 10
6.2094471819
 20
20.1955910372
 30
0.0
 10
6.4724909809
 20
19.912304822
 30
0.0
 10
6.7669469474
 20
19.6396830811
 30
0.0
 10
7.0915602929
 20
19.3788020053
 30
0.0
 10
7.4449098753
 20
19.1308476045
 30
0.0
 10
7.694385261
 20
18.9773873192
 30
0.0
 10
7.8232968989
 20
18.902961834
 30
0.0
  0
SPLINE
  5
29A
100
AcDbEntity
  8
0
100
AcDbSpline
 62
7
  6
BYLAYER
 70
0
 71
3
 72
23
 73
19
 74
0
 42
0.0000001
 43
0.0000001
 44
0.0000000001
 40
0.0
 40
0.0
 40
0.0
 40
0.0
 40
0.0772106104
 40
0.1518240126
 40
0.2237651063
 40
0.2930598015
 40
0.359789549
 40
0.4240806721
 40
0.4861127325
 40
0.5461334311
 40
0.6044496895
 40
0.6614284059
 40
0.7174839465
 40
0.7730665051
 40
0.8286466178
 40
0.8847048775
 40
0.9416966446
 40
1.0
 40
1.0
 40
1.0
 40
1.0
 10
7.8232468515
 20
25.8430835554
 30
0.0
 10
7.6943360153
 20
25.7686572937
 30
0.0
 10
7.444863121
 20
25.6151952249
 30
0.0
 10
7.0915181222
 20
25.3672405227
 30
0.0
 10
6.7669060885
 20
25.1063610306
 30
0.0
 10
6.4724504909
 20
24.833732718
 30
0.0
 10
6.2094170924
 20
24.5504346637
 30
0.0
 10
5.9788962745
 20
24.2576705984
 30
0.0
 10
5.7819776453
 20
23.9566087868
 30
0.0
 10
5.6195045796
 20
23.6485513355
 30
0.0
 10
5.4923034332
 20
23.3347684845
 30
0.0
 10
5.4009388678
 20
23.0166425928
 30
0.0
 10
5.3459588483
 20
22.695567547
 30
0.0
 10
5.3275712339
 20
22.3730211365
 30
0.0
 10
5.345947543
 20
22.0504703099
 30
0.0
 10
5.4009513059
 20
21.7293653265
 30
0.0
 10
5.4923285729
 20
21.4112655091
 30
0.0
 10
5.5759995617
 20
21.2048433684
 30
0.0
 10
5.6233191506
 20
21.1028869802
 30
0.0
  0
SPLINE
  5
29B
100
AcDbEntity
  8
0
100
AcDbSpline
 62
7
  6
BYLAYER
 70
0
 71
3
 72
10
 73
6
 74
0
 42
0.0000001
 43
0.0000001
 44
0.0000000001
 40
0.0
 40
0.0
 40
0.0
 40
0.0
 40
0.4821075958
 40
0.7372484761
 40
1.0
 40
1.0
 40
1.0
 40
1.0
 10
5.6233191508
 20
21.1028869798
 30
0.0
 10
5.8452749739
 20
20.6246534497
 30
0.0
 10
6.1680875862
 20
19.8855680951
 30
0.0
 10
6.581997916
 20
18.8733240102
 30
0.0
 10
6.7895463359
 20
18.3463374397
 30
0.0
 10
6.8934874723
 20
18.0784520238
 30
0.0
  0
SPLINE
  5
29C
100
AcDbEntity
  8
0
100
AcDbSpline
 62
7
  6
BYLAYER
 70
0
 71
3
 72
11
 73
7
 74
0
 42
0.0000001
 43
0.0000001
 44
0.0000000001
 40
0.0
 40
0.0
 40
0.0
 40
0.0
 40
0.2481426864
 40
0.4974652346
 40
0.7480747501
 40
1.0
 40
1.0
 40
1.0
 40
1.0
 10
6.8934874723
 20
18.0784520238
 30
0.0
 10
7.287163578
 20
18.0621355612
 30
0.0
 10
8.076078336
 20
18.0210899074
 30
0.0
 10
9.2605249987
 20
17.929587972
 30
0.0
 10
10.4478440105
 20
17.8033203309
 30
0.0
 10
11.23843374
 20
17.6939945918
 30
0.0
 10
11.6337518158
 20
17.6328405654
 30
0.0
  0
SPLINE
  5
29D
100
AcDbEntity
  8
0
100
AcDbSpline
 62
7
  6
BYLAYER
 70
0
 71
3
 72
11
 73
7
 74
0
 42
0.0000001
 43
0.0000001
 44
0.0000000001
 40
0.0
 40
0.0
 40
0.0
 40
0.0
 40
0.2333903625
 40
0.4769721203
 40
0.7321930904
 40
1.0
 40
1.0
 40
1.0
 40
1.0
 10
4.35315083
 20
23.5519473504
 30
0.0
 10
4.4605027361
 20
23.3660151729
 30
0.0
 10
4.6760706736
 20
22.9838071499
 30
0.0
 10
4.9940304731
 20
22.3899645268
 30
0.0
 10
5.3124065195
 20
21.7606411629
 30
0.0
 10
5.5196061989
 20
21.326350417
 30
0.0
 10
5.6233191508
 20
21.1028869798
 30
0.0
  0
SPLINE
  5
29E
100
AcDbEntity
  8
0
100
AcDbSpline
 62
7
  6
BYLAYER
 70
0
 71
3
 72
11
 73
7
 74
0
 42
0.0000001
 43
0.0000001
 44
0.0000000001
 40
0.0
 40
0.0
 40
0.0
 40
0.0
 40
0.2569455556
 40
0.5089662704
 40
0.756455769
 40
1.0
 40
1.0
 40
1.0
 40
1.0
 10
19.8441121786
 20
18.9029907283
 30
0.0
 10
20.1314236034
 20
19.0688690666
 30
0.0
 10
20.7060884219
 20
19.3879520325
 30
0.0
 10
21.5757671993
 20
19.8328712054
 30
0.0
 10
22.4435846221
 20
20.2422946295
 30
0.0
 10
23.0245606225
 20
20.496334384
 30
0.0
 10
23.3142082005
 20
20.6187523498
 30
0.0
  0
SPLINE
  5
29F
100
AcDbEntity
  8
0
100
AcDbSpline
 62
7
  6
BYLAYER
 70
0
 71
3
 72
16
 73
12
 74
0
 42
0.0000001
 43
0.0000001
 44
0.0000000001
 40
0.0
 40
0.0
 40
0.0
 40
0.0
 40
0.1425624668
 40
0.2790712884
 40
0.4096046259
 40
0.4728344738
 40
0.5348135042
 40
0.6553723677
 40
0.7723313467
 40
0.8867403982
 40
1.0
 40
1.0
 40
1.0
 40
1.0
 10
16.3133224915
 20
35.03924501
 30
0.0
 10
16.3904001629
 20
34.9930429795
 30
0.0
 10
16.5376042043
 20
34.8962233056
 30
0.0
 10
16.7393533853
 20
34.7344700184
 30
0.0
 10
16.8875723022
 20
34.5875967836
 30
0.0
 10
16.9916455261
 20
34.4643648263
 30
0.0
 10
17.0841713837
 20
34.3400106254
 30
0.0
 10
17.1820609506
 20
34.1778537343
 30
0.0
 10
17.2687343031
 20
33.9727567211
 30
0.0
 10
17.3217606219
 20
33.7611906092
 30
0.0
 10
17.3336795152
 20
33.6174060669
 30
0.0
 10
17.3336795152
 20
33.5460128263
 30
0.0
  0
SPLINE
  5
2A0
100
AcDbEntity
  8
0
100
AcDbSpline
 62
7
  6
BYLAYER
 70
0
 71
3
 72
28
 73
24
 74
0
 42
0.0000001
 43
0.0000001
 44
0.0000000001
 40
0.0
 40
0.0
 40
0.0
 40
0.0
 40
0.0232429645
 40
0.0465954274
 40
0.0702410862
 40
0.0943371736
 40
0.1190045686
 40
0.1443499199
 40
0.1704819956
 40
0.1974807922
 40
0.2542395347
 40
0.2840789107
 40
0.3148670941
 40
0.3791207465
 40
0.4465597031
 40
0.5164950906
 40
0.5880833508
 40
0.6603845478
 40
0.7324179004
 40
0.8032215055
 40
0.8718918062
 40
0.9376791426
 40
1.0
 40
1.0
 40
1.0
 40
1.0
 10
10.3336795152
 20
33.5460128263
 30
0.0
 10
10.3336795152
 20
33.6001135146
 30
0.0
 10
10.3404984307
 20
33.7086880965
 30
0.0
 10
10.3708560916
 20
33.8697333231
 30
0.0
 10
10.4209521656
 20
34.0278563834
 30
0.0
 10
10.4900370743
 20
34.181965471
 30
0.0
 10
10.5772607849
 20
34.3311486229
 30
0.0
 10
10.6818443158
 20
34.4745807278
 30
0.0
 10
10.802871002
 20
34.6117278142
 30
0.0
 10
10.9881042587
 20
34.7884779499
 30
0.0
 10
11.2007821914
 20
34.9474740301
 30
0.0
 10
11.4348404458
 20
35.0886568837
 30
0.0
 10
11.6928051737
 20
35.2230116107
 30
0.0
 10
12.0431754996
 20
35.3676048164
 30
0.0
 10
12.49385314
 20
35.5011223484
 30
0.0
 10
12.9718193573
 20
35.5948379963
 30
0.0
 10
13.4674012489
 20
35.6470585507
 30
0.0
 10
13.970498718
 20
35.656807608
 30
0.0
 10
14.4707924044
 20
35.6239126255
 30
0.0
 10
14.9580131782
 20
35.5489727131
 30
0.0
 10
15.4223457414
 20
35.4333950141
 30
0.0
 10
15.854430988
 20
35.2791627265
 30
0.0
 10
16.1233052351
 20
35.1483360614
 30
0.0
 10
16.2493794488
 20
35.0765906275
 30
0.0
  0
SPLINE
  5
2A1
100
AcDbEntity
  8
0
100
AcDbSpline
 62
7
  6
BYLAYER
 70
0
 71
3
 72
23
 73
19
 74
0
 42
0.0000001
 43
0.0000001
 44
0.0000000001
 40
0.0
 40
0.0
 40
0.0
 40
0.0
 40
0.0762068082
 40
0.1492005304
 40
0.2189018045
 40
0.2854095635
 40
0.348944579
 40
0.4098280227
 40
0.4684832447
 40
0.5254529638
 40
0.5813753932
 40
0.636952945
 40
0.6929080192
 40
0.7499411109
 40
0.8086841577
 40
0.8696781808
 40
0.9333456182
 40
1.0
 40
1.0
 40
1.0
 40
1.0
 10
11.3814083515
 20
32.3214698448
 30
0.0
 10
11.3190899268
 20
32.3588248623
 30
0.0
 10
11.1995868659
 20
32.4362681782
 30
0.0
 10
11.0335524215
 20
32.5630812491
 30
0.0
 10
10.885701043
 20
32.6973524935
 30
0.0
 10
10.7570381086
 20
32.8381641656
 30
0.0
 10
10.6484328853
 20
32.9846808501
 30
0.0
 10
10.5605935205
 20
33.1359708773
 30
0.0
 10
10.4942075245
 20
33.2910945381
 30
0.0
 10
10.4498007077
 20
33.4490134051
 30
0.0
 10
10.427746987
 20
33.6086369956
 30
0.0
 10
10.4282656073
 20
33.7688178845
 30
0.0
 10
10.4513158679
 20
33.9283920061
 30
0.0
 10
10.4967409435
 20
34.0862020731
 30
0.0
 10
10.5640876472
 20
34.2411793551
 30
0.0
 10
10.6528907097
 20
34.3922736888
 30
0.0
 10
10.7624116502
 20
34.5385523717
 30
0.0
 10
10.8467900374
 20
34.630070931
 30
0.0
 10
10.8919342156
 20
34.6747979234
 30
0.0
  0
SPLINE
  5
2A2
100
AcDbEntity
  8
0
100
AcDbSpline
 62
7
  6
BYLAYER
 70
0
 71
3
 72
9
 73
5
 74
0
 42
0.0000001
 43
0.0000001
 44
0.0000000001
 40
0.0
 40
0.0
 40
0.0
 40
0.0
 40
0.2436707391
 40
1.0
 40
1.0
 40
1.0
 40
1.0
 10
10.8919342156
 20
34.6747979234
 30
0.0
 10
10.909196738
 20
34.6919009196
 30
0.0
 10
10.9812544058
 20
34.7608592467
 30
0.0
 10
11.0579484882
 20
34.8249279164
 30
0.0
 10
11.1178991953
 20
34.8706987452
 30
0.0
  0
SPLINE
  5
2A3
100
AcDbEntity
  8
0
100
AcDbSpline
 62
7
  6
BYLAYER
 70
0
 71
3
 72
9
 73
5
 74
0
 42
0.0000001
 43
0.0000001
 44
0.0000000001
 40
0.0
 40
0.0
 40
0.0
 40
0.0
 40
0.4907586881
 40
1.0
 40
1.0
 40
1.0
 40
1.0
 10
12.0561963401
 20
35.3616894593
 30
0.0
 10
12.1887160354
 20
35.4085163258
 30
0.0
 10
12.4634397421
 20
35.4909984473
 30
0.0
 10
12.7441725409
 20
35.5494721099
 30
0.0
 10
12.8880246835
 20
35.5734876409
 30
0.0
  0
SPLINE
  5
2A4
100
AcDbEntity
  8
0
100
AcDbSpline
 62
7
  6
BYLAYER
 70
0
 71
3
 72
9
 73
5
 74
0
 42
0.0000001
 43
0.0000001
 44
0.0000000001
 40
0.0
 40
0.0
 40
0.0
 40
0.0
 40
0.5055533125
 40
1.0
 40
1.0
 40
1.0
 40
1.0
 10
14.0984923668
 20
35.6448749605
 30
0.0
 10
14.2646532881
 20
35.6373938662
 30
0.0
 10
14.59285394
 20
35.608631894
 30
0.0
 10
14.9173254816
 20
35.55119677
 30
0.0
 10
15.0759907369
 20
35.5153006534
 30
0.0
  0
SPLINE
  5
2A5
100
AcDbEntity
  8
0
100
AcDbSpline
 62
7
  6
BYLAYER
 70
0
 71
3
 72
11
 73
7
 74
0
 42
0.0000001
 43
0.0000001
 44
0.0000000001
 40
0.0
 40
0.0
 40
0.0
 40
0.0
 40
0.2621530614
 40
0.5167789728
 40
0.7630323639
 40
1.0
 40
1.0
 40
1.0
 40
1.0
 10
15.3283834595
 20
35.4512816078
 30
0.0
 10
15.4116156101
 20
35.4278027843
 30
0.0
 10
15.574480347
 20
35.3770752778
 30
0.0
 10
15.8102261456
 20
35.2884371299
 30
0.0
 10
16.0324943125
 20
35.1888478036
 30
0.0
 10
16.1735002648
 20
35.1141774723
 30
0.0
 10
16.2411996129
 20
35.0750921197
 30
0.0
  0
SPLINE
  5
2A6
100
AcDbEntity
  8
0
100
AcDbSpline
 62
7
  6
BYLAYER
 70
0
 71
3
 72
29
 73
25
 74
0
 42
0.0000001
 43
0.0000001
 44
0.0000000001
 40
0.0
 40
0.0
 40
0.0
 40
0.0
 40
0.030656576
 40
0.0623960787
 40
0.1287299613
 40
0.1983073466
 40
0.2702725994
 40
0.3436368086
 40
0.4173559658
 40
0.4903680075
 40
0.5616423585
 40
0.6302277312
 40
0.6953040481
 40
0.7562412641
 40
0.7850472642
 40
0.8127063324
 40
0.8392269995
 40
0.8646459563
 40
0.8890280341
 40
0.9124736459
 40
0.9351140028
 40
0.9571154049
 40
0.9786718757
 40
1.0
 40
1.0
 40
1.0
 40
1.0
 10
11.358816085
 20
32.1171582989
 30
0.0
 10
11.4206225722
 20
32.0814751141
 30
0.0
 10
11.5488114223
 20
32.0129222515
 30
0.0
 10
11.821085368
 20
31.8873992622
 30
0.0
 10
12.1887843538
 20
31.754171351
 30
0.0
 10
12.6585099375
 20
31.6349445935
 30
0.0
 10
13.1532890029
 20
31.5564795327
 30
0.0
 10
13.66257471
 20
31.5204808017
 30
0.0
 10
14.175511193
 20
31.5276948172
 30
0.0
 10
14.6811573113
 20
31.5779796809
 30
0.0
 10
15.1687318014
 20
31.6702612351
 30
0.0
 10
15.6278957614
 20
31.8025970319
 30
0.0
 10
16.0488756983
 20
31.9721925416
 30
0.0
 10
16.3664081267
 20
32.1448889649
 30
0.0
 10
16.592152682
 20
32.2993109312
 30
0.0
 10
16.7434359956
 20
32.4197583575
 30
0.0
 10
16.8790224245
 20
32.546368751
 30
0.0
 10
16.9982046839
 20
32.6784605387
 30
0.0
 10
17.1002715938
 20
32.8153897973
 30
0.0
 10
17.1846939662
 20
32.9564003664
 30
0.0
 10
17.2509149393
 20
33.1007804434
 30
0.0
 10
17.2985494995
 20
33.2477336862
 30
0.0
 10
17.3272729333
 20
33.3964120836
 30
0.0
 10
17.3336696937
 20
33.4963616102
 30
0.0
 10
17.3336711705
 20
33.5460128375
 30
0.0
  0
SPLINE
  5
2A7
100
AcDbEntity
  8
0
100
AcDbSpline
 62
7
  6
BYLAYER
 70
0
 71
3
 72
39
 73
35
 74
0
 42
0.0000001
 43
0.0000001
 44
0.0000000001
 40
0.0
 40
0.0
 40
0.0
 40
0.0
 40
0.0325354856
 40
0.0665389514
 40
0.1018414516
 40
0.138281908
 40
0.175672062
 40
0.2137933803
 40
0.2912707827
 40
0.3688230515
 40
0.4070349
 40
0.4445489117
 40
0.4811477334
 40
0.5166337425
 40
0.5508330666
 40
0.5836049188
 40
0.6148442424
 40
0.6444952714
 40
0.6725546873
 40
0.6860109056
 40
0.6990986965
 40
0.7242397138
 40
0.7482076535
 40
0.7713009971
 40
0.7826418577
 40
0.7939061528
 40
0.8163954852
 40
0.8392088429
 40
0.8627379815
 40
0.8873153351
 40
0.9131917894
 40
0.9405452925
 40
0.9694822805
 40
1.0
 40
1.0
 40
1.0
 40
1.0
 10
11.4261594176
 20
32.2951439608
 30
0.0
 10
11.5060243785
 20
32.2490349473
 30
0.0
 10
11.6734810193
 20
32.1617449835
 30
0.0
 10
11.93910141
 20
32.0481182932
 30
0.0
 10
12.2225381312
 20
31.949911376
 30
0.0
 10
12.5210465565
 20
31.8680224348
 30
0.0
 10
12.8318791908
 20
31.8031896024
 30
0.0
 10
13.2611019234
 20
31.7400047851
 30
0.0
 10
13.8088333242
 20
31.7072344859
 30
0.0
 10
14.3570710635
 20
31.7354043564
 30
0.0
 10
14.787643768
 20
31.7949190871
 30
0.0
 10
15.1000893645
 20
31.8571177958
 30
0.0
 10
15.4006435756
 20
31.9364811739
 30
0.0
 10
15.6865038007
 20
32.0322734856
 30
0.0
 10
15.9549904977
 20
32.1436247546
 30
0.0
 10
16.2036127078
 20
32.2694724872
 30
0.0
 10
16.4300357204
 20
32.4087234512
 30
0.0
 10
16.6321625994
 20
32.5600489003
 30
0.0
 10
16.7808049073
 20
32.697054549
 30
0.0
 10
16.8851678321
 20
32.8114598387
 30
0.0
 10
16.9772157834
 20
32.9255190318
 30
0.0
 10
17.0748245049
 20
33.0730098735
 30
0.0
 10
17.1628473691
 20
33.2585623698
 30
0.0
 10
17.210085319
 20
33.4180276663
 30
0.0
 10
17.2312322476
 20
33.545954844
 30
0.0
 10
17.2415035206
 20
33.6734875209
 30
0.0
 10
17.2340545097
 20
33.8344804073
 30
0.0
 10
17.1923563869
 20
34.0259540272
 30
0.0
 10
17.1185949476
 20
34.2138105743
 30
0.0
 10
17.0136498691
 20
34.3961615119
 30
0.0
 10
16.8787669083
 20
34.5713879781
 30
0.0
 10
16.7152690128
 20
34.7379532114
 30
0.0
 10
16.5247781287
 20
34.8943314469
 30
0.0
 10
16.3846776472
 20
34.9884714418
 30
0.0
 10
16.3109097288
 20
35.0336445391
 30
0.0
  0
SPLINE
  5
2A8
100
AcDbEntity
  8
0
100
AcDbSpline
 62
7
  6
BYLAYER
 70
0
 71
3
 72
31
 73
27
 74
0
 42
0.0000001
 43
0.0000001
 44
0.0000000001
 40
0.0
 40
0.0
 40
0.0
 40
0.0
 40
0.0325289727
 40
0.066567967
 40
0.1383704111
 40
0.2139213187
 40
0.2914479573
 40
0.3689705521
 40
0.444529331
 40
0.5163119541
 40
0.5828384644
 40
0.6431638205
 40
0.6709561274
 40
0.6972246408
 40
0.7221235127
 40
0.7458930933
 40
0.768849596
 40
0.7913823111
 40
0.8139156156
 40
0.8368754046
 40
0.8606424204
 40
0.8855378252
 40
0.911806435
 40
0.9396177381
 40
0.96903217
 40
1.0
 40
1.0
 40
1.0
 40
1.0
 10
14.5407833525
 20
34.8165269243
 30
0.0
 10
14.5171149443
 20
34.830191577
 30
0.0
 10
14.467438555
 20
34.8560484
 30
0.0
 10
14.3604256732
 20
34.9016959881
 30
0.0
 10
14.214128806
 20
34.9461655101
 30
0.0
 10
14.0275332075
 20
34.9783873359
 30
0.0
 10
13.8336781299
 20
34.9892823955
 30
0.0
 10
13.6398219775
 20
34.9783977172
 30
0.0
 10
13.4532219604
 20
34.9461600809
 30
0.0
 10
13.2808017339
 20
34.8937363712
 30
0.0
 10
13.1289652925
 20
34.8230515431
 30
0.0
 10
13.0212387649
 20
34.7488720924
 30
0.0
 10
12.9516725956
 20
34.6823003223
 30
0.0
 10
12.9093367046
 20
34.6310005162
 30
0.0
 10
12.8758869737
 20
34.5774258678
 30
0.0
 10
12.851644214
 20
34.5220929186
 30
0.0
 10
12.8369833355
 20
34.4655109972
 30
0.0
 10
12.8320551467
 20
34.4082964561
 30
0.0
 10
12.8369705357
 20
34.3510751621
 30
0.0
 10
12.8516593716
 20
34.2945011762
 30
0.0
 10
12.8758556871
 20
34.2391511977
 30
0.0
 10
12.9093221676
 20
34.1855901253
 30
0.0
 10
12.9516479939
 20
34.1342699674
 30
0.0
 10
13.0024413933
 20
34.085675571
 30
0.0
 10
13.0611363618
 20
34.0402615851
 30
0.0
 10
13.104043173
 20
34.0130474701
 30
0.0
 10
13.126575678
 20
34.0000386166
 30
0.0
  0
SPLINE
  5
2A9
100
AcDbEntity
  8
0
100
AcDbSpline
 62
7
  6
BYLAYER
 70
0
 71
3
 72
31
 73
27
 74
0
 42
0.0000001
 43
0.0000001
 44
0.0000000001
 40
0.0
 40
0.0
 40
0.0
 40
0.0
 40
0.0325289727
 40
0.066567967
 40
0.1383704111
 40
0.2139213187
 40
0.2914479573
 40
0.3689705521
 40
0.444529331
 40
0.5163119541
 40
0.5828384644
 40
0.6431638205
 40
0.6709561274
 40
0.6972246408
 40
0.7221235127
 40
0.7458930933
 40
0.768849596
 40
0.7913823111
 40
0.8139156156
 40
0.8368754046
 40
0.8606424204
 40
0.8855378252
 40
0.911806435
 40
0.9396177381
 40
0.96903217
 40
1.0
 40
1.0
 40
1.0
 40
1.0
 10
13.126575678
 20
34.0000386166
 30
0.0
 10
13.1502440862
 20
33.9863739638
 30
0.0
 10
13.1999204755
 20
33.9605171409
 30
0.0
 10
13.3069333573
 20
33.9148695527
 30
0.0
 10
13.4532302245
 20
33.8704000307
 30
0.0
 10
13.639825823
 20
33.8381782049
 30
0.0
 10
13.8336809006
 20
33.8272831454
 30
0.0
 10
14.027537053
 20
33.8381678237
 30
0.0
 10
14.2141370701
 20
33.87040546
 30
0.0
 10
14.3865572966
 20
33.9228291697
 30
0.0
 10
14.5383937379
 20
33.9935139977
 30
0.0
 10
14.6461202656
 20
34.0676934485
 30
0.0
 10
14.7156864349
 20
34.1342652185
 30
0.0
 10
14.7580223259
 20
34.1855650247
 30
0.0
 10
14.7914720568
 20
34.239139673
 30
0.0
 10
14.8157148165
 20
34.2944726222
 30
0.0
 10
14.830375695
 20
34.3510545436
 30
0.0
 10
14.8353038838
 20
34.4082690848
 30
0.0
 10
14.8303884948
 20
34.4654903788
 30
0.0
 10
14.8156996589
 20
34.5220643647
 30
0.0
 10
14.7915033434
 20
34.5774143431
 30
0.0
 10
14.7580368629
 20
34.6309754155
 30
0.0
 10
14.7157110366
 20
34.6822955735
 30
0.0
 10
14.6649176372
 20
34.7308899699
 30
0.0
 10
14.6062226687
 20
34.7763039558
 30
0.0
 10
14.5633158575
 20
34.8035180708
 30
0.0
 10
14.5407833525
 20
34.8165269243
 30
0.0
  0
SPLINE
  5
2AA
100
AcDbEntity
  8
0
100
AcDbSpline
 62
7
  6
BYLAYER
 70
0
 71
3
 72
15
 73
11
 74
0
 42
0.0000001
 43
0.0000001
 44
0.0000000001
 40
0.0
 40
0.0
 40
0.0
 40
0.0
 40
0.1085648152
 40
0.2190826882
 40
0.3333384153
 40
0.4528178653
 40
0.5786325528
 40
0.7115619048
 40
0.8520462759
 40
1.0
 40
1.0
 40
1.0
 40
1.0
 10
10.33368786
 20
33.5460128373
 30
0.0
 10
10.3336859364
 20
33.4813425991
 30
0.0
 10
10.3446301307
 20
33.3505871736
 30
0.0
 10
10.3935430606
 20
33.1573063151
 30
0.0
 10
10.4743145153
 20
32.9679737028
 30
0.0
 10
10.5859804364
 20
32.784434116
 30
0.0
 10
10.7273320246
 20
32.6082659857
 30
0.0
 10
10.8970115081
 20
32.4409520019
 30
0.0
 10
11.0933969501
 20
32.2840119258
 30
0.0
 10
11.2372200642
 20
32.1895327633
 30
0.0
 10
11.3128132387
 20
32.1442205725
 30
0.0
  0
SPLINE
  5
2AB
100
AcDbEntity
  8
0
100
AcDbSpline
 62
7
  6
BYLAYER
 70
0
 71
3
 72
15
 73
11
 74
0
 42
0.0000001
 43
0.0000001
 44
0.0000000001
 40
0.0
 40
0.0
 40
0.0
 40
0.0
 40
0.1165536513
 40
0.2430876042
 40
0.3761086879
 40
0.5117325617
 40
0.645674363
 40
0.773847642
 40
0.8927577893
 40
1.0
 40
1.0
 40
1.0
 40
1.0
 10
18.9814383143
 20
11.8810571873
 30
0.0
 10
18.9550204783
 20
11.8658049336
 30
0.0
 10
18.8967453247
 20
11.8393718011
 30
0.0
 10
18.8016704333
 20
11.8127346175
 30
0.0
 10
18.6989406558
 20
11.7984132289
 30
0.0
 10
18.5933147107
 20
11.7970140546
 30
0.0
 10
18.4895870179
 20
11.8086338547
 30
0.0
 10
18.3924818479
 20
11.8327473741
 30
0.0
 10
18.3064283469
 20
11.8682431118
 30
0.0
 10
18.2561288797
 20
11.900346895
 30
0.0
 10
18.2344204897
 20
11.9181384096
 30
0.0
  0
SPLINE
  5
2AC
100
AcDbEntity
  8
0
100
AcDbSpline
 62
7
  6
BYLAYER
 70
0
 71
3
 72
9
 73
5
 74
0
 42
0.0000001
 43
0.0000001
 44
0.0000000001
 40
0.0
 40
0.0
 40
0.0
 40
0.0
 40
0.4962523351
 40
1.0
 40
1.0
 40
1.0
 40
1.0
 10
7.7650507699
 20
7.4697051901
 30
0.0
 10
7.7650505775
 20
7.4613095466
 30
0.0
 10
7.7637333724
 20
7.4443669397
 30
0.0
 10
7.7598630927
 20
7.4278257893
 30
0.0
 10
7.7573311641
 20
7.4196881302
 30
0.0
  0
SPLINE
  5
2AD
100
AcDbEntity
  8
0
100
AcDbSpline
 62
7
  6
BYLAYER
 70
0
 71
3
 72
17
 73
13
 74
0
 42
0.0000001
 43
0.0000001
 44
0.0000000001
 40
0.0
 40
0.0
 40
0.0
 40
0.0
 40
0.0539153923
 40
0.1080892722
 40
0.1627732547
 40
0.2182088646
 40
0.3321251717
 40
0.4514616006
 40
0.577356795
 40
0.7105553392
 40
0.8514233584
 40
1.0
 40
1.0
 40
1.0
 40
1.0
 10
19.8336795152
 20
27.1005861371
 30
0.0
 10
19.8336796143
 20
27.1572934209
 30
0.0
 10
19.8288235695
 20
27.2710388186
 30
0.0
 10
19.807048664
 20
27.441042462
 30
0.0
 10
19.7708365018
 20
27.610217303
 30
0.0
 10
19.7028062517
 20
27.8360510731
 30
0.0
 10
19.580587575
 20
28.1154266023
 30
0.0
 10
19.3798096853
 20
28.4367748464
 30
0.0
 10
19.12587009
 20
28.7446093029
 30
0.0
 10
18.8213433673
 20
29.0360842371
 30
0.0
 10
18.4692748717
 20
29.3086208357
 30
0.0
 10
18.2117443087
 20
29.4718514755
 30
0.0
 10
18.0764111778
 20
29.5499883372
 30
0.0
  0
SPLINE
  5
2AE
100
AcDbEntity
  8
0
100
AcDbSpline
 62
7
  6
BYLAYER
 70
0
 71
3
 72
16
 73
12
 74
0
 42
0.0000001
 43
0.0000001
 44
0.0000000001
 40
0.0
 40
0.0
 40
0.0
 40
0.0
 40
0.1454822763
 40
0.283996097
 40
0.4157587484
 40
0.4792780808
 40
0.5413162854
 40
0.6613139989
 40
0.7768552573
 40
0.8892439125
 40
1.0
 40
1.0
 40
1.0
 40
1.0
 10
11.0910133908
 20
26.4388914684
 30
0.0
 10
11.0268171613
 20
26.4835245781
 30
0.0
 10
10.9049338302
 20
26.5757681642
 30
0.0
 10
10.7394481465
 20
26.7263716375
 30
0.0
 10
10.6193028167
 20
26.8600913563
 30
0.0
 10
10.5357983062
 20
26.970414884
 30
0.0
 10
10.4623589764
 20
27.0801371327
 30
0.0
 10
10.385580537
 20
27.2209557862
 30
0.0
 10
10.3183691772
 20
27.3960803382
 30
0.0
 10
10.2777661195
 20
27.5741494983
 30
0.0
 10
10.268691462
 20
27.6942637682
 30
0.0
 10
10.2686861737
 20
27.753788071
 30
0.0
  0
SPLINE
  5
2AF
100
AcDbEntity
  8
0
100
AcDbSpline
 62
7
  6
BYLAYER
 70
0
 71
3
 72
16
 73
12
 74
0
 42
0.0000001
 43
0.0000001
 44
0.0000000001
 40
0.0
 40
0.0
 40
0.0
 40
0.0
 40
0.1097948138
 40
0.2213592666
 40
0.3363257681
 40
0.4560804338
 40
0.5181261494
 40
0.5817444395
 40
0.7139859559
 40
0.8533635168
 40
1.0
 40
1.0
 40
1.0
 40
1.0
 10
17.3986728568
 20
27.7537880706
 30
0.0
 10
17.3986783882
 20
27.6915269467
 30
0.0
 10
17.3887256805
 20
27.5657852104
 30
0.0
 10
17.3442655701
 20
27.3795988263
 30
0.0
 10
17.2707507735
 20
27.1967891437
 30
0.0
 10
17.1868846166
 20
27.0502955667
 30
0.0
 10
17.1068166277
 20
26.9363840236
 30
0.0
 10
17.0156659262
 20
26.8219131435
 30
0.0
 10
16.8846234048
 20
26.6836284605
 30
0.0
 10
16.7045268024
 20
26.528767367
 30
0.0
 10
16.5721619156
 20
26.4346175668
 30
0.0
 10
16.5025075721
 20
26.3892009421
 30
0.0
  0
SPLINE
  5
2B0
100
AcDbEntity
  8
0
100
AcDbSpline
 62
7
  6
BYLAYER
 70
0
 71
3
 72
24
 73
20
 74
0
 42
0.0000001
 43
0.0000001
 44
0.0000000001
 40
0.0
 40
0.0
 40
0.0
 40
0.0
 40
0.0300709388
 40
0.0609521484
 40
0.1248571307
 40
0.1912239427
 40
0.2594930922
 40
0.3290244268
 40
0.3991452567
 40
0.4691633508
 40
0.5383898696
 40
0.6061601503
 40
0.6718550192
 40
0.7349237691
 40
0.7949099787
 40
0.8514825235
 40
0.904463635
 40
0.953886752
 40
1.0
 40
1.0
 40
1.0
 40
1.0
 10
18.2501696759
 20
8.5582801061
 30
0.0
 10
18.1450919035
 20
8.5057923356
 30
0.0
 10
17.9294117593
 20
8.4047110126
 30
0.0
 10
17.4785457758
 20
8.2184342945
 30
0.0
 10
16.8811680033
 20
8.0173621194
 30
0.0
 10
16.1278224235
 20
7.8301301387
 30
0.0
 10
15.3408064573
 20
7.6968700147
 30
0.0
 10
14.5316575439
 20
7.6195760084
 30
0.0
 10
13.7122572604
 20
7.599366287
 30
0.0
 10
12.8946409561
 20
7.6365423257
 30
0.0
 10
12.0908168238
 20
7.7305529094
 30
0.0
 10
11.3125783757
 20
7.8800190416
 30
0.0
 10
10.5713232639
 20
8.0827615843
 30
0.0
 10
9.8778837704
 20
8.3358459844
 30
0.0
 10
9.2423453158
 20
8.6356456636
 30
0.0
 10
8.673962317
 20
8.9779267857
 30
0.0
 10
8.1808917876
 20
9.3580083469
 30
0.0
 10
7.770605191
 20
9.7706396401
 30
0.0
 10
7.5493746689
 20
10.0736134341
 30
0.0
 10
7.4565967664
 20
10.2279999682
 30
0.0
  0
SPLINE
  5
2B1
100
AcDbEntity
  8
0
100
AcDbSpline
 62
7
  6
BYLAYER
 70
0
 71
3
 72
19
 73
15
 74
0
 42
0.0000001
 43
0.0000001
 44
0.0000000001
 40
0.0
 40
0.0
 40
0.0
 40
0.0
 40
0.0578091072
 40
0.1156297836
 40
0.173648059
 40
0.2320364713
 40
0.3503661356
 40
0.410575864
 40
0.4715928078
 40
0.5335368759
 40
0.5965054364
 40
0.7258104058
 40
0.8602103375
 40
1.0
 40
1.0
 40
1.0
 40
1.0
 10
20.1836795152
 20
6.8513261923
 30
0.0
 10
20.1836795152
 20
6.7874141476
 30
0.0
 10
20.178663437
 20
6.6595206465
 30
0.0
 10
20.1562093544
 20
6.4686770318
 30
0.0
 10
20.1190215454
 20
6.2794767094
 30
0.0
 10
20.0497794428
 20
6.0291658642
 30
0.0
 10
19.9520448212
 20
5.7849976681
 30
0.0
 10
19.828856011
 20
5.5503884681
 30
0.0
 10
19.7229741215
 20
5.3775858871
 30
0.0
 10
19.6046550741
 20
5.2093347495
 30
0.0
 10
19.4293686723
 20
4.9894559344
 30
0.0
 10
19.1800912808
 20
4.7270105586
 30
0.0
 10
18.8405687104
 20
4.436641022
 30
0.0
 10
18.5924436129
 20
4.261679542
 30
0.0
 10
18.4625554171
 20
4.1779303107
 30
0.0
  0
SPLINE
  5
2B2
100
AcDbEntity
  8
0
100
AcDbSpline
 62
7
  6
BYLAYER
 70
0
 71
3
 72
10
 73
6
 74
0
 42
0.0000001
 43
0.0000001
 44
0.0000000001
 40
0.0
 40
0.0
 40
0.0
 40
0.0
 40
0.5511411919
 40
0.7919141163
 40
1.0
 40
1.0
 40
1.0
 40
1.0
 10
7.6493985063
 20
8.7953468725
 30
0.0
 10
7.6699788706
 20
8.769428941
 30
0.0
 10
7.6984775616
 20
8.7312545435
 30
0.0
 10
7.730376559
 20
8.6803502508
 30
0.0
 10
7.7430932953
 20
8.656537899
 30
0.0
 10
7.7483535984
 20
8.6452038748
 30
0.0
  0
SPLINE
  5
2B3
100
AcDbEntity
  8
0
100
AcDbSpline
 62
7
  6
BYLAYER
 70
0
 71
3
 72
9
 73
5
 74
0
 42
0.0000001
 43
0.0000001
 44
0.0000000001
 40
0.0
 40
0.0
 40
0.0
 40
0.0
 40
0.2673999013
 40
1.0
 40
1.0
 40
1.0
 40
1.0
 10
7.7483535984
 20
8.6452037427
 30
0.0
 10
7.7493592478
 20
8.6430369369
 30
0.0
 10
7.7530276925
 20
8.6348919092
 30
0.0
 10
7.7563208978
 20
8.6265720766
 30
0.0
 10
7.7584190748
 20
8.6203728817
 30
0.0
  0
SPLINE
  5
2B4
100
AcDbEntity
  8
0
100
AcDbSpline
 62
7
  6
BYLAYER
 70
0
 71
3
 72
9
 73
5
 74
0
 42
0.0000001
 43
0.0000001
 44
0.0000000001
 40
0.0
 40
0.0
 40
0.0
 40
0.0
 40
0.4761566955
 40
1.0
 40
1.0
 40
1.0
 40
1.0
 10
18.2884707837
 20
7.0146925362
 30
0.0
 10
18.3172933472
 20
7.0313331517
 30
0.0
 10
18.3775450691
 20
7.0667655312
 30
0.0
 10
18.4374849994
 20
7.1027193097
 30
0.0
 10
18.4688408656
 20
7.1216251165
 30
0.0
  0
SPLINE
  5
2B5
100
AcDbEntity
  8
0
100
AcDbSpline
 62
7
  6
BYLAYER
 70
0
 71
3
 72
11
 73
7
 74
0
 42
0.0000001
 43
0.0000001
 44
0.0000000001
 40
0.0
 40
0.0
 40
0.0
 40
0.0
 40
0.2520082669
 40
0.5021071131
 40
0.7511273845
 40
1.0
 40
1.0
 40
1.0
 40
1.0
 10
7.6224597923
 20
6.0322759864
 30
0.0
 10
7.5996942549
 20
6.09855986
 30
0.0
 10
7.5594899256
 20
6.2324683622
 30
0.0
 10
7.515897789
 20
6.4369959746
 30
0.0
 10
7.4895643264
 20
6.6435776028
 30
0.0
 10
7.4836795152
 20
6.7821138389
 30
0.0
 10
7.4836795152
 20
6.8513261923
 30
0.0
  0
SPLINE
  5
2B6
100
AcDbEntity
  8
0
100
AcDbSpline
 62
7
  6
BYLAYER
 70
0
 71
3
 72
9
 73
5
 74
0
 42
0.0000001
 43
0.0000001
 44
0.0000000001
 40
0.0
 40
0.0
 40
0.0
 40
0.0
 40
0.4967856973
 40
1.0
 40
1.0
 40
1.0
 40
1.0
 10
20.1836717521
 20
8.4843310323
 30
0.0
 10
20.1836770247
 20
8.5835163386
 30
0.0
 10
20.1695438874
 20
8.7834148992
 30
0.0
 10
20.1277990075
 20
8.9793653821
 30
0.0
 10
20.1004212751
 20
9.0760320275
 30
0.0
  0
SPLINE
  5
2B7
100
AcDbEntity
  8
0
100
AcDbSpline
 62
7
  6
BYLAYER
 70
0
 71
3
 72
11
 73
7
 74
0
 42
0.0000001
 43
0.0000001
 44
0.0000000001
 40
0.0
 40
0.0
 40
0.0
 40
0.0
 40
0.255322355
 40
0.5061998063
 40
0.7539282546
 40
1.0
 40
1.0
 40
1.0
 40
1.0
 10
7.6493985063
 20
8.7953468725
 30
0.0
 10
7.6222127966
 20
8.8626952597
 30
0.0
 10
7.5742431986
 20
8.9987140548
 30
0.0
 10
7.5220688184
 20
9.2070560071
 30
0.0
 10
7.4906632381
 20
9.4168742455
 30
0.0
 10
7.4836795346
 20
9.5574375262
 30
0.0
 10
7.4836795024
 20
9.6274344105
 30
0.0
  0
SPLINE
  5
2B8
100
AcDbEntity
  8
0
100
AcDbSpline
 62
7
  6
BYLAYER
 70
0
 71
3
 72
23
 73
19
 74
0
 42
0.0000001
 43
0.0000001
 44
0.0000000001
 40
0.0
 40
0.0
 40
0.0
 40
0.0
 40
0.0558612406
 40
0.1142433734
 40
0.1748650114
 40
0.2374483379
 40
0.3016526554
 40
0.3670985454
 40
0.4333861532
 40
0.5000979558
 40
0.5668062342
 40
0.6330843739
 40
0.698514725
 40
0.76269534
 40
0.8252514432
 40
0.8858416347
 40
0.9441705725
 40
1.0
 40
1.0
 40
1.0
 40
1.0
 10
18.1755666284
 20
6.9495117869
 30
0.0
 10
18.0298192727
 20
6.8656300593
 30
0.0
 10
17.7242007411
 20
6.7069449751
 30
0.0
 10
17.2393593341
 20
6.5007901143
 30
0.0
 10
16.721980739
 20
6.322989444
 30
0.0
 10
16.1771063276
 20
6.1752353644
 30
0.0
 10
15.6098706588
 20
6.0588608585
 30
0.0
 10
15.0256729927
 20
5.9750321672
 30
0.0
 10
14.4300940388
 20
5.9245273451
 30
0.0
 10
13.8288153618
 20
5.9078061397
 30
0.0
 10
13.227580554
 20
5.9250748064
 30
0.0
 10
12.6321342625
 20
5.9761269651
 30
0.0
 10
12.04816164
 20
6.0604906722
 30
0.0
 10
11.4812355668
 20
6.177379118
 30
0.0
 10
10.9367547931
 20
6.3256403029
 30
0.0
 10
10.419896449
 20
6.5039174291
 30
0.0
 10
9.9356111427
 20
6.7104857264
 30
0.0
 10
9.6304319206
 20
6.8694643711
 30
0.0
 10
9.4848830716
 20
6.9534986993
 30
0.0
  0
SPLINE
  5
2B9
100
AcDbEntity
  8
0
100
AcDbSpline
 62
7
  6
BYLAYER
 70
0
 71
3
 72
9
 73
5
 74
0
 42
0.0000001
 43
0.0000001
 44
0.0000000001
 40
0.0
 40
0.0
 40
0.0
 40
0.0
 40
0.5028678229
 40
1.0
 40
1.0
 40
1.0
 40
1.0
 10
7.5573408958
 20
9.0410752279
 30
0.0
 10
7.533083306
 20
8.9499107115
 30
0.0
 10
7.4961450815
 20
8.7653934133
 30
0.0
 10
7.4836812184
 20
8.5775916681
 30
0.0
 10
7.483681022
 20
8.4843310299
 30
0.0
  0
SPLINE
  5
2BA
100
AcDbEntity
  8
0
100
AcDbSpline
 62
7
  6
BYLAYER
 70
0
 71
3
 72
11
 73
7
 74
0
 42
0.0000001
 43
0.0000001
 44
0.0000000001
 40
0.0
 40
0.0
 40
0.0
 40
0.0
 40
0.2763049199
 40
0.5345342364
 40
0.7752142399
 40
1.0
 40
1.0
 40
1.0
 40
1.0
 10
9.3434561681
 20
7.0351509903
 30
0.0
 10
9.1656541707
 20
7.1378032947
 30
0.0
 10
8.8314832538
 20
7.3542620801
 30
0.0
 10
8.387849173
 20
7.7241344713
 30
0.0
 10
8.0250167313
 20
8.1235133781
 30
0.0
 10
7.8350456467
 20
8.4149463954
 30
0.0
 10
7.7573311641
 20
8.5627915142
 30
0.0
  0
SPLINE
  5
2BB
100
AcDbEntity
  8
0
100
AcDbSpline
 62
7
  6
BYLAYER
 70
0
 71
3
 72
15
 73
11
 74
0
 42
0.0000001
 43
0.0000001
 44
0.0000000001
 40
0.0
 40
0.0
 40
0.0
 40
0.0
 40
0.1089831274
 40
0.219855288
 40
0.3343500576
 40
0.4539257224
 40
0.5796791523
 40
0.7123801495
 40
0.8524909916
 40
1.0
 40
1.0
 40
1.0
 40
1.0
 10
20.1836759405
 20
9.6274344106
 30
0.0
 10
20.1836697018
 20
9.5122666386
 30
0.0
 10
20.1645457963
 20
9.2795041485
 30
0.0
 10
20.0790772497
 20
8.9352398985
 30
0.0
 10
19.9378949449
 20
8.5977203449
 30
0.0
 10
19.7425575063
 20
8.2701504876
 30
0.0
 10
19.495186507
 20
7.9552226354
 30
0.0
 10
19.1980336789
 20
7.6555459493
 30
0.0
 10
18.8538669108
 20
7.373685629
 30
0.0
 10
18.6015269982
 20
7.203435552
 30
0.0
 10
18.4688408656
 20
7.1216251165
 30
0.0
  0
SPLINE
  5
2BC
100
AcDbEntity
  8
0
100
AcDbSpline
 62
7
  6
BYLAYER
 70
0
 71
3
 72
9
 73
5
 74
0
 42
0.0000001
 43
0.0000001
 44
0.0000000001
 40
0.0
 40
0.0
 40
0.0
 40
0.0
 40
0.4962523351
 40
1.0
 40
1.0
 40
1.0
 40
1.0
 10
7.7650507699
 20
9.3884858704
 30
0.0
 10
7.7650505775
 20
9.3800902268
 30
0.0
 10
7.7637333724
 20
9.36314762
 30
0.0
 10
7.7598630927
 20
9.3466064696
 30
0.0
 10
7.7573311641
 20
9.3384688105
 30
0.0
  0
SPLINE
  5
2BD
100
AcDbEntity
  8
0
100
AcDbSpline
 62
7
  6
BYLAYER
 70
0
 71
3
 72
23
 73
19
 74
0
 42
0.0000001
 43
0.0000001
 44
0.0000000001
 40
0.0
 40
0.0
 40
0.0
 40
0.0
 40
0.0558167988
 40
0.1141807891
 40
0.1747883631
 40
0.2373522457
 40
0.3015480944
 40
0.3669925332
 40
0.4332818382
 40
0.4999986366
 40
0.5667174771
 40
0.6330084393
 40
0.6984532346
 40
0.7626484504
 40
0.8252194327
 40
0.885822221
 40
0.9441632989
 40
1.0
 40
1.0
 40
1.0
 40
1.0
 10
16.4959476304
 20
26.3800621135
 30
0.0
 10
16.4067852623
 20
26.3285845035
 30
0.0
 10
16.219739354
 20
26.2311878651
 30
0.0
 10
15.9229379891
 20
26.104584043
 30
0.0
 10
15.6061107515
 20
25.995389992
 30
0.0
 10
15.2724003663
 20
25.9045977231
 30
0.0
 10
14.924936603
 20
25.833081076
 30
0.0
 10
14.5670310735
 20
25.7814810162
 30
0.0
 10
14.2021087514
 20
25.7503375393
 30
0.0
 10
13.8336608167
 20
25.7399230343
 30
0.0
 10
13.465209403
 20
25.7503383479
 30
0.0
 10
13.1002813602
 20
25.7814966939
 30
0.0
 10
12.7423700757
 20
25.8330776677
 30
0.0
 10
12.3948999111
 20
25.9046244837
 30
0.0
 10
12.0611823239
 20
25.9954047431
 30
0.0
 10
11.7444051011
 20
26.1046230483
 30
0.0
 10
11.4475908515
 20
26.2311615856
 30
0.0
 10
11.2605709083
 20
26.3285983079
 30
0.0
 10
11.1713775692
 20
26.3800956951
 30
0.0
  0
SPLINE
  5
2BE
100
AcDbEntity
  8
0
100
AcDbSpline
 62
7
  6
BYLAYER
 70
0
 71
3
 72
17
 73
13
 74
0
 42
0.0000001
 43
0.0000001
 44
0.0000000001
 40
0.0
 40
0.0
 40
0.0
 40
0.0
 40
0.1485454669
 40
0.2894555469
 40
0.4226469768
 40
0.5485371469
 40
0.6678764054
 40
0.7817923754
 40
0.8372274477
 40
0.8919111206
 40
0.9460848128
 40
1.0
 40
1.0
 40
1.0
 40
1.0
 10
9.5910211644
 20
29.5500306642
 30
0.0
 10
9.4557116434
 20
29.4719101422
 30
0.0
 10
9.1981718282
 20
29.3086592291
 30
0.0
 10
8.8460647156
 20
29.0361464446
 30
0.0
 10
8.5415108951
 20
28.7446360573
 30
0.0
 10
8.2875748916
 20
28.4367988356
 30
0.0
 10
8.0867812246
 20
28.1154517097
 30
0.0
 10
7.9645570047
 20
27.8360669381
 30
0.0
 10
7.8965255915
 20
27.6102282886
 30
0.0
 10
7.8603123377
 20
27.4410500797
 30
0.0
 10
7.8385362748
 20
27.271042723
 30
0.0
 10
7.8336796144
 20
27.1572947196
 30
0.0
 10
7.8336795153
 20
27.1005861371
 30
0.0
  0
SPLINE
  5
2BF
100
AcDbEntity
  8
0
100
AcDbSpline
 62
7
  6
BYLAYER
 70
0
 71
3
 72
12
 73
8
 74
0
 42
0.0000001
 43
0.0000001
 44
0.0000000001
 40
0.0
 40
0.0
 40
0.0
 40
0.0
 40
0.1081676522
 40
0.2183534475
 40
0.4513082424
 40
0.7105864439
 40
1.0
 40
1.0
 40
1.0
 40
1.0
 10
19.1249442777
 20
12.0810951901
 30
0.0
 10
19.1249405929
 20
12.0718186752
 30
0.0
 10
19.1233241895
 20
12.0530549949
 30
0.0
 10
19.1135995778
 20
12.0154329619
 30
0.0
 10
19.0885652389
 20
11.9692874715
 30
0.0
 10
19.0419358655
 20
11.9203555056
 30
0.0
 10
19.0029333229
 20
11.8934672622
 30
0.0
 10
18.9814383143
 20
11.8810571873
 30
0.0
  0
LINE
  5
2C0
100
AcDbEntity
  8
0
100
AcDbLine
 62
7
  6
BYLAYER
 10
19.313779862
 20
11.689184046
 11
19.2744940447
 21
11.666663952
  0
SPLINE
  5
2C1
100
AcDbEntity
  8
0
100
AcDbSpline
 62
7
  6
BYLAYER
 70
0
 71
3
 72
11
 73
7
 74
0
 42
0.0000001
 43
0.0000001
 44
0.0000000001
 40
0.0
 40
0.0
 40
0.0
 40
0.0
 40
0.2460717717
 40
0.4938002044
 40
0.7446776322
 40
1.0
 40
1.0
 40
1.0
 40
1.0
 10
7.483681022
 20
8.4843310299
 30
0.0
 10
7.4836808745
 20
8.4143341568
 30
0.0
 10
7.4906642124
 20
8.2737708923
 30
0.0
 10
7.52206929
 20
8.0639526365
 30
0.0
 10
7.5742433046
 20
7.8556106539
 30
0.0
 10
7.6222128025
 20
7.7195918611
 30
0.0
 10
7.6493985063
 20
7.6522434885
 30
0.0
  0
SPLINE
  5
2C2
100
AcDbEntity
  8
0
100
AcDbSpline
 62
7
  6
BYLAYER
 70
0
 71
3
 72
17
 73
13
 74
0
 42
0.0000001
 43
0.0000001
 44
0.0000000001
 40
0.0
 40
0.0
 40
0.0
 40
0.0
 40
0.0540487039
 40
0.1083506268
 40
0.1631524207
 40
0.2186911471
 40
0.3327575053
 40
0.4521536193
 40
0.5779992367
 40
0.7110506609
 40
0.851738433
 40
1.0
 40
1.0
 40
1.0
 40
1.0
 10
20.1836792013
 20
6.8513261923
 30
0.0
 10
20.1836778474
 20
6.7919936551
 30
0.0
 10
20.1786549698
 20
6.6729904488
 30
0.0
 10
20.1561352516
 20
6.4951132784
 30
0.0
 10
20.1186786153
 20
6.3180834924
 30
0.0
 10
20.048317202
 20
6.0817648855
 30
0.0
 10
19.9219214557
 20
5.7893204968
 30
0.0
 10
19.7141579334
 20
5.4526253034
 30
0.0
 10
19.4513085797
 20
5.1297507982
 30
0.0
 10
19.1359261706
 20
4.8235920878
 30
0.0
 10
18.7711194508
 20
4.5368974401
 30
0.0
 10
18.5041161378
 20
4.3647566324
 30
0.0
 10
18.3638027259
 20
4.2822850242
 30
0.0
  0
SPLINE
  5
2C3
100
AcDbEntity
  8
0
100
AcDbSpline
 62
7
  6
BYLAYER
 70
0
 71
3
 72
23
 73
19
 74
0
 42
0.0000001
 43
0.0000001
 44
0.0000000001
 40
0.0
 40
0.0
 40
0.0
 40
0.0
 40
0.056350359
 40
0.1150569244
 40
0.175840153
 40
0.2384343661
 40
0.3025236951
 40
0.3677548932
 40
0.433756899
 40
0.5001462073
 40
0.5665302545
 40
0.6325177009
 40
0.6977236333
 40
0.7617779223
 40
0.8243321
 40
0.88506637
 40
0.9437006662
 40
1.0
 40
1.0
 40
1.0
 40
1.0
 10
18.1739691702
 20
6.95138188
 30
0.0
 10
18.0252181897
 20
6.8709644398
 30
0.0
 10
17.7147724531
 20
6.7189711497
 30
0.0
 10
17.2250101818
 20
6.5215375252
 30
0.0
 10
16.7053146613
 20
6.3515446813
 30
0.0
 10
16.1603761584
 20
6.2104814749
 30
0.0
 10
15.594933258
 20
6.0995187158
 30
0.0
 10
15.01395367
 20
6.019701633
 30
0.0
 10
14.4225724533
 20
5.9716843547
 30
0.0
 10
13.8259985888
 20
5.9559080891
 30
0.0
 10
13.2294917092
 20
5.972522684
 30
0.0
 10
12.6383116998
 20
6.0213471785
 30
0.0
 10
12.0576738617
 20
6.1019981464
 30
0.0
 10
11.492688509
 20
6.2137259672
 30
0.0
 10
10.9483334294
 20
6.3555627763
 30
0.0
 10
10.4293891607
 20
6.5262908998
 30
0.0
 10
9.9404362354
 20
6.7243529316
 30
0.0
 10
9.6306324719
 20
6.8768187518
 30
0.0
 10
9.4821784111
 20
6.9574627273
 30
0.0
  0
SPLINE
  5
2C4
100
AcDbEntity
  8
0
100
AcDbSpline
 62
7
  6
BYLAYER
 70
0
 71
3
 72
32
 73
28
 74
0
 42
0.0000001
 43
0.0000001
 44
0.0000000001
 40
0.0
 40
0.0
 40
0.0
 40
0.0
 40
0.0213265893
 40
0.0428814255
 40
0.0648812745
 40
0.0875201185
 40
0.1109638271
 40
0.1353444997
 40
0.1607613031
 40
0.1872803095
 40
0.2149373347
 40
0.2437412239
 40
0.2736755124
 40
0.3047036926
 40
0.3697755548
 40
0.4383561859
 40
0.5096254159
 40
0.5826320182
 40
0.6563457319
 40
0.7297049071
 40
0.8016642883
 40
0.8368177015
 40
0.8712587409
 40
0.904883517
 40
0.9376056867
 40
0.9693417211
 40
1.0
 40
1.0
 40
1.0
 40
1.0
 10
7.8336795153
 20
27.1005861371
 30
0.0
 10
7.8336793665
 20
27.0154694003
 30
0.0
 10
7.8446830497
 20
26.8441299078
 30
0.0
 10
7.8938852119
 20
26.5892460094
 30
0.0
 10
7.9755648126
 20
26.3373292684
 30
0.0
 10
8.0890851297
 20
26.0898208671
 30
0.0
 10
8.2338005368
 20
25.8480795968
 30
0.0
 10
8.4087897604
 20
25.6133564026
 30
0.0
 10
8.6130876016
 20
25.386897949
 30
0.0
 10
8.8455347053
 20
25.1698613685
 30
0.0
 10
9.1048702772
 20
24.9633787802
 30
0.0
 10
9.3896905181
 20
24.7685361131
 30
0.0
 10
9.698459599
 20
24.5863302347
 30
0.0
 10
10.1469598782
 20
24.3579794467
 30
0.0
 10
10.7579568962
 20
24.1118424752
 30
0.0
 10
11.5450253015
 20
23.8850148072
 30
0.0
 10
12.380894137
 20
23.7268150595
 30
0.0
 10
13.2477099473
 20
23.6406159669
 30
0.0
 10
14.1270431626
 20
23.6282442995
 30
0.0
 10
15.0000732741
 20
23.6899608236
 30
0.0
 10
15.7125098985
 20
23.8029176793
 30
0.0
 10
16.2632097294
 20
23.9298201173
 30
0.0
 10
16.6599538945
 20
24.0413704731
 30
0.0
 10
17.0414509906
 20
24.169465126
 30
0.0
 10
17.4056949196
 20
24.3134069394
 30
0.0
 10
17.7506149597
 20
24.4724334728
 30
0.0
 10
17.9703703852
 20
24.5899616215
 30
0.0
 10
18.0763378661
 20
24.65114161
 30
0.0
  0
SPLINE
  5
2C5
100
AcDbEntity
  8
0
100
AcDbSpline
 62
7
  6
BYLAYER
 70
0
 71
3
 72
9
 73
5
 74
0
 42
0.0000001
 43
0.0000001
 44
0.0000000001
 40
0.0
 40
0.0
 40
0.0
 40
0.0
 40
0.246835468
 40
1.0
 40
1.0
 40
1.0
 40
1.0
 10
7.758480163
 20
5.8968279851
 30
0.0
 10
7.757825052
 20
5.8991140937
 30
0.0
 10
7.7549846227
 20
5.9083216476
 30
0.0
 10
7.7514083973
 20
5.917299663
 30
0.0
 10
7.7483535984
 20
5.9238816363
 30
0.0
  0
SPLINE
  5
2C6
100
AcDbEntity
  8
0
100
AcDbSpline
 62
7
  6
BYLAYER
 70
0
 71
3
 72
14
 73
10
 74
0
 42
0.0000001
 43
0.0000001
 44
0.0000000001
 40
0.0
 40
0.0
 40
0.0
 40
0.0
 40
0.2934882841
 40
0.4279872027
 40
0.5543955273
 40
0.6733615187
 40
0.7860685138
 40
0.8942380388
 40
1.0
 40
1.0
 40
1.0
 40
1.0
 10
18.9529944335
 20
12.2962995302
 30
0.0
 10
18.9784191625
 20
12.2837706153
 30
0.0
 10
19.0142164284
 20
12.2624119575
 30
0.0
 10
19.0551156098
 20
12.2277057378
 30
0.0
 10
19.0800733945
 20
12.2006726541
 30
0.0
 10
19.099879561
 20
12.1721727168
 30
0.0
 10
19.1142449001
 20
12.1424965574
 30
0.0
 10
19.1229936464
 20
12.1120218473
 30
0.0
 10
19.1249483349
 20
12.0913093358
 30
0.0
 10
19.1249442777
 20
12.0810951901
 30
0.0
  0
SPLINE
  5
2C7
100
AcDbEntity
  8
0
100
AcDbSpline
 62
7
  6
BYLAYER
 70
0
 71
3
 72
15
 73
11
 74
0
 42
0.0000001
 43
0.0000001
 44
0.0000000001
 40
0.0
 40
0.0
 40
0.0
 40
0.0
 40
0.1475092057
 40
0.2876204768
 40
0.4203215179
 40
0.5460747766
 40
0.6656502501
 40
0.7801447986
 40
0.8910168374
 40
1.0
 40
1.0
 40
1.0
 40
1.0
 10
18.4688408656
 20
5.9785217325
 30
0.0
 10
18.6015270894
 20
6.0603322243
 30
0.0
 10
18.8538672017
 20
6.230582834
 30
0.0
 10
19.1980342648
 20
6.5124434702
 30
0.0
 10
19.4951865688
 20
6.8121207618
 30
0.0
 10
19.7425566415
 20
7.1270485819
 30
0.0
 10
19.937892921
 20
7.4546181203
 30
0.0
 10
20.079074371
 20
7.7921371536
 30
0.0
 10
20.1645421396
 20
8.1364010296
 30
0.0
 10
20.1836656297
 20
8.3691632979
 30
0.0
 10
20.1836717521
 20
8.4843310323
 30
0.0
  0
SPLINE
  5
2C8
100
AcDbEntity
  8
0
100
AcDbSpline
 62
7
  6
BYLAYER
 70
0
 71
3
 72
9
 73
5
 74
0
 42
0.0000001
 43
0.0000001
 44
0.0000000001
 40
0.0
 40
0.0
 40
0.0
 40
0.0
 40
0.4795443681
 40
1.0
 40
1.0
 40
1.0
 40
1.0
 10
18.2884707837
 20
5.9124142731
 30
0.0
 10
18.3151466788
 20
5.9278155164
 30
0.0
 10
18.3739952923
 20
5.9544653015
 30
0.0
 10
18.436111181
 20
5.9717125567
 30
0.0
 10
18.4688408656
 20
5.9785217325
 30
0.0
  0
SPLINE
  5
2C9
100
AcDbEntity
  8
0
100
AcDbSpline
 62
7
  6
BYLAYER
 70
0
 71
3
 72
10
 73
6
 74
0
 42
0.0000001
 43
0.0000001
 44
0.0000000001
 40
0.0
 40
0.0
 40
0.0
 40
0.0
 40
0.2272810728
 40
0.5957609326
 40
1.0
 40
1.0
 40
1.0
 40
1.0
 10
18.1739691702
 20
5.808278496
 30
0.0
 10
18.1802316599
 20
5.8183124468
 30
0.0
 10
18.1987635946
 20
5.8433261014
 30
0.0
 10
18.2367133674
 20
5.8793872658
 30
0.0
 10
18.270252246
 20
5.9018958583
 30
0.0
 10
18.2884707837
 20
5.9124142731
 30
0.0
  0
SPLINE
  5
2CA
100
AcDbEntity
  8
0
100
AcDbSpline
 62
7
  6
BYLAYER
 70
0
 71
3
 72
24
 73
20
 74
0
 42
0.0000001
 43
0.0000001
 44
0.0000000001
 40
0.0
 40
0.0
 40
0.0
 40
0.0
 40
0.0455175286
 40
0.0943720364
 40
0.1469103977
 40
0.203223023
 40
0.2631523936
 40
0.3263598678
 40
0.3923602933
 40
0.4605591112
 40
0.5302830479
 40
0.6008072716
 40
0.671380495
 40
0.7412494158
 40
0.8096857764
 40
0.8760026682
 40
0.9396086802
 40
0.9702429126
 40
1.0
 40
1.0
 40
1.0
 40
1.0
 10
7.7573311641
 20
7.4196881302
 30
0.0
 10
7.8377350169
 20
7.2667267158
 30
0.0
 10
8.0355762753
 20
6.9653522769
 30
0.0
 10
8.4151888621
 20
6.5540095792
 30
0.0
 10
8.8806214586
 20
6.1745875941
 30
0.0
 10
9.4241873167
 20
5.8326893179
 30
0.0
 10
10.0374509656
 20
5.5333103565
 30
0.0
 10
10.7107685334
 20
5.2809931801
 30
0.0
 10
11.433563436
 20
5.0796329156
 30
0.0
 10
12.1944218941
 20
4.93237544
 30
0.0
 10
12.9812988319
 20
4.8415403541
 30
0.0
 10
13.7817122753
 20
4.8085681488
 30
0.0
 10
14.5829512176
 20
4.8339882041
 30
0.0
 10
15.3722909969
 20
4.9173914111
 30
0.0
 10
16.1372032372
 20
5.0574734737
 30
0.0
 10
16.8655673402
 20
5.2519708758
 30
0.0
 10
17.4396881157
 20
5.4595004513
 30
0.0
 10
17.8699195423
 20
5.6509488817
 30
0.0
 10
18.0745901391
 20
5.7545524146
 30
0.0
 10
18.1739691702
 20
5.808278496
 30
0.0
  0
SPLINE
  5
2CB
100
AcDbEntity
  8
0
100
AcDbSpline
 62
7
  6
BYLAYER
 70
0
 71
3
 72
9
 73
5
 74
0
 42
0.0000001
 43
0.0000001
 44
0.0000000001
 40
0.0
 40
0.0
 40
0.0
 40
0.0
 40
0.508095291
 40
1.0
 40
1.0
 40
1.0
 40
1.0
 10
7.7483535984
 20
7.5429256116
 30
0.0
 10
7.7537404143
 20
7.5313189957
 30
0.0
 10
7.7621370272
 20
7.5073549002
 30
0.0
 10
7.7650510537
 20
7.4820932042
 30
0.0
 10
7.7650507699
 20
7.4697051901
 30
0.0
  0
SPLINE
  5
2CC
100
AcDbEntity
  8
0
100
AcDbSpline
 62
7
  6
BYLAYER
 70
0
 71
3
 72
10
 73
6
 74
0
 42
0.0000001
 43
0.0000001
 44
0.0000000001
 40
0.0
 40
0.0
 40
0.0
 40
0.0
 40
0.2740695594
 40
0.5315639122
 40
1.0
 40
1.0
 40
1.0
 40
1.0
 10
7.6493985063
 20
7.6522434885
 30
0.0
 10
7.6606290164
 20
7.6445665622
 30
0.0
 10
7.6816942775
 20
7.628551548
 30
0.0
 10
7.7174904582
 20
7.5941130718
 30
0.0
 10
7.7385652019
 20
7.5640160221
 30
0.0
 10
7.7483535984
 20
7.5429256116
 30
0.0
  0
SPLINE
  5
2CD
100
AcDbEntity
  8
0
100
AcDbSpline
 62
7
  6
BYLAYER
 70
0
 71
3
 72
14
 73
10
 74
0
 42
0.0000001
 43
0.0000001
 44
0.0000000001
 40
0.0
 40
0.0
 40
0.0
 40
0.0
 40
0.142670592
 40
0.2801889013
 40
0.5390995447
 40
0.6609426876
 40
0.7780498864
 40
0.8908733772
 40
1.0
 40
1.0
 40
1.0
 40
1.0
 10
9.8738980269
 20
6.1981637649
 30
0.0
 10
9.7823706101
 20
6.2510059481
 30
0.0
 10
9.6056669177
 20
6.3602445718
 30
0.0
 10
9.2803274556
 20
6.5920982653
 30
0.0
 10
8.9911358352
 20
6.8474023665
 30
0.0
 10
8.7476181307
 20
7.1249102043
 30
0.0
 10
8.5939391958
 20
7.3358515382
 30
0.0
 10
8.4663370824
 20
7.5526549843
 30
0.0
 10
8.3981593891
 20
7.7026918037
 30
0.0
 10
8.3689374673
 20
7.7780630561
 30
0.0
  0
SPLINE
  5
2CE
100
AcDbEntity
  8
0
100
AcDbSpline
 62
7
  6
BYLAYER
 70
0
 71
3
 72
9
 73
5
 74
0
 42
0.0000001
 43
0.0000001
 44
0.0000000001
 40
0.0
 40
0.0
 40
0.0
 40
0.0
 40
0.494379497
 40
1.0
 40
1.0
 40
1.0
 40
1.0
 10
7.4954179803
 20
10.1802872383
 30
0.0
 10
7.50630641
 20
10.0770479504
 30
0.0
 10
7.5436784426
 20
9.8695880452
 30
0.0
 10
7.6096568287
 20
9.6694780227
 30
0.0
 10
7.6493985063
 20
9.5710241687
 30
0.0
  0
SPLINE
  5
2CF
100
AcDbEntity
  8
0
100
AcDbSpline
 62
7
  6
BYLAYER
 70
0
 71
3
 72
9
 73
5
 74
0
 42
0.0000001
 43
0.0000001
 44
0.0000000001
 40
0.0
 40
0.0
 40
0.0
 40
0.0
 40
0.4899106256
 40
1.0
 40
1.0
 40
1.0
 40
1.0
 10
18.2732724411
 20
8.5287528856
 30
0.0
 10
18.1881291211
 20
8.4615420515
 30
0.0
 10
18.0087857831
 20
8.3312822077
 30
0.0
 10
17.8205940017
 20
8.214258426
 30
0.0
 10
17.7227830036
 20
8.157787557
 30
0.0
  0
SPLINE
  5
2D0
100
AcDbEntity
  8
0
100
AcDbSpline
 62
7
  6
BYLAYER
 70
0
 71
3
 72
22
 73
18
 74
0
 42
0.0000001
 43
0.0000001
 44
0.0000000001
 40
0.0
 40
0.0
 40
0.0
 40
0.0
 40
0.1517064911
 40
0.2232681674
 40
0.2919715373
 40
0.3579154279
 40
0.4212805528
 40
0.4823159997
 40
0.5413554878
 40
0.5988097498
 40
0.6551535475
 40
0.7109169428
 40
0.7666545938
 40
0.8229257423
 40
0.8802620311
 40
0.9391493391
 40
1.0
 40
1.0
 40
1.0
 40
1.0
 10
11.1713775692
 20
26.3800956951
 30
0.0
 10
11.0498157955
 20
26.4502815835
 30
0.0
 10
10.8766063023
 20
26.5643580597
 30
0.0
 10
10.6683553882
 20
26.7367524727
 30
0.0
 10
10.5310753389
 20
26.8695713479
 30
0.0
 10
10.4104582258
 20
27.0077886114
 30
0.0
 10
10.30706665
 20
27.1506921164
 30
0.0
 10
10.2214910954
 20
27.2976161121
 30
0.0
 10
10.1542155573
 20
27.4478287056
 30
0.0
 10
10.1055817844
 20
27.6005514364
 30
0.0
 10
10.0759746746
 20
27.7550105841
 30
0.0
 10
10.0655133693
 20
27.9103516587
 30
0.0
 10
10.0742886813
 20
28.06573344
 30
0.0
 10
10.1022799144
 20
28.2202895075
 30
0.0
 10
10.1492357007
 20
28.3732098275
 30
0.0
 10
10.2149329331
 20
28.5236514642
 30
0.0
 10
10.2699546483
 20
28.6200761874
 30
0.0
 10
10.3002068738
 20
28.6675611442
 30
0.0
  0
SPLINE
  5
2D1
100
AcDbEntity
  8
0
100
AcDbSpline
 62
7
  6
BYLAYER
 70
0
 71
3
 72
15
 73
11
 74
0
 42
0.0000001
 43
0.0000001
 44
0.0000000001
 40
0.0
 40
0.0
 40
0.0
 40
0.0
 40
0.1466967709
 40
0.2864171864
 40
0.4191127325
 40
0.5451619582
 40
0.6652097655
 40
0.7801696571
 40
0.8912707432
 40
1.0
 40
1.0
 40
1.0
 40
1.0
 10
18.4688408656
 20
7.8973024127
 30
0.0
 10
18.5951695222
 20
7.9751930122
 30
0.0
 10
18.8360168043
 20
8.1370108714
 30
0.0
 10
19.1663641146
 20
8.4037456317
 30
0.0
 10
19.4544118519
 20
8.6867811832
 30
0.0
 10
19.6977562145
 20
8.9838850957
 30
0.0
 10
19.894412865
 20
9.2928361701
 30
0.0
 10
20.0425391808
 20
9.6113427712
 30
0.0
 10
20.1407220891
 20
9.9367142467
 30
0.0
 10
20.1723001087
 20
10.1579051041
 30
0.0
 10
20.1793314248
 20
10.2676800898
 30
0.0
  0
SPLINE
  5
2D2
100
AcDbEntity
  8
0
100
AcDbSpline
 62
7
  6
BYLAYER
 70
0
 71
3
 72
9
 73
5
 74
0
 42
0.0000001
 43
0.0000001
 44
0.0000000001
 40
0.0
 40
0.0
 40
0.0
 40
0.0
 40
0.4795443681
 40
1.0
 40
1.0
 40
1.0
 40
1.0
 10
18.2884707837
 20
7.8311949533
 30
0.0
 10
18.3151466788
 20
7.8465961966
 30
0.0
 10
18.3739952923
 20
7.8732459818
 30
0.0
 10
18.436111181
 20
7.890493237
 30
0.0
 10
18.4688408656
 20
7.8973024127
 30
0.0
  0
SPLINE
  5
2D3
100
AcDbEntity
  8
0
100
AcDbSpline
 62
7
  6
BYLAYER
 70
0
 71
3
 72
10
 73
6
 74
0
 42
0.0000001
 43
0.0000001
 44
0.0000000001
 40
0.0
 40
0.0
 40
0.0
 40
0.0
 40
0.2272810728
 40
0.5957609326
 40
1.0
 40
1.0
 40
1.0
 40
1.0
 10
18.1739691702
 20
7.7270591762
 30
0.0
 10
18.1802316599
 20
7.737093127
 30
0.0
 10
18.1987635946
 20
7.7621067816
 30
0.0
 10
18.2367133674
 20
7.798167946
 30
0.0
 10
18.270252246
 20
7.8206765385
 30
0.0
 10
18.2884707837
 20
7.8311949533
 30
0.0
  0
SPLINE
  5
2D4
100
AcDbEntity
  8
0
100
AcDbSpline
 62
7
  6
BYLAYER
 70
0
 71
3
 72
24
 73
20
 74
0
 42
0.0000001
 43
0.0000001
 44
0.0000000001
 40
0.0
 40
0.0
 40
0.0
 40
0.0
 40
0.0455175286
 40
0.0943720364
 40
0.1469103977
 40
0.203223023
 40
0.2631523936
 40
0.3263598678
 40
0.3923602933
 40
0.4605591112
 40
0.5302830479
 40
0.6008072716
 40
0.671380495
 40
0.7412494158
 40
0.8096857764
 40
0.8760026682
 40
0.9396086802
 40
0.9702429126
 40
1.0
 40
1.0
 40
1.0
 40
1.0
 10
7.7573311641
 20
9.3384688105
 30
0.0
 10
7.8377350169
 20
9.185507396
 30
0.0
 10
8.0355762753
 20
8.8841329572
 30
0.0
 10
8.4151888621
 20
8.4727902595
 30
0.0
 10
8.8806214586
 20
8.0933682743
 30
0.0
 10
9.4241873167
 20
7.7514699982
 30
0.0
 10
10.0374509656
 20
7.4520910368
 30
0.0
 10
10.7107685334
 20
7.1997738603
 30
0.0
 10
11.433563436
 20
6.9984135958
 30
0.0
 10
12.1944218941
 20
6.8511561203
 30
0.0
 10
12.9812988319
 20
6.7603210344
 30
0.0
 10
13.7817122753
 20
6.7273488291
 30
0.0
 10
14.5829512176
 20
6.7527688843
 30
0.0
 10
15.3722909969
 20
6.8361720914
 30
0.0
 10
16.1372032372
 20
6.976254154
 30
0.0
 10
16.8655673402
 20
7.1707515561
 30
0.0
 10
17.4396881157
 20
7.3782811315
 30
0.0
 10
17.8699195423
 20
7.569729562
 30
0.0
 10
18.0745901391
 20
7.6733330949
 30
0.0
 10
18.1739691702
 20
7.7270591762
 30
0.0
  0
SPLINE
  5
2D5
100
AcDbEntity
  8
0
100
AcDbSpline
 62
7
  6
BYLAYER
 70
0
 71
3
 72
9
 73
5
 74
0
 42
0.0000001
 43
0.0000001
 44
0.0000000001
 40
0.0
 40
0.0
 40
0.0
 40
0.0
 40
0.508095291
 40
1.0
 40
1.0
 40
1.0
 40
1.0
 10
7.7483535984
 20
9.4617062919
 30
0.0
 10
7.7537404143
 20
9.450099676
 30
0.0
 10
7.7621370272
 20
9.4261355804
 30
0.0
 10
7.7650510537
 20
9.4008738844
 30
0.0
 10
7.7650507699
 20
9.3884858704
 30
0.0
  0
SPLINE
  5
2D6
100
AcDbEntity
  8
0
100
AcDbSpline
 62
7
  6
BYLAYER
 70
0
 71
3
 72
10
 73
6
 74
0
 42
0.0000001
 43
0.0000001
 44
0.0000000001
 40
0.0
 40
0.0
 40
0.0
 40
0.0
 40
0.2740695594
 40
0.5315639122
 40
1.0
 40
1.0
 40
1.0
 40
1.0
 10
7.6493985063
 20
9.5710241687
 30
0.0
 10
7.6606290164
 20
9.5633472425
 30
0.0
 10
7.6816942775
 20
9.5473322282
 30
0.0
 10
7.7174904582
 20
9.512893752
 30
0.0
 10
7.7385652019
 20
9.4827967023
 30
0.0
 10
7.7483535984
 20
9.4617062919
 30
0.0
  0
SPLINE
  5
2D7
100
AcDbEntity
  8
0
100
AcDbSpline
 62
7
  6
BYLAYER
 70
0
 71
3
 72
9
 73
5
 74
0
 42
0.0000001
 43
0.0000001
 44
0.0000000001
 40
0.0
 40
0.0
 40
0.0
 40
0.0
 40
0.5140204821
 40
1.0
 40
1.0
 40
1.0
 40
1.0
 10
10.2981308895
 20
29.9582923269
 30
0.0
 10
10.1788708754
 20
29.8894379366
 30
0.0
 10
9.952571785
 20
29.7452390527
 30
0.0
 10
9.7416471831
 20
29.5791097157
 30
0.0
 10
9.6442107928
 20
29.4927533632
 30
0.0
  0
SPLINE
  5
2D8
100
AcDbEntity
  8
0
100
AcDbSpline
 62
7
  6
BYLAYER
 70
0
 71
3
 72
37
 73
33
 74
0
 42
0.0000001
 43
0.0000001
 44
0.0000000001
 40
0.0
 40
0.0
 40
0.0
 40
0.0
 40
0.0275765229
 40
0.0408326591
 40
0.0537504212
 40
0.078638407
 40
0.1024514538
 40
0.1254609362
 40
0.1479944792
 40
0.1704163801
 40
0.1931000473
 40
0.2163976087
 40
0.2406155201
 40
0.2659976989
 40
0.2927198716
 40
0.3208921124
 40
0.3505618593
 40
0.3817253157
 40
0.4143301308
 40
0.4482875855
 40
0.4834743834
 40
0.5197419034
 40
0.5569188723
 40
0.6332068367
 40
0.7107298653
 40
0.7877604846
 40
0.8255735247
 40
0.8626395593
 40
0.8987689765
 40
0.9338000469
 40
0.9675932736
 40
1.0
 40
1.0
 40
1.0
 40
1.0
 10
9.6442107928
 20
29.4927533632
 30
0.0
 10
9.5630174698
 20
29.4207929877
 30
0.0
 10
9.4477963883
 20
29.3082898151
 30
0.0
 10
9.3093473536
 20
29.1483195996
 30
0.0
 10
9.186900389
 20
28.9889419455
 30
0.0
 10
9.0568227533
 20
28.7835265255
 30
0.0
 10
8.9390302624
 20
28.5261531034
 30
0.0
 10
8.8625964595
 20
28.263124063
 30
0.0
 10
8.8285162048
 20
27.9967910216
 30
0.0
 10
8.8371252077
 20
27.7296886174
 30
0.0
 10
8.8883974138
 20
27.4643907528
 30
0.0
 10
8.9816421615
 20
27.203364307
 30
0.0
 10
9.1158340022
 20
26.948894753
 30
0.0
 10
9.289614004
 20
26.7030847799
 30
0.0
 10
9.5013425005
 20
26.467859014
 30
0.0
 10
9.7492048811
 20
26.2451017226
 30
0.0
 10
10.0310554733
 20
26.0365083042
 30
0.0
 10
10.3445860171
 20
25.8438020971
 30
0.0
 10
10.6871578259
 20
25.6684695519
 30
0.0
 10
11.0559576985
 20
25.5119909586
 30
0.0
 10
11.4479059537
 20
25.3756114963
 30
0.0
 10
11.859765117
 20
25.2604690045
 30
0.0
 10
12.4357251914
 20
25.1355044565
 30
0.0
 10
13.1825482486
 20
25.0388553452
 30
0.0
 10
14.0920639675
 20
25.0182473338
 30
0.0
 10
14.8479113295
 20
25.0806486432
 30
0.0
 10
15.4377239544
 20
25.1787070632
 30
0.0
 10
15.8640404405
 20
25.274691055
 30
0.0
 10
16.2734075734
 20
25.3927385066
 30
0.0
 10
16.6624805048
 20
25.5318943685
 30
0.0
 10
17.027900606
 20
25.6910294597
 30
0.0
 10
17.2588133678
 20
25.8121371632
 30
0.0
 10
17.369228141
 20
25.8758847816
 30
0.0
  0
SPLINE
  5
2D9
100
AcDbEntity
  8
0
100
AcDbSpline
 62
7
  6
BYLAYER
 70
0
 71
3
 72
26
 73
22
 74
0
 42
0.0000001
 43
0.0000001
 44
0.0000000001
 40
0.0
 40
0.0
 40
0.0
 40
0.0
 40
0.0742746239
 40
0.1447395447
 40
0.2113422739
 40
0.2742913344
 40
0.3339663668
 40
0.390928714
 40
0.4459468845
 40
0.499948105
 40
0.526908242
 40
0.553997692
 40
0.609016615
 40
0.6659801445
 40
0.7256523827
 40
0.7567076139
 40
0.7886365173
 40
0.8214794161
 40
0.8552662981
 40
0.9257051797
 40
1.0
 40
1.0
 40
1.0
 40
1.0
 10
17.369228141
 20
25.8758847816
 30
0.0
 10
17.4819780135
 20
25.9409805623
 30
0.0
 10
17.6965879446
 20
26.0770257799
 30
0.0
 10
17.9900144937
 20
26.3041085081
 30
0.0
 10
18.2438110263
 20
26.5470398893
 30
0.0
 10
18.4554189228
 20
26.8035591426
 30
0.0
 10
18.6227556189
 20
27.0713730696
 30
0.0
 10
18.7438462444
 20
27.3480997394
 30
0.0
 10
18.8172392307
 20
27.6309493961
 30
0.0
 10
18.8377145061
 20
27.8696745604
 30
0.0
 10
18.8296387197
 20
28.0590968993
 30
0.0
 10
18.8053294444
 20
28.2489295492
 30
0.0
 10
18.7438841861
 20
28.4860661409
 30
0.0
 10
18.6227647405
 20
28.7627178637
 30
0.0
 10
18.4851619444
 20
28.9830516195
 30
0.0
 10
18.354002504
 20
29.1535433474
 30
0.0
 10
18.243445494
 20
29.2801453248
 30
0.0
 10
18.1222941085
 20
29.4034351274
 30
0.0
 10
17.9445367673
 20
29.5652335834
 30
0.0
 10
17.6966665159
 20
29.7571369032
 30
0.0
 10
17.4820585809
 20
29.8931361053
 30
0.0
 10
17.3692789218
 20
29.9582510966
 30
0.0
  0
SPLINE
  5
2DA
100
AcDbEntity
  8
0
100
AcDbSpline
 62
7
  6
BYLAYER
 70
0
 71
3
 72
21
 73
17
 74
0
 42
0.0000001
 43
0.0000001
 44
0.0000000001
 40
0.0
 40
0.0
 40
0.0
 40
0.0
 40
0.061117876
 40
0.1202135143
 40
0.1777024231
 40
0.2340656825
 40
0.2898411991
 40
0.345592244
 40
0.4018866487
 40
0.4592637608
 40
0.518215746
 40
0.5791587888
 40
0.7081506529
 40
0.8482416642
 40
0.9227122677
 40
1.0
 40
1.0
 40
1.0
 40
1.0
 10
17.3557174783
 20
28.6852788314
 30
0.0
 10
17.3869149308
 20
28.6376091116
 30
0.0
 10
17.4437495836
 20
28.5407643419
 30
0.0
 10
17.5119920884
 20
28.3894764589
 30
0.0
 10
17.5613209649
 20
28.2356070632
 30
0.0
 10
17.5913302852
 20
28.0799657057
 30
0.0
 10
17.6018973059
 20
27.9234221908
 30
0.0
 10
17.5929286628
 20
27.7668401934
 30
0.0
 10
17.564446991
 20
27.6111051069
 30
0.0
 10
17.5167150028
 20
27.457052537
 30
0.0
 10
17.4499448294
 20
27.3055212636
 30
0.0
 10
17.3340138627
 20
27.1041233371
 30
0.0
 10
17.1405979684
 20
26.8623980428
 30
0.0
 10
16.9001663532
 20
26.6488882798
 30
0.0
 10
16.6787370747
 20
26.490588647
 30
0.0
 10
16.5583393072
 20
26.4160837499
 30
0.0
 10
16.4959476304
 20
26.3800621135
 30
0.0
  0
SPLINE
  5
2DB
100
AcDbEntity
  8
0
100
AcDbSpline
 62
7
  6
BYLAYER
 70
0
 71
3
 72
17
 73
13
 74
0
 42
0.0000001
 43
0.0000001
 44
0.0000000001
 40
0.0
 40
0.0
 40
0.0
 40
0.0
 40
0.1485454669
 40
0.2894555469
 40
0.4226469768
 40
0.5485371469
 40
0.6678764054
 40
0.7817923754
 40
0.8372274477
 40
0.8919111206
 40
0.9460848128
 40
1.0
 40
1.0
 40
1.0
 40
1.0
 10
18.0763378661
 20
24.65114161
 30
0.0
 10
18.2116473871
 20
24.729262132
 30
0.0
 10
18.4691872023
 20
24.8925130451
 30
0.0
 10
18.8212943149
 20
25.1650258296
 30
0.0
 10
19.1258481354
 20
25.4565362169
 30
0.0
 10
19.3797841389
 20
25.7643734386
 30
0.0
 10
19.5805778059
 20
26.0857205646
 30
0.0
 10
19.7028020258
 20
26.3651053361
 30
0.0
 10
19.770833439
 20
26.5909439856
 30
0.0
 10
19.8070466928
 20
26.7601221946
 30
0.0
 10
19.8288227557
 20
26.9301295512
 30
0.0
 10
19.8336794161
 20
27.0438775547
 30
0.0
 10
19.8336795152
 20
27.1005861371
 30
0.0
  0
SPLINE
  5
2DC
100
AcDbEntity
  8
0
100
AcDbSpline
 62
7
  6
BYLAYER
 70
0
 71
3
 72
10
 73
6
 74
0
 42
0.0000001
 43
0.0000001
 44
0.0000000001
 40
0.0
 40
0.0
 40
0.0
 40
0.0
 40
0.468433856
 40
0.7259310503
 40
1.0
 40
1.0
 40
1.0
 40
1.0
 10
7.7483535984
 20
5.9238816363
 30
0.0
 10
7.7385631259
 20
5.9449765196
 30
0.0
 10
7.7174823905
 20
5.9750794546
 30
0.0
 10
7.6816763722
 20
6.0095231694
 30
0.0
 10
7.6606060546
 20
6.0255411108
 30
0.0
 10
7.6493731342
 20
6.0332196847
 30
0.0
  0
SPLINE
  5
2DD
100
AcDbEntity
  8
0
100
AcDbSpline
 62
7
  6
BYLAYER
 70
0
 71
3
 72
9
 73
5
 74
0
 42
0.0000001
 43
0.0000001
 44
0.0000000001
 40
0.0
 40
0.0
 40
0.0
 40
0.0
 40
0.2745601241
 40
1.0
 40
1.0
 40
1.0
 40
1.0
 10
18.2884707837
 20
4.2933702977
 30
0.0
 10
18.2761388364
 20
4.2862504872
 30
0.0
 10
18.2325258164
 20
4.2583447169
 30
0.0
 10
18.1938811183
 20
4.2211407217
 30
0.0
 10
18.173960439
 20
4.1892232056
 30
0.0
  0
SPLINE
  5
2DE
100
AcDbEntity
  8
0
100
AcDbSpline
 62
7
  6
BYLAYER
 70
0
 71
3
 72
9
 73
5
 74
0
 42
0.0000001
 43
0.0000001
 44
0.0000000001
 40
0.0
 40
0.0
 40
0.0
 40
0.0
 40
0.5204556319
 40
1.0
 40
1.0
 40
1.0
 40
1.0
 10
18.4688408656
 20
4.3594777571
 30
0.0
 10
18.436111181
 20
4.3526685813
 30
0.0
 10
18.3739952923
 20
4.3354213261
 30
0.0
 10
18.3151466788
 20
4.308771541
 30
0.0
 10
18.2884707837
 20
4.2933702977
 30
0.0
  0
SPLINE
  5
2DF
100
AcDbEntity
  8
0
100
AcDbSpline
 62
7
  6
BYLAYER
 70
0
 71
3
 72
15
 73
11
 74
0
 42
0.0000001
 43
0.0000001
 44
0.0000000001
 40
0.0
 40
0.0
 40
0.0
 40
0.0
 40
0.1441548207
 40
0.2825930449
 40
0.415156704
 40
0.5419729774
 40
0.6633339511
 40
0.779680514
 40
0.8916301727
 40
1.0
 40
1.0
 40
1.0
 40
1.0
 10
19.4552018302
 20
11.4442353983
 30
0.0
 10
19.5962843872
 20
11.5256889644
 30
0.0
 10
19.8677498521
 20
11.6944603348
 30
0.0
 10
20.2477662058
 20
11.9703197253
 30
0.0
 10
20.5901848636
 20
12.2624090003
 30
0.0
 10
20.8929434382
 20
12.5689421468
 30
0.0
 10
21.1542265548
 20
12.8882604425
 30
0.0
 10
21.3725096847
 20
13.2185480412
 30
0.0
 10
21.5462667301
 20
13.5579023429
 30
0.0
 10
21.6328968727
 20
13.7921186931
 30
0.0
 10
21.6679545832
 20
13.9094612394
 30
0.0
  0
SPLINE
  5
2E0
100
AcDbEntity
  8
0
100
AcDbSpline
 62
7
  6
BYLAYER
 70
0
 71
3
 72
9
 73
5
 74
0
 42
0.0000001
 43
0.0000001
 44
0.0000000001
 40
0.0
 40
0.0
 40
0.0
 40
0.0
 40
0.2123671086
 40
1.0
 40
1.0
 40
1.0
 40
1.0
 10
18.1739691702
 20
6.95138188
 30
0.0
 10
18.1761390457
 20
6.9524805147
 30
0.0
 10
18.1863315082
 20
6.9577033765
 30
0.0
 10
18.1964381852
 20
6.9630922682
 30
0.0
 10
18.2043707674
 20
6.9673867116
 30
0.0
  0
SPLINE
  5
2E1
100
AcDbEntity
  8
0
100
AcDbSpline
 62
7
  6
BYLAYER
 70
0
 71
3
 72
9
 73
5
 74
0
 42
0.0000001
 43
0.0000001
 44
0.0000000001
 40
0.0
 40
0.0
 40
0.0
 40
0.0
 40
0.2074444666
 40
1.0
 40
1.0
 40
1.0
 40
1.0
 10
18.2043707674
 20
6.9673867116
 30
0.0
 10
18.2102384396
 20
6.9705632796
 30
0.0
 10
18.2384452256
 20
6.9860215313
 30
0.0
 10
18.2663939141
 20
7.0019465257
 30
0.0
 10
18.2884707837
 20
7.0146925362
 30
0.0
  0
ENDSEC
  0
SECTION
  2
OBJECTS
  0
DICTIONARY
  5
C
100
AcDbDictionary
280
0
281
1
  3
ACAD_GROUP
350
D
  3
ACAD_MLINESTYLE
350
17
  3
ACAD_LAYOUT
350
1A
  3
ACAD_PLOTSETTINGS
350
19
  3
ACAD_PLOTSTYLENAME
350
E
  0
DICTIONARY
  5
D
102
{ACAD_REACTORS
330
C
102
}
100
AcDbDictionary
280
0
281
1
  0
ACDBDICTIONARYWDFLT
  5
E
102
{ACAD_REACTORS
330
C
102
}
100
AcDbDictionary
281
1
  3
Normal
350
F
100
AcDbDictionaryWithDefault
340
F
  0
DICTIONARY
  5
17
102
{ACAD_REACTORS
330
C
102
}
100
AcDbDictionary
280
0
281
1
  3
Standard
350
18
  0
DICTIONARY
  5
19
102
{ACAD_REACTORS
330
C
102
}
100
AcDbDictionary
281
1
  0
DICTIONARY
  5
1A
102
{ACAD_REACTORS
330
C
102
}
100
AcDbDictionary
281
1
  3
Model
350
2E2
  3
Layout1
350
2E3
  0
ACDBPLACEHOLDER
  5
F
102
{ACAD_REACTORS
330
E
102
}
  0
MLINESTYLE
  5
18
102
{ACAD_REACTORS
330
17
102
}
100
AcDbMlineStyle
  2
STANDARD
 70
0
  3

 62
256
 51
90.0
 52
90.0
 71
2
 49
0.5
 62
256
  6
BYLAYER
 49
-0.5
 62
256
  6
BYLAYER
  0
LAYOUT
  5
2E2
102
{ACAD_REACTORS
330
1A
102
}
100
AcDbPlotSettings
  1

  2
none_device
  4

  6

 40
0.0
 41
0.0
 42
0.0
 43
0.0
 44
210.0
 45
297.0
 46
0.0
 47
0.0
 48
0.0
 49
0.0
140
0.0
141
0.0
142
1.0
143
1.0
 70
1024
 72
1
 73
0
 74
0
  7

 75
0
147
1.0
148
0.0
149
0.0
100
AcDbLayout
  1
Model
 70
0
 71
0
 10
0.0
 20
0.0
 11
210.0
 21
297.0
 12
0.0
 22
0.0
 32
0.0
 14
0.0
 24
0.0
 34
0.0
 15
0.0
 25
0.0
 35
0.0
146
0.0
 13
0.0
 23
0.0
 33
0.0
 16
1.0
 26
0.0
 36
0.0
 17
0.0
 27
1.0
 37
0.0
 76
0
330
210
345
0
346
0
  0
LAYOUT
  5
2E3
102
{ACAD_REACTORS
330
1A
102
}
100
AcDbPlotSettings
  1

  2
none_device
  4

  6

 40
0.0
 41
0.0
 42
0.0
 43
0.0
 44
210.0
 45
297.0
 46
0.0
 47
0.0
 48
0.0
 49
0.0
140
0.0
141
0.0
142
1.0
143
1.0
 70
0
 72
1
 73
0
 74
0
  7

 75
0
147
1.0
148
0.0
149
0.0
100
AcDbLayout
  1
Layout1
 70
0
 71
1
 10
0.0
 20
0.0
 11
210.0
 21
297.0
 12
0.0
 22
0.0
 32
0.0
 14
0.0
 24
0.0
 34
0.0
 15
0.0
 25
0.0
 35
0.0
146
0.0
 13
0.0
 23
0.0
 33
0.0
 16
1.0
 26
0.0
 36
0.0
 17
0.0
 27
1.0
 37
0.0
 76
0
330
211
345
0
346
0
  0
ENDSEC
  0
EOF
