999
DXF file: C:\Users\sesa63760\Dev\_Creo\CAD\MCADID0004530_3D-CAD\drw0001_1.dxf
999
Pro/ENGINEER 2019471 by Parametric Technology Corporation
  0
SECTION
  2
HEADER
  9
$ACADVER
  1
AC1024
  9
$DWGCODEPAGE
  3
ANSI_1252
  9
$EXTMAX
 10
77.0401476697
 20
108.9567802758
 30
0.0
  9
$EXTMIN
 10
-0.0
 20
0.0
 30
0.0
  9
$LIMMIN
 10
-0.0
 20
0.0
  9
$LIMMAX
 10
77.0401476697
 20
108.9567802758
  9
$VIEWCTR
 10
38.5200738349
 20
54.4783901379
  9
$VIEWSIZE
 40
108.9567802758
  9
$CLAYER
  8
0
  9
$LTSCALE
 40
7.1023678995
  9
$CELTYPE
  6
BYLAYER
  9
$DIMSCALE
 40
1.0
  9
$DIMASZ
 40
0.9171446151
  9
$DIMEXO
 40
1.0
  9
$DIMDLI
 40
4.9070905487
  9
$DIMEXE
 40
1.0
  9
$DIMCEN
 40
1.1622056563
  9
$DIMLFAC
 40
1.0
  9
$DIMBLK
  1
_FILLED
  9
$DIMALT
 70
0
  9
$DIMALTF
 40
0.0393700787
  9
$DIMTXT
 40
1.2840024612
  9
$DIMTOL
 70
1
  9
$DIMLIM
 70
0
  9
$DIMTFAC
 40
1.0
  9
$DIMTP
 40
0.01
  9
$DIMTM
 40
0.01
  9
$DIMGAP
 40
0.625
  9
$DIMDSEP
 70
46
  9
$AUNITS
 70
0
  9
$PDMODE
 70
3
  9
$PDSIZE
 40
0.3125
  9
$HANDSEED
  5
300
  9
$TILEMODE
 70
1
  9
$MEASUREMENT
 70
1
  9
$INSUNITS
 70
4
  0
ENDSEC
  0
SECTION
  2
CLASSES
  0
CLASS
  1
ACDBDICTIONARYWDFLT
  2
AcDbDictionaryWithDefault
  3
AutoCAD 2000
 90
0
 91
1
280
0
281
0
  0
CLASS
  1
ACDBPLACEHOLDER
  2
AcDbPlaceHolder
  3
AutoCAD 2000
 90
0
 91
1
280
0
281
0
  0
CLASS
  1
LAYOUT
  2
AcDbLayout
  3
AutoCAD 2000
 90
0
 91
0
280
0
281
0
  0
ENDSEC
  0
SECTION
  2
TABLES
  0
TABLE
  2
VPORT
  5
8
100
AcDbSymbolTable
 70
2
  0
VPORT
  5
1F4
100
AcDbSymbolTableRecord
100
AcDbViewportTableRecord
  2
*ACTIVE
 70
0
 10
0.0
 20
0.0
 11
1.0
 21
1.0
 12
38.5200738349
 22
54.4783901379
 13
0.0
 23
0.0
 14
1.0
 24
1.0
 15
0.0
 25
0.0
 16
0.0
 26
0.0
 36
1.0
 17
0.0
 27
0.0
 37
0.0
 40
108.9567802758
 41
0.7070707071
 42
50.0
 43
0.0
 44
0.0
 50
0.0
 51
0.0
 71
0
 72
100
 73
1
 74
1
 75
0
 76
0
 77
0
 78
0
  0
ENDTAB
  0
TABLE
  2
LTYPE
  5
5
100
AcDbSymbolTable
 70
6
  0
LTYPE
  5
14
100
AcDbSymbolTableRecord
100
AcDbLinetypeTableRecord
  2
BYBLOCK
 70
0
  3

 72
65
 73
0
 40
0.0
  0
LTYPE
  5
15
100
AcDbSymbolTableRecord
100
AcDbLinetypeTableRecord
  2
BYLAYER
 70
0
  3

 72
65
 73
0
 40
0.0
  0
LTYPE
  5
16
100
AcDbSymbolTableRecord
100
AcDbLinetypeTableRecord
  2
CONTINUOUS
 70
64
  3
Solid line
 72
65
 73
0
 40
0.0
  0
LTYPE
  5
1F5
100
AcDbSymbolTableRecord
100
AcDbLinetypeTableRecord
  2
CENTER
 70
64
  3
____ _ ____ _ ____ _ ____ _ ____ _ ____ _ ____
 72
65
 73
4
 40
0.6
 49
0.375
 74
0
 49
-0.075
 74
0
 49
0.075
 74
0
 49
-0.075
 74
0
  0
LTYPE
  5
1F6
100
AcDbSymbolTableRecord
100
AcDbLinetypeTableRecord
  2
HIDDEN
 70
64
  3
- - - - - - - - - - - - - - - - - - - -
 72
65
 73
2
 40
0.2
 49
0.1
 74
0
 49
-0.1
 74
0
  0
LTYPE
  5
1F7
100
AcDbSymbolTableRecord
100
AcDbLinetypeTableRecord
  2
PHANTOM
 70
64
  3
_____ _ _ _____ _ _ _____ _ _ _____
 72
65
 73
6
 40
0.8
 49
0.45
 74
0
 49
-0.05
 74
0
 49
0.1
 74
0
 49
-0.05
 74
0
 49
0.1
 74
0
 49
-0.05
 74
0
  0
LTYPE
  5
1F8
100
AcDbSymbolTableRecord
100
AcDbLinetypeTableRecord
  2
DOT
 70
64
  3
. . . . . . . . . . . . . . . . . . . .
 72
65
 73
2
 40
0.2
 49
0.1
 74
0
 49
-0.1
 74
0
  0
LTYPE
  5
1F9
100
AcDbSymbolTableRecord
100
AcDbLinetypeTableRecord
  2
DASHED
 70
64
  3
- - - - - - - - - - - - - - - - - - - -
 72
65
 73
2
 40
0.2
 49
0.1
 74
0
 49
-0.1
 74
0
  0
ENDTAB
  0
TABLE
  2
LAYER
  5
2
100
AcDbSymbolTable
 70
36
  0
LAYER
  5
10
100
AcDbSymbolTableRecord
100
AcDbLayerTableRecord
  2
0
 70
0
 62
7
  6
CONTINUOUS
370
-3
390
F
  0
LAYER
  5
1FA
100
AcDbSymbolTableRecord
100
AcDbLayerTableRecord
  2
DEFAULT_1
 70
0
 62
7
  6
CENTER
370
-3
390
F
  0
LAYER
  5
1FB
100
AcDbSymbolTableRecord
100
AcDbLayerTableRecord
  2
DEFAULT_2
 70
0
 62
7
  6
HIDDEN
370
-3
390
F
  0
LAYER
  5
1FC
100
AcDbSymbolTableRecord
100
AcDbLayerTableRecord
  2
DEFAULT_3
 70
0
 62
7
  6
PHANTOM
370
-3
390
F
  0
LAYER
  5
1FD
100
AcDbSymbolTableRecord
100
AcDbLayerTableRecord
  2
00_COMPONENTS
 70
0
 62
7
  6
CONTINUOUS
370
-3
390
F
  0
LAYER
  5
1FE
100
AcDbSymbolTableRecord
100
AcDbLayerTableRecord
  2
01_1_DEFAULT_DATUMS
 70
0
 62
7
  6
CONTINUOUS
370
-3
390
F
  0
LAYER
  5
1FF
100
AcDbSymbolTableRecord
100
AcDbLayerTableRecord
  2
01_PLANES
 70
0
 62
7
  6
CONTINUOUS
370
-3
390
F
  0
LAYER
  5
200
100
AcDbSymbolTableRecord
100
AcDbLayerTableRecord
  2
02_COORD_SYS
 70
0
 62
7
  6
CONTINUOUS
370
-3
390
F
  0
LAYER
  5
201
100
AcDbSymbolTableRecord
100
AcDbLayerTableRecord
  2
03_AXES
 70
0
 62
7
  6
CONTINUOUS
370
-3
390
F
  0
LAYER
  5
202
100
AcDbSymbolTableRecord
100
AcDbLayerTableRecord
  2
04_POINTS
 70
0
 62
7
  6
CONTINUOUS
370
-3
390
F
  0
LAYER
  5
203
100
AcDbSymbolTableRecord
100
AcDbLayerTableRecord
  2
05_CURVES
 70
0
 62
7
  6
CONTINUOUS
370
-3
390
F
  0
LAYER
  5
204
100
AcDbSymbolTableRecord
100
AcDbLayerTableRecord
  2
06_SURFS
 70
0
 62
7
  6
CONTINUOUS
370
-3
390
F
  0
LAYER
  5
205
100
AcDbSymbolTableRecord
100
AcDbLayerTableRecord
  2
07_COSMETICS
 70
0
 62
7
  6
CONTINUOUS
370
-3
390
F
  0
LAYER
  5
206
100
AcDbSymbolTableRecord
100
AcDbLayerTableRecord
  2
10_NOTES
 70
0
 62
7
  6
CONTINUOUS
370
-3
390
F
  0
LAYER
  5
207
100
AcDbSymbolTableRecord
100
AcDbLayerTableRecord
  2
11_NOTES_PUB
 70
0
 62
7
  6
CONTINUOUS
370
-3
390
F
  0
LAYER
  5
208
100
AcDbSymbolTableRecord
100
AcDbLayerTableRecord
  2
13_REF_GTOL
 70
0
 62
7
  6
CONTINUOUS
370
-3
390
F
  0
LAYER
  5
209
100
AcDbSymbolTableRecord
100
AcDbLayerTableRecord
  2
16_MISC
 70
0
 62
7
  6
CONTINUOUS
370
-3
390
F
  0
LAYER
  5
20A
100
AcDbSymbolTableRecord
100
AcDbLayerTableRecord
  2
17_NO_PRINT
 70
0
 62
7
  6
CONTINUOUS
370
-3
390
F
  0
LAYER
  5
20B
100
AcDbSymbolTableRecord
100
AcDbLayerTableRecord
  2
18_DATUM_CAMS_JOINTS
 70
0
 62
7
  6
CONTINUOUS
370
-3
390
F
  0
LAYER
  5
20C
100
AcDbSymbolTableRecord
100
AcDbLayerTableRecord
  2
19_DATUM_FUNCTIONAL
 70
0
 62
7
  6
CONTINUOUS
370
-3
390
F
  0
LAYER
  5
20D
100
AcDbSymbolTableRecord
100
AcDbLayerTableRecord
  2
20_DATUM_KINEMATIC_SCHEME
 70
0
 62
7
  6
CONTINUOUS
370
-3
390
F
  0
ENDTAB
  0
TABLE
  2
STYLE
  5
3
100
AcDbSymbolTable
 70
1
  0
STYLE
  5
11
100
AcDbSymbolTableRecord
100
AcDbTextStyleTableRecord
  2
STANDARD
 70
0
 40
0.0
 41
1.0
 50
0.0
 71
0
 42
0.2
  3
ARIAL.TTF
  4

  0
STYLE
  5
20E
100
AcDbSymbolTableRecord
100
AcDbTextStyleTableRecord
  2
TEXTSTYLE_1
 70
0
 40
0.0
 41
0.8
 50
0.0
 71
0
 42
0.2
  3
gdt
  4

  0
ENDTAB
  0
TABLE
  2
VIEW
  5
6
100
AcDbSymbolTable
 70
0
  0
ENDTAB
  0
TABLE
  2
UCS
  5
7
100
AcDbSymbolTable
 70
0
  0
ENDTAB
  0
TABLE
  2
APPID
  5
9
100
AcDbSymbolTable
 70
1
  0
APPID
  5
20F
100
AcDbSymbolTableRecord
100
AcDbRegAppTableRecord
  2
ACAD
 70
0
  0
ENDTAB
  0
TABLE
  2
BLOCK_RECORD
  5
1
100
AcDbSymbolTable
 70
0
  0
BLOCK_RECORD
  5
210
100
AcDbSymbolTableRecord
100
AcDbBlockTableRecord
  2
*Model_Space
  0
BLOCK_RECORD
  5
211
100
AcDbSymbolTableRecord
100
AcDbBlockTableRecord
  2
*Paper_Space
  0
BLOCK_RECORD
  5
212
100
AcDbSymbolTableRecord
100
AcDbBlockTableRecord
  2
_FILLED
  0
ENDTAB
  0
TABLE
  2
DIMSTYLE
  5
A
100
AcDbSymbolTable
 70
1
100
AcDbDimStyleTable
 71
0
  0
DIMSTYLE
105
213
100
AcDbSymbolTableRecord
100
AcDbDimStyleTableRecord
  2
STANDARD
 70
0
  3

  4

 40
1.0
 41
0.9171446151
 42
1.0
 43
0.38
 44
1.0
 45
0.0
 46
0.0
 47
0.01
 48
0.01
140
1.2840024612
141
0.09
142
0.0
143
25.4
144
1.0
145
0.0
146
1.0
147
0.625
 71
1
 72
0
 73
0
 74
0
 75
0
 76
0
 77
1
 78
8
 79
2
170
0
171
1
172
0
173
0
174
0
175
0
176
0
177
0
178
0
270
2
179
2
271
2
272
2
273
2
274
2
275
0
280
0
281
0
282
0
283
1
284
8
285
0
286
0
287
3
288
0
340
11
278
46
341
212
342
212
343
212
344
212
  0
ENDTAB
  0
ENDSEC
  0
SECTION
  2
BLOCKS
  0
BLOCK
  5
20
100
AcDbEntity
  8
0
100
AcDbBlockBegin
  2
*Model_Space
 70
0
 10
0.0
 20
0.0
 30
0.0
  3
*Model_Space
  1

  0
ENDBLK
  5
21
100
AcDbEntity
  8
0
100
AcDbBlockEnd
  0
BLOCK
  5
1C
100
AcDbEntity
  8
0
100
AcDbBlockBegin
  2
*Paper_Space
 70
0
 10
0.0
 20
0.0
 30
0.0
  3
*Paper_Space
  1

  0
ENDBLK
  5
1D
100
AcDbEntity
  8
0
100
AcDbBlockEnd
  0
BLOCK
  5
214
100
AcDbEntity
  8
0
100
AcDbBlockBegin
  2
_FILLED
 70
64
 10
0.0
 20
0.0
  3
_FILLED
  1

  0
SOLID
  5
215
100
AcDbEntity
  8
0
  6
BYBLOCK
 62
0
100
AcDbTrace
 10
0.0
 20
0.0
 11
-1.0
 21
0.25
 12
-1.0
 22
-0.25
 13
-1.0
 23
-0.25
  0
ENDBLK
  5
216
100
AcDbEntity
  8
0
  6
BYBLOCK
 62
0
100
AcDbBlockEnd
  0
ENDSEC
  0
SECTION
  2
ENTITIES
  0
LINE
  5
217
100
AcDbEntity
  8
0
100
AcDbLine
 62
7
  6
BYLAYER
 10
13.7596776369
 20
10.287312491
 11
11.567637489
 21
11.55285883
  0
LINE
  5
218
100
AcDbEntity
  8
0
100
AcDbLine
 62
7
  6
BYLAYER
 10
11.2389637717
 20
11.7934516814
 11
13.4310039196
 21
10.5279053424
  0
LINE
  5
219
100
AcDbEntity
  8
0
100
AcDbLine
 62
7
  6
BYLAYER
 10
11.8144875243
 20
12.1621591071
 11
13.5691856124
 21
11.1491066119
  0
LINE
  5
21A
100
AcDbEntity
  8
0
100
AcDbLine
 62
7
  6
BYLAYER
 10
11.5677137638
 20
11.5529908464
 11
11.2389637717
 21
11.7934516814
  0
LINE
  5
21B
100
AcDbEntity
  8
0
100
AcDbLine
 62
7
  6
BYLAYER
 10
13.4310039196
 20
10.5279053424
 11
13.7597536452
 21
10.2874440462
  0
LINE
  5
21C
100
AcDbEntity
  8
0
100
AcDbLine
 62
7
  6
BYLAYER
 10
10.3260981469
 20
13.8547650875
 11
15.1441121231
 21
11.07314635
  0
LINE
  5
21D
100
AcDbEntity
  8
0
100
AcDbLine
 62
7
  6
BYLAYER
 10
12.4660043451
 20
12.8319890533
 11
10.7173952032
 21
13.8415261733
  0
LINE
  5
21E
100
AcDbEntity
  8
0
100
AcDbLine
 62
7
  6
BYLAYER
 10
13.3639299736
 20
13.925865775
 11
15.5623279312
 21
12.6566488359
  0
LINE
  5
21F
100
AcDbEntity
  8
0
100
AcDbLine
 62
7
  6
BYLAYER
 10
32.1255927732
 20
17.2187485353
 11
27.6695821688
 21
19.7913692568
  0
LINE
  5
220
100
AcDbEntity
  8
0
100
AcDbLine
 62
7
  6
BYLAYER
 10
32.5270896714
 20
17.0714613581
 11
33.7648704008
 21
16.3568078881
  0
LINE
  5
221
100
AcDbEntity
  8
0
100
AcDbLine
 62
7
  6
BYLAYER
 10
36.6086650401
 20
17.4849092676
 11
35.0586714934
 21
18.3798240455
  0
LINE
  5
222
100
AcDbEntity
  8
0
100
AcDbLine
 62
7
  6
BYLAYER
 10
63.7489935872
 20
95.2598766108
 11
64.178648306
 21
95.4266715536
  0
LINE
  5
223
100
AcDbEntity
  8
0
100
AcDbLine
 62
7
  6
BYLAYER
 10
15.2143776182
 20
10.6176955182
 11
15.1440520473
 21
11.073181034
  0
LWPOLYLINE
  5
224
100
AcDbEntity
  8
0
100
AcDbPolyline
 62
7
  6
BYLAYER
 90
5
 70
0
 10
62.5650363203
 20
94.0997255603
 10
53.7695425517
 20
90.3976210934
 10
44.9407172575
 20
84.3249589555
 10
40.6580163096
 20
80.4952170184
 10
32.634709974
 20
71.4980969452
  0
LINE
  5
225
100
AcDbEntity
  8
0
100
AcDbLine
 62
7
  6
BYLAYER
 10
27.1398450031
 20
41.7608907583
 11
26.9377118382
 21
41.9520083269
  0
LWPOLYLINE
  5
226
100
AcDbEntity
  8
0
100
AcDbPolyline
 62
7
  6
BYLAYER
 90
6
 70
0
 10
23.6392988475
 20
56.9659571672
 10
20.1652998848
 20
49.9003583002
 10
16.3852310629
 20
38.4533783043
 10
15.2099141919
 20
32.8295242677
 10
14.3652021441
 20
22.1470270725
 10
15.5567945211
 20
12.6786104109
  0
LINE
  5
227
100
AcDbEntity
  8
0
100
AcDbLine
 62
7
  6
BYLAYER
 10
32.634709974
 20
71.4980969452
 11
28.2508019198
 21
64.9538041485
  0
LINE
  5
228
100
AcDbEntity
  8
0
100
AcDbLine
 62
7
  6
BYLAYER
 10
35.10672621
 20
69.7105497879
 11
34.2587023673
 21
69.2209459166
  0
LINE
  5
229
100
AcDbEntity
  8
0
100
AcDbLine
 62
7
  6
BYLAYER
 10
30.7231831813
 20
67.1797251473
 11
29.8751593386
 21
66.6901212759
  0
LINE
  5
22A
100
AcDbEntity
  8
0
100
AcDbLine
 62
7
  6
BYLAYER
 10
27.1398450031
 20
41.7608907583
 11
40.0891185767
 21
34.2847933067
  0
LINE
  5
22B
100
AcDbEntity
  8
0
100
AcDbLine
 62
7
  6
BYLAYER
 10
23.4534019709
 20
47.2617879964
 11
26.9356164742
 21
41.953035997
  0
LINE
  5
22C
100
AcDbEntity
  8
0
100
AcDbLine
 62
7
  6
BYLAYER
 10
33.7172888129
 20
65.5936674587
 11
34.2865054277
 21
65.8311804502
  0
LINE
  5
22D
100
AcDbEntity
  8
0
100
AcDbLine
 62
7
  6
BYLAYER
 10
34.2587023673
 20
69.2209459166
 11
34.2587023673
 21
65.8978124428
  0
LINE
  5
22E
100
AcDbEntity
  8
0
100
AcDbLine
 62
7
  6
BYLAYER
 10
35.7880931809
 20
60.9484903199
 11
35.7880931809
 21
64.2615044484
  0
LINE
  5
22F
100
AcDbEntity
  8
0
100
AcDbLine
 62
7
  6
BYLAYER
 10
8.9485377449
 20
14.1589563156
 11
12.5475591679
 21
20.3926788819
  0
LINE
  5
230
100
AcDbEntity
  8
0
100
AcDbLine
 62
7
  6
BYLAYER
 10
54.3798784945
 20
92.848783567
 11
57.9787858733
 21
99.0823086018
  0
LINE
  5
231
100
AcDbEntity
  8
0
100
AcDbLine
 62
7
  6
BYLAYER
 10
10.7173952032
 20
13.8415261733
 11
12.8969284383
 21
17.6166094292
  0
LINE
  5
232
100
AcDbEntity
  8
0
100
AcDbLine
 62
7
  6
BYLAYER
 10
56.9586822416
 20
93.9342293357
 11
59.1381579137
 21
97.7092128889
  0
LINE
  5
233
100
AcDbEntity
  8
0
100
AcDbLine
 62
7
  6
BYLAYER
 10
40.0891185767
 20
47.8359684652
 11
27.1398450031
 21
55.3120659168
  0
LINE
  5
234
100
AcDbEntity
  8
0
100
AcDbLine
 62
7
  6
BYLAYER
 10
37.1905117026
 20
61.4910844282
 11
37.1905117026
 21
59.502848503
  0
LINE
  5
235
100
AcDbEntity
  8
0
100
AcDbLine
 62
7
  6
BYLAYER
 10
39.323612367
 20
66.3027252177
 11
39.323612367
 21
60.259566046
  0
LINE
  5
236
100
AcDbEntity
  8
0
100
AcDbLine
 62
7
  6
BYLAYER
 10
11.5483266641
 20
12.1316122738
 11
11.6177409144
 21
12.2518419496
  0
LINE
  5
237
100
AcDbEntity
  8
0
100
AcDbLine
 62
7
  6
BYLAYER
 10
60.9650304783
 20
97.7243291583
 11
61.0344122939
 21
97.8445026551
  0
LINE
  5
238
100
AcDbEntity
  8
0
100
AcDbLine
 62
7
  6
BYLAYER
 10
60.8867670556
 20
96.6996757689
 11
60.0386000845
 21
95.2305993267
  0
LINE
  5
239
100
AcDbEntity
  8
0
100
AcDbLine
 62
7
  6
BYLAYER
 10
13.3141872743
 20
14.301093136
 11
12.4660043451
 21
12.8319890533
  0
LINE
  5
23A
100
AcDbEntity
  8
0
100
AcDbLine
 62
7
  6
BYLAYER
 10
43.3680171122
 20
58.3089725634
 11
44.6463927308
 21
59.0470386653
  0
LINE
  5
23B
100
AcDbEntity
  8
0
100
AcDbLine
 62
7
  6
BYLAYER
 10
48.1819119168
 20
61.0882594347
 11
49.4602874943
 21
61.8263255128
  0
LINE
  5
23C
100
AcDbEntity
  8
0
100
AcDbLine
 62
7
  6
BYLAYER
 10
60.8704883682
 20
67.8604143627
 11
57.6885211007
 21
66.0233156703
  0
LINE
  5
23D
100
AcDbEntity
  8
0
100
AcDbLine
 62
7
  6
BYLAYER
 10
62.5650363203
 20
94.0997255603
 11
47.0534854867
 21
67.2327822706
  0
LINE
  5
23E
100
AcDbEntity
  8
0
100
AcDbLine
 62
7
  6
BYLAYER
 10
31.0455082699
 20
39.5059984899
 11
15.5567945211
 21
12.6786104109
  0
LINE
  5
23F
100
AcDbEntity
  8
0
100
AcDbLine
 62
7
  6
BYLAYER
 10
15.214463619
 20
10.6176293921
 11
31.6811905762
 21
39.138995442
  0
LINE
  5
240
100
AcDbEntity
  8
0
100
AcDbLine
 62
7
  6
BYLAYER
 10
47.7121721302
 20
66.9056241247
 11
64.1787022664
 21
95.4266492686
  0
LINE
  5
241
100
AcDbEntity
  8
0
100
AcDbLine
 62
7
  6
BYLAYER
 10
63.5443830579
 20
89.1203697047
 11
49.9671335868
 21
65.6037532502
  0
LINE
  5
242
100
AcDbEntity
  8
0
100
AcDbLine
 62
7
  6
BYLAYER
 10
33.9361510468
 20
37.8371228595
 11
20.3585256611
 21
14.3198552981
  0
LINE
  5
243
100
AcDbEntity
  8
0
100
AcDbLine
 62
7
  6
BYLAYER
 10
58.5635171835
 20
64.5077689521
 11
55.2145249887
 21
62.5742389485
  0
LINE
  5
244
100
AcDbEntity
  8
0
100
AcDbLine
 62
7
  6
BYLAYER
 10
51.5828906334
 20
58.9472869145
 11
48.0473714474
 21
56.9060661452
  0
LINE
  5
245
100
AcDbEntity
  8
0
100
AcDbLine
 62
7
  6
BYLAYER
 10
23.3730495884
 20
18.7362025706
 11
23.5906789916
 21
19.1131498466
  0
LINE
  5
246
100
AcDbEntity
  8
0
100
AcDbLine
 62
7
  6
BYLAYER
 10
61.0093663742
 20
83.9245773221
 11
61.2269957773
 21
84.3015245981
  0
LINE
  5
247
100
AcDbEntity
  8
0
100
AcDbLine
 62
7
  6
BYLAYER
 10
24.3162047511
 20
19.8799982966
 11
34.4968151356
 21
37.5134306199
  0
LINE
  5
248
100
AcDbEntity
  8
0
100
AcDbLine
 62
7
  6
BYLAYER
 10
50.5277976756
 20
65.2800610105
 11
60.7080230919
 21
82.9128265457
  0
LINE
  5
249
100
AcDbEntity
  8
0
100
AcDbLine
 62
7
  6
BYLAYER
 10
61.8587342169
 20
80.5019563941
 11
52.4347760542
 21
64.1790914376
  0
LINE
  5
24A
100
AcDbEntity
  8
0
100
AcDbLine
 62
7
  6
BYLAYER
 10
36.4037935141
 20
36.4124610469
 11
26.9794301564
 21
20.0888942682
  0
LINE
  5
24B
100
AcDbEntity
  8
0
100
AcDbLine
 62
7
  6
BYLAYER
 10
27.6695821688
 20
19.7913692568
 11
37.0502434705
 21
36.0392414339
  0
LINE
  5
24C
100
AcDbEntity
  8
0
100
AcDbLine
 62
7
  6
BYLAYER
 10
53.0812260106
 20
63.8058718246
 11
62.4614783673
 21
80.0530356842
  0
LINE
  5
24D
100
AcDbEntity
  8
0
100
AcDbLine
 62
7
  6
BYLAYER
 10
61.0635059913
 20
60.1776354713
 11
60.2145890074
 21
59.6875159478
  0
LINE
  5
24E
100
AcDbEntity
  8
0
100
AcDbLine
 62
7
  6
BYLAYER
 10
30.7231831813
 20
67.1797251473
 11
33.7171282809
 21
65.5940521849
  0
LINE
  5
24F
100
AcDbEntity
  8
0
100
AcDbLine
 62
7
  6
BYLAYER
 10
39.323612367
 20
60.259566046
 11
37.1905117026
 21
61.4910844282
  0
LINE
  5
250
100
AcDbEntity
  8
0
100
AcDbLine
 62
7
  6
BYLAYER
 10
35.4396368471
 20
64.5995838984
 11
33.7171282809
 21
65.5940521849
  0
LINE
  5
251
100
AcDbEntity
  8
0
100
AcDbLine
 62
7
  6
BYLAYER
 10
47.5786452215
 20
57.2155645388
 11
47.5786452215
 21
61.2403314784
  0
LINE
  5
252
100
AcDbEntity
  8
0
100
AcDbLine
 62
7
  6
BYLAYER
 10
65.1204693415
 20
60.4991874455
 11
61.938502074
 21
58.6620887531
  0
LINE
  5
253
100
AcDbEntity
  8
0
100
AcDbLine
 62
7
  6
BYLAYER
 10
37.252647467
 20
67.6352729543
 11
34.2587023673
 21
69.2209459166
  0
LINE
  5
254
100
AcDbEntity
  8
0
100
AcDbLine
 62
7
  6
BYLAYER
 10
37.252647467
 20
67.6352729543
 11
38.9751560332
 21
66.6408046678
  0
LINE
  5
255
100
AcDbEntity
  8
0
100
AcDbLine
 62
7
  6
BYLAYER
 10
66.9174889717
 20
77.4804149627
 11
66.8814685957
 21
77.4180254951
  0
LINE
  5
256
100
AcDbEntity
  8
0
100
AcDbLine
 62
7
  6
BYLAYER
 10
32.1616131492
 20
17.2811380029
 11
32.1255927732
 21
17.2187485353
  0
LINE
  5
257
100
AcDbEntity
  8
0
100
AcDbLine
 62
7
  6
BYLAYER
 10
67.3785369321
 20
74.3597838308
 11
63.3886203403
 21
67.4490072131
  0
LINE
  5
258
100
AcDbEntity
  8
0
100
AcDbLine
 62
7
  6
BYLAYER
 10
43.3888995485
 20
32.8082823698
 11
35.0586714934
 21
18.3798240455
  0
LINE
  5
259
100
AcDbEntity
  8
0
100
AcDbLine
 62
7
  6
BYLAYER
 10
56.3502557098
 20
49.9977399723
 11
60.3284812309
 21
52.2945558377
  0
LINE
  5
25A
100
AcDbEntity
  8
0
100
AcDbLine
 62
7
  6
BYLAYER
 10
68.9285304789
 20
73.4648690529
 11
64.7221831831
 21
66.1792213788
  0
LINE
  5
25B
100
AcDbEntity
  8
0
100
AcDbLine
 62
7
  6
BYLAYER
 10
45.100796696
 20
32.1937944109
 11
36.6086650401
 21
17.4849092676
  0
LINE
  5
25C
100
AcDbEntity
  8
0
100
AcDbLine
 62
7
  6
BYLAYER
 10
35.2993009732
 20
69.7813811738
 11
36.5634665163
 21
69.9695963336
  0
LINE
  5
25D
100
AcDbEntity
  8
0
100
AcDbLine
 62
7
  6
BYLAYER
 10
37.1935178779
 20
69.9984570517
 11
35.2993009732
 21
69.7813811738
  0
LINE
  5
25E
100
AcDbEntity
  8
0
100
AcDbLine
 62
7
  6
BYLAYER
 10
37.1937308131
 20
69.9982582086
 11
36.5634688264
 21
69.9696035885
  0
LINE
  5
25F
100
AcDbEntity
  8
0
100
AcDbLine
 62
7
  6
BYLAYER
 10
60.4156513948
 20
59.5714276082
 11
47.4663778211
 21
67.0475250598
  0
LINE
  5
260
100
AcDbEntity
  8
0
100
AcDbLine
 62
7
  6
BYLAYER
 10
60.618526071
 20
59.3799527032
 11
60.4156513948
 21
59.5714276082
  0
LINE
  5
261
100
AcDbEntity
  8
0
100
AcDbLine
 62
7
  6
BYLAYER
 10
67.3785369321
 20
74.3597838308
 11
68.9285304789
 21
73.4648690529
  0
LINE
  5
262
100
AcDbEntity
  8
0
100
AcDbLine
 62
7
  6
BYLAYER
 10
68.4835690246
 20
76.4916916934
 11
67.2457882951
 21
77.2063451634
  0
LINE
  5
263
100
AcDbEntity
  8
0
100
AcDbLine
 62
7
  6
BYLAYER
 10
62.4614783673
 20
80.0530356842
 11
66.9174889717
 21
77.4804149627
  0
LINE
  5
264
100
AcDbEntity
  8
0
100
AcDbLine
 62
7
  6
BYLAYER
 10
60.3884315777
 20
95.3751265868
 11
62.5867929061
 21
94.1059307951
  0
LINE
  5
265
100
AcDbEntity
  8
0
100
AcDbLine
 62
7
  6
BYLAYER
 10
63.7371130322
 20
96.8514160934
 11
63.3645698883
 21
97.0158587086
  0
LINE
  5
266
100
AcDbEntity
  8
0
100
AcDbLine
 62
7
  6
BYLAYER
 10
61.1725297404
 20
98.2814050476
 11
61.5450731505
 21
98.116962894
  0
LINE
  5
267
100
AcDbEntity
  8
0
100
AcDbLine
 62
7
  6
BYLAYER
 10
59.1381579137
 20
97.7092128889
 11
60.8867670556
 21
96.6996757689
  0
LINE
  5
268
100
AcDbEntity
  8
0
100
AcDbLine
 62
7
  6
BYLAYER
 10
58.9309732989
 20
98.041510408
 11
63.7489935872
 21
95.2598766108
  0
LINE
  5
269
100
AcDbEntity
  8
0
100
AcDbLine
 62
7
  6
BYLAYER
 10
62.8957507742
 20
96.585697904
 11
61.141052686
 21
97.5987503992
  0
LINE
  5
26A
100
AcDbEntity
  8
0
100
AcDbLine
 62
7
  6
BYLAYER
 10
61.1725297404
 20
98.2814050476
 11
63.3645698883
 21
97.0158587086
  0
LINE
  5
26B
100
AcDbEntity
  8
0
100
AcDbLine
 62
7
  6
BYLAYER
 10
63.7371892619
 20
96.8515482286
 11
61.5451491139
 21
98.1170945676
  0
ARC
  5
26C
100
AcDbEntity
  8
0
100
AcDbCircle
 62
7
  6
BYLAYER
 10
56.023336226
 20
85.4664560375
 40
29.3106641513
100
AcDbArc
 50
225.3914144255
 51
226.340487653
  0
ARC
  5
26D
100
AcDbEntity
  8
0
100
AcDbCircle
 62
7
  6
BYLAYER
 10
59.4812094725
 20
87.427647632
 40
29.1991621126
100
AcDbArc
 50
225.3896022839
 51
226.3422997946
  0
ARC
  5
26E
100
AcDbEntity
  8
0
100
AcDbCircle
 62
7
  6
BYLAYER
 10
45.7648173209
 20
46.2987790228
 40
25.8512682413
100
AcDbArc
 50
127.9269874738
 51
128.4700997544
  0
ARC
  5
26F
100
AcDbEntity
  8
0
100
AcDbCircle
 62
7
  6
BYLAYER
 10
49.9026339115
 20
55.964109762
 40
24.6004635513
100
AcDbArc
 50
284.7919123534
 51
286.3753147549
  0
ARC
  5
270
100
AcDbEntity
  8
0
100
AcDbCircle
 62
7
  6
BYLAYER
 10
42.4874260151
 20
42.7740136149
 40
24.3574449348
100
AcDbArc
 50
12.5050373044
 51
15.6204589446
  0
ARC
  5
271
100
AcDbEntity
  8
0
100
AcDbCircle
 62
7
  6
BYLAYER
 10
51.4213026313
 20
50.2123954992
 40
18.6516533023
100
AcDbArc
 50
284.2344216413
 51
284.7923598711
  0
ARC
  5
272
100
AcDbEntity
  8
0
100
AcDbCircle
 62
7
  6
BYLAYER
 10
8.5660946494
 20
26.0643171285
 40
16.5211128719
100
AcDbArc
 50
330.0359551933
 51
333.6687180193
  0
ARC
  5
273
100
AcDbEntity
  8
0
100
AcDbCircle
 62
7
  6
BYLAYER
 10
47.4771534615
 20
93.4605925516
 40
16.5210981014
100
AcDbArc
 50
326.3315557907
 51
329.9643208035
  0
ARC
  5
274
100
AcDbEntity
  8
0
100
AcDbCircle
 62
7
  6
BYLAYER
 10
40.4450456068
 20
55.4940479031
 40
15.1857360646
100
AcDbArc
 50
109.8070578103
 51
110.581238073
  0
ARC
  5
275
100
AcDbEntity
  8
0
100
AcDbCircle
 62
7
  6
BYLAYER
 10
21.0858183173
 20
21.3715065464
 40
13.2792843634
100
AcDbArc
 50
224.0920117129
 51
224.828160821
  0
ARC
  5
276
100
AcDbEntity
  8
0
100
AcDbCircle
 62
7
  6
BYLAYER
 10
57.8009595207
 20
84.965216564
 40
13.2789768828
100
AcDbArc
 50
75.1704785863
 51
75.9066968541
  0
ARC
  5
277
100
AcDbEntity
  8
0
100
AcDbCircle
 62
7
  6
BYLAYER
 10
47.4103457675
 20
71.2841933345
 40
12.5454131374
100
AcDbArc
 50
254.4307740682
 51
257.2724164534
  0
ARC
  5
278
100
AcDbEntity
  8
0
100
AcDbCircle
 62
7
  6
BYLAYER
 10
50.9084231544
 20
73.1768832505
 40
12.3922834575
100
AcDbArc
 50
254.4132135166
 51
257.289977005
  0
ARC
  5
279
100
AcDbEntity
  8
0
100
AcDbCircle
 62
7
  6
BYLAYER
 10
55.2198248207
 20
41.327836869
 40
9.12534301
100
AcDbArc
 50
282.8770006737
 51
283.2503371101
  0
ARC
  5
27A
100
AcDbEntity
  8
0
100
AcDbCircle
 62
7
  6
BYLAYER
 10
55.2681546014
 20
41.089035184
 40
8.8817783931
100
AcDbArc
 50
275.841816783
 51
282.9163819515
  0
ARC
  5
27B
100
AcDbEntity
  8
0
100
AcDbCircle
 62
7
  6
BYLAYER
 10
57.8695286495
 20
45.5237499458
 40
8.8258838636
100
AcDbArc
 50
16.7281410678
 51
25.4459950236
  0
ARC
  5
27C
100
AcDbEntity
  8
0
100
AcDbCircle
 62
7
  6
BYLAYER
 10
55.2922153369
 20
40.8737023375
 40
8.6651151133
100
AcDbArc
 50
274.5746392252
 51
275.828468715
  0
ARC
  5
27D
100
AcDbEntity
  8
0
100
AcDbCircle
 62
7
  6
BYLAYER
 10
61.0984393397
 20
99.2862335911
 40
5.3898829359
100
AcDbArc
 50
285.7893276584
 51
286.0287059935
  0
ARC
  5
27E
100
AcDbEntity
  8
0
100
AcDbCircle
 62
7
  6
BYLAYER
 10
10.3318633608
 20
11.3555236529
 40
5.3898543582
100
AcDbArc
 50
13.9707409892
 51
14.210124054
  0
ARC
  5
27F
100
AcDbEntity
  8
0
100
AcDbCircle
 62
7
  6
BYLAYER
 10
40.3292348341
 20
33.6043872187
 40
2.7411503125
100
AcDbArc
 50
139.8029688688
 51
150.0041145491
  0
ARC
  5
280
100
AcDbEntity
  8
0
100
AcDbCircle
 62
7
  6
BYLAYER
 10
41.8792134818
 20
32.7094778098
 40
2.7411347249
100
AcDbArc
 50
139.7979434789
 51
150.0040560521
  0
ARC
  5
281
100
AcDbEntity
  8
0
100
AcDbCircle
 62
7
  6
BYLAYER
 10
38.7830379632
 20
34.4992954689
 40
2.7195795125
100
AcDbArc
 50
329.9562694017
 51
343.3519412675
  0
ARC
  5
282
100
AcDbEntity
  8
0
100
AcDbCircle
 62
7
  6
BYLAYER
 10
61.5985536159
 20
65.6979287289
 40
2.3651396913
100
AcDbArc
 50
77.1639580173
 51
79.8593960498
  0
ARC
  5
283
100
AcDbEntity
  8
0
100
AcDbCircle
 62
7
  6
BYLAYER
 10
66.0732803081
 20
76.0207120976
 40
1.6142035309
100
AcDbArc
 50
49.518749515
 51
59.95545799
  0
ARC
  5
284
100
AcDbEntity
  8
0
100
AcDbCircle
 62
7
  6
BYLAYER
 10
32.963776783
 20
18.6714211865
 40
1.6051024348
100
AcDbArc
 50
240.0159742202
 51
250.5119460561
  0
ARC
  5
285
100
AcDbEntity
  8
0
100
AcDbCircle
 62
7
  6
BYLAYER
 10
60.0791843588
 20
96.3843719167
 40
1.0555551211
100
AcDbArc
 50
285.8178301252
 51
287.0354943143
  0
ARC
  5
286
100
AcDbEntity
  8
0
100
AcDbCircle
 62
7
  6
BYLAYER
 10
12.3352835626
 20
13.6890659044
 40
1.0555508598
100
AcDbArc
 50
12.9639366338
 51
14.1816243416
  0
ARC
  5
287
100
AcDbEntity
  8
0
100
AcDbCircle
 62
7
  6
BYLAYER
 10
67.7401567117
 20
78.1143905582
 40
1.0386083315
100
AcDbArc
 50
217.6190628774
 51
218.9449959172
  0
ARC
  5
288
100
AcDbEntity
  8
0
100
AcDbCircle
 62
7
  6
BYLAYER
 10
31.9913298672
 20
16.2128518269
 40
1.0148175776
100
AcDbArc
 50
76.1771488873
 51
82.3973344886
  0
ARC
  5
289
100
AcDbEntity
  8
0
100
AcDbCircle
 62
7
  6
BYLAYER
 10
67.7113434131
 20
78.0906529487
 40
1.0012780119
100
AcDbArc
 50
218.92493203
 51
223.8539556585
  0
ARC
  5
28A
100
AcDbEntity
  8
0
100
AcDbCircle
 62
7
  6
BYLAYER
 10
32.0058494719
 20
16.2747618155
 40
0.951231777
100
AcDbArc
 50
69.6363176125
 51
76.1354387072
  0
ARC
  5
28B
100
AcDbEntity
  8
0
100
AcDbCircle
 62
7
  6
BYLAYER
 10
32.0188305577
 20
16.3110662872
 40
0.9126792221
100
AcDbArc
 50
62.9201057157
 51
69.6072296818
  0
SPLINE
  5
28C
100
AcDbEntity
  8
0
100
AcDbSpline
 62
7
  6
BYLAYER
 70
0
 71
3
 72
15
 73
11
 74
0
 42
0.0000001
 43
0.0000001
 44
0.0000000001
 40
0.0
 40
0.0
 40
0.0
 40
0.0
 40
0.1129475768
 40
0.2270748269
 40
0.3438334541
 40
0.4642997625
 40
0.5894886154
 40
0.7202023252
 40
0.857026175
 40
1.0
 40
1.0
 40
1.0
 40
1.0
 10
65.1204693415
 20
60.4991874455
 30
0.0
 10
65.1975772799
 20
60.5437054688
 30
0.0
 10
65.3452947822
 20
60.6465731731
 30
0.0
 10
65.5397515203
 20
60.8370145206
 30
0.0
 10
65.7054356767
 20
61.0603120594
 30
0.0
 10
65.8409643701
 20
61.312847332
 30
0.0
 10
65.9459629091
 20
61.5911592371
 30
0.0
 10
66.0204788137
 20
61.8923121247
 30
0.0
 10
66.0646376251
 20
62.2134150493
 30
0.0
 10
66.0739177554
 20
62.4341317838
 30
0.0
 10
66.0739177554
 20
62.546837886
 30
0.0
  0
SPLINE
  5
28D
100
AcDbEntity
  8
0
100
AcDbSpline
 62
7
  6
BYLAYER
 70
0
 71
3
 72
17
 73
13
 74
0
 42
0.0000001
 43
0.0000001
 44
0.0000000001
 40
0.0
 40
0.0
 40
0.0
 40
0.0
 40
0.0566756581
 40
0.1156640402
 40
0.2394757432
 40
0.3692610087
 40
0.502038524
 40
0.6345240594
 40
0.7634594275
 40
0.8257064685
 40
0.8860412242
 40
1.0
 40
1.0
 40
1.0
 40
1.0
 10
66.0739177554
 20
62.546837886
 30
0.0
 10
66.0739177554
 20
62.6650856738
 30
0.0
 10
66.0632706329
 20
62.906505315
 30
0.0
 10
66.0021782971
 20
63.4027935459
 30
0.0
 10
65.8514685781
 20
64.0396190021
 30
0.0
 10
65.5677991978
 20
64.7961830944
 30
0.0
 10
65.1890746021
 20
65.5303663181
 30
0.0
 10
64.7296559769
 20
66.2146865728
 30
0.0
 10
64.2883609474
 20
66.7283405261
 30
0.0
 10
63.9087239303
 20
67.0912161454
 30
0.0
 10
63.5291160453
 20
67.4068891321
 30
0.0
 10
63.2241513693
 20
67.6087990944
 30
0.0
 10
63.0146679976
 20
67.7212621986
 30
0.0
  0
SPLINE
  5
28E
100
AcDbEntity
  8
0
100
AcDbSpline
 62
7
  6
BYLAYER
 70
0
 71
3
 72
14
 73
10
 74
0
 42
0.0000001
 43
0.0000001
 44
0.0000000001
 40
0.0
 40
0.0
 40
0.0
 40
0.0
 40
0.2777627416
 40
0.4080845291
 40
0.533229832
 40
0.6539856689
 40
0.7712953139
 40
0.8861739959
 40
1.0
 40
1.0
 40
1.0
 40
1.0
 10
63.0146679976
 20
67.7212621986
 30
0.0
 10
62.8316781561
 20
67.8195020038
 30
0.0
 10
62.5498521793
 20
67.9427176701
 30
0.0
 10
62.1632263091
 20
68.042816399
 30
0.0
 10
61.8838524975
 20
68.0815056106
 30
0.0
 10
61.6114674449
 20
68.0839513723
 30
0.0
 10
61.3488926138
 20
68.049181057
 30
0.0
 10
61.0995186957
 20
67.9765902988
 30
0.0
 10
60.9441973537
 20
67.9029700113
 30
0.0
 10
60.8704883682
 20
67.8604143627
 30
0.0
  0
SPLINE
  5
28F
100
AcDbEntity
  8
0
100
AcDbSpline
 62
7
  6
BYLAYER
 70
0
 71
3
 72
15
 73
11
 74
0
 42
0.0000001
 43
0.0000001
 44
0.0000000001
 40
0.0
 40
0.0
 40
0.0
 40
0.0
 40
0.1037442319
 40
0.2102372453
 40
0.321886402
 40
0.4405270725
 40
0.5673452492
 40
0.702913527
 40
0.8472688457
 40
1.0
 40
1.0
 40
1.0
 40
1.0
 10
57.6885248979
 20
66.0233090192
 30
0.0
 10
57.6054520222
 20
65.975354382
 30
0.0
 10
57.4466577932
 20
65.860542206
 30
0.0
 10
57.2435745753
 20
65.6406090558
 30
0.0
 10
57.0768493902
 20
65.3757300417
 30
0.0
 10
56.9484572526
 20
65.0701403271
 30
0.0
 10
56.8595948811
 20
64.7281523542
 30
0.0
 10
56.8111221283
 20
64.3543499789
 30
0.0
 10
56.803483046
 20
63.9537114478
 30
0.0
 10
56.8250282674
 20
63.6794173207
 30
0.0
 10
56.8421009701
 20
63.5392399687
 30
0.0
  0
SPLINE
  5
290
100
AcDbEntity
  8
0
100
AcDbSpline
 62
7
  6
BYLAYER
 70
0
 71
3
 72
11
 73
7
 74
0
 42
0.0000001
 43
0.0000001
 44
0.0000000001
 40
0.0
 40
0.0
 40
0.0
 40
0.0
 40
0.2576911236
 40
0.5088899871
 40
0.7555927746
 40
1.0
 40
1.0
 40
1.0
 40
1.0
 10
61.2790177216
 20
58.4670560423
 30
0.0
 10
61.3384434289
 20
58.4710773773
 30
0.0
 10
61.4554972642
 20
58.4850601964
 30
0.0
 10
61.6259281058
 20
58.5248208107
 30
0.0
 10
61.787758743
 20
58.5829488792
 30
0.0
 10
61.8895735208
 20
58.6338531061
 30
0.0
 10
61.9384982768
 20
58.6620954042
 30
0.0
  0
SPLINE
  5
291
100
AcDbEntity
  8
0
100
AcDbSpline
 62
7
  6
BYLAYER
 70
0
 71
3
 72
15
 73
11
 74
0
 42
0.0000001
 43
0.0000001
 44
0.0000000001
 40
0.0
 40
0.0
 40
0.0
 40
0.0
 40
0.1485725272
 40
0.2895085289
 40
0.4227247168
 40
0.5486385418
 40
0.6680004604
 40
0.7819382722
 40
0.8919867192
 40
1.0
 40
1.0
 40
1.0
 40
1.0
 10
66.0006951867
 20
62.4447776974
 30
0.0
 10
66.0006951867
 20
62.3341031454
 30
0.0
 10
65.9917623192
 20
62.118294535
 30
0.0
 10
65.9492959194
 20
61.8057755379
 30
0.0
 10
65.8783303135
 20
61.5156977067
 30
0.0
 10
65.7794291939
 20
61.2508945775
 30
0.0
 10
65.6533899692
 20
61.0138865732
 30
0.0
 10
65.5011393267
 20
60.8071189241
 30
0.0
 10
65.3241169949
 20
60.6329099592
 30
0.0
 10
65.1901508762
 20
60.5394178553
 30
0.0
 10
65.1204693415
 20
60.4991874455
 30
0.0
  0
SPLINE
  5
292
100
AcDbEntity
  8
0
100
AcDbSpline
 62
7
  6
BYLAYER
 70
0
 71
3
 72
25
 73
21
 74
0
 42
0.0000001
 43
0.0000001
 44
0.0000000001
 40
0.0
 40
0.0
 40
0.0
 40
0.0
 40
0.0213325429
 40
0.0428935888
 40
0.0648991991
 40
0.0875446186
 40
0.1353203395
 40
0.1872215236
 40
0.2436591368
 40
0.3046067762
 40
0.3696942088
 40
0.4382911593
 40
0.5095772985
 40
0.5826012371
 40
0.6563328353
 40
0.729708782
 40
0.8016849063
 40
0.871275521
 40
0.9376187307
 40
1.0
 40
1.0
 40
1.0
 40
1.0
 10
61.9384982768
 20
58.6620954042
 30
0.0
 10
61.9907159525
 20
58.6922385727
 30
0.0
 10
62.0919370766
 20
58.7596650394
 30
0.0
 10
62.2308518823
 20
58.8801409011
 30
0.0
 10
62.3564900607
 20
59.019459206
 30
0.0
 10
62.5079490527
 20
59.2329246692
 30
0.0
 10
62.6595937714
 20
59.5465741035
 30
0.0
 10
62.7751771769
 20
59.9745053049
 30
0.0
 10
62.8266888684
 20
60.4518688128
 30
0.0
 10
62.8135271397
 20
60.9687309037
 30
0.0
 10
62.7362793112
 20
61.5144646479
 30
0.0
 10
62.5966643354
 20
62.0776551701
 30
0.0
 10
62.3976771289
 20
62.6464226584
 30
0.0
 10
62.1435568539
 20
63.2086916634
 30
0.0
 10
61.8397188648
 20
63.7524769171
 30
0.0
 10
61.4926512402
 20
64.2661883663
 30
0.0
 10
61.1097472844
 20
64.7388490279
 30
0.0
 10
60.6991252832
 20
65.1604621334
 30
0.0
 10
60.2695463729
 20
65.5219613021
 30
0.0
 10
59.9662029853
 20
65.7246830591
 30
0.0
 10
59.8135115874
 20
65.8128374845
 30
0.0
  0
SPLINE
  5
293
100
AcDbEntity
  8
0
100
AcDbSpline
 62
7
  6
BYLAYER
 70
0
 71
3
 72
19
 73
15
 74
0
 42
0.0000001
 43
0.0000001
 44
0.0000000001
 40
0.0
 40
0.0
 40
0.0
 40
0.0
 40
0.0558398063
 40
0.1142083142
 40
0.1748227683
 40
0.2374052757
 40
0.3670158662
 40
0.4999989199
 40
0.6329821241
 40
0.7625931541
 40
0.8251759788
 40
0.8857908067
 40
0.944159736
 40
1.0
 40
1.0
 40
1.0
 40
1.0
 10
62.9954788548
 20
67.6499361769
 30
0.0
 10
63.0961451173
 20
67.591817798
 30
0.0
 10
63.2969417568
 20
67.463951939
 30
0.0
 10
63.5881971438
 20
67.245249504
 30
0.0
 10
63.8737627895
 20
66.9971806306
 30
0.0
 10
64.2475124044
 20
66.6262527482
 30
0.0
 10
64.6819706146
 20
66.1048419807
 30
0.0
 10
65.1339517103
 20
65.4144835408
 30
0.0
 10
65.5058330133
 20
64.6778781601
 30
0.0
 10
65.7401628679
 20
64.0409204074
 30
0.0
 10
65.8745247577
 20
63.5317783608
 30
0.0
 10
65.9465788796
 20
63.1604350489
 30
0.0
 10
65.990356198
 20
62.7988470277
 30
0.0
 10
66.0006951867
 20
62.5610173802
 30
0.0
 10
66.0006951867
 20
62.4447776974
 30
0.0
  0
SPLINE
  5
294
100
AcDbEntity
  8
0
100
AcDbSpline
 62
7
  6
BYLAYER
 70
0
 71
3
 72
9
 73
5
 74
0
 42
0.0000001
 43
0.0000001
 44
0.0000000001
 40
0.0
 40
0.0
 40
0.0
 40
0.0
 40
0.4934605157
 40
1.0
 40
1.0
 40
1.0
 40
1.0
 10
60.8704883682
 20
67.8604143627
 30
0.0
 10
60.9535707278
 20
67.9083816956
 30
0.0
 10
61.1323635195
 20
67.9885039465
 30
0.0
 10
61.3233047616
 20
68.0315696203
 30
0.0
 10
61.4209235155
 20
68.0445488385
 30
0.0
  0
SPLINE
  5
295
100
AcDbEntity
  8
0
100
AcDbSpline
 62
7
  6
BYLAYER
 70
0
 71
3
 72
9
 73
5
 74
0
 42
0.0000001
 43
0.0000001
 44
0.0000000001
 40
0.0
 40
0.0
 40
0.0
 40
0.0
 40
0.4859128628
 40
1.0
 40
1.0
 40
1.0
 40
1.0
 10
61.4209235155
 20
68.0445488385
 30
0.0
 10
61.5166341482
 20
68.0572743563
 30
0.0
 10
61.7161675279
 20
68.0661390921
 30
0.0
 10
61.9144126868
 20
68.0440943638
 30
0.0
 10
62.0149704514
 20
68.0261217575
 30
0.0
  0
SPLINE
  5
296
100
AcDbEntity
  8
0
100
AcDbSpline
 62
7
  6
BYLAYER
 70
0
 71
3
 72
9
 73
5
 74
0
 42
0.0000001
 43
0.0000001
 44
0.0000000001
 40
0.0
 40
0.0
 40
0.0
 40
0.0
 40
0.4795089038
 40
1.0
 40
1.0
 40
1.0
 40
1.0
 10
62.1239974788
 20
68.0039630969
 30
0.0
 10
62.271010859
 20
67.9705247171
 30
0.0
 10
62.5715010176
 20
67.872638319
 30
0.0
 10
62.8537495839
 20
67.7317617585
 30
0.0
 10
62.9954788548
 20
67.6499361769
 30
0.0
  0
SPLINE
  5
297
100
AcDbEntity
  8
0
100
AcDbSpline
 62
7
  6
BYLAYER
 70
0
 71
3
 72
15
 73
11
 74
0
 42
0.0000001
 43
0.0000001
 44
0.0000000001
 40
0.0
 40
0.0
 40
0.0
 40
0.0
 40
0.1080107745
 40
0.2180579755
 40
0.3319993858
 40
0.4513566214
 40
0.5772621715
 40
0.7104933763
 40
0.8514588307
 40
1.0
 40
1.0
 40
1.0
 40
1.0
 10
58.5635206896
 20
64.5077629275
 30
0.0
 10
58.6045054765
 20
64.5314304553
 30
0.0
 10
58.6915310756
 20
64.5721759267
 30
0.0
 10
58.8323377658
 20
64.6111240522
 30
0.0
 10
58.9824464505
 20
64.6278509992
 30
0.0
 10
59.1402466828
 20
64.6223771396
 30
0.0
 10
59.3042283006
 20
64.5948677175
 30
0.0
 10
59.4728873458
 20
64.5457104516
 30
0.0
 10
59.644576591
 20
64.475409568
 30
0.0
 10
59.7571442385
 20
64.4165012224
 30
0.0
 10
59.8135115874
 20
64.3839582545
 30
0.0
  0
SPLINE
  5
298
100
AcDbEntity
  8
0
100
AcDbSpline
 62
7
  6
BYLAYER
 70
0
 71
3
 72
15
 73
11
 74
0
 42
0.0000001
 43
0.0000001
 44
0.0000000001
 40
0.0
 40
0.0
 40
0.0
 40
0.0
 40
0.1485634094
 40
0.2895069004
 40
0.4227255867
 40
0.5486365094
 40
0.6679990364
 40
0.781936062
 40
0.8919848515
 40
1.0
 40
1.0
 40
1.0
 40
1.0
 10
59.8135115874
 20
65.8128374845
 30
0.0
 10
59.7176725967
 20
65.8681688998
 30
0.0
 10
59.5263136796
 20
65.968327478
 30
0.0
 10
59.2344407817
 20
66.0878120591
 30
0.0
 10
58.9477442353
 20
66.1713877681
 30
0.0
 10
58.6689746934
 20
66.2181315477
 30
0.0
 10
58.4007091674
 20
66.2274864775
 30
0.0
 10
58.1455273712
 20
66.1990060143
 30
0.0
 10
57.9061455322
 20
66.1328257783
 30
0.0
 10
57.7582083384
 20
66.0635344727
 30
0.0
 10
57.6885248979
 20
66.0233090192
 30
0.0
  0
SPLINE
  5
299
100
AcDbEntity
  8
0
100
AcDbSpline
 62
7
  6
BYLAYER
 70
0
 71
3
 72
24
 73
20
 74
0
 42
0.0000001
 43
0.0000001
 44
0.0000000001
 40
0.0
 40
0.0
 40
0.0
 40
0.0
 40
0.0623809539
 40
0.1287351986
 40
0.1983277862
 40
0.2703103726
 40
0.3436914827
 40
0.4174288811
 40
0.4904594167
 40
0.561751876
 40
0.6303550743
 40
0.6954482067
 40
0.7564003961
 40
0.8128417913
 40
0.8647464828
 40
0.9125255636
 40
0.9571040184
 40
0.9786661102
 40
1.0
 40
1.0
 40
1.0
 40
1.0
 10
59.8135115874
 20
64.3839582545
 30
0.0
 10
59.9033227639
 20
64.3321069206
 30
0.0
 10
60.081757281
 20
64.2128524711
 30
0.0
 10
60.3344552781
 20
64.0002174848
 30
0.0
 10
60.5759960356
 20
63.7521995064
 30
0.0
 10
60.8012370417
 20
63.4741729892
 30
0.0
 10
61.0053975246
 20
63.1719899291
 30
0.0
 10
61.1841230729
 20
62.8521132012
 30
0.0
 10
61.3336047537
 20
62.5213625126
 30
0.0
 10
61.4506564459
 20
62.1867884831
 30
0.0
 10
61.5327854595
 20
61.8554957957
 30
0.0
 10
61.578229187
 20
61.5344747831
 30
0.0
 10
61.5859611824
 20
61.2304325668
 30
0.0
 10
61.5556770749
 20
60.9496500953
 30
0.0
 10
61.4876204064
 20
60.6978708579
 30
0.0
 10
61.3826506265
 20
60.4804839982
 30
0.0
 10
61.2638930234
 20
60.3304967558
 30
0.0
 10
61.1537564725
 20
60.235046607
 30
0.0
 10
61.0942155567
 20
60.1953774055
 30
0.0
 10
61.0635024852
 20
60.1776414959
 30
0.0
  0
SPLINE
  5
29A
100
AcDbEntity
  8
0
100
AcDbSpline
 62
7
  6
BYLAYER
 70
0
 71
3
 72
12
 73
8
 74
0
 42
0.0000001
 43
0.0000001
 44
0.0000000001
 40
0.0
 40
0.0
 40
0.0
 40
0.0
 40
0.2438735603
 40
0.4921496684
 40
0.7447351958
 40
0.8722857496
 40
1.0
 40
1.0
 40
1.0
 40
1.0
 10
48.5934793536
 20
31.3930519211
 30
0.0
 10
49.2006803941
 20
31.3754483182
 30
0.0
 10
50.427424295
 20
31.3763184042
 30
0.0
 10
52.2800518907
 20
31.4897989049
 30
0.0
 10
53.834417009
 20
31.6859901115
 30
0.0
 10
55.0789289125
 20
31.9141234168
 30
0.0
 10
55.6992035316
 20
32.0551571206
 30
0.0
 10
56.0075531146
 20
32.1333889609
 30
0.0
  0
SPLINE
  5
29B
100
AcDbEntity
  8
0
100
AcDbSpline
 62
7
  6
BYLAYER
 70
0
 71
3
 72
15
 73
11
 74
0
 42
0.0000001
 43
0.0000001
 44
0.0000000001
 40
0.0
 40
0.0
 40
0.0
 40
0.0
 40
0.1115400065
 40
0.2306468623
 40
0.3557931538
 40
0.4850706964
 40
0.6163490928
 40
0.7473929079
 40
0.8759711892
 40
1.0
 40
1.0
 40
1.0
 40
1.0
 10
22.5780977105
 20
51.4593023118
 30
0.0
 10
22.5780977105
 20
52.0947901295
 30
0.0
 10
22.6722666269
 20
53.4098581933
 30
0.0
 10
23.0565781037
 20
55.4041337001
 30
0.0
 10
23.6790371939
 20
57.4431313168
 30
0.0
 10
24.5240026038
 20
59.4752523173
 30
0.0
 10
25.5701062299
 20
61.4494818825
 30
0.0
 10
26.7910460563
 20
63.3159789161
 30
0.0
 10
28.1557246748
 20
65.0274636105
 30
0.0
 10
29.1621455665
 20
66.0605862811
 30
0.0
 10
29.6825845754
 20
66.5385878065
 30
0.0
  0
SPLINE
  5
29C
100
AcDbEntity
  8
0
100
AcDbSpline
 62
7
  6
BYLAYER
 70
0
 71
3
 72
16
 73
12
 74
0
 42
0.0000001
 43
0.0000001
 44
0.0000000001
 40
0.0
 40
0.0
 40
0.0
 40
0.0
 40
0.0956994185
 40
0.1478714029
 40
0.2029664601
 40
0.3214586633
 40
0.4497026979
 40
0.5850716108
 40
0.7243041944
 40
0.8638095229
 40
1.0
 40
1.0
 40
1.0
 40
1.0
 10
47.6086072485
 20
58.1742869202
 30
0.0
 10
47.4496474608
 20
58.412399183
 30
0.0
 10
47.150496895
 20
58.7460121182
 30
0.0
 10
46.6787772195
 20
59.1289544306
 30
0.0
 10
46.1148180661
 20
59.5025019768
 30
0.0
 10
45.2986980365
 20
59.8985728327
 30
0.0
 10
44.2062736401
 20
60.2460230162
 30
0.0
 10
43.0180425092
 20
60.4643577708
 30
0.0
 10
41.7791095656
 20
60.5452807193
 30
0.0
 10
40.5367093023
 20
60.4858617247
 30
0.0
 10
39.7205802691
 20
60.3513048581
 30
0.0
 10
39.323612367
 20
60.259566046
 30
0.0
  0
SPLINE
  5
29D
100
AcDbEntity
  8
0
100
AcDbSpline
 62
7
  6
BYLAYER
 70
0
 71
3
 72
11
 73
7
 74
0
 42
0.0000001
 43
0.0000001
 44
0.0000000001
 40
0.0
 40
0.0
 40
0.0
 40
0.0
 40
0.238098349
 40
0.4847605963
 40
0.7393087699
 40
1.0
 40
1.0
 40
1.0
 40
1.0
 10
48.5934450061
 20
31.3930409066
 30
0.0
 10
47.8796398046
 20
31.4626591153
 30
0.0
 10
46.4355632643
 20
31.7114977852
 30
0.0
 10
44.298569914
 20
32.3519855126
 30
0.0
 10
42.1718027955
 20
33.2219498294
 30
0.0
 10
40.7822404764
 20
33.9157502034
 30
0.0
 10
40.0891185767
 20
34.2847933067
 30
0.0
  0
SPLINE
  5
29E
100
AcDbEntity
  8
0
100
AcDbSpline
 62
7
  6
BYLAYER
 70
0
 71
3
 72
23
 73
19
 74
0
 42
0.0000001
 43
0.0000001
 44
0.0000000001
 40
0.0
 40
0.0
 40
0.0
 40
0.0
 40
0.0512742472
 40
0.1029931719
 40
0.1555435376
 40
0.2093297063
 40
0.2647490138
 40
0.3221590284
 40
0.3818364415
 40
0.4439379708
 40
0.5084681292
 40
0.5752796703
 40
0.6440818303
 40
0.7144639431
 40
0.7859019944
 40
0.8577814955
 40
0.929435134
 40
1.0
 40
1.0
 40
1.0
 40
1.0
 10
35.3333739413
 20
62.5807840839
 30
0.0
 10
35.3333849034
 20
62.3955652665
 30
0.0
 10
35.3646230867
 20
62.0227850848
 30
0.0
 10
35.5044854432
 20
61.4760547514
 30
0.0
 10
35.73607667
 20
60.9513433068
 30
0.0
 10
36.0569473202
 20
60.4600054862
 30
0.0
 10
36.4630275393
 20
60.0124976558
 30
0.0
 10
36.9483276235
 20
59.6180242508
 30
0.0
 10
37.505248699
 20
59.2841663014
 30
0.0
 10
38.1245697948
 20
59.0162538829
 30
0.0
 10
38.7959515077
 20
58.8171109367
 30
0.0
 10
39.5085030911
 20
58.6874437215
 30
0.0
 10
40.2511183232
 20
58.62580651
 30
0.0
 10
41.0128076669
 20
58.6289694095
 30
0.0
 10
41.7828456853
 20
58.6925768025
 30
0.0
 10
42.550876431
 20
58.8112629341
 30
0.0
 10
43.3063251697
 20
58.9791557521
 30
0.0
 10
43.8004014194
 20
59.1212631296
 30
0.0
 10
44.0431260354
 20
59.1991098851
 30
0.0
  0
SPLINE
  5
29F
100
AcDbEntity
  8
0
100
AcDbSpline
 62
7
  6
BYLAYER
 70
0
 71
3
 72
9
 73
5
 74
0
 42
0.0000001
 43
0.0000001
 44
0.0000000001
 40
0.0
 40
0.0
 40
0.0
 40
0.0
 40
0.4950058573
 40
1.0
 40
1.0
 40
1.0
 40
1.0
 10
65.9452647848
 20
49.3325899853
 30
0.0
 10
65.4378239682
 20
51.1495658295
 30
0.0
 10
63.9937352882
 20
54.7127052904
 30
0.0
 10
61.8483797803
 20
57.8978305745
 30
0.0
 10
60.6198655882
 20
59.3792903255
 30
0.0
  0
SPLINE
  5
2A0
100
AcDbEntity
  8
0
100
AcDbSpline
 62
7
  6
BYLAYER
 70
0
 71
3
 72
10
 73
6
 74
0
 42
0.0000001
 43
0.0000001
 44
0.0000000001
 40
0.0
 40
0.0
 40
0.0
 40
0.0
 40
0.4695886734
 40
0.7271754166
 40
1.0
 40
1.0
 40
1.0
 40
1.0
 10
23.4534059
 20
47.2617923088
 30
0.0
 10
23.1492132924
 20
47.865639806
 30
0.0
 10
22.8219530373
 20
48.8765265162
 30
0.0
 10
22.6121869471
 20
50.3017893706
 30
0.0
 10
22.5780977105
 20
51.0664743919
 30
0.0
 10
22.5780977105
 20
51.4593023118
 30
0.0
  0
SPLINE
  5
2A1
100
AcDbEntity
  8
0
100
AcDbSpline
 62
7
  6
BYLAYER
 70
0
 71
3
 72
9
 73
5
 74
0
 42
0.0000001
 43
0.0000001
 44
0.0000000001
 40
0.0
 40
0.0
 40
0.0
 40
0.0
 40
0.2464419058
 40
1.0
 40
1.0
 40
1.0
 40
1.0
 10
44.6463927308
 20
59.0470386653
 30
0.0
 10
44.9315645229
 20
58.8806491395
 30
0.0
 10
46.0828829873
 20
58.1955108565
 30
0.0
 10
47.2108813941
 20
57.4713060527
 30
0.0
 10
48.0473714474
 20
56.9060661452
 30
0.0
  0
SPLINE
  5
2A2
100
AcDbEntity
  8
0
100
AcDbSpline
 62
7
  6
BYLAYER
 70
0
 71
3
 72
16
 73
12
 74
0
 42
0.0000001
 43
0.0000001
 44
0.0000000001
 40
0.0
 40
0.0
 40
0.0
 40
0.0
 40
0.0607300334
 40
0.1215708588
 40
0.2440600275
 40
0.3686647113
 40
0.4955343724
 40
0.6236072898
 40
0.7511619469
 40
0.87673906
 40
1.0
 40
1.0
 40
1.0
 40
1.0
 10
57.3114092672
 20
32.4454295628
 30
0.0
 10
57.6449699864
 20
32.5239741076
 30
0.0
 10
58.3043992958
 20
32.7189871577
 30
0.0
 10
59.5782614127
 20
33.2475680315
 30
0.0
 10
61.0757016599
 20
34.1509983116
 30
0.0
 10
62.6726145395
 20
35.5441405079
 30
0.0
 10
64.0544501549
 20
37.1908918703
 30
0.0
 10
65.1923688403
 20
39.0334595917
 30
0.0
 10
66.0530207584
 20
41.0132538637
 30
0.0
 10
66.601728992
 20
43.073380267
 30
0.0
 10
66.7351048506
 20
44.4799470781
 30
0.0
 10
66.7351048506
 20
45.175475981
 30
0.0
  0
SPLINE
  5
2A3
100
AcDbEntity
  8
0
100
AcDbSpline
 62
7
  6
BYLAYER
 70
0
 71
3
 72
9
 73
5
 74
0
 42
0.0000001
 43
0.0000001
 44
0.0000000001
 40
0.0
 40
0.0
 40
0.0
 40
0.0
 40
0.5010325181
 40
1.0
 40
1.0
 40
1.0
 40
1.0
 10
66.7351048506
 20
45.175475981
 30
0.0
 10
66.7351048506
 20
45.6641338314
 30
0.0
 10
66.6701669796
 20
46.6407750617
 30
0.0
 10
66.4625070599
 20
47.5982203639
 30
0.0
 10
66.3219120606
 20
48.0641122516
 30
0.0
  0
SPLINE
  5
2A4
100
AcDbEntity
  8
0
100
AcDbSpline
 62
7
  6
BYLAYER
 70
0
 71
3
 72
11
 73
7
 74
0
 42
0.0000001
 43
0.0000001
 44
0.0000000001
 40
0.0
 40
0.0
 40
0.0
 40
0.0
 40
0.2571209731
 40
0.508102192
 40
0.7550248292
 40
1.0
 40
1.0
 40
1.0
 40
1.0
 10
47.5732468569
 20
57.8803604555
 30
0.0
 10
47.506476081
 20
57.8875232429
 30
0.0
 10
47.3732378369
 20
57.8919672367
 30
0.0
 10
47.1767425711
 20
57.8677062284
 30
0.0
 10
46.9895855297
 20
57.8135952974
 30
0.0
 10
46.8729238301
 20
57.7582344766
 30
0.0
 10
46.8175134113
 20
57.7262447886
 30
0.0
  0
SPLINE
  5
2A5
100
AcDbEntity
  8
0
100
AcDbSpline
 62
7
  6
BYLAYER
 70
0
 71
3
 72
12
 73
8
 74
0
 42
0.0000001
 43
0.0000001
 44
0.0000000001
 40
0.0
 40
0.0
 40
0.0
 40
0.0
 40
0.2637164872
 40
0.5193160945
 40
0.7647733752
 40
0.8836371331
 40
1.0
 40
1.0
 40
1.0
 40
1.0
 10
47.4663778211
 20
67.0475250598
 30
0.0
 10
46.6279436088
 20
67.4939376804
 30
0.0
 10
44.9478361808
 20
68.3213808946
 30
0.0
 10
42.3663676099
 20
69.297437775
 30
0.0
 10
40.1843229
 20
69.8129765686
 30
0.0
 10
38.4610876327
 20
69.998876959
 30
0.0
 10
37.6123790899
 20
70.0127470554
 30
0.0
 10
37.193498553
 20
69.9984767743
 30
0.0
  0
SPLINE
  5
2A6
100
AcDbEntity
  8
0
100
AcDbSpline
 62
7
  6
BYLAYER
 70
0
 71
3
 72
11
 73
7
 74
0
 42
0.0000001
 43
0.0000001
 44
0.0000000001
 40
0.0
 40
0.0
 40
0.0
 40
0.0
 40
0.276205077
 40
0.5307967608
 40
0.7693913427
 40
1.0
 40
1.0
 40
1.0
 40
1.0
 10
47.5786452215
 20
61.2403306544
 30
0.0
 10
47.6504008917
 20
61.3277632346
 30
0.0
 10
47.7786413568
 20
61.5042064492
 30
0.0
 10
47.9246835205
 20
61.7849390807
 30
0.0
 10
48.0134641292
 20
62.0695041446
 30
0.0
 10
48.0333739731
 20
62.2621854461
 30
0.0
 10
48.0333641883
 20
62.3566210556
 30
0.0
  0
SPLINE
  5
2A7
100
AcDbEntity
  8
0
100
AcDbSpline
 62
7
  6
BYLAYER
 70
0
 71
3
 72
15
 73
11
 74
0
 42
0.0000001
 43
0.0000001
 44
0.0000000001
 40
0.0
 40
0.0
 40
0.0
 40
0.0
 40
0.1141544242
 40
0.2373255667
 40
0.3669747577
 40
0.4999984145
 40
0.6330222917
 40
0.7626721263
 40
0.8858442834
 40
1.0
 40
1.0
 40
1.0
 40
1.0
 10
61.2846954203
 20
36.3864846731
 30
0.0
 10
61.5317814775
 20
36.5297610623
 30
0.0
 10
62.0207574691
 20
36.8715474949
 30
0.0
 10
62.6928316584
 20
37.500790665
 30
0.0
 10
63.3123964458
 20
38.2441607308
 30
0.0
 10
63.855818545
 20
39.0742672004
 30
0.0
 10
64.3029971244
 20
39.9599414043
 30
0.0
 10
64.6369899818
 20
40.8681910641
 30
0.0
 10
64.8458925394
 20
41.764853628
 30
0.0
 10
64.8974016808
 20
42.3592181129
 30
0.0
 10
64.8979398482
 20
42.6448423433
 30
0.0
  0
SPLINE
  5
2A8
100
AcDbEntity
  8
0
100
AcDbSpline
 62
7
  6
BYLAYER
 70
0
 71
3
 72
29
 73
25
 74
0
 42
0.0000001
 43
0.0000001
 44
0.0000000001
 40
0.0
 40
0.0
 40
0.0
 40
0.0
 40
0.0653079424
 40
0.1352703276
 40
0.2088446671
 40
0.284738579
 40
0.3615180324
 40
0.4376954687
 40
0.511819259
 40
0.5825637505
 40
0.6488282255
 40
0.7098522918
 40
0.7383177636
 40
0.765419383
 40
0.7912273952
 40
0.8158613251
 40
0.8394973285
 40
0.8623633327
 40
0.8847358287
 40
0.9069233295
 40
0.9292477774
 40
0.9520216286
 40
0.9755265331
 40
1.0
 40
1.0
 40
1.0
 40
1.0
 10
51.4475075115
 20
37.5747857078
 30
0.0
 10
51.4475075115
 20
38.0882362322
 30
0.0
 10
51.5287977322
 20
39.1525867561
 30
0.0
 10
51.8583049296
 20
40.7646531898
 30
0.0
 10
52.3903967475
 20
42.4092298147
 30
0.0
 10
53.1099150552
 20
44.0391977877
 30
0.0
 10
53.9963086963
 20
45.608242056
 30
0.0
 10
55.0242776579
 20
47.0715074582
 30
0.0
 10
56.1644683011
 20
48.3872391712
 30
0.0
 10
57.3846884901
 20
49.5180904607
 30
0.0
 10
58.650418971
 20
50.4318499572
 30
0.0
 10
59.7394408764
 20
51.0039223763
 30
0.0
 10
60.6005288939
 20
51.3214658978
 30
0.0
 10
61.2199922749
 20
51.4855641931
 30
0.0
 10
61.8235184166
 20
51.5799018084
 30
0.0
 10
62.4068438159
 20
51.6033987233
 30
0.0
 10
62.9656773673
 20
51.5557401461
 30
0.0
 10
63.4957425967
 20
51.4367535585
 30
0.0
 10
63.9928503183
 20
51.2472699893
 30
0.0
 10
64.4528143531
 20
50.9884360799
 30
0.0
 10
64.8719513614
 20
50.6625811707
 30
0.0
 10
65.2468231185
 20
50.272289182
 30
0.0
 10
65.5748031042
 20
49.8210876408
 30
0.0
 10
65.7565705576
 20
49.4893222847
 30
0.0
 10
65.839318024
 20
49.3156140731
 30
0.0
  0
SPLINE
  5
2A9
100
AcDbEntity
  8
0
100
AcDbSpline
 62
7
  6
BYLAYER
 70
0
 71
3
 72
26
 73
22
 74
0
 42
0.0000001
 43
0.0000001
 44
0.0000000001
 40
0.0
 40
0.0
 40
0.0
 40
0.0
 40
0.1435516167
 40
0.2824762081
 40
0.4162089302
 40
0.4809566521
 40
0.5442033372
 40
0.6058852255
 40
0.6659418338
 40
0.7243182521
 40
0.780972084
 40
0.8086491062
 40
0.8359003359
 40
0.8627478191
 40
0.8892468927
 40
0.9155360277
 40
0.9419750259
 40
0.9555244008
 40
0.969539987
 40
0.9842863497
 40
1.0
 40
1.0
 40
1.0
 40
1.0
 10
40.0891185767
 20
47.8359684652
 30
0.0
 10
39.660344198
 20
47.6680826221
 30
0.0
 10
38.820783005
 20
47.3269871892
 30
0.0
 10
37.595460135
 20
46.7966649073
 30
0.0
 10
36.6104532992
 20
46.3480704854
 30
0.0
 10
35.8501479473
 20
45.9920204779
 30
0.0
 10
35.3005165944
 20
45.731082085
 30
0.0
 10
34.7652752295
 20
45.4749326
 30
0.0
 10
34.244135173
 20
45.2255031684
 30
0.0
 10
33.7364096511
 20
44.9854219664
 30
0.0
 10
33.3201707998
 20
44.7948337049
 30
0.0
 10
32.9916879791
 20
44.6526410957
 30
0.0
 10
32.7488344051
 20
44.5534229686
 30
0.0
 10
32.5065793793
 20
44.4629819599
 30
0.0
 10
32.2632134987
 20
44.384845471
 30
0.0
 10
32.0159327293
 20
44.3250219744
 30
0.0
 10
31.8037585353
 20
44.3001708769
 30
0.0
 10
31.6302698859
 20
44.3057923291
 30
0.0
 10
31.495796236
 20
44.3270666312
 30
0.0
 10
31.3590948692
 20
44.369682254
 30
0.0
 10
31.270950045
 20
44.412815139
 30
0.0
 10
31.2272980657
 20
44.4380170508
 30
0.0
  0
SPLINE
  5
2AA
100
AcDbEntity
  8
0
100
AcDbSpline
 62
7
  6
BYLAYER
 70
0
 71
3
 72
11
 73
7
 74
0
 42
0.0000001
 43
0.0000001
 44
0.0000000001
 40
0.0
 40
0.0
 40
0.0
 40
0.0
 40
0.2177155778
 40
0.4574176319
 40
0.7194023798
 40
1.0
 40
1.0
 40
1.0
 40
1.0
 10
60.3284812309
 20
52.2945558377
 30
0.0
 10
60.1128662306
 20
52.0339362672
 30
0.0
 10
59.603184206
 20
51.5315314009
 30
0.0
 10
58.6749062157
 20
50.9000438057
 30
0.0
 10
57.5732478734
 20
50.377446264
 30
0.0
 10
56.7705126787
 20
50.1136343844
 30
0.0
 10
56.3502557098
 20
49.9977399723
 30
0.0
  0
SPLINE
  5
2AB
100
AcDbEntity
  8
0
100
AcDbSpline
 62
7
  6
BYLAYER
 70
0
 71
3
 72
13
 73
9
 74
0
 42
0.0000001
 43
0.0000001
 44
0.0000000001
 40
0.0
 40
0.0
 40
0.0
 40
0.0
 40
0.2532166607
 40
0.3791939574
 40
0.5046151341
 40
0.6294062492
 40
0.75354061
 40
1.0
 40
1.0
 40
1.0
 40
1.0
 10
59.7423659623
 20
57.9419978182
 30
0.0
 10
59.9286759978
 20
57.4901666689
 30
0.0
 10
60.172586355
 20
56.7978722902
 30
0.0
 10
60.4095527514
 20
55.8525876231
 30
0.0
 10
60.5369968029
 20
55.1371642739
 30
0.0
 10
60.6069362735
 20
54.4168126612
 30
0.0
 10
60.6102563726
 20
53.4606862624
 30
0.0
 10
60.4897251065
 20
52.7420886638
 30
0.0
 10
60.3284821319
 20
52.2945563578
 30
0.0
  0
SPLINE
  5
2AC
100
AcDbEntity
  8
0
100
AcDbSpline
 62
7
  6
BYLAYER
 70
0
 71
3
 72
22
 73
18
 74
0
 42
0.0000001
 43
0.0000001
 44
0.0000000001
 40
0.0
 40
0.0
 40
0.0
 40
0.0
 40
0.1246783272
 40
0.2496113138
 40
0.3748753749
 40
0.5005205337
 40
0.5635006943
 40
0.6265815936
 40
0.6897595519
 40
0.7530240677
 40
0.8163441589
 40
0.8479972313
 40
0.8796037658
 40
0.9110775683
 40
0.9421918624
 40
0.9723177349
 40
1.0
 40
1.0
 40
1.0
 40
1.0
 10
40.0743726576
 20
34.2932991393
 30
0.0
 10
39.6397957481
 20
34.5441969685
 30
0.0
 10
38.78654586
 20
35.0762134794
 30
0.0
 10
37.5608967846
 20
35.9578550296
 30
0.0
 10
36.3909755909
 20
36.9183126618
 30
0.0
 10
35.4647244449
 20
37.7785965151
 30
0.0
 10
34.7525876468
 20
38.4992678006
 30
0.0
 10
34.2320830279
 20
39.0554360466
 30
0.0
 10
33.7250182705
 20
39.6253862891
 30
0.0
 10
33.2300560576
 20
40.2071169086
 30
0.0
 10
32.8255491896
 20
40.6990502682
 30
0.0
 10
32.5034354773
 20
41.0937471705
 30
0.0
 10
32.2613065764
 20
41.3882875124
 30
0.0
 10
32.0167298624
 20
41.6779707624
 30
0.0
 10
31.767197607
 20
41.9556294524
 30
0.0
 10
31.511179527
 20
42.2061049218
 30
0.0
 10
31.3237869938
 20
42.3466696467
 30
0.0
 10
31.2272980657
 20
42.402376295
 30
0.0
  0
SPLINE
  5
2AD
100
AcDbEntity
  8
0
100
AcDbSpline
 62
7
  6
BYLAYER
 70
0
 71
3
 72
20
 73
16
 74
0
 42
0.0000001
 43
0.0000001
 44
0.0000000001
 40
0.0
 40
0.0
 40
0.0
 40
0.0
 40
0.0616570453
 40
0.1211734977
 40
0.178961332
 40
0.2355044321
 40
0.2913480337
 40
0.3470707839
 40
0.40325851
 40
0.460472941
 40
0.5192259973
 40
0.5799602488
 40
0.7085769329
 40
0.8483865068
 40
1.0
 40
1.0
 40
1.0
 40
1.0
 10
55.9825757189
 20
32.2361088568
 30
0.0
 10
55.8186655175
 20
32.2229842597
 30
0.0
 10
55.494996126
 20
32.2127959616
 30
0.0
 10
55.0181490614
 20
32.2488686821
 30
0.0
 10
54.5617473113
 20
32.3363630705
 30
0.0
 10
54.1284396926
 20
32.4751115431
 30
0.0
 10
53.7206523568
 20
32.6642630771
 30
0.0
 10
53.3408309905
 20
32.9029278488
 30
0.0
 10
52.9910902035
 20
33.1895836729
 30
0.0
 10
52.673437586
 20
33.5225984412
 30
0.0
 10
52.389496746
 20
33.8999925118
 30
0.0
 10
52.0514882411
 20
34.470139052
 30
0.0
 10
51.7243969835
 20
35.2911218982
 30
0.0
 10
51.4944111884
 20
36.3918586944
 30
0.0
 10
51.4475075115
 20
37.1704436421
 30
0.0
 10
51.4475075115
 20
37.5747857078
 30
0.0
  0
SPLINE
  5
2AE
100
AcDbEntity
  8
0
100
AcDbSpline
 62
7
  6
BYLAYER
 70
0
 71
3
 72
28
 73
24
 74
0
 42
0.0000001
 43
0.0000001
 44
0.0000000001
 40
0.0
 40
0.0
 40
0.0
 40
0.0
 40
0.0288215997
 40
0.0595975961
 40
0.0933729529
 40
0.1309178563
 40
0.1727660094
 40
0.2192741015
 40
0.2706758971
 40
0.3271204507
 40
0.3887000198
 40
0.4554725121
 40
0.5274850857
 40
0.6048138865
 40
0.6876702876
 40
0.7313627442
 40
0.7768259513
 40
0.8245516412
 40
0.8756714745
 40
0.9032563267
 40
0.9328134452
 40
0.9649239177
 40
1.0
 40
1.0
 40
1.0
 40
1.0
 10
27.1422090776
 20
41.7595183549
 30
0.0
 10
27.1777082501
 20
41.739023571
 30
0.0
 10
27.2559198102
 20
41.7045802718
 30
0.0
 10
27.3860573854
 20
41.6751210354
 30
0.0
 10
27.531435172
 20
41.665657914
 30
0.0
 10
27.6924142922
 20
41.6751540071
 30
0.0
 10
27.8695512801
 20
41.7026792183
 30
0.0
 10
28.0633589754
 20
41.7473763935
 30
0.0
 10
28.2743372722
 20
41.8083229553
 30
0.0
 10
28.5029984845
 20
41.884466383
 30
0.0
 10
28.7499340001
 20
41.9745178005
 30
0.0
 10
29.0159153934
 20
42.0767929204
 30
0.0
 10
29.302095736
 20
42.188920581
 30
0.0
 10
29.6104238398
 20
42.3071863813
 30
0.0
 10
29.8839605245
 20
42.4037340815
 30
0.0
 10
30.1183780577
 20
42.4739290103
 30
0.0
 10
30.3076002071
 20
42.5202372003
 30
0.0
 10
30.5104307576
 20
42.5533300337
 30
0.0
 10
30.690946741
 20
42.5600670207
 30
0.0
 10
30.8443671054
 20
42.5442161971
 30
0.0
 10
30.9686587514
 20
42.5169334898
 30
0.0
 10
31.0986168714
 20
42.4706425949
 30
0.0
 10
31.1840954422
 20
42.4273187771
 30
0.0
 10
31.2272980657
 20
42.402376295
 30
0.0
  0
SPLINE
  5
2AF
100
AcDbEntity
  8
0
100
AcDbSpline
 62
7
  6
BYLAYER
 70
0
 71
3
 72
18
 73
14
 74
0
 42
0.0000001
 43
0.0000001
 44
0.0000000001
 40
0.0
 40
0.0
 40
0.0
 40
0.0
 40
0.2036430863
 40
0.3777492719
 40
0.5233609618
 40
0.6427865138
 40
0.6940104406
 40
0.7405780019
 40
0.7836176838
 40
0.8245597776
 40
0.8650589239
 40
0.9068278932
 40
1.0
 40
1.0
 40
1.0
 40
1.0
 10
59.7423091925
 20
57.9420614381
 30
0.0
 10
59.8473498376
 20
58.0167026811
 30
0.0
 10
60.0400059447
 20
58.1583077879
 30
0.0
 10
60.2964833976
 20
58.3682086637
 30
0.0
 10
60.4972203276
 20
58.560807099
 30
0.0
 10
60.624138015
 20
58.7168785083
 30
0.0
 10
60.693188081
 20
58.8360648594
 30
0.0
 10
60.7277886665
 20
58.9185075477
 30
0.0
 10
60.7476557494
 20
58.9990967843
 30
0.0
 10
60.7524202574
 20
59.0781953132
 30
0.0
 10
60.7418298122
 20
59.1559475738
 30
0.0
 10
60.7060349944
 20
59.2616292396
 30
0.0
 10
60.6575545737
 20
59.333865666
 30
0.0
 10
60.6199121177
 20
59.3792412914
 30
0.0
  0
SPLINE
  5
2B0
100
AcDbEntity
  8
0
100
AcDbSpline
 62
7
  6
BYLAYER
 70
0
 71
3
 72
14
 73
10
 74
0
 42
0.0000001
 43
0.0000001
 44
0.0000000001
 40
0.0
 40
0.0
 40
0.0
 40
0.0
 40
0.2507626212
 40
0.3766706821
 40
0.5026668076
 40
0.6284798852
 40
0.7537326046
 40
0.8778637537
 40
1.0
 40
1.0
 40
1.0
 40
1.0
 10
48.5934744183
 20
51.5052334444
 30
0.0
 10
49.2260727108
 20
51.3068197303
 30
0.0
 10
50.18114726
 20
51.0236037492
 30
0.0
 10
51.467072755
 20
50.687615122
 30
0.0
 10
52.4397571113
 20
50.4607839382
 30
0.0
 10
53.4176664022
 20
50.2660319114
 30
0.0
 10
54.398034739
 20
50.1122929793
 30
0.0
 10
55.3756558891
 20
50.0118904828
 30
0.0
 10
56.0273998223
 20
49.9916309258
 30
0.0
 10
56.3502548089
 20
49.9977394521
 30
0.0
  0
SPLINE
  5
2B1
100
AcDbEntity
  8
0
100
AcDbSpline
 62
7
  6
BYLAYER
 70
0
 71
3
 72
17
 73
13
 74
0
 42
0.0000001
 43
0.0000001
 44
0.0000000001
 40
0.0
 40
0.0
 40
0.0
 40
0.0
 40
0.1325248851
 40
0.1968056401
 40
0.2599861046
 40
0.3840755444
 40
0.445444591
 40
0.5065960781
 40
0.5676729107
 40
0.6287842481
 40
0.7514328341
 40
1.0
 40
1.0
 40
1.0
 40
1.0
 10
43.3678896957
 20
58.3088989999
 30
0.0
 10
43.6953177315
 20
58.1077278378
 30
0.0
 10
44.1635560478
 20
57.7780011561
 30
0.0
 10
44.7368013235
 20
57.287864059
 30
0.0
 10
45.2624424784
 20
56.7815688843
 30
0.0
 10
45.7407914271
 20
56.2403546012
 30
0.0
 10
46.1792209215
 20
55.6752814648
 30
0.0
 10
46.4895596928
 20
55.2425449762
 30
0.0
 10
46.7853780074
 20
54.8007186259
 30
0.0
 10
47.1639980225
 20
54.2000397002
 30
0.0
 10
47.7927320371
 20
53.1149948474
 30
0.0
 10
48.2805546727
 20
52.1545499963
 30
0.0
 10
48.5934744183
 20
51.5052334444
 30
0.0
  0
SPLINE
  5
2B2
100
AcDbEntity
  8
0
100
AcDbSpline
 62
7
  6
BYLAYER
 70
0
 71
3
 72
15
 73
11
 74
0
 42
0.0000001
 43
0.0000001
 44
0.0000000001
 40
0.0
 40
0.0
 40
0.0
 40
0.0
 40
0.260411383
 40
0.3894936915
 40
0.5173992149
 40
0.6435580528
 40
0.705712759
 40
0.7670559092
 40
0.8864625458
 40
1.0
 40
1.0
 40
1.0
 40
1.0
 10
59.7423659623
 20
57.9419978182
 30
0.0
 10
58.8408649771
 20
58.2575060608
 30
0.0
 10
57.4883340158
 20
58.7174392895
 30
0.0
 10
55.6901991746
 20
59.3239646112
 30
0.0
 10
54.3604976594
 20
59.7786188979
 30
0.0
 10
53.2674659465
 20
60.1666831041
 30
0.0
 10
52.41026048
 20
60.4887315989
 30
0.0
 10
51.5812455549
 20
60.8150807176
 30
0.0
 10
50.5890085485
 20
61.2409329842
 30
0.0
 10
49.8246587132
 20
61.6245684078
 30
0.0
 10
49.460414952
 20
61.8263991001
 30
0.0
  0
SPLINE
  5
2B3
100
AcDbEntity
  8
0
100
AcDbSpline
 62
7
  6
BYLAYER
 70
0
 71
3
 72
11
 73
7
 74
0
 42
0.0000001
 43
0.0000001
 44
0.0000000001
 40
0.0
 40
0.0
 40
0.0
 40
0.0
 40
0.2396285966
 40
0.488251512
 40
0.7430229333
 40
1.0
 40
1.0
 40
1.0
 40
1.0
 10
40.0891185767
 20
47.8359684652
 30
0.0
 10
40.8030764556
 20
48.0346112253
 30
0.0
 10
42.2367461102
 20
48.5159714733
 30
0.0
 10
44.3584848533
 20
49.401015772
 30
0.0
 10
46.4831971281
 20
50.4101190034
 30
0.0
 10
47.890580235
 20
51.1343893102
 30
0.0
 10
48.5934429179
 20
51.5053041983
 30
0.0
  0
SPLINE
  5
2B4
100
AcDbEntity
  8
0
100
AcDbSpline
 62
7
  6
BYLAYER
 70
0
 71
3
 72
13
 73
9
 74
0
 42
0.0000001
 43
0.0000001
 44
0.0000000001
 40
0.0
 40
0.0
 40
0.0
 40
0.0
 40
0.120175641
 40
0.2419163677
 40
0.365303746
 40
0.4903130592
 40
0.7438386222
 40
1.0
 40
1.0
 40
1.0
 40
1.0
 10
29.6825845754
 20
66.5385878065
 30
0.0
 10
29.3693653728
 20
66.1786145451
 30
0.0
 10
28.7883856777
 20
65.4093757595
 30
0.0
 10
28.0707247957
 20
64.1446742787
 30
0.0
 10
27.5074798172
 20
62.783206044
 30
0.0
 10
26.9655374908
 20
60.8614198809
 30
0.0
 10
26.6952589453
 20
58.3347658696
 30
0.0
 10
26.9174804312
 20
56.3045673985
 30
0.0
 10
27.1398450031
 20
55.3120659168
 30
0.0
  0
SPLINE
  5
2B5
100
AcDbEntity
  8
0
100
AcDbSpline
 62
7
  6
BYLAYER
 70
0
 71
3
 72
23
 73
19
 74
0
 42
0.0000001
 43
0.0000001
 44
0.0000000001
 40
0.0
 40
0.0
 40
0.0
 40
0.0
 40
0.1203091004
 40
0.2430821434
 40
0.367861649
 40
0.4942167823
 40
0.5578617087
 40
0.6217475191
 40
0.6858204484
 40
0.7500176619
 40
0.8142475246
 40
0.8463259781
 40
0.8783210344
 40
0.9101321331
 40
0.9415222698
 40
0.9569028915
 40
0.9719084557
 40
1.0
 40
1.0
 40
1.0
 40
1.0
 10
27.1398450031
 20
55.3120659168
 30
0.0
 10
27.2102848066
 20
54.844908668
 30
0.0
 10
27.3717800199
 20
53.9038036593
 30
0.0
 10
27.6748153966
 20
52.4909810461
 30
0.0
 10
28.0442491614
 20
51.0694536842
 30
0.0
 10
28.4089932056
 20
49.8878761509
 30
0.0
 10
28.7375020202
 20
48.9464838485
 30
0.0
 10
29.0035625632
 20
48.2425973564
 30
0.0
 10
29.2897246495
 20
47.5442775812
 30
0.0
 10
29.5977113406
 20
46.853809217
 30
0.0
 10
29.8751529461
 20
46.2876392238
 30
0.0
 10
30.113235892
 20
45.8435482841
 30
0.0
 10
30.3012958326
 20
45.5172540042
 30
0.0
 10
30.5012397417
 20
45.2012515555
 30
0.0
 10
30.6818157334
 20
44.9506006182
 30
0.0
 10
30.8382759272
 20
44.764944884
 30
0.0
 10
30.9977256669
 20
44.5997585291
 30
0.0
 10
31.131764708
 20
44.4931720128
 30
0.0
 10
31.2272980657
 20
44.4380170508
 30
0.0
  0
SPLINE
  5
2B6
100
AcDbEntity
  8
0
100
AcDbSpline
 62
7
  6
BYLAYER
 70
0
 71
3
 72
23
 73
19
 74
0
 42
0.0000001
 43
0.0000001
 44
0.0000000001
 40
0.0
 40
0.0
 40
0.0
 40
0.0
 40
0.0561498619
 40
0.1111852585
 40
0.1655338031
 40
0.2197008995
 40
0.2741796538
 40
0.3294738964
 40
0.3860993269
 40
0.4445356315
 40
0.505209545
 40
0.5684737733
 40
0.634556298
 40
0.7034881562
 40
0.7750793154
 40
0.8488741992
 40
0.9241750802
 40
1.0
 40
1.0
 40
1.0
 40
1.0
 10
35.4396527861
 20
64.5995681762
 30
0.0
 10
35.2889218377
 20
64.3960536514
 30
0.0
 10
35.025367922
 20
63.9655476704
 30
0.0
 10
34.7594735526
 20
63.2632007846
 30
0.0
 10
34.6358995294
 20
62.5310500141
 30
0.0
 10
34.6591670875
 20
61.7913899529
 30
0.0
 10
34.8293773433
 20
61.0668136213
 30
0.0
 10
35.1426922266
 20
60.3796179431
 30
0.0
 10
35.5908919328
 20
59.7500283634
 30
0.0
 10
36.1626826525
 20
59.1951798975
 30
0.0
 10
36.8447803834
 20
58.7288302757
 30
0.0
 10
37.6224931885
 20
58.3609805866
 30
0.0
 10
38.4801242503
 20
58.0978273319
 30
0.0
 10
39.4011525
 20
57.9415437888
 30
0.0
 10
40.3683551389
 20
57.8906818354
 30
0.0
 10
41.3640334372
 20
57.9394985945
 30
0.0
 10
42.3700173935
 20
58.0788324816
 30
0.0
 10
43.0366130739
 20
58.224518058
 30
0.0
 10
43.3680171122
 20
58.3089725634
 30
0.0
  0
SPLINE
  5
2B7
100
AcDbEntity
  8
0
100
AcDbSpline
 62
7
  6
BYLAYER
 70
0
 71
3
 72
9
 73
5
 74
0
 42
0.0000001
 43
0.0000001
 44
0.0000000001
 40
0.0
 40
0.0
 40
0.0
 40
0.0
 40
0.5039288296
 40
1.0
 40
1.0
 40
1.0
 40
1.0
 10
35.7880931809
 20
64.2615034183
 30
0.0
 10
35.6401089547
 20
64.0062767194
 30
0.0
 10
35.4108975775
 20
63.4592528711
 30
0.0
 10
35.3333567527
 20
62.8712092333
 30
0.0
 10
35.3333739413
 20
62.5807840839
 30
0.0
  0
SPLINE
  5
2B8
100
AcDbEntity
  8
0
100
AcDbSpline
 62
7
  6
BYLAYER
 70
0
 71
3
 72
9
 73
5
 74
0
 42
0.0000001
 43
0.0000001
 44
0.0000000001
 40
0.0
 40
0.0
 40
0.0
 40
0.0
 40
0.2535596451
 40
1.0
 40
1.0
 40
1.0
 40
1.0
 10
51.5828906334
 20
58.9472869145
 30
0.0
 10
51.301426323
 20
59.1374802828
 30
0.0
 10
50.1854591454
 20
59.8787674625
 30
0.0
 10
49.0456583638
 20
60.5842882648
 30
0.0
 10
48.1819119168
 20
61.0882594347
 30
0.0
  0
SPLINE
  5
2B9
100
AcDbEntity
  8
0
100
AcDbSpline
 62
7
  6
BYLAYER
 70
0
 71
3
 72
23
 73
19
 74
0
 42
0.0000001
 43
0.0000001
 44
0.0000000001
 40
0.0
 40
0.0
 40
0.0
 40
0.0
 40
0.0742395199
 40
0.1447478495
 40
0.2113729993
 40
0.2743232395
 40
0.3339992397
 40
0.3909714407
 40
0.4459959464
 40
0.5000029297
 40
0.5540097774
 40
0.6090338905
 40
0.6660054751
 40
0.7256806849
 40
0.7886300118
 40
0.8552541636
 40
0.9257614535
 40
1.0
 40
1.0
 40
1.0
 40
1.0
 10
64.8979398482
 20
42.6448423433
 30
0.0
 10
64.8976884971
 20
42.7778222882
 30
0.0
 10
64.8868148162
 20
43.0372465602
 30
0.0
 10
64.83622048
 20
43.4130713903
 30
0.0
 10
64.7509005448
 20
43.7619397447
 30
0.0
 10
64.6319147346
 20
44.0802954488
 30
0.0
 10
64.4803007574
 20
44.3651885367
 30
0.0
 10
64.2973579268
 20
44.6138396852
 30
0.0
 10
64.0844272779
 20
44.8233006987
 30
0.0
 10
63.8438092995
 20
44.9912864373
 30
0.0
 10
63.5780241115
 20
45.1156811612
 30
0.0
 10
63.2901640251
 20
45.1953601455
 30
0.0
 10
62.9833582525
 20
45.2294735814
 30
0.0
 10
62.6608305354
 20
45.2183340304
 30
0.0
 10
62.3256375404
 20
45.1622058789
 30
0.0
 10
61.980852813
 20
45.0616656926
 30
0.0
 10
61.6300857141
 20
44.9175738413
 30
0.0
 10
61.3999836463
 20
44.7972809693
 30
0.0
 10
61.2846954203
 20
44.7310096319
 30
0.0
  0
SPLINE
  5
2BA
100
AcDbEntity
  8
0
100
AcDbSpline
 62
7
  6
BYLAYER
 70
0
 71
3
 72
28
 73
24
 74
0
 42
0.0000001
 43
0.0000001
 44
0.0000000001
 40
0.0
 40
0.0
 40
0.0
 40
0.0
 40
0.0180206578
 40
0.0352822044
 40
0.0522109779
 40
0.0692825681
 40
0.0869661114
 40
0.1056727013
 40
0.1257192212
 40
0.1473376643
 40
0.1706682961
 40
0.1957796765
 40
0.2226868088
 40
0.251354028
 40
0.313678558
 40
0.3819693513
 40
0.4551515426
 40
0.5319771427
 40
0.6111227931
 40
0.6912774358
 40
0.7711930781
 40
0.8498036721
 40
1.0
 40
1.0
 40
1.0
 40
1.0
 10
49.4602874943
 20
61.8263255128
 30
0.0
 10
49.4918668258
 20
61.8963958927
 30
0.0
 10
49.5447259835
 20
62.037938634
 30
0.0
 10
49.5899272603
 20
62.2569362721
 30
0.0
 10
49.5978740252
 20
62.4764900039
 30
0.0
 10
49.5682904211
 20
62.6959552851
 30
0.0
 10
49.501734538
 20
62.9149753943
 30
0.0
 10
49.398905827
 20
63.1334105002
 30
0.0
 10
49.2608609534
 20
63.3514243728
 30
0.0
 10
49.0885041597
 20
63.569074174
 30
0.0
 10
48.8829998634
 20
63.7864253158
 30
0.0
 10
48.6456204225
 20
64.0033965683
 30
0.0
 10
48.3777438312
 20
64.2197057638
 30
0.0
 10
47.9703763108
 20
64.5148012059
 30
0.0
 10
47.3933427864
 20
64.8748784983
 30
0.0
 10
46.6246720449
 20
65.2818600469
 30
0.0
 10
45.7757470584
 20
65.6655838998
 30
0.0
 10
44.8621827408
 20
66.014465813
 30
0.0
 10
43.9003787986
 20
66.3153667535
 30
0.0
 10
42.9077465076
 20
66.5544967099
 30
0.0
 10
41.901822517
 20
66.7188448263
 30
0.0
 10
40.5884803411
 20
66.8213455646
 30
0.0
 10
39.6046492144
 20
66.7595603397
 30
0.0
 10
38.9751719712
 20
66.6407889465
 30
0.0
  0
SPLINE
  5
2BB
100
AcDbEntity
  8
0
100
AcDbSpline
 62
7
  6
BYLAYER
 70
0
 71
3
 72
15
 73
11
 74
0
 42
0.0000001
 43
0.0000001
 44
0.0000000001
 40
0.0
 40
0.0
 40
0.0
 40
0.0
 40
0.1141544242
 40
0.2373255667
 40
0.3669747577
 40
0.4999984145
 40
0.6330222917
 40
0.7626721263
 40
0.8858442834
 40
1.0
 40
1.0
 40
1.0
 40
1.0
 10
61.2846954203
 20
44.7310096319
 30
0.0
 10
61.0376093631
 20
44.5877332426
 30
0.0
 10
60.5486333715
 20
44.24594681
 30
0.0
 10
59.8765591822
 20
43.61670364
 30
0.0
 10
59.2569943948
 20
42.8733335742
 30
0.0
 10
58.7135722956
 20
42.0432271046
 30
0.0
 10
58.2663937162
 20
41.1575529007
 30
0.0
 10
57.9324008588
 20
40.2493032409
 30
0.0
 10
57.7234983012
 20
39.352640677
 30
0.0
 10
57.6719891598
 20
38.7582761921
 30
0.0
 10
57.6714509924
 20
38.4726519617
 30
0.0
  0
SPLINE
  5
2BC
100
AcDbEntity
  8
0
100
AcDbSpline
 62
7
  6
BYLAYER
 70
0
 71
3
 72
24
 73
20
 74
0
 42
0.0000001
 43
0.0000001
 44
0.0000000001
 40
0.0
 40
0.0
 40
0.0
 40
0.0
 40
0.0177455292
 40
0.0358321345
 40
0.0740056755
 40
0.1162840221
 40
0.1637041485
 40
0.2166885682
 40
0.2751608666
 40
0.3386824639
 40
0.4065507966
 40
0.4778915867
 40
0.5517604106
 40
0.6272085309
 40
0.7033433948
 40
0.7793476306
 40
0.8545077814
 40
0.9282506552
 40
1.0
 40
1.0
 40
1.0
 40
1.0
 10
48.0333641883
 20
62.3566210556
 30
0.0
 10
48.0333579131
 20
62.4171836496
 30
0.0
 10
48.0252971649
 20
62.5396183049
 30
0.0
 10
47.9766569068
 20
62.7880505868
 30
0.0
 10
47.8511248855
 20
63.1034133997
 30
0.0
 10
47.6109555917
 20
63.4703418439
 30
0.0
 10
47.2833847437
 20
63.8327147247
 30
0.0
 10
46.8731369376
 20
64.1888113872
 30
0.0
 10
46.3861461498
 20
64.5357143187
 30
0.0
 10
45.8298642735
 20
64.8691101694
 30
0.0
 10
45.2131888147
 20
65.1838719557
 30
0.0
 10
44.5460290736
 20
65.4742857723
 30
0.0
 10
43.8388284171
 20
65.7343044195
 30
0.0
 10
43.1021071586
 20
65.9577775042
 30
0.0
 10
42.3462069277
 20
66.1385279964
 30
0.0
 10
41.5812003094
 20
66.2704886698
 30
0.0
 10
40.8168012975
 20
66.347733072
 30
0.0
 10
40.06313098
 20
66.3643967793
 30
0.0
 10
39.5667912233
 20
66.3314430588
 30
0.0
 10
39.323612367
 20
66.3027241876
 30
0.0
  0
SPLINE
  5
2BD
100
AcDbEntity
  8
0
100
AcDbSpline
 62
7
  6
BYLAYER
 70
0
 71
3
 72
23
 73
19
 74
0
 42
0.0000001
 43
0.0000001
 44
0.0000000001
 40
0.0
 40
0.0
 40
0.0
 40
0.0
 40
0.0742395199
 40
0.1447478495
 40
0.2113729993
 40
0.2743232395
 40
0.3339992397
 40
0.3909714407
 40
0.4459959464
 40
0.5000029297
 40
0.5540097774
 40
0.6090338905
 40
0.6660054751
 40
0.7256806849
 40
0.7886300118
 40
0.8552541636
 40
0.9257614535
 40
1.0
 40
1.0
 40
1.0
 40
1.0
 10
57.6714509924
 20
38.4726519617
 30
0.0
 10
57.6717023435
 20
38.3396720168
 30
0.0
 10
57.6825760244
 20
38.0802477448
 30
0.0
 10
57.7331703607
 20
37.7044229147
 30
0.0
 10
57.8184902959
 20
37.3555545603
 30
0.0
 10
57.9374761061
 20
37.0371988562
 30
0.0
 10
58.0890900832
 20
36.7523057683
 30
0.0
 10
58.2720329138
 20
36.5036546198
 30
0.0
 10
58.4849635627
 20
36.2941936063
 30
0.0
 10
58.7255815411
 20
36.1262078677
 30
0.0
 10
58.9913667291
 20
36.0018131438
 30
0.0
 10
59.2792268155
 20
35.9221341595
 30
0.0
 10
59.5860325881
 20
35.8880207236
 30
0.0
 10
59.9085603052
 20
35.8991602746
 30
0.0
 10
60.2437533002
 20
35.955288426
 30
0.0
 10
60.5885380276
 20
36.0558286124
 30
0.0
 10
60.9393051265
 20
36.1999204637
 30
0.0
 10
61.1694071943
 20
36.3202133357
 30
0.0
 10
61.2846954203
 20
36.3864846731
 30
0.0
  0
SPLINE
  5
2BE
100
AcDbEntity
  8
0
100
AcDbSpline
 62
7
  6
BYLAYER
 70
0
 71
3
 72
11
 73
7
 74
0
 42
0.0000001
 43
0.0000001
 44
0.0000000001
 40
0.0
 40
0.0
 40
0.0
 40
0.0
 40
0.2511648238
 40
0.5020659869
 40
0.752119453
 40
1.0
 40
1.0
 40
1.0
 40
1.0
 10
22.8789790784
 20
17.8127409247
 30
0.0
 10
22.6985155966
 20
17.5001672701
 30
0.0
 10
22.3156709737
 20
16.8878942825
 30
0.0
 10
21.688179016
 20
16.0073487992
 30
0.0
 10
21.0277965747
 20
15.157540761
 30
0.0
 10
20.5797965655
 20
14.5996127965
 30
0.0
 10
20.3588217804
 20
14.3202296815
 30
0.0
  0
SPLINE
  5
2BF
100
AcDbEntity
  8
0
100
AcDbSpline
 62
7
  6
BYLAYER
 70
0
 71
3
 72
9
 73
5
 74
0
 42
0.0000001
 43
0.0000001
 44
0.0000000001
 40
0.0
 40
0.0
 40
0.0
 40
0.0
 40
0.5029347989
 40
1.0
 40
1.0
 40
1.0
 40
1.0
 10
58.8423721459
 20
99.1100489941
 30
0.0
 10
59.2449697981
 20
99.0089704254
 30
0.0
 10
60.0365486467
 20
98.7703877782
 30
0.0
 10
60.8012916141
 20
98.4560066137
 30
0.0
 10
61.1725297404
 20
98.2814050476
 30
0.0
  0
SPLINE
  5
2C0
100
AcDbEntity
  8
0
100
AcDbSpline
 62
7
  6
BYLAYER
 70
0
 71
3
 72
9
 73
5
 74
0
 42
0.0000001
 43
0.0000001
 44
0.0000000001
 40
0.0
 40
0.0
 40
0.0
 40
0.0
 40
0.4970645323
 40
1.0
 40
1.0
 40
1.0
 40
1.0
 10
11.2389637717
 20
11.7934516814
 30
0.0
 10
10.9021397564
 20
12.027661728
 30
0.0
 10
10.2475150981
 20
12.5327765716
 30
0.0
 10
9.6451171276
 20
13.0990296348
 30
0.0
 10
9.3562865162
 20
13.3971586128
 30
0.0
  0
SPLINE
  5
2C1
100
AcDbEntity
  8
0
100
AcDbSpline
 62
7
  6
BYLAYER
 70
0
 71
3
 72
14
 73
10
 74
0
 42
0.0000001
 43
0.0000001
 44
0.0000000001
 40
0.0
 40
0.0
 40
0.0
 40
0.0
 40
0.1016052555
 40
0.2063401623
 40
0.3169689309
 40
0.435452812
 40
0.5629259482
 40
0.6997905909
 40
1.0
 40
1.0
 40
1.0
 40
1.0
 10
13.7596980235
 20
10.287347713
 30
0.0
 10
13.8791690862
 20
10.2183541959
 30
0.0
 10
14.1383567801
 20
10.105083657
 30
0.0
 10
14.5634265069
 20
10.0209175425
 30
0.0
 10
15.0193484628
 20
10.021428643
 30
0.0
 10
15.4982600872
 20
10.1054265468
 30
0.0
 10
15.9929007403
 20
10.2706474224
 30
0.0
 10
16.6842109001
 20
10.6053819618
 30
0.0
 10
17.170829845
 20
10.9544678704
 30
0.0
 10
17.4811363957
 20
11.2188020287
 30
0.0
  0
SPLINE
  5
2C2
100
AcDbEntity
  8
0
100
AcDbSpline
 62
7
  6
BYLAYER
 70
0
 71
3
 72
9
 73
5
 74
0
 42
0.0000001
 43
0.0000001
 44
0.0000000001
 40
0.0
 40
0.0
 40
0.0
 40
0.0
 40
0.522222525
 40
1.0
 40
1.0
 40
1.0
 40
1.0
 10
61.8587253569
 20
80.5019651793
 30
0.0
 10
61.9521555666
 20
80.4100569575
 30
0.0
 10
62.1475179959
 20
80.2508743053
 30
0.0
 10
62.3576375047
 20
80.1129868779
 30
0.0
 10
62.4614783673
 20
80.0530356842
 30
0.0
  0
SPLINE
  5
2C3
100
AcDbEntity
  8
0
100
AcDbSpline
 62
7
  6
BYLAYER
 70
0
 71
3
 72
11
 73
7
 74
0
 42
0.0000001
 43
0.0000001
 44
0.0000000001
 40
0.0
 40
0.0
 40
0.0
 40
0.0
 40
0.250777405
 40
0.5009623441
 40
0.750650341
 40
1.0
 40
1.0
 40
1.0
 40
1.0
 10
60.7080230919
 20
82.9128265457
 30
0.0
 10
60.7072868802
 20
82.6840715384
 30
0.0
 10
60.7733724681
 20
82.225446368
 30
0.0
 10
61.0269163545
 20
81.5845769761
 30
0.0
 10
61.3940724501
 20
81.0042091379
 30
0.0
 10
61.6965847863
 20
80.6614643935
 30
0.0
 10
61.8587342169
 20
80.5019563941
 30
0.0
  0
SPLINE
  5
2C4
100
AcDbEntity
  8
0
100
AcDbSpline
 62
7
  6
BYLAYER
 70
0
 71
3
 72
9
 73
5
 74
0
 42
0.0000001
 43
0.0000001
 44
0.0000000001
 40
0.0
 40
0.0
 40
0.0
 40
0.0
 40
0.5011865475
 40
1.0
 40
1.0
 40
1.0
 40
1.0
 10
61.0093663742
 20
83.9245773221
 30
0.0
 10
60.9204874638
 20
83.7706336791
 30
0.0
 10
60.7735370949
 20
83.4449568221
 30
0.0
 10
60.70858645
 20
83.0899604711
 30
0.0
 10
60.708017074
 20
82.9130445051
 30
0.0
  0
SPLINE
  5
2C5
100
AcDbEntity
  8
0
100
AcDbSpline
 62
7
  6
BYLAYER
 70
0
 71
3
 72
9
 73
5
 74
0
 42
0.0000001
 43
0.0000001
 44
0.0000000001
 40
0.0
 40
0.0
 40
0.0
 40
0.0
 40
0.5038782894
 40
1.0
 40
1.0
 40
1.0
 40
1.0
 10
60.7649132191
 20
95.7279531611
 30
0.0
 10
60.7209830185
 20
95.6518770584
 30
0.0
 10
60.6162896508
 20
95.5094489595
 30
0.0
 10
60.4682338303
 20
95.4084922062
 30
0.0
 10
60.3884315777
 20
95.3751265868
 30
0.0
  0
SPLINE
  5
2C6
100
AcDbEntity
  8
0
100
AcDbSpline
 62
7
  6
BYLAYER
 70
0
 71
3
 72
9
 73
5
 74
0
 42
0.0000001
 43
0.0000001
 44
0.0000000001
 40
0.0
 40
0.0
 40
0.0
 40
0.0
 40
0.2480547598
 40
1.0
 40
1.0
 40
1.0
 40
1.0
 10
67.1541672426
 20
77.2605783563
 30
0.0
 10
67.1392963005
 20
77.2702003374
 30
0.0
 10
67.0804941744
 20
77.3107441519
 30
0.0
 10
67.0265295577
 20
77.3582424752
 30
0.0
 10
66.9893137141
 20
77.3969449619
 30
0.0
  0
SPLINE
  5
2C7
100
AcDbEntity
  8
0
100
AcDbSpline
 62
7
  6
BYLAYER
 70
0
 71
3
 72
14
 73
10
 74
0
 42
0.0000001
 43
0.0000001
 44
0.0000000001
 40
0.0
 40
0.0
 40
0.0
 40
0.0
 40
0.2717666177
 40
0.4039569228
 40
0.5318157202
 40
0.6547697771
 40
0.7730204786
 40
0.8875451028
 40
1.0
 40
1.0
 40
1.0
 40
1.0
 10
34.7408073383
 20
21.2422289474
 30
0.0
 10
34.5630938858
 20
20.9344185097
 30
0.0
 10
34.2228927077
 20
20.5141019547
 30
0.0
 10
33.6620472438
 20
20.0984773258
 30
0.0
 10
33.2106327864
 20
19.8745133361
 30
0.0
 10
32.7421639899
 20
19.7457032022
 30
0.0
 10
32.2740639032
 20
19.7175962278
 30
0.0
 10
31.8248478853
 20
19.7922013082
 30
0.0
 10
31.5486006419
 20
19.9098103837
 30
0.0
 10
31.421234134
 20
19.9833520823
 30
0.0
  0
SPLINE
  5
2C8
100
AcDbEntity
  8
0
100
AcDbSpline
 62
7
  6
BYLAYER
 70
0
 71
3
 72
14
 73
10
 74
0
 42
0.0000001
 43
0.0000001
 44
0.0000000001
 40
0.0
 40
0.0
 40
0.0
 40
0.0
 40
0.2717666177
 40
0.4039569228
 40
0.5318157202
 40
0.6547697771
 40
0.7730204786
 40
0.8875451028
 40
1.0
 40
1.0
 40
1.0
 40
1.0
 10
64.7406824361
 20
73.2038252828
 30
0.0
 10
64.5629689836
 20
72.8960148451
 30
0.0
 10
64.2227678055
 20
72.4756982901
 30
0.0
 10
63.6619223416
 20
72.0600736612
 30
0.0
 10
63.2105078842
 20
71.8361096715
 30
0.0
 10
62.7420390878
 20
71.7072995375
 30
0.0
 10
62.273939001
 20
71.6791925632
 30
0.0
 10
61.8247229831
 20
71.7537976436
 30
0.0
 10
61.5484757397
 20
71.8714067191
 30
0.0
 10
61.4211092318
 20
71.9449484177
 30
0.0
  0
SPLINE
  5
2C9
100
AcDbEntity
  8
0
100
AcDbSpline
 62
7
  6
BYLAYER
 70
0
 71
3
 72
14
 73
10
 74
0
 42
0.0000001
 43
0.0000001
 44
0.0000000001
 40
0.0
 40
0.0
 40
0.0
 40
0.0
 40
0.2717666177
 40
0.4039569228
 40
0.5318157202
 40
0.6547697771
 40
0.7730204786
 40
0.8875451028
 40
1.0
 40
1.0
 40
1.0
 40
1.0
 10
41.1372243727
 20
33.1377085001
 30
0.0
 10
40.991822457
 20
32.8858635966
 30
0.0
 10
40.7134760386
 20
32.5419682334
 30
0.0
 10
40.2546024772
 20
32.2019117188
 30
0.0
 10
39.8852633757
 20
32.0186684545
 30
0.0
 10
39.5019707241
 20
31.9132783449
 30
0.0
 10
39.118979744
 20
31.8902817295
 30
0.0
 10
38.7514393658
 20
31.9513222499
 30
0.0
 10
38.5254188939
 20
32.0475478571
 30
0.0
 10
38.4212099328
 20
32.1077183378
 30
0.0
  0
SPLINE
  5
2CA
100
AcDbEntity
  8
0
100
AcDbSpline
 62
7
  6
BYLAYER
 70
0
 71
3
 72
17
 73
13
 74
0
 42
0.0000001
 43
0.0000001
 44
0.0000000001
 40
0.0
 40
0.0
 40
0.0
 40
0.0
 40
0.0249328335
 40
0.050701625
 40
0.0795192322
 40
0.1129749375
 40
0.1972807544
 40
0.3075260643
 40
0.4442789386
 40
0.6066249636
 40
0.7928250382
 40
1.0
 40
1.0
 40
1.0
 40
1.0
 10
64.1786838958
 20
95.4266531322
 30
0.0
 10
64.1861920276
 20
95.4396677727
 30
0.0
 10
64.1974940433
 20
95.4687243495
 30
0.0
 10
64.1996099665
 20
95.5173105556
 30
0.0
 10
64.1874948603
 20
95.5694726045
 30
0.0
 10
64.1504052631
 20
95.6501052097
 30
0.0
 10
64.0656059687
 20
95.7598769729
 30
0.0
 10
63.9216432816
 20
95.898464365
 30
0.0
 10
63.7287533875
 20
96.0527189604
 30
0.0
 10
63.4896114983
 20
96.2212221188
 30
0.0
 10
63.2076270206
 20
96.4020375291
 30
0.0
 10
63.0038731043
 20
96.5232748598
 30
0.0
 10
62.8957507742
 20
96.585697904
 30
0.0
  0
SPLINE
  5
2CB
100
AcDbEntity
  8
0
100
AcDbSpline
 62
7
  6
BYLAYER
 70
0
 71
3
 72
9
 73
5
 74
0
 42
0.0000001
 43
0.0000001
 44
0.0000000001
 40
0.0
 40
0.0
 40
0.0
 40
0.0
 40
0.4988131975
 40
1.0
 40
1.0
 40
1.0
 40
1.0
 10
24.3160129858
 20
19.879894529
 30
0.0
 10
24.1630845954
 20
19.7909430235
 30
0.0
 10
23.8881253589
 20
19.5571951622
 30
0.0
 10
23.6795578218
 20
19.2670933508
 30
0.0
 10
23.5906789916
 20
19.1131498466
 30
0.0
  0
SPLINE
  5
2CC
100
AcDbEntity
  8
0
100
AcDbSpline
 62
7
  6
BYLAYER
 70
0
 71
3
 72
11
 73
7
 74
0
 42
0.0000001
 43
0.0000001
 44
0.0000000001
 40
0.0
 40
0.0
 40
0.0
 40
0.0
 40
0.2493497513
 40
0.4990377371
 40
0.749222651
 40
1.0
 40
1.0
 40
1.0
 40
1.0
 10
26.9794301564
 20
20.0888942682
 30
0.0
 10
26.7602176251
 20
20.1495654081
 30
0.0
 10
26.3121362593
 20
20.2401755862
 30
0.0
 10
25.6259458372
 20
20.2679568007
 30
0.0
 10
24.9441660626
 20
20.1670959585
 30
0.0
 10
24.5139434979
 20
19.9950139532
 30
0.0
 10
24.3162047511
 20
19.8799982966
 30
0.0
  0
SPLINE
  5
2CD
100
AcDbEntity
  8
0
100
AcDbSpline
 62
7
  6
BYLAYER
 70
0
 71
3
 72
9
 73
5
 74
0
 42
0.0000001
 43
0.0000001
 44
0.0000000001
 40
0.0
 40
0.0
 40
0.0
 40
0.0
 40
0.4777775914
 40
1.0
 40
1.0
 40
1.0
 40
1.0
 10
27.6695821688
 20
19.7913692568
 30
0.0
 10
27.5657412509
 20
19.8513204824
 30
0.0
 10
27.341266008
 20
19.9643426292
 30
0.0
 10
27.1057281367
 20
20.0539389048
 30
0.0
 10
26.9794181181
 20
20.0888975486
 30
0.0
  0
SPLINE
  5
2CE
100
AcDbEntity
  8
0
100
AcDbSpline
 62
7
  6
BYLAYER
 70
0
 71
3
 72
9
 73
5
 74
0
 42
0.0000001
 43
0.0000001
 44
0.0000000001
 40
0.0
 40
0.0
 40
0.0
 40
0.0
 40
0.2587669089
 40
1.0
 40
1.0
 40
1.0
 40
1.0
 10
32.434311796
 20
17.1236908642
 30
0.0
 10
32.4422650584
 20
17.1190991499
 30
0.0
 10
32.4731335474
 20
17.101586109
 30
0.0
 10
32.5043079881
 20
17.0846147452
 30
0.0
 10
32.5270896714
 20
17.0714613581
 30
0.0
  0
SPLINE
  5
2CF
100
AcDbEntity
  8
0
100
AcDbSpline
 62
7
  6
BYLAYER
 70
0
 71
3
 72
9
 73
5
 74
0
 42
0.0000001
 43
0.0000001
 44
0.0000000001
 40
0.0
 40
0.0
 40
0.0
 40
0.0
 40
0.201005227
 40
1.0
 40
1.0
 40
1.0
 40
1.0
 10
67.2457882951
 20
77.2063451634
 30
0.0
 10
67.2396104426
 20
77.2099120502
 30
0.0
 10
67.2090569739
 20
77.2279691045
 30
0.0
 10
67.1787244902
 20
77.2464005436
 30
0.0
 10
67.1541672426
 20
77.2605783563
 30
0.0
  0
SPLINE
  5
2D0
100
AcDbEntity
  8
0
100
AcDbSpline
 62
7
  6
BYLAYER
 70
0
 71
3
 72
14
 73
10
 74
0
 42
0.0000001
 43
0.0000001
 44
0.0000000001
 40
0.0
 40
0.0
 40
0.0
 40
0.0
 40
0.0660210506
 40
0.1422561108
 40
0.2344940469
 40
0.3458433896
 40
0.4777972654
 40
0.630990706
 40
1.0
 40
1.0
 40
1.0
 40
1.0
 10
8.9485749661
 20
14.1589303267
 30
0.0
 10
8.9386403931
 20
14.1417134842
 30
0.0
 10
8.9253763569
 20
14.0996603984
 30
0.0
 10
8.9284177265
 20
14.0282213966
 30
0.0
 10
8.9514957862
 20
13.9466693545
 30
0.0
 10
8.9942817947
 20
13.8548319953
 30
0.0
 10
9.0566578266
 20
13.7528297099
 30
0.0
 10
9.1733826001
 20
13.5939943517
 30
0.0
 10
9.2789806622
 20
13.4769531856
 30
0.0
 10
9.3562865162
 20
13.3971586128
 30
0.0
  0
SPLINE
  5
2D1
100
AcDbEntity
  8
0
100
AcDbSpline
 62
7
  6
BYLAYER
 70
0
 71
3
 72
14
 73
10
 74
0
 42
0.0000001
 43
0.0000001
 44
0.0000000001
 40
0.0
 40
0.0
 40
0.0
 40
0.0
 40
0.0961416981
 40
0.1808733423
 40
0.2934539797
 40
0.4333471771
 40
0.5992736478
 40
0.7890815475
 40
1.0
 40
1.0
 40
1.0
 40
1.0
 10
11.4498658039
 20
12.2915943277
 30
0.0
 10
11.4561298791
 20
12.3027019494
 30
0.0
 10
11.4864516248
 20
12.3058776857
 30
0.0
 10
11.5226175087
 20
12.2984158961
 30
0.0
 10
11.5661390986
 20
12.28508409
 30
0.0
 10
11.6173800053
 20
12.264356519
 30
0.0
 10
11.6770957946
 20
12.2366030678
 30
0.0
 10
11.7438517516
 20
12.2020937932
 30
0.0
 10
11.7902593858
 20
12.176146913
 30
0.0
 10
11.8144875243
 20
12.1621591071
 30
0.0
  0
SPLINE
  5
2D2
100
AcDbEntity
  8
0
100
AcDbSpline
 62
7
  6
BYLAYER
 70
0
 71
3
 72
14
 73
10
 74
0
 42
0.0000001
 43
0.0000001
 44
0.0000000001
 40
0.0
 40
0.0
 40
0.0
 40
0.0
 40
0.2713006985
 40
0.4033967369
 40
0.5313081399
 40
0.6544446746
 40
0.7729039615
 40
0.8876336552
 40
1.0
 40
1.0
 40
1.0
 40
1.0
 10
36.6086650401
 20
17.4849092676
 30
0.0
 10
36.456564114
 20
17.2214612731
 30
0.0
 10
36.1666365847
 20
16.861077796
 30
0.0
 10
35.6893623478
 20
16.5011047716
 30
0.0
 10
35.3047602838
 20
16.3042072537
 30
0.0
 10
34.9047783789
 20
16.1866716213
 30
0.0
 10
34.5036325566
 20
16.1530655055
 30
0.0
 10
34.1166016063
 20
16.2057479398
 30
0.0
 10
33.8763006071
 20
16.2980053854
 30
0.0
 10
33.7648704008
 20
16.3568078881
 30
0.0
  0
SPLINE
  5
2D3
100
AcDbEntity
  8
0
100
AcDbSpline
 62
7
  6
BYLAYER
 70
0
 71
3
 72
14
 73
10
 74
0
 42
0.0000001
 43
0.0000001
 44
0.0000000001
 40
0.0
 40
0.0
 40
0.0
 40
0.0
 40
0.1123665947
 40
0.227096189
 40
0.3455552014
 40
0.4686914023
 40
0.5966025516
 40
0.7286985311
 40
1.0
 40
1.0
 40
1.0
 40
1.0
 10
68.4835690246
 20
76.4916916934
 30
0.0
 10
68.5902096312
 20
76.4245938128
 30
0.0
 10
68.7902598326
 20
76.2626203816
 30
0.0
 10
69.0294039303
 20
75.9537887284
 30
0.0
 10
69.2008774612
 20
75.5895881688
 30
0.0
 10
69.2990837605
 20
75.1844298382
 30
0.0
 10
69.3208703937
 20
74.7529088432
 30
0.0
 10
69.2477661753
 20
74.1595924524
 30
0.0
 10
69.0806311124
 20
73.7283165405
 30
0.0
 10
68.9285304789
 20
73.4648690529
 30
0.0
  0
SPLINE
  5
2D4
100
AcDbEntity
  8
0
100
AcDbSpline
 62
7
  6
BYLAYER
 70
0
 71
3
 72
14
 73
10
 74
0
 42
0.0000001
 43
0.0000001
 44
0.0000000001
 40
0.0
 40
0.0
 40
0.0
 40
0.0
 40
0.1124515764
 40
0.2269727494
 40
0.3452213655
 40
0.468176736
 40
0.5960387109
 40
0.7282325796
 40
1.0
 40
1.0
 40
1.0
 40
1.0
 10
34.1712770544
 20
24.7464299623
 30
0.0
 10
34.2986365318
 20
24.6728923231
 30
0.0
 10
34.5386041614
 20
24.4924789823
 30
0.0
 10
34.8277989944
 20
24.140757662
 30
0.0
 10
35.0374966732
 20
23.7213335038
 30
0.0
 10
35.1601819911
 20
23.2512332531
 30
0.0
 10
35.1919357403
 20
22.7483171127
 30
0.0
 10
35.1124143538
 20
22.0548065843
 30
0.0
 10
34.9185167539
 20
21.5500323929
 30
0.0
 10
34.7408073383
 20
21.2422289474
 30
0.0
  0
SPLINE
  5
2D5
100
AcDbEntity
  8
0
100
AcDbSpline
 62
7
  6
BYLAYER
 70
0
 71
3
 72
11
 73
7
 74
0
 42
0.0000001
 43
0.0000001
 44
0.0000000001
 40
0.0
 40
0.0
 40
0.0
 40
0.0
 40
0.2628462877
 40
0.5197866554
 40
0.7662127973
 40
1.0
 40
1.0
 40
1.0
 40
1.0
 10
39.5052241563
 20
34.0798771175
 30
0.0
 10
39.406435359
 20
33.9087689516
 30
0.0
 10
39.2468403162
 20
33.548191891
 30
0.0
 10
39.1332181974
 20
32.9786786041
 30
0.0
 10
39.1538960586
 20
32.4196490525
 30
0.0
 10
39.2612012452
 20
32.0693000389
 30
0.0
 10
39.336956019
 20
31.9107313726
 30
0.0
  0
SPLINE
  5
2D6
100
AcDbEntity
  8
0
100
AcDbSpline
 62
7
  6
BYLAYER
 70
0
 71
3
 72
11
 73
7
 74
0
 42
0.0000001
 43
0.0000001
 44
0.0000000001
 40
0.0
 40
0.0
 40
0.0
 40
0.0
 40
0.2318228389
 40
0.477483976
 40
0.7352473261
 40
1.0
 40
1.0
 40
1.0
 40
1.0
 10
34.8109594533
 20
24.1022461809
 30
0.0
 10
34.5814968282
 20
24.1078092681
 30
0.0
 10
34.1046540086
 20
24.0392103126
 30
0.0
 10
33.4364535143
 20
23.7292891844
 30
0.0
 10
32.8448684848
 20
23.2393015002
 30
0.0
 10
32.5327639517
 20
22.819653512
 30
0.0
 10
32.4016973967
 20
22.5926383193
 30
0.0
  0
SPLINE
  5
2D7
100
AcDbEntity
  8
0
100
AcDbSpline
 62
7
  6
BYLAYER
 70
0
 71
3
 72
11
 73
7
 74
0
 42
0.0000001
 43
0.0000001
 44
0.0000000001
 40
0.0
 40
0.0
 40
0.0
 40
0.0
 40
0.264742662
 40
0.5224946232
 40
0.7681585086
 40
1.0
 40
1.0
 40
1.0
 40
1.0
 10
62.4015724945
 20
74.5542346547
 30
0.0
 10
62.2705899764
 20
74.3273650191
 30
0.0
 10
62.0633190021
 20
73.8475809438
 30
0.0
 10
61.9346787762
 20
73.0907760376
 30
0.0
 10
62.0000161248
 20
72.3575541545
 30
0.0
 10
62.178617684
 20
71.9104406954
 30
0.0
 10
62.2979331421
 20
71.7144999504
 30
0.0
  0
SPLINE
  5
2D8
100
AcDbEntity
  8
0
100
AcDbSpline
 62
7
  6
BYLAYER
 70
0
 71
3
 72
11
 73
7
 74
0
 42
0.0000001
 43
0.0000001
 44
0.0000000001
 40
0.0
 40
0.0
 40
0.0
 40
0.0
 40
0.264742662
 40
0.5224946232
 40
0.7681585086
 40
1.0
 40
1.0
 40
1.0
 40
1.0
 10
32.4016973967
 20
22.5926383193
 30
0.0
 10
32.2707148786
 20
22.3657686837
 30
0.0
 10
32.0634439043
 20
21.8859846084
 30
0.0
 10
31.9348036784
 20
21.1291797022
 30
0.0
 10
32.000141027
 20
20.3959578191
 30
0.0
 10
32.1787425861
 20
19.94884436
 30
0.0
 10
32.2980580443
 20
19.752903615
 30
0.0
  0
SPLINE
  5
2D9
100
AcDbEntity
  8
0
100
AcDbSpline
 62
7
  6
BYLAYER
 70
0
 71
3
 72
14
 73
10
 74
0
 42
0.0000001
 43
0.0000001
 44
0.0000000001
 40
0.0
 40
0.0
 40
0.0
 40
0.0
 40
0.1124515764
 40
0.2269727494
 40
0.3452213655
 40
0.468176736
 40
0.5960387109
 40
0.7282325796
 40
1.0
 40
1.0
 40
1.0
 40
1.0
 10
64.1711521522
 20
76.7080262977
 30
0.0
 10
64.2985116296
 20
76.6344886584
 30
0.0
 10
64.5384792592
 20
76.4540753176
 30
0.0
 10
64.8276740922
 20
76.1023539974
 30
0.0
 10
65.037371771
 20
75.6829298392
 30
0.0
 10
65.1600570889
 20
75.2128295885
 30
0.0
 10
65.1918108381
 20
74.7099134481
 30
0.0
 10
65.1122894516
 20
74.0164029197
 30
0.0
 10
64.9183918518
 20
73.5116287283
 30
0.0
 10
64.7406824361
 20
73.2038252828
 30
0.0
  0
SPLINE
  5
2DA
100
AcDbEntity
  8
0
100
AcDbSpline
 62
7
  6
BYLAYER
 70
0
 71
3
 72
11
 73
7
 74
0
 42
0.0000001
 43
0.0000001
 44
0.0000000001
 40
0.0
 40
0.0
 40
0.0
 40
0.0
 40
0.2318228389
 40
0.477483976
 40
0.7352473261
 40
1.0
 40
1.0
 40
1.0
 40
1.0
 10
64.8108345511
 20
76.0638425163
 30
0.0
 10
64.581371926
 20
76.0694056034
 30
0.0
 10
64.1045291064
 20
76.000806648
 30
0.0
 10
63.4363286122
 20
75.6908855198
 30
0.0
 10
62.8447435827
 20
75.2008978355
 30
0.0
 10
62.5326390495
 20
74.7812498474
 30
0.0
 10
62.4015724945
 20
74.5542346547
 30
0.0
  0
SPLINE
  5
2DB
100
AcDbEntity
  8
0
100
AcDbSpline
 62
7
  6
BYLAYER
 70
0
 71
3
 72
9
 73
5
 74
0
 42
0.0000001
 43
0.0000001
 44
0.0000000001
 40
0.0
 40
0.0
 40
0.0
 40
0.0
 40
0.5079975856
 40
1.0
 40
1.0
 40
1.0
 40
1.0
 10
63.5443830579
 20
89.1203697047
 30
0.0
 10
63.8089769318
 20
89.7866881024
 30
0.0
 10
64.28036678
 20
91.1186148607
 30
0.0
 10
64.6430123205
 20
92.4844746885
 30
0.0
 10
64.7912738188
 20
93.1628186399
 30
0.0
  0
SPLINE
  5
2DC
100
AcDbEntity
  8
0
100
AcDbSpline
 62
7
  6
BYLAYER
 70
0
 71
3
 72
9
 73
5
 74
0
 42
0.0000001
 43
0.0000001
 44
0.0000000001
 40
0.0
 40
0.0
 40
0.0
 40
0.0
 40
0.492001875
 40
1.0
 40
1.0
 40
1.0
 40
1.0
 10
17.4811363957
 20
11.2188020287
 30
0.0
 10
17.9944639223
 20
11.6863697955
 30
0.0
 10
18.9960012265
 20
12.6833565132
 30
0.0
 10
19.9137786626
 20
13.7575522202
 30
0.0
 10
20.3585256611
 20
14.3198552981
 30
0.0
  0
SPLINE
  5
2DD
100
AcDbEntity
  8
0
100
AcDbSpline
 62
7
  6
BYLAYER
 70
0
 71
3
 72
14
 73
10
 74
0
 42
0.0000001
 43
0.0000001
 44
0.0000000001
 40
0.0
 40
0.0
 40
0.0
 40
0.0
 40
0.3002103124
 40
0.4370753291
 40
0.5645486707
 40
0.6830325133
 40
0.7936609853
 40
0.8983953787
 40
1.0
 40
1.0
 40
1.0
 40
1.0
 10
64.7912738188
 20
93.1628186399
 30
0.0
 10
64.8650426095
 20
93.5637331335
 30
0.0
 10
64.9240512649
 20
94.1597213165
 30
0.0
 10
64.8682807029
 20
94.9258069627
 30
0.0
 10
64.7640405324
 20
95.4368053854
 30
0.0
 10
64.5973213961
 20
95.8935674956
 30
0.0
 10
64.3697933658
 20
96.2886729494
 30
0.0
 10
64.0843569292
 20
96.6147168002
 30
0.0
 10
63.8566590074
 20
96.7825452921
 30
0.0
 10
63.7371689431
 20
96.8515129448
 30
0.0
  0
SPLINE
  5
2DE
100
AcDbEntity
  8
0
100
AcDbSpline
 62
7
  6
BYLAYER
 70
0
 71
3
 72
11
 73
7
 74
0
 42
0.0000001
 43
0.0000001
 44
0.0000000001
 40
0.0
 40
0.0
 40
0.0
 40
0.0
 40
0.247880965
 40
0.4979344823
 40
0.7488355083
 40
1.0
 40
1.0
 40
1.0
 40
1.0
 10
63.5442068799
 20
89.1199260303
 30
0.0
 10
63.4127423426
 20
88.7888630372
 30
0.0
 10
63.1535647786
 20
88.1219168052
 30
0.0
 10
62.7478043424
 20
87.1251008663
 30
0.0
 10
62.2989795225
 20
86.1414010382
 30
0.0
 10
61.9601608802
 20
85.5037091862
 30
0.0
 10
61.7796973373
 20
85.1911354258
 30
0.0
  0
SPLINE
  5
2DF
100
AcDbEntity
  8
0
100
AcDbSpline
 62
7
  6
BYLAYER
 70
0
 71
3
 72
14
 73
10
 74
0
 42
0.0000001
 43
0.0000001
 44
0.0000000001
 40
0.0
 40
0.0
 40
0.0
 40
0.0
 40
0.2109180648
 40
0.4007260777
 40
0.5666574383
 40
0.7065566576
 40
0.819141099
 40
0.9038701097
 40
1.0
 40
1.0
 40
1.0
 40
1.0
 10
61.141052686
 20
97.5987503992
 30
0.0
 10
61.116824944
 20
97.6127379762
 30
0.0
 10
61.071150693
 20
97.6399535217
 30
0.0
 10
61.0078865377
 20
97.6805099443
 30
0.0
 10
60.9539919483
 20
97.7183472622
 30
0.0
 10
60.9104183123
 20
97.7523580958
 30
0.0
 10
60.8771098626
 20
97.7833808543
 30
0.0
 10
60.8525629298
 20
97.8109675136
 30
0.0
 10
60.840155158
 20
97.838811057
 30
0.0
 10
60.8466402384
 20
97.8497890789
 30
0.0
  0
SPLINE
  5
2E0
100
AcDbEntity
  8
0
100
AcDbSpline
 62
7
  6
BYLAYER
 70
0
 71
3
 72
14
 73
10
 74
0
 42
0.0000001
 43
0.0000001
 44
0.0000000001
 40
0.0
 40
0.0
 40
0.0
 40
0.0
 40
0.3690206082
 40
0.522201796
 40
0.6541511784
 40
0.7655025708
 40
0.8577422965
 40
0.9339801479
 40
1.0
 40
1.0
 40
1.0
 40
1.0
 10
58.8423721459
 20
99.1100489941
 30
0.0
 10
58.734615763
 20
99.1371029546
 30
0.0
 10
58.5804636089
 20
99.1700439532
 30
0.0
 10
58.3845533434
 20
99.1917126496
 30
0.0
 10
58.2650375106
 20
99.1947349669
 30
0.0
 10
58.1641130317
 20
99.1858801005
 30
0.0
 10
58.0819491513
 20
99.1650884637
 30
0.0
 10
58.0185578879
 20
99.1320125133
 30
0.0
 10
57.9887667631
 20
99.0995024931
 30
0.0
 10
57.9788249039
 20
99.0822909907
 30
0.0
  0
SPLINE
  5
2E1
100
AcDbEntity
  8
0
100
AcDbSpline
 62
7
  6
BYLAYER
 70
0
 71
3
 72
17
 73
13
 74
0
 42
0.0000001
 43
0.0000001
 44
0.0000000001
 40
0.0
 40
0.0
 40
0.0
 40
0.0
 40
0.2071677129
 40
0.3933509977
 40
0.5556929236
 40
0.6924498119
 40
0.8027038844
 40
0.8870137087
 40
0.9204718083
 40
0.9492921809
 40
0.9750638085
 40
1.0
 40
1.0
 40
1.0
 40
1.0
 10
13.5691856124
 20
11.1491066119
 30
0.0
 10
13.6773057052
 20
11.0866848594
 30
0.0
 10
13.8841698481
 20
10.9708568705
 30
0.0
 10
14.1817457563
 20
10.81707176
 30
0.0
 10
14.4472424847
 20
10.6942295258
 30
0.0
 10
14.6772868518
 20
10.6043140382
 30
0.0
 10
14.8693013489
 20
10.5489296548
 30
0.0
 10
15.0067788656
 20
10.5303848406
 30
0.0
 10
15.0951596476
 20
10.5385872034
 30
0.0
 10
15.1463955519
 20
10.5541804865
 30
0.0
 10
15.1874173322
 20
10.580313272
 30
0.0
 10
15.2069308932
 20
10.6046338255
 30
0.0
 10
15.2144487966
 20
10.6176454092
 30
0.0
  0
SPLINE
  5
2E2
100
AcDbEntity
  8
0
100
AcDbSpline
 62
7
  6
BYLAYER
 70
0
 71
3
 72
9
 73
5
 74
0
 42
0.0000001
 43
0.0000001
 44
0.0000000001
 40
0.0
 40
0.0
 40
0.0
 40
0.0
 40
0.4961238373
 40
1.0
 40
1.0
 40
1.0
 40
1.0
 10
13.3639374656
 20
13.9258614496
 30
0.0
 10
13.3749427787
 20
13.8400658177
 30
0.0
 10
13.3615366396
 20
13.6613649268
 30
0.0
 10
13.2905400006
 20
13.4994785957
 30
0.0
 10
13.2466187006
 20
13.4233958898
 30
0.0
  0
SPLINE
  5
2E3
100
AcDbEntity
  8
0
100
AcDbSpline
 62
7
  6
BYLAYER
 70
0
 71
3
 72
15
 73
11
 74
0
 42
0.0000001
 43
0.0000001
 44
0.0000000001
 40
0.0
 40
0.0
 40
0.0
 40
0.0
 40
0.1032439818
 40
0.2141005483
 40
0.332288252
 40
0.4571203852
 40
0.5876068544
 40
0.7225266974
 40
0.8604869932
 40
1.0
 40
1.0
 40
1.0
 40
1.0
 10
13.3586654269
 20
13.9476721251
 30
0.0
 10
12.9313559402
 20
15.6355998961
 30
0.0
 10
12.3111419062
 20
19.2063962932
 30
0.0
 10
12.0557702592
 20
24.8164105373
 30
0.0
 10
12.4423916235
 20
30.7828652598
 30
0.0
 10
13.4639505212
 20
37.0076458839
 30
0.0
 10
15.1029046777
 20
43.3897546717
 30
0.0
 10
17.3322768328
 20
49.8244233293
 30
0.0
 10
20.1149189279
 20
56.2053794054
 30
0.0
 10
22.3048513879
 20
60.3466513298
 30
0.0
 10
23.4812670556
 20
62.3842743481
 30
0.0
  0
SPLINE
  5
2E4
100
AcDbEntity
  8
0
100
AcDbSpline
 62
7
  6
BYLAYER
 70
0
 71
3
 72
15
 73
11
 74
0
 42
0.0000001
 43
0.0000001
 44
0.0000000001
 40
0.0
 40
0.0
 40
0.0
 40
0.0
 40
0.1395139642
 40
0.2774749023
 40
0.4123950768
 40
0.5428815823
 40
0.6677134859
 40
0.785900739
 40
0.8967566977
 40
1.0
 40
1.0
 40
1.0
 40
1.0
 10
23.4812670556
 20
62.3842743481
 30
0.0
 10
24.6576814101
 20
64.4218950921
 30
0.0
 10
27.1491371276
 20
68.3890715166
 30
0.0
 10
31.2838472515
 20
73.9893886073
 30
0.0
 10
35.7417036207
 20
79.1374049204
 30
0.0
 10
40.449246421
 20
83.7478132821
 30
0.0
 10
45.3292331737
 20
87.7448669424
 30
0.0
 10
50.3029694642
 20
91.0628755116
 30
0.0
 10
55.2890143685
 20
93.64667209
 30
0.0
 10
58.6914840131
 20
94.894907189
 30
0.0
 10
60.3669072261
 20
95.3687872745
 30
0.0
  0
SPLINE
  5
2E5
100
AcDbEntity
  8
0
100
AcDbSpline
 62
7
  6
BYLAYER
 70
0
 71
3
 72
14
 73
10
 74
0
 42
0.0000001
 43
0.0000001
 44
0.0000000001
 40
0.0
 40
0.0
 40
0.0
 40
0.0
 40
0.2693503571
 40
0.400981726
 40
0.5289669716
 40
0.6526883858
 40
0.7720173566
 40
0.887414299
 40
1.0
 40
1.0
 40
1.0
 40
1.0
 10
67.3785369321
 20
74.3597838308
 30
0.0
 10
67.5191582886
 20
74.603348517
 30
0.0
 10
67.6778721486
 20
74.9994223768
 30
0.0
 10
67.7632286884
 20
75.546710565
 30
0.0
 10
67.7620111325
 20
75.9488611556
 30
0.0
 10
67.6954994214
 20
76.3324935314
 30
0.0
 10
67.5654309143
 20
76.6858322491
 30
0.0
 10
67.3754185941
 20
76.9974612742
 30
0.0
 10
67.2106549263
 20
77.1722093197
 30
0.0
 10
67.121219913
 20
77.2485050864
 30
0.0
  0
SPLINE
  5
2E6
100
AcDbEntity
  8
0
100
AcDbSpline
 62
7
  6
BYLAYER
 70
0
 71
3
 72
17
 73
13
 74
0
 42
0.0000001
 43
0.0000001
 44
0.0000000001
 40
0.0
 40
0.0
 40
0.0
 40
0.0
 40
0.0266499909
 40
0.0547975668
 40
0.0860532915
 40
0.1216014332
 40
0.2083466142
 40
0.3185608486
 40
0.4533237479
 40
0.6125241598
 40
0.7953611937
 40
1.0
 40
1.0
 40
1.0
 40
1.0
 10
57.9788249039
 20
99.0822909907
 30
0.0
 10
57.9722398087
 20
99.0708907706
 30
0.0
 10
57.9620092765
 20
99.0453729396
 30
0.0
 10
57.9574272365
 20
99.0026757057
 30
0.0
 10
57.9631411974
 20
98.9557893372
 30
0.0
 10
57.9857667059
 20
98.8830641751
 30
0.0
 10
58.0430560912
 20
98.7822684105
 30
0.0
 10
58.1461201221
 20
98.6544497021
 30
0.0
 10
58.2882343331
 20
98.5137077269
 30
0.0
 10
58.4686010886
 20
98.361941174
 30
0.0
 10
58.6859664512
 20
98.2014243142
 30
0.0
 10
58.845579353
 20
98.0956204437
 30
0.0
 10
58.9309732989
 20
98.041510408
 30
0.0
  0
SPLINE
  5
2E7
100
AcDbEntity
  8
0
100
AcDbSpline
 62
7
  6
BYLAYER
 70
0
 71
3
 72
15
 73
11
 74
0
 42
0.0000001
 43
0.0000001
 44
0.0000000001
 40
0.0
 40
0.0
 40
0.0
 40
0.0
 40
0.2367912544
 40
0.4859089038
 40
0.6145155932
 40
0.7447039177
 40
0.8099120462
 40
0.8746468308
 40
0.9380915037
 40
1.0
 40
1.0
 40
1.0
 40
1.0
 10
13.2466187006
 20
13.4233958898
 30
0.0
 10
13.206104031
 20
13.3532143223
 30
0.0
 10
13.1080035266
 20
13.2176592786
 30
0.0
 10
12.9592404892
 20
13.0679934766
 30
0.0
 10
12.8244131091
 20
12.9581176636
 30
0.0
 10
12.7325313486
 20
12.8955666801
 30
0.0
 10
12.6542095471
 20
12.8531317066
 30
0.0
 10
12.593162701
 20
12.8270039383
 30
0.0
 10
12.5290323491
 20
12.8132465537
 30
0.0
 10
12.4843527191
 20
12.8213958542
 30
0.0
 10
12.4660043451
 20
12.8319890533
 30
0.0
  0
SPLINE
  5
2E8
100
AcDbEntity
  8
0
100
AcDbSpline
 62
7
  6
BYLAYER
 70
0
 71
3
 72
14
 73
10
 74
0
 42
0.0000001
 43
0.0000001
 44
0.0000000001
 40
0.0
 40
0.0
 40
0.0
 40
0.0
 40
0.1125855251
 40
0.2279825581
 40
0.3473117749
 40
0.4710334597
 40
0.5990188902
 40
0.7306502896
 40
1.0
 40
1.0
 40
1.0
 40
1.0
 10
32.4282980571
 20
17.158273355
 30
0.0
 10
32.5390907928
 20
17.1189700077
 30
0.0
 10
32.772811075
 20
17.0636582575
 30
0.0
 10
33.1376982462
 20
17.0549226694
 30
0.0
 10
33.5087347485
 20
17.1189544585
 30
0.0
 10
33.8742273992
 20
17.2531745216
 30
0.0
 10
34.2231097148
 20
17.4531994403
 30
0.0
 10
34.6543969136
 20
17.8007688298
 30
0.0
 10
34.9180496557
 20
18.1362585259
 30
0.0
 10
35.0586714934
 20
18.3798240455
 30
0.0
  0
SPLINE
  5
2E9
100
AcDbEntity
  8
0
100
AcDbSpline
 62
7
  6
BYLAYER
 70
0
 71
3
 72
9
 73
5
 74
0
 42
0.0000001
 43
0.0000001
 44
0.0000000001
 40
0.0
 40
0.0
 40
0.0
 40
0.0
 40
0.2522765256
 40
1.0
 40
1.0
 40
1.0
 40
1.0
 10
11.6678268441
 20
12.0098384357
 30
0.0
 10
11.8044765059
 20
11.8723686348
 30
0.0
 10
12.3580046193
 20
11.3393934484
 30
0.0
 10
12.9593256842
 20
10.8558860579
 30
0.0
 10
13.4310039196
 20
10.5279053424
 30
0.0
  0
SPLINE
  5
2EA
100
AcDbEntity
  8
0
100
AcDbSpline
 62
7
  6
BYLAYER
 70
0
 71
3
 72
9
 73
5
 74
0
 42
0.0000001
 43
0.0000001
 44
0.0000000001
 40
0.0
 40
0.0
 40
0.0
 40
0.0
 40
0.2483128038
 40
1.0
 40
1.0
 40
1.0
 40
1.0
 10
63.3645698883
 20
97.0158587086
 30
0.0
 10
63.1919249125
 20
97.0970574892
 30
0.0
 10
62.4892091761
 20
97.4080471872
 30
0.0
 10
61.7579393056
 20
97.6540693487
 30
0.0
 10
61.1996323302
 20
97.8018925429
 30
0.0
  0
SPLINE
  5
2EB
100
AcDbEntity
  8
0
100
AcDbSpline
 62
7
  6
BYLAYER
 70
0
 71
3
 72
12
 73
8
 74
0
 42
0.0000001
 43
0.0000001
 44
0.0000000001
 40
0.0
 40
0.0
 40
0.0
 40
0.0
 40
0.1227234074
 40
0.2121834207
 40
0.3239509675
 40
0.6166909534
 40
1.0
 40
1.0
 40
1.0
 40
1.0
 10
60.8466402384
 20
97.8497890789
 30
0.0
 10
60.8506712871
 20
97.8566128867
 30
0.0
 10
60.8646791078
 20
97.8631554596
 30
0.0
 10
60.8850632204
 20
97.8660341105
 30
0.0
 10
60.9171881499
 20
97.8665148741
 30
0.0
 10
60.9677161203
 20
97.8599291941
 30
0.0
 10
61.0104032276
 20
97.8505305146
 30
0.0
 10
61.0344122939
 20
97.8445026551
 30
0.0
  0
SPLINE
  5
2EC
100
AcDbEntity
  8
0
100
AcDbSpline
 62
7
  6
BYLAYER
 70
0
 71
3
 72
12
 73
8
 74
0
 42
0.0000001
 43
0.0000001
 44
0.0000000001
 40
0.0
 40
0.0
 40
0.0
 40
0.0
 40
0.2833944044
 40
0.5516870389
 40
0.6763282237
 40
0.7929809759
 40
1.0
 40
1.0
 40
1.0
 40
1.0
 10
58.7662759064
 20
84.1586640932
 30
0.0
 10
58.6363469697
 20
83.9336193241
 30
0.0
 10
58.3474229045
 20
83.5152245768
 30
0.0
 10
57.9110462763
 20
83.0692997086
 30
0.0
 10
57.5357056504
 20
82.7891508891
 30
0.0
 10
57.1801311213
 20
82.582537071
 30
0.0
 10
56.893964957
 20
82.4823762879
 30
0.0
 10
56.7060347179
 20
82.4556125472
 30
0.0
  0
SPLINE
  5
2ED
100
AcDbEntity
  8
0
100
AcDbSpline
 62
7
  6
BYLAYER
 70
0
 71
3
 72
12
 73
8
 74
0
 42
0.0000001
 43
0.0000001
 44
0.0000000001
 40
0.0
 40
0.0
 40
0.0
 40
0.0
 40
0.2833944044
 40
0.5516870389
 40
0.6763282237
 40
0.7929809759
 40
1.0
 40
1.0
 40
1.0
 40
1.0
 10
22.2664278708
 20
20.9387218852
 30
0.0
 10
22.136498934
 20
20.7136771161
 30
0.0
 10
21.8475748688
 20
20.2952823687
 30
0.0
 10
21.4111982406
 20
19.8493575005
 30
0.0
 10
21.0358576147
 20
19.5692086811
 30
0.0
 10
20.6802830856
 20
19.362594863
 30
0.0
 10
20.3941169213
 20
19.2624340798
 30
0.0
 10
20.2061866823
 20
19.2356703392
 30
0.0
  0
SPLINE
  5
2EE
100
AcDbEntity
  8
0
100
AcDbSpline
 62
7
  6
BYLAYER
 70
0
 71
3
 72
14
 73
10
 74
0
 42
0.0000001
 43
0.0000001
 44
0.0000000001
 40
0.0
 40
0.0
 40
0.0
 40
0.0
 40
0.2717666177
 40
0.4039569228
 40
0.5318157202
 40
0.6547697771
 40
0.7730204786
 40
0.8875451028
 40
1.0
 40
1.0
 40
1.0
 40
1.0
 10
30.85170385
 20
23.4875530973
 30
0.0
 10
31.0294173025
 20
23.795363535
 30
0.0
 10
31.3696184806
 20
24.21568009
 30
0.0
 10
31.9304639445
 20
24.6313047188
 30
0.0
 10
32.3818784019
 20
24.8552687086
 30
0.0
 10
32.8503471984
 20
24.9840788425
 30
0.0
 10
33.3184472851
 20
25.0121858169
 30
0.0
 10
33.767663303
 20
24.9375807364
 30
0.0
 10
34.0439105464
 20
24.819971661
 30
0.0
 10
34.1712770544
 20
24.7464299623
 30
0.0
  0
SPLINE
  5
2EF
100
AcDbEntity
  8
0
100
AcDbSpline
 62
7
  6
BYLAYER
 70
0
 71
3
 72
14
 73
10
 74
0
 42
0.0000001
 43
0.0000001
 44
0.0000000001
 40
0.0
 40
0.0
 40
0.0
 40
0.0
 40
0.1124515764
 40
0.2269727494
 40
0.3452213655
 40
0.468176736
 40
0.5960387109
 40
0.7282325796
 40
1.0
 40
1.0
 40
1.0
 40
1.0
 10
38.4212099328
 20
32.1077183378
 30
0.0
 10
38.317006724
 20
32.1678854972
 30
0.0
 10
38.1206695725
 20
32.3154964124
 30
0.0
 10
37.8840556182
 20
32.6032684017
 30
0.0
 10
37.7124847901
 20
32.946433622
 30
0.0
 10
37.6121058936
 20
33.3310610999
 30
0.0
 10
37.5861255534
 20
33.7425379421
 30
0.0
 10
37.651188506
 20
34.3099556471
 30
0.0
 10
37.8098319968
 20
34.7229527128
 30
0.0
 10
37.9552306096
 20
34.9747918955
 30
0.0
  0
SPLINE
  5
2F0
100
AcDbEntity
  8
0
100
AcDbSpline
 62
7
  6
BYLAYER
 70
0
 71
3
 72
14
 73
10
 74
0
 42
0.0000001
 43
0.0000001
 44
0.0000000001
 40
0.0
 40
0.0
 40
0.0
 40
0.0
 40
0.2717666177
 40
0.4039569228
 40
0.5318157202
 40
0.6547697771
 40
0.7730204786
 40
0.8875451028
 40
1.0
 40
1.0
 40
1.0
 40
1.0
 10
60.8515789478
 20
75.4491494327
 30
0.0
 10
61.0292924004
 20
75.7569598703
 30
0.0
 10
61.3694935784
 20
76.1772764254
 30
0.0
 10
61.9303390423
 20
76.5929010542
 30
0.0
 10
62.3817534997
 20
76.816865044
 30
0.0
 10
62.8502222962
 20
76.9456751779
 30
0.0
 10
63.3183223829
 20
76.9737821523
 30
0.0
 10
63.7675384008
 20
76.8991770718
 30
0.0
 10
64.0437856442
 20
76.7815679964
 30
0.0
 10
64.1711521522
 20
76.7080262977
 30
0.0
  0
SPLINE
  5
2F1
100
AcDbEntity
  8
0
100
AcDbSpline
 62
7
  6
BYLAYER
 70
0
 71
3
 72
12
 73
8
 74
0
 42
0.0000001
 43
0.0000001
 44
0.0000000001
 40
0.0
 40
0.0
 40
0.0
 40
0.0
 40
0.2069728935
 40
0.3236168716
 40
0.4482570003
 40
0.7165733053
 40
1.0
 40
1.0
 40
1.0
 40
1.0
 10
59.2105470298
 20
86.7956693726
 30
0.0
 10
59.2815186119
 20
86.619555422
 30
0.0
 10
59.3380683141
 20
86.3215708552
 30
0.0
 10
59.3370876879
 20
85.9101789909
 30
0.0
 10
59.2822638266
 20
85.4447909849
 30
0.0
 10
59.114264728
 20
84.8435417369
 30
0.0
 10
58.8962829007
 20
84.3838440627
 30
0.0
 10
58.7662759064
 20
84.1586640932
 30
0.0
  0
SPLINE
  5
2F2
100
AcDbEntity
  8
0
100
AcDbSpline
 62
7
  6
BYLAYER
 70
0
 71
3
 72
12
 73
8
 74
0
 42
0.0000001
 43
0.0000001
 44
0.0000000001
 40
0.0
 40
0.0
 40
0.0
 40
0.0
 40
0.2069728935
 40
0.3236168716
 40
0.4482570003
 40
0.7165733053
 40
1.0
 40
1.0
 40
1.0
 40
1.0
 10
22.7106989942
 20
23.5757271646
 30
0.0
 10
22.7816705762
 20
23.399613214
 30
0.0
 10
22.8382202784
 20
23.1016286471
 30
0.0
 10
22.8372396523
 20
22.6902367829
 30
0.0
 10
22.782415791
 20
22.2248487768
 30
0.0
 10
22.6144166923
 20
21.6235995288
 30
0.0
 10
22.3964348651
 20
21.1639018546
 30
0.0
 10
22.2664278708
 20
20.9387218852
 30
0.0
  0
SPLINE
  5
2F3
100
AcDbEntity
  8
0
100
AcDbSpline
 62
7
  6
BYLAYER
 70
0
 71
3
 72
17
 73
13
 74
0
 42
0.0000001
 43
0.0000001
 44
0.0000000001
 40
0.0
 40
0.0
 40
0.0
 40
0.0
 40
0.2046411348
 40
0.3874753486
 40
0.5466712667
 40
0.681430023
 40
0.7916447562
 40
0.8783895525
 40
0.9139388788
 40
0.9451972793
 40
0.9733474934
 40
1.0
 40
1.0
 40
1.0
 40
1.0
 10
10.3260216403
 20
13.8547980101
 30
0.0
 10
10.2364603708
 20
13.9016955634
 30
0.0
 10
10.0650205168
 20
13.9870201412
 30
0.0
 10
9.8173205136
 20
14.0949979283
 30
0.0
 10
9.5957024161
 20
14.1753095227
 30
0.0
 10
9.402756699
 20
14.2280014731
 30
0.0
 10
9.2405286739
 20
14.2533419163
 30
0.0
 10
9.1245894076
 20
14.25255036
 30
0.0
 10
9.0502933592
 20
14.2357751229
 30
0.0
 10
9.006828567
 20
14.217277863
 30
0.0
 10
8.9721387268
 20
14.191958072
 30
0.0
 10
8.955155643
 20
14.1703347906
 30
0.0
 10
8.9485749661
 20
14.1589303267
 30
0.0
  0
SPLINE
  5
2F4
100
AcDbEntity
  8
0
100
AcDbSpline
 62
7
  6
BYLAYER
 70
0
 71
3
 72
14
 73
10
 74
0
 42
0.0000001
 43
0.0000001
 44
0.0000000001
 40
0.0
 40
0.0
 40
0.0
 40
0.0
 40
0.1124515764
 40
0.2269727494
 40
0.3452213655
 40
0.468176736
 40
0.5960387109
 40
0.7282325796
 40
1.0
 40
1.0
 40
1.0
 40
1.0
 10
31.421234134
 20
19.9833520823
 30
0.0
 10
31.2938746565
 20
20.0568897216
 30
0.0
 10
31.0539070269
 20
20.2373030624
 30
0.0
 10
30.7647121939
 20
20.5890243827
 30
0.0
 10
30.5550145151
 20
21.0084485408
 30
0.0
 10
30.4323291972
 20
21.4785487915
 30
0.0
 10
30.400575448
 20
21.981464932
 30
0.0
 10
30.4800968345
 20
22.6749754604
 30
0.0
 10
30.6739944344
 20
23.1797496518
 30
0.0
 10
30.85170385
 20
23.4875530973
 30
0.0
  0
SPLINE
  5
2F5
100
AcDbEntity
  8
0
100
AcDbSpline
 62
7
  6
BYLAYER
 70
0
 71
3
 72
12
 73
8
 74
0
 42
0.0000001
 43
0.0000001
 44
0.0000000001
 40
0.0
 40
0.0
 40
0.0
 40
0.0
 40
0.3832884896
 40
0.6760173072
 40
0.7877894446
 40
0.8772583506
 40
1.0
 40
1.0
 40
1.0
 40
1.0
 10
11.5483266641
 20
12.1316122738
 30
0.0
 10
11.5311026607
 20
12.1493907722
 30
0.0
 10
11.5016210885
 20
12.1816599719
 30
0.0
 10
11.470656396
 20
12.2221273622
 30
0.0
 10
11.4550107926
 20
12.2501902662
 30
0.0
 10
11.4473112003
 20
12.2692853963
 30
0.0
 10
11.4459719689
 20
12.2846896778
 30
0.0
 10
11.4498658039
 20
12.2915943277
 30
0.0
  0
SPLINE
  5
2F6
100
AcDbEntity
  8
0
100
AcDbSpline
 62
7
  6
BYLAYER
 70
0
 71
3
 72
10
 73
6
 74
0
 42
0.0000001
 43
0.0000001
 44
0.0000000001
 40
0.0
 40
0.0
 40
0.0
 40
0.0
 40
0.2644803445
 40
0.5144879494
 40
1.0
 40
1.0
 40
1.0
 40
1.0
 10
58.9310396826
 20
98.0414606667
 30
0.0
 10
58.9317985153
 20
98.0055790055
 30
0.0
 10
58.9437594658
 20
97.9355364704
 30
0.0
 10
59.0033900496
 20
97.8122029797
 30
0.0
 10
59.0811008604
 20
97.7421540488
 30
0.0
 10
59.1381579137
 20
97.7092128889
 30
0.0
  0
SPLINE
  5
2F7
100
AcDbEntity
  8
0
100
AcDbSpline
 62
7
  6
BYLAYER
 70
0
 71
3
 72
11
 73
7
 74
0
 42
0.0000001
 43
0.0000001
 44
0.0000000001
 40
0.0
 40
0.0
 40
0.0
 40
0.0
 40
0.2195450644
 40
0.4606532914
 40
0.7228854881
 40
1.0
 40
1.0
 40
1.0
 40
1.0
 10
62.5867929061
 20
94.1059307951
 30
0.0
 10
62.6997285643
 20
94.1509674426
 30
0.0
 10
62.922849482
 20
94.2810268218
 30
0.0
 10
63.2212345821
 20
94.5503372436
 30
0.0
 10
63.4994349194
 20
94.88241103
 30
0.0
 10
63.667822831
 20
95.1296363308
 30
0.0
 10
63.749053657
 20
95.2598419302
 30
0.0
  0
SPLINE
  5
2F8
100
AcDbEntity
  8
0
100
AcDbSpline
 62
7
  6
BYLAYER
 70
0
 71
3
 72
15
 73
11
 74
0
 42
0.0000001
 43
0.0000001
 44
0.0000000001
 40
0.0
 40
0.0
 40
0.0
 40
0.0
 40
0.0619088695
 40
0.1253583752
 40
0.1900936313
 40
0.2553015234
 40
0.3854904117
 40
0.5140960891
 40
0.7632119261
 40
1.0
 40
1.0
 40
1.0
 40
1.0
 10
60.8867670556
 20
96.6996757689
 30
0.0
 10
60.9051152903
 20
96.6890826503
 30
0.0
 10
60.9345075458
 20
96.6544587213
 30
0.0
 10
60.9546734898
 20
96.5920463329
 30
0.0
 10
60.9625623043
 20
96.5261114838
 30
0.0
 10
60.9649772631
 20
96.4370669205
 30
0.0
 10
60.9567418364
 20
96.3262212427
 30
0.0
 10
60.9290065196
 20
96.1545218627
 30
0.0
 10
60.8737718407
 20
95.9508620381
 30
0.0
 10
60.8054355877
 20
95.7981277524
 30
0.0
 10
60.7649132191
 20
95.7279531611
 30
0.0
  0
SPLINE
  5
2F9
100
AcDbEntity
  8
0
100
AcDbSpline
 62
7
  6
BYLAYER
 70
0
 71
3
 72
11
 73
7
 74
0
 42
0.0000001
 43
0.0000001
 44
0.0000000001
 40
0.0
 40
0.0
 40
0.0
 40
0.0
 40
0.2771131646
 40
0.5393451264
 40
0.7804539199
 40
1.0
 40
1.0
 40
1.0
 40
1.0
 10
15.1441121231
 20
11.07314635
 30
0.0
 10
15.2162577433
 20
11.2085980509
 30
0.0
 10
15.3461667156
 20
11.4780412367
 30
0.0
 10
15.4946506088
 20
11.8850104465
 30
0.0
 10
15.5786880606
 20
12.2780791836
 30
0.0
 10
15.57976318
 20
12.5363403938
 30
0.0
 10
15.5622987941
 20
12.6566656579
 30
0.0
  0
SPLINE
  5
2FA
100
AcDbEntity
  8
0
100
AcDbSpline
 62
7
  6
BYLAYER
 70
0
 71
3
 72
10
 73
6
 74
0
 42
0.0000001
 43
0.0000001
 44
0.0000000001
 40
0.0
 40
0.0
 40
0.0
 40
0.0
 40
0.4855099534
 40
0.7355185907
 40
1.0
 40
1.0
 40
1.0
 40
1.0
 10
10.7173952032
 20
13.8415261733
 30
0.0
 10
10.6603380573
 20
13.8744673866
 30
0.0
 10
10.5608174114
 20
13.9067405347
 30
0.0
 10
10.4241916082
 20
13.896712903
 30
0.0
 10
10.3575521476
 20
13.8720492122
 30
0.0
 10
10.3260981469
 20
13.8547650875
 30
0.0
  0
SPLINE
  5
2FB
100
AcDbEntity
  8
0
100
AcDbSpline
 62
7
  6
BYLAYER
 70
0
 71
3
 72
14
 73
10
 74
0
 42
0.0000001
 43
0.0000001
 44
0.0000000001
 40
0.0
 40
0.0
 40
0.0
 40
0.0
 40
0.1124515764
 40
0.2269727494
 40
0.3452213655
 40
0.468176736
 40
0.5960387109
 40
0.7282325796
 40
1.0
 40
1.0
 40
1.0
 40
1.0
 10
61.4211092318
 20
71.9449484177
 30
0.0
 10
61.2937497543
 20
72.018486057
 30
0.0
 10
61.0537821247
 20
72.1988993978
 30
0.0
 10
60.7645872917
 20
72.550620718
 30
0.0
 10
60.5548896129
 20
72.9700448762
 30
0.0
 10
60.432204295
 20
73.4401451269
 30
0.0
 10
60.4004505458
 20
73.9430612674
 30
0.0
 10
60.4799719323
 20
74.6365717958
 30
0.0
 10
60.6738695322
 20
75.1413459871
 30
0.0
 10
60.8515789478
 20
75.4491494327
 30
0.0
  0
ELLIPSE
  5
2FC
100
AcDbEntity
  8
0
100
AcDbEllipse
 62
7
  6
BYLAYER
 10
-329.6575352455
 20
260.0038024791
 30
0.0
 11
367.8885864866
 21
-194.4665267682
 31
0.0
 40
0.0357008594
 41
0.0942138366
 42
0.1506391502
  0
ELLIPSE
  5
2FD
100
AcDbEntity
  8
0
100
AcDbEllipse
 62
7
  6
BYLAYER
 10
-329.6575352455
 20
260.0038024791
 30
0.0
 11
367.8885864866
 21
-194.4665267682
 31
0.0
 40
0.0357008594
 41
-0.195489847
 42
-0.1390645334
  0
ENDSEC
  0
SECTION
  2
OBJECTS
  0
DICTIONARY
  5
C
100
AcDbDictionary
280
0
281
1
  3
ACAD_GROUP
350
D
  3
ACAD_MLINESTYLE
350
17
  3
ACAD_LAYOUT
350
1A
  3
ACAD_PLOTSETTINGS
350
19
  3
ACAD_PLOTSTYLENAME
350
E
  0
DICTIONARY
  5
D
102
{ACAD_REACTORS
330
C
102
}
100
AcDbDictionary
280
0
281
1
  0
ACDBDICTIONARYWDFLT
  5
E
102
{ACAD_REACTORS
330
C
102
}
100
AcDbDictionary
281
1
  3
Normal
350
F
100
AcDbDictionaryWithDefault
340
F
  0
DICTIONARY
  5
17
102
{ACAD_REACTORS
330
C
102
}
100
AcDbDictionary
280
0
281
1
  3
Standard
350
18
  0
DICTIONARY
  5
19
102
{ACAD_REACTORS
330
C
102
}
100
AcDbDictionary
281
1
  0
DICTIONARY
  5
1A
102
{ACAD_REACTORS
330
C
102
}
100
AcDbDictionary
281
1
  3
Model
350
2FE
  3
Layout1
350
2FF
  0
ACDBPLACEHOLDER
  5
F
102
{ACAD_REACTORS
330
E
102
}
  0
MLINESTYLE
  5
18
102
{ACAD_REACTORS
330
17
102
}
100
AcDbMlineStyle
  2
STANDARD
 70
0
  3

 62
256
 51
90.0
 52
90.0
 71
2
 49
0.5
 62
256
  6
BYLAYER
 49
-0.5
 62
256
  6
BYLAYER
  0
LAYOUT
  5
2FE
102
{ACAD_REACTORS
330
1A
102
}
100
AcDbPlotSettings
  1

  2
none_device
  4

  6

 40
0.0
 41
0.0
 42
0.0
 43
0.0
 44
210.0
 45
297.0
 46
0.0
 47
0.0
 48
0.0
 49
0.0
140
0.0
141
0.0
142
1.0
143
1.0
 70
1024
 72
1
 73
0
 74
0
  7

 75
0
147
1.0
148
0.0
149
0.0
100
AcDbLayout
  1
Model
 70
0
 71
0
 10
0.0
 20
0.0
 11
210.0
 21
297.0
 12
0.0
 22
0.0
 32
0.0
 14
0.0
 24
0.0
 34
0.0
 15
0.0
 25
0.0
 35
0.0
146
0.0
 13
0.0
 23
0.0
 33
0.0
 16
1.0
 26
0.0
 36
0.0
 17
0.0
 27
1.0
 37
0.0
 76
0
330
210
345
0
346
0
  0
LAYOUT
  5
2FF
102
{ACAD_REACTORS
330
1A
102
}
100
AcDbPlotSettings
  1

  2
none_device
  4

  6

 40
0.0
 41
0.0
 42
0.0
 43
0.0
 44
210.0
 45
297.0
 46
0.0
 47
0.0
 48
0.0
 49
0.0
140
0.0
141
0.0
142
1.0
143
1.0
 70
0
 72
1
 73
0
 74
0
  7

 75
0
147
1.0
148
0.0
149
0.0
100
AcDbLayout
  1
Layout1
 70
0
 71
1
 10
0.0
 20
0.0
 11
210.0
 21
297.0
 12
0.0
 22
0.0
 32
0.0
 14
0.0
 24
0.0
 34
0.0
 15
0.0
 25
0.0
 35
0.0
146
0.0
 13
0.0
 23
0.0
 33
0.0
 16
1.0
 26
0.0
 36
0.0
 17
0.0
 27
1.0
 37
0.0
 76
0
330
211
345
0
346
0
  0
ENDSEC
  0
EOF
