999
DXF file: C:\Users\sesa63760\Dev\_Creo\CAD\MCADID0004792_3D-CAD\drw0001_1.dxf
999
Pro/ENGINEER 2019471 by Parametric Technology Corporation
  0
SECTION
  2
HEADER
  9
$ACADVER
  1
AC1024
  9
$DWGCODEPAGE
  3
ANSI_1252
  9
$EXTMAX
 10
79.1360964454
 20
111.9210506871
 30
0.0
  9
$EXTMIN
 10
0.0
 20
0.0
 30
0.0
  9
$LIMMIN
 10
0.0
 20
0.0
  9
$LIMMAX
 10
79.1360964454
 20
111.9210506871
  9
$VIEWCTR
 10
39.5680482227
 20
55.9605253435
  9
$VIEWSIZE
 40
111.9210506871
  9
$CLAYER
  8
0
  9
$LTSCALE
 40
7.2955944152
  9
$CELTYPE
  6
BYLAYER
  9
$DIMSCALE
 40
1.0
  9
$DIMASZ
 40
0.9420963863
  9
$DIMEXO
 40
1.0
  9
$DIMDLI
 40
5.040592505
  9
$DIMEXE
 40
1.0
  9
$DIMCEN
 40
1.1938245407
  9
$DIMLFAC
 40
1.0
  9
$DIMBLK
  1
_FILLED
  9
$DIMALT
 70
0
  9
$DIMALTF
 40
0.0393700787
  9
$DIMTXT
 40
1.3189349408
  9
$DIMTOL
 70
1
  9
$DIMLIM
 70
0
  9
$DIMTFAC
 40
1.0
  9
$DIMTP
 40
0.01
  9
$DIMTM
 40
0.01
  9
$DIMGAP
 40
0.625
  9
$DIMDSEP
 70
46
  9
$AUNITS
 70
0
  9
$PDMODE
 70
3
  9
$PDSIZE
 40
0.3125
  9
$HANDSEED
  5
32F
  9
$TILEMODE
 70
1
  9
$MEASUREMENT
 70
1
  9
$INSUNITS
 70
4
  0
ENDSEC
  0
SECTION
  2
CLASSES
  0
CLASS
  1
ACDBDICTIONARYWDFLT
  2
AcDbDictionaryWithDefault
  3
AutoCAD 2000
 90
0
 91
1
280
0
281
0
  0
CLASS
  1
ACDBPLACEHOLDER
  2
AcDbPlaceHolder
  3
AutoCAD 2000
 90
0
 91
1
280
0
281
0
  0
CLASS
  1
LAYOUT
  2
AcDbLayout
  3
AutoCAD 2000
 90
0
 91
0
280
0
281
0
  0
ENDSEC
  0
SECTION
  2
TABLES
  0
TABLE
  2
VPORT
  5
8
100
AcDbSymbolTable
 70
2
  0
VPORT
  5
1F4
100
AcDbSymbolTableRecord
100
AcDbViewportTableRecord
  2
*ACTIVE
 70
0
 10
0.0
 20
0.0
 11
1.0
 21
1.0
 12
39.5680482227
 22
55.9605253435
 13
0.0
 23
0.0
 14
1.0
 24
1.0
 15
0.0
 25
0.0
 16
0.0
 26
0.0
 36
1.0
 17
0.0
 27
0.0
 37
0.0
 40
111.9210506871
 41
0.7070707071
 42
50.0
 43
0.0
 44
0.0
 50
0.0
 51
0.0
 71
0
 72
100
 73
1
 74
1
 75
0
 76
0
 77
0
 78
0
  0
ENDTAB
  0
TABLE
  2
LTYPE
  5
5
100
AcDbSymbolTable
 70
6
  0
LTYPE
  5
14
100
AcDbSymbolTableRecord
100
AcDbLinetypeTableRecord
  2
BYBLOCK
 70
0
  3

 72
65
 73
0
 40
0.0
  0
LTYPE
  5
15
100
AcDbSymbolTableRecord
100
AcDbLinetypeTableRecord
  2
BYLAYER
 70
0
  3

 72
65
 73
0
 40
0.0
  0
LTYPE
  5
16
100
AcDbSymbolTableRecord
100
AcDbLinetypeTableRecord
  2
CONTINUOUS
 70
64
  3
Solid line
 72
65
 73
0
 40
0.0
  0
LTYPE
  5
1F5
100
AcDbSymbolTableRecord
100
AcDbLinetypeTableRecord
  2
CENTER
 70
64
  3
____ _ ____ _ ____ _ ____ _ ____ _ ____ _ ____
 72
65
 73
4
 40
0.6
 49
0.375
 74
0
 49
-0.075
 74
0
 49
0.075
 74
0
 49
-0.075
 74
0
  0
LTYPE
  5
1F6
100
AcDbSymbolTableRecord
100
AcDbLinetypeTableRecord
  2
HIDDEN
 70
64
  3
- - - - - - - - - - - - - - - - - - - -
 72
65
 73
2
 40
0.2
 49
0.1
 74
0
 49
-0.1
 74
0
  0
LTYPE
  5
1F7
100
AcDbSymbolTableRecord
100
AcDbLinetypeTableRecord
  2
PHANTOM
 70
64
  3
_____ _ _ _____ _ _ _____ _ _ _____
 72
65
 73
6
 40
0.8
 49
0.45
 74
0
 49
-0.05
 74
0
 49
0.1
 74
0
 49
-0.05
 74
0
 49
0.1
 74
0
 49
-0.05
 74
0
  0
LTYPE
  5
1F8
100
AcDbSymbolTableRecord
100
AcDbLinetypeTableRecord
  2
DOT
 70
64
  3
. . . . . . . . . . . . . . . . . . . .
 72
65
 73
2
 40
0.2
 49
0.1
 74
0
 49
-0.1
 74
0
  0
LTYPE
  5
1F9
100
AcDbSymbolTableRecord
100
AcDbLinetypeTableRecord
  2
DASHED
 70
64
  3
- - - - - - - - - - - - - - - - - - - -
 72
65
 73
2
 40
0.2
 49
0.1
 74
0
 49
-0.1
 74
0
  0
ENDTAB
  0
TABLE
  2
LAYER
  5
2
100
AcDbSymbolTable
 70
36
  0
LAYER
  5
10
100
AcDbSymbolTableRecord
100
AcDbLayerTableRecord
  2
0
 70
0
 62
7
  6
CONTINUOUS
370
-3
390
F
  0
LAYER
  5
1FA
100
AcDbSymbolTableRecord
100
AcDbLayerTableRecord
  2
DEFAULT_1
 70
0
 62
7
  6
CENTER
370
-3
390
F
  0
LAYER
  5
1FB
100
AcDbSymbolTableRecord
100
AcDbLayerTableRecord
  2
DEFAULT_2
 70
0
 62
7
  6
HIDDEN
370
-3
390
F
  0
LAYER
  5
1FC
100
AcDbSymbolTableRecord
100
AcDbLayerTableRecord
  2
DEFAULT_3
 70
0
 62
7
  6
PHANTOM
370
-3
390
F
  0
LAYER
  5
1FD
100
AcDbSymbolTableRecord
100
AcDbLayerTableRecord
  2
00_COMPONENTS
 70
0
 62
7
  6
CONTINUOUS
370
-3
390
F
  0
LAYER
  5
1FE
100
AcDbSymbolTableRecord
100
AcDbLayerTableRecord
  2
01_1_DEFAULT_DATUMS
 70
0
 62
7
  6
CONTINUOUS
370
-3
390
F
  0
LAYER
  5
1FF
100
AcDbSymbolTableRecord
100
AcDbLayerTableRecord
  2
01_PLANES
 70
0
 62
7
  6
CONTINUOUS
370
-3
390
F
  0
LAYER
  5
200
100
AcDbSymbolTableRecord
100
AcDbLayerTableRecord
  2
02_COORD_SYS
 70
0
 62
7
  6
CONTINUOUS
370
-3
390
F
  0
LAYER
  5
201
100
AcDbSymbolTableRecord
100
AcDbLayerTableRecord
  2
03_AXES
 70
0
 62
7
  6
CONTINUOUS
370
-3
390
F
  0
LAYER
  5
202
100
AcDbSymbolTableRecord
100
AcDbLayerTableRecord
  2
04_POINTS
 70
0
 62
7
  6
CONTINUOUS
370
-3
390
F
  0
LAYER
  5
203
100
AcDbSymbolTableRecord
100
AcDbLayerTableRecord
  2
05_CURVES
 70
0
 62
7
  6
CONTINUOUS
370
-3
390
F
  0
LAYER
  5
204
100
AcDbSymbolTableRecord
100
AcDbLayerTableRecord
  2
06_SURFS
 70
0
 62
7
  6
CONTINUOUS
370
-3
390
F
  0
LAYER
  5
205
100
AcDbSymbolTableRecord
100
AcDbLayerTableRecord
  2
07_COSMETICS
 70
0
 62
7
  6
CONTINUOUS
370
-3
390
F
  0
LAYER
  5
206
100
AcDbSymbolTableRecord
100
AcDbLayerTableRecord
  2
10_NOTES
 70
0
 62
7
  6
CONTINUOUS
370
-3
390
F
  0
LAYER
  5
207
100
AcDbSymbolTableRecord
100
AcDbLayerTableRecord
  2
11_NOTES_PUB
 70
0
 62
7
  6
CONTINUOUS
370
-3
390
F
  0
LAYER
  5
208
100
AcDbSymbolTableRecord
100
AcDbLayerTableRecord
  2
13_REF_GTOL
 70
0
 62
7
  6
CONTINUOUS
370
-3
390
F
  0
LAYER
  5
209
100
AcDbSymbolTableRecord
100
AcDbLayerTableRecord
  2
16_MISC
 70
0
 62
7
  6
CONTINUOUS
370
-3
390
F
  0
LAYER
  5
20A
100
AcDbSymbolTableRecord
100
AcDbLayerTableRecord
  2
17_NO_PRINT
 70
0
 62
7
  6
CONTINUOUS
370
-3
390
F
  0
LAYER
  5
20B
100
AcDbSymbolTableRecord
100
AcDbLayerTableRecord
  2
18_DATUM_CAMS_JOINTS
 70
0
 62
7
  6
CONTINUOUS
370
-3
390
F
  0
LAYER
  5
20C
100
AcDbSymbolTableRecord
100
AcDbLayerTableRecord
  2
19_DATUM_FUNCTIONAL
 70
0
 62
7
  6
CONTINUOUS
370
-3
390
F
  0
LAYER
  5
20D
100
AcDbSymbolTableRecord
100
AcDbLayerTableRecord
  2
20_DATUM_KINEMATIC_SCHEME
 70
0
 62
7
  6
CONTINUOUS
370
-3
390
F
  0
ENDTAB
  0
TABLE
  2
STYLE
  5
3
100
AcDbSymbolTable
 70
1
  0
STYLE
  5
11
100
AcDbSymbolTableRecord
100
AcDbTextStyleTableRecord
  2
STANDARD
 70
0
 40
0.0
 41
1.0
 50
0.0
 71
0
 42
0.2
  3
ARIAL.TTF
  4

  0
STYLE
  5
20E
100
AcDbSymbolTableRecord
100
AcDbTextStyleTableRecord
  2
TEXTSTYLE_1
 70
0
 40
0.0
 41
0.8
 50
0.0
 71
0
 42
0.2
  3
gdt
  4

  0
ENDTAB
  0
TABLE
  2
VIEW
  5
6
100
AcDbSymbolTable
 70
0
  0
ENDTAB
  0
TABLE
  2
UCS
  5
7
100
AcDbSymbolTable
 70
0
  0
ENDTAB
  0
TABLE
  2
APPID
  5
9
100
AcDbSymbolTable
 70
1
  0
APPID
  5
20F
100
AcDbSymbolTableRecord
100
AcDbRegAppTableRecord
  2
ACAD
 70
0
  0
ENDTAB
  0
TABLE
  2
BLOCK_RECORD
  5
1
100
AcDbSymbolTable
 70
0
  0
BLOCK_RECORD
  5
210
100
AcDbSymbolTableRecord
100
AcDbBlockTableRecord
  2
*Model_Space
  0
BLOCK_RECORD
  5
211
100
AcDbSymbolTableRecord
100
AcDbBlockTableRecord
  2
*Paper_Space
  0
BLOCK_RECORD
  5
212
100
AcDbSymbolTableRecord
100
AcDbBlockTableRecord
  2
_FILLED
  0
ENDTAB
  0
TABLE
  2
DIMSTYLE
  5
A
100
AcDbSymbolTable
 70
1
100
AcDbDimStyleTable
 71
0
  0
DIMSTYLE
105
213
100
AcDbSymbolTableRecord
100
AcDbDimStyleTableRecord
  2
STANDARD
 70
0
  3

  4

 40
1.0
 41
0.9420963863
 42
1.0
 43
0.38
 44
1.0
 45
0.0
 46
0.0
 47
0.01
 48
0.01
140
1.3189349408
141
0.09
142
0.0
143
25.4
144
1.0
145
0.0
146
1.0
147
0.625
 71
1
 72
0
 73
0
 74
0
 75
0
 76
0
 77
1
 78
8
 79
2
170
0
171
1
172
0
173
0
174
0
175
0
176
0
177
0
178
0
270
2
179
2
271
2
272
2
273
2
274
2
275
0
280
0
281
0
282
0
283
1
284
8
285
0
286
0
287
3
288
0
340
11
278
46
341
212
342
212
343
212
344
212
  0
ENDTAB
  0
ENDSEC
  0
SECTION
  2
BLOCKS
  0
BLOCK
  5
20
100
AcDbEntity
  8
0
100
AcDbBlockBegin
  2
*Model_Space
 70
0
 10
0.0
 20
0.0
 30
0.0
  3
*Model_Space
  1

  0
ENDBLK
  5
21
100
AcDbEntity
  8
0
100
AcDbBlockEnd
  0
BLOCK
  5
1C
100
AcDbEntity
  8
0
100
AcDbBlockBegin
  2
*Paper_Space
 70
0
 10
0.0
 20
0.0
 30
0.0
  3
*Paper_Space
  1

  0
ENDBLK
  5
1D
100
AcDbEntity
  8
0
100
AcDbBlockEnd
  0
BLOCK
  5
214
100
AcDbEntity
  8
0
100
AcDbBlockBegin
  2
_FILLED
 70
64
 10
0.0
 20
0.0
  3
_FILLED
  1

  0
SOLID
  5
215
100
AcDbEntity
  8
0
  6
BYBLOCK
 62
0
100
AcDbTrace
 10
0.0
 20
0.0
 11
-1.0
 21
0.25
 12
-1.0
 22
-0.25
 13
-1.0
 23
-0.25
  0
ENDBLK
  5
216
100
AcDbEntity
  8
0
  6
BYBLOCK
 62
0
100
AcDbBlockEnd
  0
ENDSEC
  0
SECTION
  2
ENTITIES
  0
LINE
  5
217
100
AcDbEntity
  8
0
100
AcDbLine
 62
7
  6
BYLAYER
 10
18.4037667863
 20
18.1501887033
 11
21.0377505125
 21
16.6294918927
  0
LINE
  5
218
100
AcDbEntity
  8
0
100
AcDbLine
 62
7
  6
BYLAYER
 10
29.9119775631
 20
11.5060704235
 11
32.5459612893
 21
9.9853736129
  0
LINE
  5
219
100
AcDbEntity
  8
0
100
AcDbLine
 62
7
  6
BYLAYER
 10
18.5451492822
 20
90.0839364347
 11
24.2019799799
 21
93.3498896657
  0
LINE
  5
21A
100
AcDbEntity
  8
0
100
AcDbLine
 62
7
  6
BYLAYER
 10
36.2227452126
 20
100.2900402815
 11
41.8795759103
 21
103.5559935125
  0
LINE
  5
21B
100
AcDbEntity
  8
0
100
AcDbLine
 62
7
  6
BYLAYER
 10
27.6962033969
 20
14.9081942168
 11
29.9119775631
 21
13.628945346
  0
LINE
  5
21C
100
AcDbEntity
  8
0
100
AcDbLine
 62
7
  6
BYLAYER
 10
32.5459612893
 20
12.2715803809
 11
29.9119775631
 21
13.7922771915
  0
LINE
  5
21D
100
AcDbEntity
  8
0
100
AcDbLine
 62
7
  6
BYLAYER
 10
21.0377505125
 20
18.9156986607
 11
18.4037667863
 21
20.4363954713
  0
LINE
  5
21E
100
AcDbEntity
  8
0
100
AcDbLine
 62
7
  6
BYLAYER
 10
19.8179774047
 20
21.3345427751
 11
21.9393065802
 21
20.1098205116
  0
LINE
  5
21F
100
AcDbEntity
  8
0
100
AcDbLine
 62
7
  6
BYLAYER
 10
31.1317330071
 20
14.8026907028
 11
33.2530621825
 21
13.5779684392
  0
LINE
  5
220
100
AcDbEntity
  8
0
100
AcDbLine
 62
7
  6
BYLAYER
 10
36.2227452126
 20
99.0652372731
 11
25.2627056638
 21
92.7374932608
  0
LINE
  5
221
100
AcDbEntity
  8
0
100
AcDbLine
 62
7
  6
BYLAYER
 10
18.5451492822
 20
88.8591334263
 11
16.0702652442
 21
87.4302669899
  0
LINE
  5
222
100
AcDbEntity
  8
0
100
AcDbLine
 62
7
  6
BYLAYER
 10
34.1015850208
 20
13.8229054461
 11
34.0358902014
 21
13.8608335097
  0
LINE
  5
223
100
AcDbEntity
  8
0
100
AcDbLine
 62
7
  6
BYLAYER
 10
34.6672680906
 20
14.1495007692
 11
35.2329558707
 21
13.8229081656
  0
LINE
  5
224
100
AcDbEntity
  8
0
100
AcDbLine
 62
7
  6
BYLAYER
 10
16.0702652442
 20
24.9678320795
 11
19.4644225422
 21
23.0082587813
  0
LINE
  5
225
100
AcDbEntity
  8
0
100
AcDbLine
 62
7
  6
BYLAYER
 10
37.2835569986
 20
12.7206094439
 11
44.3546542501
 21
8.6382018987
  0
LINE
  5
226
100
AcDbEntity
  8
0
100
AcDbLine
 62
7
  6
BYLAYER
 10
17.7319730983
 20
83.2130403074
 11
17.7809831288
 21
83.2425150529
  0
LINE
  5
227
100
AcDbEntity
  8
0
100
AcDbLine
 62
7
  6
BYLAYER
 10
47.5364537115
 20
100.2900674763
 11
43.956619786
 21
98.223261733
  0
LINE
  5
228
100
AcDbEntity
  8
0
100
AcDbLine
 62
7
  6
BYLAYER
 10
24.2020270834
 20
86.8180103986
 11
27.7818610088
 21
88.8848161419
  0
LWPOLYLINE
  5
229
100
AcDbEntity
  8
0
100
AcDbPolyline
 62
7
  6
BYLAYER
 90
5
 70
0
 10
34.849055249
 20
91.3146911569
 10
32.6500380581
 20
90.5550671927
 10
30.9930891207
 20
89.5953712484
 10
28.6036147897
 20
87.2761209811
 10
27.7818610088
 20
85.0149139376
  0
LINE
  5
22A
100
AcDbEntity
  8
0
100
AcDbLine
 62
7
  6
BYLAYER
 10
23.1413624957
 20
83.3478594447
 11
18.4037667863
 21
80.6126236137
  0
LINE
  5
22B
100
AcDbEntity
  8
0
100
AcDbLine
 62
7
  6
BYLAYER
 10
18.4037667863
 20
79.5020886549
 11
17.7319730983
 21
79.1142307035
  0
LINE
  5
22C
100
AcDbEntity
  8
0
100
AcDbLine
 62
7
  6
BYLAYER
 10
47.5364537115
 20
96.2075553907
 11
43.956619786
 21
94.1407496473
  0
LINE
  5
22D
100
AcDbEntity
  8
0
100
AcDbLine
 62
7
  6
BYLAYER
 10
27.7818610088
 20
84.8023040562
 11
24.2020270834
 21
82.7354983129
  0
LINE
  5
22E
100
AcDbEntity
  8
0
100
AcDbLine
 62
7
  6
BYLAYER
 10
14.0196641163
 20
76.0400787295
 11
16.0702652442
 21
77.2239867758
  0
LINE
  5
22F
100
AcDbEntity
  8
0
100
AcDbLine
 62
7
  6
BYLAYER
 10
22.0984003804
 20
80.5207779424
 11
20.3306407874
 21
79.5001675577
  0
LINE
  5
230
100
AcDbEntity
  8
0
100
AcDbLine
 62
7
  6
BYLAYER
 10
12.7039932361
 20
74.5630424624
 11
13.7646489919
 21
75.1754086932
  0
LINE
  5
231
100
AcDbEntity
  8
0
100
AcDbLine
 62
7
  6
BYLAYER
 10
13.4539898784
 20
74.4887560439
 11
14.5146456342
 21
75.1011222747
  0
LINE
  5
232
100
AcDbEntity
  8
0
100
AcDbLine
 62
7
  6
BYLAYER
 10
21.6893076994
 20
78.9227566844
 11
22.712101571
 21
79.5132634767
  0
LINE
  5
233
100
AcDbEntity
  8
0
100
AcDbLine
 62
7
  6
BYLAYER
 10
21.9393065802
 20
78.8979945449
 11
22.8585470007
 21
79.4287150812
  0
LINE
  5
234
100
AcDbEntity
  8
0
100
AcDbLine
 62
7
  6
BYLAYER
 10
39.6170497088
 20
20.1917321044
 11
37.1421656708
 21
21.6205747452
  0
LINE
  5
235
100
AcDbEntity
  8
0
100
AcDbLine
 62
7
  6
BYLAYER
 10
13.4539898784
 20
35.2966400216
 11
15.9288739164
 21
33.8677973808
  0
LINE
  5
236
100
AcDbEntity
  8
0
100
AcDbLine
 62
7
  6
BYLAYER
 10
42.3040531222
 20
20.5183325265
 11
41.6055811341
 21
20.921586394
  0
LINE
  5
237
100
AcDbEntity
  8
0
100
AcDbLine
 62
7
  6
BYLAYER
 10
12.3933252907
 20
73.8763635499
 11
12.3933252907
 21
37.1337547791
  0
LINE
  5
238
100
AcDbEntity
  8
0
100
AcDbLine
 62
7
  6
BYLAYER
 10
14.0196641163
 20
75.2335550041
 11
14.0196641163
 21
76.0400787295
  0
LINE
  5
239
100
AcDbEntity
  8
0
100
AcDbLine
 62
7
  6
BYLAYER
 10
35.5605555976
 20
82.7081289333
 11
33.8494424694
 21
81.7186353692
  0
LINE
  5
23A
100
AcDbEntity
  8
0
100
AcDbLine
 62
7
  6
BYLAYER
 10
18.7573888547
 20
74.6929475162
 11
17.555212742
 21
73.9988749569
  0
LINE
  5
23B
100
AcDbEntity
  8
0
100
AcDbLine
 62
7
  6
BYLAYER
 10
17.0056336896
 20
73.6629821854
 11
15.9449779338
 21
73.0506159546
  0
LINE
  5
23C
100
AcDbEntity
  8
0
100
AcDbLine
 62
7
  6
BYLAYER
 10
21.5857517176
 20
74.5092849457
 11
20.3306407874
 21
73.7846506378
  0
LINE
  5
23D
100
AcDbEntity
  8
0
100
AcDbLine
 62
7
  6
BYLAYER
 10
16.0702652442
 20
87.4302669899
 11
16.0702652442
 21
77.2239867758
  0
LINE
  5
23E
100
AcDbEntity
  8
0
100
AcDbLine
 62
7
  6
BYLAYER
 10
16.0702652442
 20
24.9678320795
 11
16.0702652442
 21
33.7536543291
  0
LINE
  5
23F
100
AcDbEntity
  8
0
100
AcDbLine
 62
7
  6
BYLAYER
 10
17.7319730983
 20
79.1142307035
 11
17.7319730983
 21
83.2130403074
  0
LINE
  5
240
100
AcDbEntity
  8
0
100
AcDbLine
 62
7
  6
BYLAYER
 10
18.4037667863
 20
80.6126236137
 11
18.4037667863
 21
74.8971066938
  0
LINE
  5
241
100
AcDbEntity
  8
0
100
AcDbLine
 62
7
  6
BYLAYER
 10
18.4037667863
 20
20.4363954713
 11
18.4037667863
 21
18.1501887033
  0
LINE
  5
242
100
AcDbEntity
  8
0
100
AcDbLine
 62
7
  6
BYLAYER
 10
18.5451492822
 20
86.0014243491
 11
18.5451492822
 21
90.0839364347
  0
LINE
  5
243
100
AcDbEntity
  8
0
100
AcDbLine
 62
7
  6
BYLAYER
 10
22.8450037771
 20
73.8587990096
 11
24.6488163859
 21
75.1754891596
  0
LINE
  5
244
100
AcDbEntity
  8
0
100
AcDbLine
 62
7
  6
BYLAYER
 10
21.5857547724
 20
74.2847453701
 11
21.232196855
 21
74.0806198298
  0
LINE
  5
245
100
AcDbEntity
  8
0
100
AcDbLine
 62
7
  6
BYLAYER
 10
59.5573190389
 20
93.3499746495
 11
55.9774851135
 21
91.2831689062
  0
LINE
  5
246
100
AcDbEntity
  8
0
100
AcDbLine
 62
7
  6
BYLAYER
 10
36.2228924109
 20
79.8779175717
 11
39.8027263363
 21
81.944723315
  0
LINE
  5
247
100
AcDbEntity
  8
0
100
AcDbLine
 62
7
  6
BYLAYER
 10
19.4644225422
 20
27.7440815226
 11
19.4644225422
 21
21.9469143609
  0
LINE
  5
248
100
AcDbEntity
  8
0
100
AcDbLine
 62
7
  6
BYLAYER
 10
20.3306407874
 20
73.7846506378
 11
20.3306407874
 21
79.5001675577
  0
LINE
  5
249
100
AcDbEntity
  8
0
100
AcDbLine
 62
7
  6
BYLAYER
 10
21.0377505125
 20
16.6294918927
 11
21.0377505125
 21
18.9156986607
  0
LINE
  5
24A
100
AcDbEntity
  8
0
100
AcDbLine
 62
7
  6
BYLAYER
 10
21.5857517176
 20
78.6938637136
 11
21.5857517176
 21
74.2847506611
  0
LINE
  5
24B
100
AcDbEntity
  8
0
100
AcDbLine
 62
7
  6
BYLAYER
 10
22.0984003804
 20
80.5207779424
 11
22.0984003804
 21
79.8675760087
  0
LINE
  5
24C
100
AcDbEntity
  8
0
100
AcDbLine
 62
7
  6
BYLAYER
 10
22.2928614427
 20
18.7558839052
 11
22.2928614427
 21
19.4974489257
  0
LINE
  5
24D
100
AcDbEntity
  8
0
100
AcDbLine
 62
7
  6
BYLAYER
 10
32.3868468813
 20
74.5808749641
 11
30.6190872883
 21
73.5602645794
  0
LINE
  5
24E
100
AcDbEntity
  8
0
100
AcDbLine
 62
7
  6
BYLAYER
 10
32.5459612893
 20
72.4478085233
 11
37.2835569986
 21
75.1830443543
  0
LINE
  5
24F
100
AcDbEntity
  8
0
100
AcDbLine
 62
7
  6
BYLAYER
 10
22.451952299
 20
79.6634573311
 11
22.451952299
 21
79.363067121
  0
LINE
  5
250
100
AcDbEntity
  8
0
100
AcDbLine
 62
7
  6
BYLAYER
 10
24.2020270834
 20
86.8180103986
 11
24.2020270834
 21
82.7354983129
  0
LINE
  5
251
100
AcDbEntity
  8
0
100
AcDbLine
 62
7
  6
BYLAYER
 10
65.2141968401
 20
90.0840486133
 11
59.5573661424
 21
86.8180953823
  0
LINE
  5
252
100
AcDbEntity
  8
0
100
AcDbLine
 62
7
  6
BYLAYER
 10
47.5366009098
 20
79.8779447665
 11
41.8797702121
 21
76.6119915355
  0
LINE
  5
253
100
AcDbEntity
  8
0
100
AcDbLine
 62
7
  6
BYLAYER
 10
26.1597833244
 20
68.1173981464
 11
28.2019814198
 21
69.0211900573
  0
LINE
  5
254
100
AcDbEntity
  8
0
100
AcDbLine
 62
7
  6
BYLAYER
 10
27.781843714
 20
91.2831011322
 11
27.7818610088
 21
84.8023040562
  0
LINE
  5
255
100
AcDbEntity
  8
0
100
AcDbLine
 62
7
  6
BYLAYER
 10
33.6051530435
 20
66.5661143859
 11
34.6657940736
 21
67.1786749181
  0
LINE
  5
256
100
AcDbEntity
  8
0
100
AcDbLine
 62
7
  6
BYLAYER
 10
65.2141968401
 20
86.0015365277
 11
59.5573661424
 21
82.7355832967
  0
LINE
  5
257
100
AcDbEntity
  8
0
100
AcDbLine
 62
7
  6
BYLAYER
 10
47.5366009098
 20
75.7954326809
 11
41.8797702121
 21
72.5294794499
  0
LINE
  5
258
100
AcDbEntity
  8
0
100
AcDbLine
 62
7
  6
BYLAYER
 10
32.5459612893
 20
66.7322916034
 11
35.2329558707
 21
68.2836193881
  0
LINE
  5
259
100
AcDbEntity
  8
0
100
AcDbLine
 62
7
  6
BYLAYER
 10
37.2835569986
 20
69.0592762258
 11
35.2329558707
 21
67.8753681796
  0
LINE
  5
25A
100
AcDbEntity
  8
0
100
AcDbLine
 62
7
  6
BYLAYER
 10
67.6890808781
 20
84.5726938868
 11
44.3546542501
 21
71.1006368091
  0
LINE
  5
25B
100
AcDbEntity
  8
0
100
AcDbLine
 62
7
  6
BYLAYER
 10
29.8796730612
 20
85.5115789881
 11
29.8796730612
 21
84.2868253624
  0
LINE
  5
25C
100
AcDbEntity
  8
0
100
AcDbLine
 62
7
  6
BYLAYER
 10
29.9119775631
 20
13.7922771915
 11
29.9119775631
 21
11.5060704235
  0
LINE
  5
25D
100
AcDbEntity
  8
0
100
AcDbLine
 62
7
  6
BYLAYER
 10
30.6190872883
 20
73.5602645794
 11
30.6190872883
 21
67.8447476595
  0
LINE
  5
25E
100
AcDbEntity
  8
0
100
AcDbLine
 62
7
  6
BYLAYER
 10
30.7781781445
 20
14.2923753451
 11
30.7781781445
 21
14.5985598715
  0
LINE
  5
25F
100
AcDbEntity
  8
0
100
AcDbLine
 62
7
  6
BYLAYER
 10
32.5459612893
 20
9.9853736129
 11
32.5459612893
 21
12.2715803809
  0
LINE
  5
260
100
AcDbEntity
  8
0
100
AcDbLine
 62
7
  6
BYLAYER
 10
32.5459612893
 20
66.7322916034
 11
32.5459612893
 21
72.4478085233
  0
LINE
  5
261
100
AcDbEntity
  8
0
100
AcDbLine
 62
7
  6
BYLAYER
 10
33.6066170451
 20
13.7820992705
 11
33.6066170451
 21
19.5792664322
  0
LINE
  5
262
100
AcDbEntity
  8
0
100
AcDbLine
 62
7
  6
BYLAYER
 10
34.1015850208
 20
13.898762205
 11
34.1015850208
 21
13.8229054461
  0
LINE
  5
263
100
AcDbEntity
  8
0
100
AcDbLine
 62
7
  6
BYLAYER
 10
34.6672680906
 20
14.1495007692
 11
34.6672728009
 21
20.191632663
  0
LINE
  5
264
100
AcDbEntity
  8
0
100
AcDbLine
 62
7
  6
BYLAYER
 10
35.2329558707
 20
20.5182279861
 11
35.2329558707
 21
13.8229081656
  0
LINE
  5
265
100
AcDbEntity
  8
0
100
AcDbLine
 62
7
  6
BYLAYER
 10
35.2329558707
 20
67.8753681796
 11
35.2329558707
 21
68.2836193881
  0
LINE
  5
266
100
AcDbEntity
  8
0
100
AcDbLine
 62
7
  6
BYLAYER
 10
36.2227452126
 20
96.2075281959
 11
36.2227452126
 21
100.2900402815
  0
LINE
  5
267
100
AcDbEntity
  8
0
100
AcDbLine
 62
7
  6
BYLAYER
 10
36.2228924109
 20
79.8779175717
 11
36.2228924109
 21
75.7954054861
  0
LINE
  5
268
100
AcDbEntity
  8
0
100
AcDbLine
 62
7
  6
BYLAYER
 10
37.1260616535
 20
60.8219882159
 11
38.1867174093
 21
61.4343544467
  0
LINE
  5
269
100
AcDbEntity
  8
0
100
AcDbLine
 62
7
  6
BYLAYER
 10
38.7685044964
 20
61.7516523213
 11
40.8191056243
 21
62.9355603676
  0
LINE
  5
26A
100
AcDbEntity
  8
0
100
AcDbLine
 62
7
  6
BYLAYER
 10
37.2835569986
 20
75.1830443543
 11
37.2835569986
 21
69.0592762258
  0
LINE
  5
26B
100
AcDbEntity
  8
0
100
AcDbLine
 62
7
  6
BYLAYER
 10
37.2835569986
 20
21.5389442708
 11
37.2835569986
 21
12.7206094439
  0
LINE
  5
26C
100
AcDbEntity
  8
0
100
AcDbLine
 62
7
  6
BYLAYER
 10
38.9452648527
 20
17.8768630401
 11
38.9452648527
 21
20.5795784977
  0
LINE
  5
26D
100
AcDbEntity
  8
0
100
AcDbLine
 62
7
  6
BYLAYER
 10
39.8026089466
 20
98.223251748
 11
39.8026089466
 21
94.1407396623
  0
LINE
  5
26E
100
AcDbEntity
  8
0
100
AcDbLine
 62
7
  6
BYLAYER
 10
40.6777054647
 20
59.9962143574
 11
39.6170497088
 21
59.3838481266
  0
LINE
  5
26F
100
AcDbEntity
  8
0
100
AcDbLine
 62
7
  6
BYLAYER
 10
42.3040531222
 20
59.7104485487
 11
44.3546542501
 21
60.894356595
  0
LINE
  5
270
100
AcDbEntity
  8
0
100
AcDbLine
 62
7
  6
BYLAYER
 10
41.4022664137
 20
59.1897935702
 11
41.738365342
 21
59.3838392186
  0
LINE
  5
271
100
AcDbEntity
  8
0
100
AcDbLine
 62
7
  6
BYLAYER
 10
40.6777142966
 20
57.5467333691
 11
41.7383700524
 21
58.1590995999
  0
LINE
  5
272
100
AcDbEntity
  8
0
100
AcDbLine
 62
7
  6
BYLAYER
 10
40.6777142966
 20
20.8041245983
 11
40.6777142966
 21
57.5467333691
  0
LINE
  5
273
100
AcDbEntity
  8
0
100
AcDbLine
 62
7
  6
BYLAYER
 10
41.7383700524
 20
21.4164908291
 11
41.738365342
 21
59.3838392186
  0
LINE
  5
274
100
AcDbEntity
  8
0
100
AcDbLine
 62
7
  6
BYLAYER
 10
41.8797702121
 20
72.5294794499
 11
41.8797702121
 21
76.6119915355
  0
LINE
  5
275
100
AcDbEntity
  8
0
100
AcDbLine
 62
7
  6
BYLAYER
 10
42.3040531222
 20
20.5183325265
 11
42.3040531222
 21
59.7104485487
  0
LINE
  5
276
100
AcDbEntity
  8
0
100
AcDbLine
 62
7
  6
BYLAYER
 10
42.692946396
 20
19.811996645
 11
42.692946396
 21
15.7131870411
  0
LINE
  5
277
100
AcDbEntity
  8
0
100
AcDbLine
 62
7
  6
BYLAYER
 10
43.956619786
 20
94.1407496473
 11
43.956619786
 21
98.223261733
  0
LINE
  5
278
100
AcDbEntity
  8
0
100
AcDbLine
 62
7
  6
BYLAYER
 10
39.6170497088
 20
59.3838481266
 11
37.1260616535
 21
60.8219882159
  0
LINE
  5
279
100
AcDbEntity
  8
0
100
AcDbLine
 62
7
  6
BYLAYER
 10
13.4539898784
 20
74.4887560439
 11
15.9449779338
 21
73.0506159546
  0
LINE
  5
27A
100
AcDbEntity
  8
0
100
AcDbLine
 62
7
  6
BYLAYER
 10
41.738365342
 20
59.3838392186
 11
38.1867174093
 21
61.4343544467
  0
LINE
  5
27B
100
AcDbEntity
  8
0
100
AcDbLine
 62
7
  6
BYLAYER
 10
14.5146456342
 20
75.1011222747
 11
17.0056336896
 21
73.6629821854
  0
LINE
  5
27C
100
AcDbEntity
  8
0
100
AcDbLine
 62
7
  6
BYLAYER
 10
44.3546542501
 20
71.1006368091
 11
44.3546542501
 21
60.894356595
  0
LINE
  5
27D
100
AcDbEntity
  8
0
100
AcDbLine
 62
7
  6
BYLAYER
 10
44.3546542501
 20
8.6382018987
 11
44.3546542501
 21
21.7022405727
  0
LINE
  5
27E
100
AcDbEntity
  8
0
100
AcDbLine
 62
7
  6
BYLAYER
 10
47.5364537115
 20
96.2075553907
 11
47.5364537115
 21
100.2900674763
  0
LINE
  5
27F
100
AcDbEntity
  8
0
100
AcDbLine
 62
7
  6
BYLAYER
 10
47.5366009098
 20
75.7954326809
 11
47.5366009098
 21
79.8779447665
  0
LWPOLYLINE
  5
280
100
AcDbEntity
  8
0
100
AcDbPolyline
 62
7
  6
BYLAYER
 90
5
 70
0
 10
52.87924563
 20
86.0014803826
 10
52.5039132968
 20
84.3557737445
 10
50.8835284401
 20
82.353231711
 10
48.1843215669
 20
80.7973539215
 10
46.656418537
 20
80.3861068002
  0
LWPOLYLINE
  5
281
100
AcDbEntity
  8
0
100
AcDbPolyline
 62
7
  6
BYLAYER
 90
4
 70
0
 10
53.8791231187
 20
84.2868252978
 10
53.467901977
 20
82.4875304106
 10
51.6993112681
 20
80.3046568283
 10
50.2669502543
 20
79.4794044238
  0
LINE
  5
282
100
AcDbEntity
  8
0
100
AcDbLine
 62
7
  6
BYLAYER
 10
14.0196641163
 20
76.0400787295
 11
17.555212742
 21
73.9988749569
  0
LINE
  5
283
100
AcDbEntity
  8
0
100
AcDbLine
 62
7
  6
BYLAYER
 10
38.7685044964
 20
61.7516523213
 11
42.3040531222
 21
59.7104485487
  0
LINE
  5
284
100
AcDbEntity
  8
0
100
AcDbLine
 62
7
  6
BYLAYER
 10
18.4037667863
 20
74.8971066938
 11
20.3306407874
 21
73.7846506378
  0
LINE
  5
285
100
AcDbEntity
  8
0
100
AcDbLine
 62
7
  6
BYLAYER
 10
30.6190872883
 20
67.8447476595
 11
32.5459612893
 21
66.7322916034
  0
LINE
  5
286
100
AcDbEntity
  8
0
100
AcDbLine
 62
7
  6
BYLAYER
 10
21.232196855
 20
74.0806198298
 11
21.037735571
 21
74.1928895646
  0
LINE
  5
287
100
AcDbEntity
  8
0
100
AcDbLine
 62
7
  6
BYLAYER
 10
16.0702652442
 20
77.2239867758
 11
18.4037667863
 21
75.8767695104
  0
LINE
  5
288
100
AcDbEntity
  8
0
100
AcDbLine
 62
7
  6
BYLAYER
 10
40.8191056243
 20
62.9355603676
 11
44.3546542501
 21
60.894356595
  0
LINE
  5
289
100
AcDbEntity
  8
0
100
AcDbLine
 62
7
  6
BYLAYER
 10
32.5459612893
 20
72.4478085233
 11
30.6190872883
 21
73.5602645794
  0
LINE
  5
28A
100
AcDbEntity
  8
0
100
AcDbLine
 62
7
  6
BYLAYER
 10
20.3306407874
 20
79.5001675577
 11
18.4037667863
 21
80.6126236137
  0
LINE
  5
28B
100
AcDbEntity
  8
0
100
AcDbLine
 62
7
  6
BYLAYER
 10
30.9019089053
 20
73.7235507414
 11
21.9393065802
 21
78.8979945449
  0
LINE
  5
28C
100
AcDbEntity
  8
0
100
AcDbLine
 62
7
  6
BYLAYER
 10
53.8796730612
 20
85.5115789881
 11
53.8796730612
 21
84.2868253624
  0
LINE
  5
28D
100
AcDbEntity
  8
0
100
AcDbLine
 62
7
  6
BYLAYER
 10
22.0984003804
 20
79.8675760087
 11
31.8211493258
 21
74.2542712777
  0
LINE
  5
28E
100
AcDbEntity
  8
0
100
AcDbLine
 62
7
  6
BYLAYER
 10
32.3868468813
 20
74.5808749641
 11
22.0984003804
 21
80.5207779424
  0
LINE
  5
28F
100
AcDbEntity
  8
0
100
AcDbLine
 62
7
  6
BYLAYER
 10
44.3546542501
 20
71.1006368091
 11
41.8797702121
 21
72.5294794499
  0
LINE
  5
290
100
AcDbEntity
  8
0
100
AcDbLine
 62
7
  6
BYLAYER
 10
23.1413624957
 20
83.3478594447
 11
24.2020270834
 21
82.7354983129
  0
LINE
  5
291
100
AcDbEntity
  8
0
100
AcDbLine
 62
7
  6
BYLAYER
 10
18.5451492822
 20
86.0014243491
 11
16.0702652442
 21
87.4302669899
  0
LINE
  5
292
100
AcDbEntity
  8
0
100
AcDbLine
 62
7
  6
BYLAYER
 10
36.2228924109
 20
75.7954054861
 11
37.2835569986
 21
75.1830443543
  0
LINE
  5
293
100
AcDbEntity
  8
0
100
AcDbLine
 62
7
  6
BYLAYER
 10
55.9775024083
 20
84.8023718302
 11
55.9774851135
 21
91.2831689062
  0
LINE
  5
294
100
AcDbEntity
  8
0
100
AcDbLine
 62
7
  6
BYLAYER
 10
41.8797702121
 20
76.6119915355
 11
36.2228924109
 21
79.8779175717
  0
LINE
  5
295
100
AcDbEntity
  8
0
100
AcDbLine
 62
7
  6
BYLAYER
 10
24.2020270834
 20
86.8180103986
 11
18.5451492822
 21
90.0839364347
  0
LINE
  5
296
100
AcDbEntity
  8
0
100
AcDbLine
 62
7
  6
BYLAYER
 10
59.5573661424
 20
82.7355832967
 11
59.5573661424
 21
86.8180953823
  0
LINE
  5
297
100
AcDbEntity
  8
0
100
AcDbLine
 62
7
  6
BYLAYER
 10
22.8450037771
 20
19.969639479
 11
24.6488163859
 21
21.286329629
  0
LINE
  5
298
100
AcDbEntity
  8
0
100
AcDbLine
 62
7
  6
BYLAYER
 10
18.4037667863
 20
20.4363954713
 11
19.8886957088
 21
21.2937144669
  0
LWPOLYLINE
  5
299
100
AcDbEntity
  8
0
100
AcDbPolyline
 62
7
  6
BYLAYER
 90
6
 70
0
 10
47.1393079727
 20
80.1073167616
 10
48.5768660066
 20
80.4953978703
 10
51.4295254254
 20
82.1455378356
 10
53.1347852303
 20
84.2571486976
 10
53.4896627824
 20
86.5828864149
 10
52.7234520759
 20
88.2902168294
  0
LWPOLYLINE
  5
29A
100
AcDbEntity
  8
0
100
AcDbPolyline
 62
7
  6
BYLAYER
 90
5
 70
0
 10
47.5366009098
 20
79.5063505794
 10
48.7626312228
 20
79.836424826
 10
51.7095262489
 20
81.5378053067
 10
53.4707959073
 20
83.71848154
 10
53.8796730612
 20
85.5115789881
  0
LINE
  5
29B
100
AcDbEntity
  8
0
100
AcDbLine
 62
7
  6
BYLAYER
 10
65.2141968401
 20
86.0015365277
 11
65.2141968401
 21
90.0840486133
  0
LINE
  5
29C
100
AcDbEntity
  8
0
100
AcDbLine
 62
7
  6
BYLAYER
 10
22.2624960522
 20
19.6228016069
 11
21.0377505125
 21
18.9156986607
  0
LINE
  5
29D
100
AcDbEntity
  8
0
100
AcDbLine
 62
7
  6
BYLAYER
 10
22.433082709
 20
17.4350825033
 11
21.0377505125
 21
16.6294918927
  0
LINE
  5
29E
100
AcDbEntity
  8
0
100
AcDbLine
 62
7
  6
BYLAYER
 10
47.5366009098
 20
79.8779447665
 11
43.9567371757
 21
81.9447333
  0
LINE
  5
29F
100
AcDbEntity
  8
0
100
AcDbLine
 62
7
  6
BYLAYER
 10
24.2019799799
 20
93.3498896657
 11
27.781843714
 21
91.2831011322
  0
LINE
  5
2A0
100
AcDbEntity
  8
0
100
AcDbLine
 62
7
  6
BYLAYER
 10
67.6890808781
 20
22.1102589764
 11
67.6890808781
 21
84.5726938868
  0
LINE
  5
2A1
100
AcDbEntity
  8
0
100
AcDbLine
 62
7
  6
BYLAYER
 10
33.6066170451
 20
19.5792664322
 11
34.6672728009
 21
20.191632663
  0
LINE
  5
2A2
100
AcDbEntity
  8
0
100
AcDbLine
 62
7
  6
BYLAYER
 10
35.2329558707
 20
20.5182279861
 11
37.1421962184
 21
21.620521835
  0
LWPOLYLINE
  5
2A3
100
AcDbEntity
  8
0
100
AcDbPolyline
 62
7
  6
BYLAYER
 90
5
 70
0
 10
49.6578152705
 20
82.0005409928
 10
46.5289799428
 20
83.2654629547
 10
42.8483638242
 20
83.8359408284
 10
39.0290962371
 20
83.643661867
 10
35.5605555976
 20
82.7081289333
  0
LINE
  5
2A4
100
AcDbEntity
  8
0
100
AcDbLine
 62
7
  6
BYLAYER
 10
41.7383700524
 20
21.4164908291
 11
40.6777142966
 21
20.8041245983
  0
LINE
  5
2A5
100
AcDbEntity
  8
0
100
AcDbLine
 62
7
  6
BYLAYER
 10
30.7781781445
 20
14.5985598715
 11
31.1317360618
 21
14.8026854118
  0
LINE
  5
2A6
100
AcDbEntity
  8
0
100
AcDbLine
 62
7
  6
BYLAYER
 10
40.3670463512
 20
20.1174456859
 11
41.427702107
 21
20.7298119167
  0
LINE
  5
2A7
100
AcDbEntity
  8
0
100
AcDbLine
 62
7
  6
BYLAYER
 10
31.3969064856
 20
14.6495961871
 11
29.9119775631
 21
13.7922771915
  0
LINE
  5
2A8
100
AcDbEntity
  8
0
100
AcDbLine
 62
7
  6
BYLAYER
 10
42.3040531222
 20
20.5183325265
 11
44.3546542501
 21
21.7022405727
  0
LINE
  5
2A9
100
AcDbEntity
  8
0
100
AcDbLine
 62
7
  6
BYLAYER
 10
42.5850800973
 20
19.9782988075
 11
38.9452648527
 21
17.8768630401
  0
LINE
  5
2AA
100
AcDbEntity
  8
0
100
AcDbLine
 62
7
  6
BYLAYER
 10
34.6672728009
 20
14.3944655014
 11
33.6066170451
 21
13.7820992705
  0
LINE
  5
2AB
100
AcDbEntity
  8
0
100
AcDbLine
 62
7
  6
BYLAYER
 10
26.1597833244
 20
14.2282386158
 11
28.2019814198
 21
15.1320305267
  0
LINE
  5
2AC
100
AcDbEntity
  8
0
100
AcDbLine
 62
7
  6
BYLAYER
 10
36.2227452126
 20
96.2075281959
 11
39.8026089466
 21
94.1407396623
  0
LINE
  5
2AD
100
AcDbEntity
  8
0
100
AcDbLine
 62
7
  6
BYLAYER
 10
55.9775024083
 20
84.8023718302
 11
59.5573661424
 21
82.7355832967
  0
LINE
  5
2AE
100
AcDbEntity
  8
0
100
AcDbLine
 62
7
  6
BYLAYER
 10
52.5179382508
 20
88.7481587523
 11
50.1199711533
 21
90.7589903615
  0
LINE
  5
2AF
100
AcDbEntity
  8
0
100
AcDbLine
 62
7
  6
BYLAYER
 10
42.692946396
 20
15.7131870411
 11
42.6439363655
 21
15.6837122956
  0
LINE
  5
2B0
100
AcDbEntity
  8
0
100
AcDbLine
 62
7
  6
BYLAYER
 10
33.5030610633
 20
13.5532062997
 11
34.5637168191
 21
14.1655725305
  0
LINE
  5
2B1
100
AcDbEntity
  8
0
100
AcDbLine
 62
7
  6
BYLAYER
 10
34.1015850208
 20
13.8229054461
 11
34.6672680906
 21
14.1495007692
  0
LINE
  5
2B2
100
AcDbEntity
  8
0
100
AcDbLine
 62
7
  6
BYLAYER
 10
35.2329558707
 20
13.8229081656
 11
32.5459612893
 21
12.2715803809
  0
LINE
  5
2B3
100
AcDbEntity
  8
0
100
AcDbLine
 62
7
  6
BYLAYER
 10
37.2835569986
 20
12.7206094439
 11
32.5459612893
 21
9.9853736129
  0
LINE
  5
2B4
100
AcDbEntity
  8
0
100
AcDbLine
 62
7
  6
BYLAYER
 10
59.5573661424
 20
86.8180953823
 11
55.9775024083
 21
88.8848839159
  0
LINE
  5
2B5
100
AcDbEntity
  8
0
100
AcDbLine
 62
7
  6
BYLAYER
 10
36.2227452126
 20
100.2900402815
 11
39.8026089466
 21
98.223251748
  0
LINE
  5
2B6
100
AcDbEntity
  8
0
100
AcDbLine
 62
7
  6
BYLAYER
 10
67.6890808781
 20
84.5726938868
 11
65.2141968401
 21
86.0015365277
  0
LINE
  5
2B7
100
AcDbEntity
  8
0
100
AcDbLine
 62
7
  6
BYLAYER
 10
56.021709317
 20
91.3087016095
 11
47.5364537115
 21
96.2075553907
  0
LINE
  5
2B8
100
AcDbEntity
  8
0
100
AcDbLine
 62
7
  6
BYLAYER
 10
67.6890808781
 20
22.1102589764
 11
44.3546542501
 21
8.6382018987
  0
LINE
  5
2B9
100
AcDbEntity
  8
0
100
AcDbLine
 62
7
  6
BYLAYER
 10
41.8795759103
 20
103.5559935125
 11
47.5364537115
 21
100.2900674763
  0
LINE
  5
2BA
100
AcDbEntity
  8
0
100
AcDbLine
 62
7
  6
BYLAYER
 10
59.5573190389
 20
93.3499746495
 11
65.2141968401
 21
90.0840486133
  0
ARC
  5
2BB
100
AcDbEntity
  8
0
100
AcDbCircle
 62
7
  6
BYLAYER
 10
41.8796728509
 20
106.4507092909
 40
24.5938418202
100
AcDbArc
 50
265.155609539
 51
274.8446659052
  0
ARC
  5
2BC
100
AcDbEntity
  8
0
100
AcDbCircle
 62
7
  6
BYLAYER
 10
41.8796732715
 20
73.7172757571
 40
24.5938418202
100
AcDbArc
 50
85.155609539
 51
94.8446659052
  0
ARC
  5
2BD
100
AcDbEntity
  8
0
100
AcDbCircle
 62
7
  6
BYLAYER
 10
43.7797750497
 20
75.5059863405
 40
16.7400330868
100
AcDbArc
 50
67.3763977447
 51
67.5870277344
  0
ARC
  5
2BE
100
AcDbEntity
  8
0
100
AcDbCircle
 62
7
  6
BYLAYER
 10
41.0643356553
 20
95.2261472736
 40
15.8637877465
100
AcDbArc
 50
252.4587918312
 51
253.3381081492
  0
ARC
  5
2BF
100
AcDbEntity
  8
0
100
AcDbCircle
 62
7
  6
BYLAYER
 10
44.6635777053
 20
73.3452201243
 40
9.9928468514
100
AcDbArc
 50
57.9915624716
 51
60.0144708333
  0
ARC
  5
2C0
100
AcDbEntity
  8
0
100
AcDbCircle
 62
7
  6
BYLAYER
 10
37.222930807
 20
16.7693756582
 40
6.2592821484
100
AcDbArc
 50
29.084398301
 51
36.4583421088
  0
ARC
  5
2C1
100
AcDbEntity
  8
0
100
AcDbCircle
 62
7
  6
BYLAYER
 10
35.749377368
 20
85.2535752078
 40
5.7038397795
100
AcDbArc
 50
142.2170691698
 51
147.5027852941
  0
ARC
  5
2C2
100
AcDbEntity
  8
0
100
AcDbCircle
 62
7
  6
BYLAYER
 10
48.0972896113
 20
85.3152039311
 40
5.5970753588
100
AcDbArc
 50
32.3676366468
 51
37.8319597268
  0
ARC
  5
2C3
100
AcDbEntity
  8
0
100
AcDbCircle
 62
7
  6
BYLAYER
 10
63.4533213752
 20
79.4278985342
 40
4.5186011136
100
AcDbArc
 50
356.9316948498
 51
0.0104901845
  0
ARC
  5
2C4
100
AcDbEntity
  8
0
100
AcDbCircle
 62
7
  6
BYLAYER
 10
63.4533213752
 20
30.4377535065
 40
4.5186011135
100
AcDbArc
 50
356.9316948498
 51
0.0104901845
  0
SPLINE
  5
2C5
100
AcDbEntity
  8
0
100
AcDbSpline
 62
7
  6
BYLAYER
 70
0
 71
3
 72
25
 73
21
 74
0
 42
0.0000001
 43
0.0000001
 44
0.0000000001
 40
0.0
 40
0.0
 40
0.0
 40
0.0
 40
0.0617959228
 40
0.127430251
 40
0.1962426981
 40
0.2674287833
 40
0.3400709182
 40
0.413190824
 40
0.4857881519
 40
0.5568860602
 40
0.6255714872
 40
0.691041009
 40
0.7526515801
 40
0.8099800638
 40
0.8628945217
 40
0.9116363463
 40
0.9346713814
 40
0.9569647281
 40
0.9786784387
 40
1.0
 40
1.0
 40
1.0
 40
1.0
 10
22.2567046481
 20
18.5140826946
 30
0.0
 10
22.2567046481
 20
18.3800373589
 30
0.0
 10
22.2743686447
 20
18.103442811
 30
0.0
 10
22.3472170351
 20
17.6833501869
 30
0.0
 10
22.4657922653
 20
17.2526676167
 30
0.0
 10
22.6276626724
 20
16.820137557
 30
0.0
 10
22.8295786665
 20
16.3944549075
 30
0.0
 10
23.0674423047
 20
15.9842365249
 30
0.0
 10
23.3364441396
 20
15.5977887385
 30
0.0
 10
23.6311396988
 20
15.2429304489
 30
0.0
 10
23.9455885042
 20
14.9268255819
 30
0.0
 10
24.2734953656
 20
14.6558382334
 30
0.0
 10
24.6083549583
 20
14.4354155967
 30
0.0
 10
24.9436899473
 20
14.2700301399
 30
0.0
 10
25.2729901183
 20
14.1631761953
 30
0.0
 10
25.5424600035
 20
14.1244712603
 30
0.0
 10
25.7468396137
 20
14.1267357906
 30
0.0
 10
25.8915416318
 20
14.1440753792
 30
0.0
 10
26.0296862523
 20
14.1770180285
 30
0.0
 10
26.117486611
 20
14.2095281136
 30
0.0
 10
26.1597804006
 20
14.2282441362
 30
0.0
  0
SPLINE
  5
2C6
100
AcDbEntity
  8
0
100
AcDbSpline
 62
7
  6
BYLAYER
 70
0
 71
3
 72
17
 73
13
 74
0
 42
0.0000001
 43
0.0000001
 44
0.0000000001
 40
0.0
 40
0.0
 40
0.0
 40
0.0
 40
0.1497625147
 40
0.2911792693
 40
0.4242330798
 40
0.487821076
 40
0.5495675687
 40
0.6680274219
 40
0.7811917636
 40
0.8910417725
 40
0.9454952016
 40
1.0
 40
1.0
 40
1.0
 40
1.0
 10
29.0528304152
 20
16.8194209382
 30
0.0
 10
29.0528304152
 20
16.7196132277
 30
0.0
 10
29.0441831373
 20
16.525395775
 30
0.0
 10
29.0028687665
 20
16.2451918351
 30
0.0
 10
28.9444609238
 20
16.0269442523
 30
0.0
 10
28.8836418991
 20
15.8657082689
 30
0.0
 10
28.8159025197
 20
15.7179155298
 30
0.0
 10
28.7152242264
 20
15.5493362783
 30
0.0
 10
28.5676778378
 20
15.3746867342
 30
0.0
 10
28.4244565074
 20
15.2559662912
 30
0.0
 10
28.3003071279
 20
15.1791622112
 30
0.0
 10
28.2351953193
 20
15.1467358705
 30
0.0
 10
28.2019781992
 20
15.1320366084
 30
0.0
  0
SPLINE
  5
2C7
100
AcDbEntity
  8
0
100
AcDbSpline
 62
7
  6
BYLAYER
 70
0
 71
3
 72
14
 73
10
 74
0
 42
0.0000001
 43
0.0000001
 44
0.0000000001
 40
0.0
 40
0.0
 40
0.0
 40
0.0
 40
0.1077450552
 40
0.2183056527
 40
0.3331119114
 40
0.4533143949
 40
0.7125640983
 40
0.8528173908
 40
1.0
 40
1.0
 40
1.0
 40
1.0
 10
22.8450072907
 20
19.9696339204
 30
0.0
 10
22.7978047482
 20
19.9351762864
 30
0.0
 10
22.7075133386
 20
19.8577181039
 30
0.0
 10
22.5892110891
 20
19.7203514835
 30
0.0
 10
22.4876961523
 20
19.5620799711
 30
0.0
 10
22.37299908
 20
19.319096935
 30
0.0
 10
22.2993075917
 20
19.0443744427
 30
0.0
 10
22.262678603
 20
18.7499494227
 30
0.0
 10
22.2567046481
 20
18.5939153327
 30
0.0
 10
22.2567046481
 20
18.5140826946
 30
0.0
  0
SPLINE
  5
2C8
100
AcDbEntity
  8
0
100
AcDbSpline
 62
7
  6
BYLAYER
 70
0
 71
3
 72
26
 73
22
 74
0
 42
0.0000001
 43
0.0000001
 44
0.0000000001
 40
0.0
 40
0.0
 40
0.0
 40
0.0
 40
0.02149047
 40
0.0430250937
 40
0.0648446274
 40
0.0871750201
 40
0.1102148277
 40
0.1341311406
 40
0.1850190103
 40
0.2405186973
 40
0.3007323207
 40
0.3653582814
 40
0.4337890944
 40
0.5051933924
 40
0.5785842039
 40
0.6528785409
 40
0.726950569
 40
0.7996841455
 40
0.8700286703
 40
0.9370527246
 40
1.0
 40
1.0
 40
1.0
 40
1.0
 10
24.6488203142
 20
21.2863234405
 30
0.0
 10
24.6906512244
 20
21.3168597997
 30
0.0
 10
24.7784824195
 20
21.3726259738
 30
0.0
 10
24.9206505459
 20
21.4385203082
 30
0.0
 10
25.07206193
 20
21.4861619981
 30
0.0
 10
25.2317573968
 20
21.5152250609
 30
0.0
 10
25.3987756033
 20
21.5256593665
 30
0.0
 10
25.6347115544
 20
21.514431781
 30
0.0
 10
25.9443334765
 20
21.4509250494
 30
0.0
 10
26.3197737569
 20
21.3044057963
 30
0.0
 10
26.699203473
 20
21.0898639589
 30
0.0
 10
27.0744275779
 20
20.8122144539
 30
0.0
 10
27.4373488374
 20
20.4776589064
 30
0.0
 10
27.7799429553
 20
20.0936522539
 30
0.0
 10
28.0945791627
 20
19.6687776222
 30
0.0
 10
28.3742057406
 20
19.2125587013
 30
0.0
 10
28.6125483788
 20
18.7352376102
 30
0.0
 10
28.8042523714
 20
18.2475314146
 30
0.0
 10
28.9450326303
 20
17.7603182133
 30
0.0
 10
29.0317118714
 20
17.2845605853
 30
0.0
 10
29.0528304152
 20
16.9711204683
 30
0.0
 10
29.0528304152
 20
16.8194209382
 30
0.0
  0
SPLINE
  5
2C9
100
AcDbEntity
  8
0
100
AcDbSpline
 62
7
  6
BYLAYER
 70
0
 71
3
 72
17
 73
13
 74
0
 42
0.0000001
 43
0.0000001
 44
0.0000000001
 40
0.0
 40
0.0
 40
0.0
 40
0.0
 40
0.0545041119
 40
0.1089568099
 40
0.2188054365
 40
0.33196884
 40
0.4504282846
 40
0.5121746041
 40
0.5757624852
 40
0.7088167594
 40
0.850235937
 40
1.0
 40
1.0
 40
1.0
 40
1.0
 10
26.1597804006
 20
14.2282441362
 30
0.0
 10
26.1907685199
 20
14.2419571268
 30
0.0
 10
26.2515110693
 20
14.2722076176
 30
0.0
 10
26.3673300567
 20
14.3438572833
 30
0.0
 10
26.5009410171
 20
14.4546114574
 30
0.0
 10
26.6385883706
 20
14.6175413202
 30
0.0
 10
26.7325118625
 20
14.7748094306
 30
0.0
 10
26.7957074636
 20
14.9126856923
 30
0.0
 10
26.8524467073
 20
15.0631040735
 30
0.0
 10
26.9069374255
 20
15.2667106086
 30
0.0
 10
26.9454800647
 20
15.5281181726
 30
0.0
 10
26.953547988
 20
15.7093078028
 30
0.0
 10
26.953547988
 20
15.8024202739
 30
0.0
  0
SPLINE
  5
2CA
100
AcDbEntity
  8
0
100
AcDbSpline
 62
7
  6
BYLAYER
 70
0
 71
3
 72
26
 73
22
 74
0
 42
0.0000001
 43
0.0000001
 44
0.0000000001
 40
0.0
 40
0.0
 40
0.0
 40
0.0
 40
0.0629464491
 40
0.1299698904
 40
0.2003146825
 40
0.2730489254
 40
0.3471218149
 40
0.4214173117
 40
0.4948092742
 40
0.5662144474
 40
0.634645709
 40
0.6992716741
 40
0.7594849436
 40
0.8149840193
 40
0.8658711236
 40
0.8897870267
 40
0.9128264338
 40
0.9351564364
 40
0.9569756167
 40
0.9785098914
 40
1.0
 40
1.0
 40
1.0
 40
1.0
 10
26.953547988
 20
15.8024202739
 30
0.0
 10
26.953547988
 20
15.9439402703
 30
0.0
 10
26.9338471262
 20
16.2363481592
 30
0.0
 10
26.8529841501
 20
16.6801841966
 30
0.0
 10
26.7216499261
 20
17.1347107921
 30
0.0
 10
26.5428062599
 20
17.589700146
 30
0.0
 10
26.320451601
 20
18.0350027172
 30
0.0
 10
26.0595810458
 20
18.4606191471
 30
0.0
 10
25.7660487547
 20
18.8569934955
 30
0.0
 10
25.4464343877
 20
19.2152395746
 30
0.0
 10
25.1078579597
 20
19.5273496371
 30
0.0
 10
24.7578060574
 20
19.7863691002
 30
0.0
 10
24.4038329402
 20
19.9865132564
 30
0.0
 10
24.0535837385
 20
20.1231977473
 30
0.0
 10
23.7647380782
 20
20.1824405385
 30
0.0
 10
23.5446347726
 20
20.1929122028
 30
0.0
 10
23.3888247117
 20
20.1831774279
 30
0.0
 10
23.2398462672
 20
20.1560628845
 30
0.0
 10
23.0985955997
 20
20.1116182155
 30
0.0
 10
22.965968389
 20
20.0501446654
 30
0.0
 10
22.8840310627
 20
19.9981210903
 30
0.0
 10
22.8450072907
 20
19.9696339204
 30
0.0
  0
SPLINE
  5
2CB
100
AcDbEntity
  8
0
100
AcDbSpline
 62
7
  6
BYLAYER
 70
0
 71
3
 72
25
 73
21
 74
0
 42
0.0000001
 43
0.0000001
 44
0.0000000001
 40
0.0
 40
0.0
 40
0.0
 40
0.0
 40
0.0617959228
 40
0.127430251
 40
0.1962426981
 40
0.2674287833
 40
0.3400709182
 40
0.413190824
 40
0.4857881519
 40
0.5568860602
 40
0.6255714872
 40
0.691041009
 40
0.7526515801
 40
0.8099800638
 40
0.8628945217
 40
0.9116363463
 40
0.9346713814
 40
0.9569647281
 40
0.9786784387
 40
1.0
 40
1.0
 40
1.0
 40
1.0
 10
22.2567046481
 20
72.4032422251
 30
0.0
 10
22.2567046481
 20
72.2691968895
 30
0.0
 10
22.2743686447
 20
71.9926023416
 30
0.0
 10
22.3472170351
 20
71.5725097175
 30
0.0
 10
22.4657922653
 20
71.1418271472
 30
0.0
 10
22.6276626724
 20
70.7092970876
 30
0.0
 10
22.8295786665
 20
70.2836144381
 30
0.0
 10
23.0674423047
 20
69.8733960554
 30
0.0
 10
23.3364441396
 20
69.4869482691
 30
0.0
 10
23.6311396988
 20
69.1320899795
 30
0.0
 10
23.9455885042
 20
68.8159851124
 30
0.0
 10
24.2734953656
 20
68.544997764
 30
0.0
 10
24.6083549583
 20
68.3245751272
 30
0.0
 10
24.9436899473
 20
68.1591896705
 30
0.0
 10
25.2729901183
 20
68.0523357258
 30
0.0
 10
25.5424600035
 20
68.0136307908
 30
0.0
 10
25.7468396137
 20
68.0158953211
 30
0.0
 10
25.8915416318
 20
68.0332349098
 30
0.0
 10
26.0296862523
 20
68.066177559
 30
0.0
 10
26.117486611
 20
68.0986876442
 30
0.0
 10
26.1597804006
 20
68.1174036667
 30
0.0
  0
SPLINE
  5
2CC
100
AcDbEntity
  8
0
100
AcDbSpline
 62
7
  6
BYLAYER
 70
0
 71
3
 72
17
 73
13
 74
0
 42
0.0000001
 43
0.0000001
 44
0.0000000001
 40
0.0
 40
0.0
 40
0.0
 40
0.0
 40
0.1497625147
 40
0.2911792693
 40
0.4242330798
 40
0.487821076
 40
0.5495675687
 40
0.6680274219
 40
0.7811917636
 40
0.8910417725
 40
0.9454952016
 40
1.0
 40
1.0
 40
1.0
 40
1.0
 10
29.0528304152
 20
70.7085804688
 30
0.0
 10
29.0528304152
 20
70.6087727583
 30
0.0
 10
29.0441831373
 20
70.4145553056
 30
0.0
 10
29.0028687665
 20
70.1343513656
 30
0.0
 10
28.9444609238
 20
69.9161037828
 30
0.0
 10
28.8836418991
 20
69.7548677994
 30
0.0
 10
28.8159025197
 20
69.6070750604
 30
0.0
 10
28.7152242264
 20
69.4384958089
 30
0.0
 10
28.5676778378
 20
69.2638462647
 30
0.0
 10
28.4244565074
 20
69.1451258217
 30
0.0
 10
28.3003071279
 20
69.0683217417
 30
0.0
 10
28.2351953193
 20
69.035895401
 30
0.0
 10
28.2019781992
 20
69.021196139
 30
0.0
  0
SPLINE
  5
2CD
100
AcDbEntity
  8
0
100
AcDbSpline
 62
7
  6
BYLAYER
 70
0
 71
3
 72
14
 73
10
 74
0
 42
0.0000001
 43
0.0000001
 44
0.0000000001
 40
0.0
 40
0.0
 40
0.0
 40
0.0
 40
0.1077450552
 40
0.2183056527
 40
0.3331119114
 40
0.4533143949
 40
0.7125640983
 40
0.8528173908
 40
1.0
 40
1.0
 40
1.0
 40
1.0
 10
22.8450072907
 20
73.858793451
 30
0.0
 10
22.7978047482
 20
73.824335817
 30
0.0
 10
22.7075133386
 20
73.7468776345
 30
0.0
 10
22.5892110891
 20
73.609511014
 30
0.0
 10
22.4876961523
 20
73.4512395017
 30
0.0
 10
22.37299908
 20
73.2082564655
 30
0.0
 10
22.2993075917
 20
72.9335339733
 30
0.0
 10
22.262678603
 20
72.6391089532
 30
0.0
 10
22.2567046481
 20
72.4830748633
 30
0.0
 10
22.2567046481
 20
72.4032422251
 30
0.0
  0
SPLINE
  5
2CE
100
AcDbEntity
  8
0
100
AcDbSpline
 62
7
  6
BYLAYER
 70
0
 71
3
 72
17
 73
13
 74
0
 42
0.0000001
 43
0.0000001
 44
0.0000000001
 40
0.0
 40
0.0
 40
0.0
 40
0.0
 40
0.0523762126
 40
0.1047532932
 40
0.1575313463
 40
0.211095474
 40
0.3218433848
 40
0.4394968009
 40
0.5656418898
 40
0.7011000932
 40
0.8460211157
 40
1.0
 40
1.0
 40
1.0
 40
1.0
 10
24.6488203142
 20
75.175482971
 30
0.0
 10
24.6832022109
 20
75.2005815869
 30
0.0
 10
24.7547030626
 20
75.2471552721
 30
0.0
 10
24.8691051114
 20
75.3051589788
 30
0.0
 10
24.9899609284
 20
75.3509734127
 30
0.0
 10
25.1608338259
 20
75.3960288169
 30
0.0
 10
25.3903098084
 20
75.4201087885
 30
0.0
 10
25.6789310547
 20
75.3977044044
 30
0.0
 10
25.9797359053
 20
75.3254598786
 30
0.0
 10
26.2882843286
 20
75.2048248814
 30
0.0
 10
26.6001182118
 20
75.0378535414
 30
0.0
 10
26.8015141586
 20
74.9011869274
 30
0.0
 10
26.9017684395
 20
74.8262849918
 30
0.0
  0
SPLINE
  5
2CF
100
AcDbEntity
  8
0
100
AcDbSpline
 62
7
  6
BYLAYER
 70
0
 71
3
 72
15
 73
11
 74
0
 42
0.0000001
 43
0.0000001
 44
0.0000000001
 40
0.0
 40
0.0
 40
0.0
 40
0.0
 40
0.1177056755
 40
0.2415462048
 40
0.3696734298
 40
0.5000018732
 40
0.6303304906
 40
0.7584547699
 40
0.8822929579
 40
1.0
 40
1.0
 40
1.0
 40
1.0
 10
26.9017684395
 20
74.8262849918
 30
0.0
 10
27.0385806361
 20
74.7240699217
 30
0.0
 10
27.3064998556
 20
74.4967509776
 30
0.0
 10
27.6768289449
 20
74.1075740624
 30
0.0
 10
28.0185741475
 20
73.6695964903
 30
0.0
 10
28.3231139678
 20
73.1938381437
 30
0.0
 10
28.5828389738
 20
72.692212225
 30
0.0
 10
28.7912400444
 20
72.1772606848
 30
0.0
 10
28.9430854956
 20
71.6619562578
 30
0.0
 10
29.0059768869
 20
71.3162702809
 30
0.0
 10
29.0260760248
 20
71.1466760605
 30
0.0
  0
SPLINE
  5
2D0
100
AcDbEntity
  8
0
100
AcDbSpline
 62
7
  6
BYLAYER
 70
0
 71
3
 72
9
 73
5
 74
0
 42
0.0000001
 43
0.0000001
 44
0.0000000001
 40
0.0
 40
0.0
 40
0.0
 40
0.0
 40
0.2563911669
 40
1.0
 40
1.0
 40
1.0
 40
1.0
 10
29.0260760248
 20
71.1466760605
 30
0.0
 10
29.0304920897
 20
71.1094138116
 30
0.0
 10
29.045718665
 20
70.9638556643
 30
0.0
 10
29.0528304152
 20
70.8174081143
 30
0.0
 10
29.0528304152
 20
70.7085804688
 30
0.0
  0
SPLINE
  5
2D1
100
AcDbEntity
  8
0
100
AcDbSpline
 62
7
  6
BYLAYER
 70
0
 71
3
 72
17
 73
13
 74
0
 42
0.0000001
 43
0.0000001
 44
0.0000000001
 40
0.0
 40
0.0
 40
0.0
 40
0.0
 40
0.0545041119
 40
0.1089568099
 40
0.2188054365
 40
0.33196884
 40
0.4504282846
 40
0.5121746041
 40
0.5757624852
 40
0.7088167594
 40
0.850235937
 40
1.0
 40
1.0
 40
1.0
 40
1.0
 10
26.1597804006
 20
68.1174036667
 30
0.0
 10
26.1907685199
 20
68.1311166573
 30
0.0
 10
26.2515110693
 20
68.1613671481
 30
0.0
 10
26.3673300567
 20
68.2330168138
 30
0.0
 10
26.5009410171
 20
68.343770988
 30
0.0
 10
26.6385883706
 20
68.5067008507
 30
0.0
 10
26.7325118625
 20
68.6639689611
 30
0.0
 10
26.7957074636
 20
68.8018452228
 30
0.0
 10
26.8524467073
 20
68.9522636041
 30
0.0
 10
26.9069374255
 20
69.1558701392
 30
0.0
 10
26.9454800647
 20
69.4172777031
 30
0.0
 10
26.953547988
 20
69.5984673334
 30
0.0
 10
26.953547988
 20
69.6915798045
 30
0.0
  0
SPLINE
  5
2D2
100
AcDbEntity
  8
0
100
AcDbSpline
 62
7
  6
BYLAYER
 70
0
 71
3
 72
26
 73
22
 74
0
 42
0.0000001
 43
0.0000001
 44
0.0000000001
 40
0.0
 40
0.0
 40
0.0
 40
0.0
 40
0.0629464491
 40
0.1299698904
 40
0.2003146825
 40
0.2730489254
 40
0.3471218149
 40
0.4214173117
 40
0.4948092742
 40
0.5662144474
 40
0.634645709
 40
0.6992716741
 40
0.7594849436
 40
0.8149840193
 40
0.8658711236
 40
0.8897870267
 40
0.9128264338
 40
0.9351564364
 40
0.9569756167
 40
0.9785098914
 40
1.0
 40
1.0
 40
1.0
 40
1.0
 10
26.953547988
 20
69.6915798045
 30
0.0
 10
26.953547988
 20
69.8330998008
 30
0.0
 10
26.9338471262
 20
70.1255076898
 30
0.0
 10
26.8529841501
 20
70.5693437272
 30
0.0
 10
26.7216499261
 20
71.0238703227
 30
0.0
 10
26.5428062599
 20
71.4788596765
 30
0.0
 10
26.320451601
 20
71.9241622477
 30
0.0
 10
26.0595810458
 20
72.3497786777
 30
0.0
 10
25.7660487547
 20
72.7461530261
 30
0.0
 10
25.4464343877
 20
73.1043991052
 30
0.0
 10
25.1078579597
 20
73.4165091676
 30
0.0
 10
24.7578060574
 20
73.6755286308
 30
0.0
 10
24.4038329402
 20
73.875672787
 30
0.0
 10
24.0535837385
 20
74.0123572779
 30
0.0
 10
23.7647380782
 20
74.0716000691
 30
0.0
 10
23.5446347726
 20
74.0820717333
 30
0.0
 10
23.3888247117
 20
74.0723369585
 30
0.0
 10
23.2398462672
 20
74.0452224151
 30
0.0
 10
23.0985955997
 20
74.0007777461
 30
0.0
 10
22.965968389
 20
73.939304196
 30
0.0
 10
22.8840310627
 20
73.8872806209
 30
0.0
 10
22.8450072907
 20
73.858793451
 30
0.0
  0
SPLINE
  5
2D3
100
AcDbEntity
  8
0
100
AcDbSpline
 62
7
  6
BYLAYER
 70
0
 71
3
 72
11
 73
7
 74
0
 42
0.0000001
 43
0.0000001
 44
0.0000000001
 40
0.0
 40
0.0
 40
0.0
 40
0.0
 40
0.2372539654
 40
0.5000012591
 40
0.7627478695
 40
1.0
 40
1.0
 40
1.0
 40
1.0
 10
19.4644225422
 20
21.9469143609
 30
0.0
 10
19.4644225422
 20
21.8889514194
 30
0.0
 10
19.486154675
 20
21.7667149071
 30
0.0
 10
19.5619575526
 20
21.5949767579
 30
0.0
 10
19.6727861717
 20
21.4434613582
 30
0.0
 10
19.7677801292
 20
21.36352353
 30
0.0
 10
19.8179774047
 20
21.3345427751
 30
0.0
  0
SPLINE
  5
2D4
100
AcDbEntity
  8
0
100
AcDbSpline
 62
7
  6
BYLAYER
 70
0
 71
3
 72
15
 73
11
 74
0
 42
0.0000001
 43
0.0000001
 44
0.0000000001
 40
0.0
 40
0.0
 40
0.0
 40
0.0
 40
0.1141546703
 40
0.2373261017
 40
0.3669753162
 40
0.4999989361
 40
0.6330227034
 40
0.7626723508
 40
0.8858444607
 40
1.0
 40
1.0
 40
1.0
 40
1.0
 10
15.9288739164
 20
33.8677973808
 30
0.0
 10
16.1709105208
 20
33.7280606434
 30
0.0
 10
16.6489762703
 20
33.3929451017
 30
0.0
 10
17.3067691016
 20
32.7775349076
 30
0.0
 10
17.9129607353
 20
32.0500732924
 30
0.0
 10
18.444718646
 20
31.2378496731
 30
0.0
 10
18.8822505413
 20
30.3712231266
 30
0.0
 10
19.209160658
 20
29.4825138017
 30
0.0
 10
19.4132317521
 20
28.605140007
 30
0.0
 10
19.4644225422
 20
28.0235618671
 30
0.0
 10
19.4644225422
 20
27.7440815226
 30
0.0
  0
SPLINE
  5
2D5
100
AcDbEntity
  8
0
100
AcDbSpline
 62
7
  6
BYLAYER
 70
0
 71
3
 72
15
 73
11
 74
0
 42
0.0000001
 43
0.0000001
 44
0.0000000001
 40
0.0
 40
0.0
 40
0.0
 40
0.0
 40
0.1141241598
 40
0.2373483675
 40
0.3669736385
 40
0.5000010132
 40
0.6330282465
 40
0.7626531028
 40
0.8858766831
 40
1.0
 40
1.0
 40
1.0
 40
1.0
 10
12.3933252907
 20
37.1337547791
 30
0.0
 10
12.3933252907
 20
37.0499340741
 30
0.0
 10
12.4087159365
 20
36.8754504358
 30
0.0
 10
12.4698890623
 20
36.6122311888
 30
0.0
 10
12.5680032605
 20
36.3456094198
 30
0.0
 10
12.6992302301
 20
36.0856208626
 30
0.0
 10
12.8587744011
 20
35.8419816864
 30
0.0
 10
13.0406190973
 20
35.6237030088
 30
0.0
 10
13.2379872597
 20
35.4391180989
 30
0.0
 10
13.3813991441
 20
35.3385493535
 30
0.0
 10
13.4539898784
 20
35.2966400216
 30
0.0
  0
SPLINE
  5
2D6
100
AcDbEntity
  8
0
100
AcDbSpline
 62
7
  6
BYLAYER
 70
0
 71
3
 72
11
 73
7
 74
0
 42
0.0000001
 43
0.0000001
 44
0.0000000001
 40
0.0
 40
0.0
 40
0.0
 40
0.0
 40
0.2771617404
 40
0.5324051153
 40
0.7708285558
 40
1.0
 40
1.0
 40
1.0
 40
1.0
 10
19.4082710048
 20
74.3125569692
 30
0.0
 10
19.3751379534
 20
74.1454904706
 30
0.0
 10
19.287343794
 20
73.8284349709
 30
0.0
 10
19.0774874881
 20
73.4002523074
 30
0.0
 10
18.7981648348
 20
73.0499658179
 30
0.0
 10
18.5669247203
 20
72.8734162649
 30
0.0
 10
18.4449557117
 20
72.8030137416
 30
0.0
  0
SPLINE
  5
2D7
100
AcDbEntity
  8
0
100
AcDbSpline
 62
7
  6
BYLAYER
 70
0
 71
3
 72
11
 73
7
 74
0
 42
0.0000001
 43
0.0000001
 44
0.0000000001
 40
0.0
 40
0.0
 40
0.0
 40
0.0
 40
0.2895401978
 40
0.5491171512
 40
0.782255066
 40
1.0
 40
1.0
 40
1.0
 40
1.0
 10
21.5857517176
 20
74.2847506611
 30
0.0
 10
21.5857517176
 20
74.2594313495
 30
0.0
 10
21.5818856927
 20
74.2112530903
 30
0.0
 10
21.5624091581
 20
74.1450476692
 30
0.0
 10
21.5295559254
 20
74.0913070756
 30
0.0
 10
21.4986718144
 20
74.0654024025
 30
0.0
 10
21.4821817478
 20
74.0558819187
 30
0.0
  0
SPLINE
  5
2D8
100
AcDbEntity
  8
0
100
AcDbSpline
 62
7
  6
BYLAYER
 70
0
 71
3
 72
11
 73
7
 74
0
 42
0.0000001
 43
0.0000001
 44
0.0000000001
 40
0.0
 40
0.0
 40
0.0
 40
0.0
 40
0.289702329
 40
0.5490881649
 40
0.7822156415
 40
1.0
 40
1.0
 40
1.0
 40
1.0
 10
39.6170497088
 20
20.1917321044
 30
0.0
 10
39.682867945
 20
20.1537327877
 30
0.0
 10
39.81380164
 20
20.091445062
 30
0.0
 10
40.0150493347
 20
20.0428473495
 30
0.0
 10
40.2038785475
 20
20.0476284709
 30
0.0
 10
40.3175638159
 20
20.0888857352
 30
0.0
 10
40.3670426088
 20
20.1174521679
 30
0.0
  0
SPLINE
  5
2D9
100
AcDbEntity
  8
0
100
AcDbSpline
 62
7
  6
BYLAYER
 70
0
 71
3
 72
11
 73
7
 74
0
 42
0.0000001
 43
0.0000001
 44
0.0000000001
 40
0.0
 40
0.0
 40
0.0
 40
0.0
 40
0.2895391946
 40
0.5491157945
 40
0.7822541179
 40
1.0
 40
1.0
 40
1.0
 40
1.0
 10
33.2530621825
 20
13.5779684392
 30
0.0
 10
33.2749888114
 20
13.5653093805
 30
0.0
 10
33.3186443405
 20
13.5445693511
 30
0.0
 10
33.3857164333
 20
13.5283348174
 30
0.0
 10
33.4486821389
 20
13.5299165448
 30
0.0
 10
33.4865573824
 20
13.5437102486
 30
0.0
 10
33.503047075
 20
13.553230528
 30
0.0
  0
SPLINE
  5
2DA
100
AcDbEntity
  8
0
100
AcDbSpline
 62
7
  6
BYLAYER
 70
0
 71
3
 72
11
 73
7
 74
0
 42
0.0000001
 43
0.0000001
 44
0.0000000001
 40
0.0
 40
0.0
 40
0.0
 40
0.0
 40
0.2372523758
 40
0.4999990758
 40
0.7627462798
 40
1.0
 40
1.0
 40
1.0
 40
1.0
 10
21.9393065802
 20
20.1098205116
 30
0.0
 10
21.9895039076
 20
20.0808397267
 30
0.0
 10
22.0844979182
 20
20.0009018269
 30
0.0
 10
22.1953265348
 20
19.8493863512
 30
0.0
 10
22.2711293455
 20
19.6776482379
 30
0.0
 10
22.2928614427
 20
19.5554118074
 30
0.0
 10
22.2928614427
 20
19.4974489257
 30
0.0
  0
SPLINE
  5
2DB
100
AcDbEntity
  8
0
100
AcDbSpline
 62
7
  6
BYLAYER
 70
0
 71
3
 72
11
 73
7
 74
0
 42
0.0000001
 43
0.0000001
 44
0.0000000001
 40
0.0
 40
0.0
 40
0.0
 40
0.0
 40
0.217745073
 40
0.4508830113
 40
0.7104597664
 40
1.0
 40
1.0
 40
1.0
 40
1.0
 10
21.6893216878
 20
78.9227324561
 30
0.0
 10
21.6728316154
 20
78.9132119574
 30
0.0
 10
21.6419474832
 20
78.8873072865
 30
0.0
 10
21.6090942778
 20
78.8335666777
 30
0.0
 10
21.5896177123
 20
78.7673612795
 30
0.0
 10
21.5857517176
 20
78.7191830287
 30
0.0
 10
21.5857517176
 20
78.6938637136
 30
0.0
  0
SPLINE
  5
2DC
100
AcDbEntity
  8
0
100
AcDbSpline
 62
7
  6
BYLAYER
 70
0
 71
3
 72
11
 73
7
 74
0
 42
0.0000001
 43
0.0000001
 44
0.0000000001
 40
0.0
 40
0.0
 40
0.0
 40
0.0
 40
0.2177843137
 40
0.4509117637
 40
0.7102976701
 40
1.0
 40
1.0
 40
1.0
 40
1.0
 10
13.7646527343
 20
75.1754022111
 30
0.0
 10
13.8141315301
 20
75.2039686149
 30
0.0
 10
13.927816756
 20
75.2452259144
 30
0.0
 10
14.1166459788
 20
75.2500070339
 30
0.0
 10
14.3178936761
 20
75.2014093027
 30
0.0
 10
14.4488273981
 20
75.1391215913
 30
0.0
 10
14.5146456342
 20
75.1011222747
 30
0.0
  0
SPLINE
  5
2DD
100
AcDbEntity
  8
0
100
AcDbSpline
 62
7
  6
BYLAYER
 70
0
 71
3
 72
11
 73
7
 74
0
 42
0.0000001
 43
0.0000001
 44
0.0000000001
 40
0.0
 40
0.0
 40
0.0
 40
0.0
 40
0.2177833598
 40
0.4509104088
 40
0.7102966711
 40
1.0
 40
1.0
 40
1.0
 40
1.0
 10
12.7039969785
 20
74.5630359804
 30
0.0
 10
12.6545170899
 20
74.5344689151
 30
0.0
 10
12.5619422522
 20
74.4566414337
 30
0.0
 10
12.4633853656
 20
74.2954964364
 30
0.0
 10
12.4048483708
 20
74.0969058908
 30
0.0
 10
12.3933252907
 20
73.9523657665
 30
0.0
 10
12.3933252907
 20
73.8763635499
 30
0.0
  0
SPLINE
  5
2DE
100
AcDbEntity
  8
0
100
AcDbSpline
 62
7
  6
BYLAYER
 70
0
 71
3
 72
14
 73
10
 74
0
 42
0.0000001
 43
0.0000001
 44
0.0000000001
 40
0.0
 40
0.0
 40
0.0
 40
0.0
 40
0.1080471438
 40
0.2181317193
 40
0.3321125724
 40
0.4515014986
 40
0.5774450424
 40
0.710727948
 40
1.0
 40
1.0
 40
1.0
 40
1.0
 10
34.642181131
 20
21.8681887479
 30
0.0
 10
34.724156316
 20
21.9155168604
 30
0.0
 10
34.8982173927
 20
21.996988762
 30
0.0
 10
35.1798273867
 20
22.0749184999
 30
0.0
 10
35.4800493064
 20
22.1083377265
 30
0.0
 10
35.7956357647
 20
22.0974229742
 30
0.0
 10
36.1236293822
 20
22.0423867125
 30
0.0
 10
36.5857310268
 20
21.9076612819
 30
0.0
 10
36.9226945414
 20
21.7472835943
 30
0.0
 10
37.1421656708
 20
21.6205747452
 30
0.0
  0
SPLINE
  5
2DF
100
AcDbEntity
  8
0
100
AcDbSpline
 62
7
  6
BYLAYER
 70
0
 71
3
 72
11
 73
7
 74
0
 42
0.0000001
 43
0.0000001
 44
0.0000000001
 40
0.0
 40
0.0
 40
0.0
 40
0.0
 40
0.2217195981
 40
0.4605202545
 40
0.7196926068
 40
1.0
 40
1.0
 40
1.0
 40
1.0
 10
35.2214197489
 20
22.0660315081
 30
0.0
 10
35.1288593666
 20
21.9517640522
 30
0.0
 10
34.9638882067
 20
21.691477561
 30
0.0
 10
34.7915231003
 20
21.2437311414
 30
0.0
 10
34.6883648776
 20
20.7359070297
 30
0.0
 10
34.6672728009
 20
20.3775428828
 30
0.0
 10
34.6672728009
 20
20.191632663
 30
0.0
  0
SPLINE
  5
2E0
100
AcDbEntity
  8
0
100
AcDbSpline
 62
7
  6
BYLAYER
 70
0
 71
3
 72
11
 73
7
 74
0
 42
0.0000001
 43
0.0000001
 44
0.0000000001
 40
0.0
 40
0.0
 40
0.0
 40
0.0
 40
0.2895401978
 40
0.5491171512
 40
0.782255066
 40
1.0
 40
1.0
 40
1.0
 40
1.0
 10
34.6672728009
 20
14.3944655014
 30
0.0
 10
34.6672728009
 20
14.3691461898
 30
0.0
 10
34.663406776
 20
14.3209679305
 30
0.0
 10
34.6439302414
 20
14.2547625094
 30
0.0
 10
34.6110770087
 20
14.2010219159
 30
0.0
 10
34.5801928977
 20
14.1751172427
 30
0.0
 10
34.5637028311
 20
14.165596759
 30
0.0
  0
SPLINE
  5
2E1
100
AcDbEntity
  8
0
100
AcDbSpline
 62
7
  6
BYLAYER
 70
0
 71
3
 72
11
 73
7
 74
0
 42
0.0000001
 43
0.0000001
 44
0.0000000001
 40
0.0
 40
0.0
 40
0.0
 40
0.0
 40
0.2177460211
 40
0.4508843679
 40
0.7104607696
 40
1.0
 40
1.0
 40
1.0
 40
1.0
 10
30.8817481143
 20
14.8274286138
 30
0.0
 10
30.8982378227
 20
14.8369488907
 30
0.0
 10
30.9361130749
 20
14.850742614
 30
0.0
 10
30.9990787801
 20
14.8523243101
 30
0.0
 10
31.0661508684
 20
14.8360898147
 30
0.0
 10
31.1098063751
 20
14.8153497633
 30
0.0
 10
31.1317330071
 20
14.8026907028
 30
0.0
  0
SPLINE
  5
2E2
100
AcDbEntity
  8
0
100
AcDbSpline
 62
7
  6
BYLAYER
 70
0
 71
3
 72
11
 73
7
 74
0
 42
0.0000001
 43
0.0000001
 44
0.0000000001
 40
0.0
 40
0.0
 40
0.0
 40
0.0
 40
0.2897033281
 40
0.5490895198
 40
0.7822165953
 40
1.0
 40
1.0
 40
1.0
 40
1.0
 10
41.7383700524
 20
21.4164908291
 30
0.0
 10
41.7383700524
 20
21.3404886125
 30
0.0
 10
41.7268469982
 20
21.1959485045
 30
0.0
 10
41.6683099886
 20
20.9973579705
 30
0.0
 10
41.5697531053
 20
20.8362129828
 30
0.0
 10
41.4771782768
 20
20.758385447
 30
0.0
 10
41.4276983646
 20
20.7298183987
 30
0.0
  0
SPLINE
  5
2E3
100
AcDbEntity
  8
0
100
AcDbSpline
 62
7
  6
BYLAYER
 70
0
 71
3
 72
15
 73
11
 74
0
 42
0.0000001
 43
0.0000001
 44
0.0000000001
 40
0.0
 40
0.0
 40
0.0
 40
0.0
 40
0.1141232787
 40
0.2373467935
 40
0.3669716251
 40
0.4999988493
 40
0.6330262331
 40
0.7626515288
 40
0.885875802
 40
1.0
 40
1.0
 40
1.0
 40
1.0
 10
40.6777054647
 20
59.9962143574
 30
0.0
 10
40.7502961747
 20
59.9543050396
 30
0.0
 10
40.8937080114
 20
59.8537363599
 30
0.0
 10
41.0910761028
 20
59.6691515113
 30
0.0
 10
41.2729207769
 20
59.4508729122
 30
0.0
 10
41.4324649669
 20
59.2072337695
 30
0.0
 10
41.563691975
 20
58.9472452121
 30
0.0
 10
41.6618062301
 20
58.6806233847
 30
0.0
 10
41.7229793736
 20
58.4174040454
 30
0.0
 10
41.7383700524
 20
58.242920333
 30
0.0
 10
41.7383700524
 20
58.1590995999
 30
0.0
  0
SPLINE
  5
2E4
100
AcDbEntity
  8
0
100
AcDbSpline
 62
7
  6
BYLAYER
 70
0
 71
3
 72
15
 73
11
 74
0
 42
0.0000001
 43
0.0000001
 44
0.0000000001
 40
0.0
 40
0.0
 40
0.0
 40
0.0
 40
0.1175532635
 40
0.2426925357
 40
0.3729103838
 40
0.5053957233
 40
0.6371404684
 40
0.7651879068
 40
0.8868844771
 40
1.0
 40
1.0
 40
1.0
 40
1.0
 10
34.6657665788
 20
67.1790519188
 30
0.0
 10
34.6863410208
 20
66.9068586547
 30
0.0
 10
34.7713354132
 20
66.3476542203
 30
0.0
 10
35.0080169237
 20
65.5127531725
 30
0.0
 10
35.3508148723
 20
64.6779371012
 30
0.0
 10
35.7881029263
 20
63.8711720857
 30
0.0
 10
36.3054519711
 20
63.1193334649
 30
0.0
 10
36.8856050551
 20
62.4473097362
 30
0.0
 10
37.5092329615
 20
61.8777108186
 30
0.0
 10
37.9592416536
 20
61.5656846643
 30
0.0
 10
38.1867174093
 20
61.4343544467
 30
0.0
  0
SPLINE
  5
2E5
100
AcDbEntity
  8
0
100
AcDbSpline
 62
7
  6
BYLAYER
 70
0
 71
3
 72
11
 73
7
 74
0
 42
0.0000001
 43
0.0000001
 44
0.0000000001
 40
0.0
 40
0.0
 40
0.0
 40
0.0
 40
0.2346691259
 40
0.4944782087
 40
0.7572611322
 40
1.0
 40
1.0
 40
1.0
 40
1.0
 10
34.3137179383
 20
67.7528932337
 30
0.0
 10
34.3607818102
 20
67.7257215094
 30
0.0
 10
34.4504382475
 20
67.6518041692
 30
0.0
 10
34.5575868907
 20
67.5114882339
 30
0.0
 10
34.6347037982
 20
67.3506089836
 30
0.0
 10
34.6615082909
 20
67.2351035499
 30
0.0
 10
34.6657665788
 20
67.1790519188
 30
0.0
  0
SPLINE
  5
2E6
100
AcDbEntity
  8
0
100
AcDbSpline
 62
7
  6
BYLAYER
 70
0
 71
3
 72
11
 73
7
 74
0
 42
0.0000001
 43
0.0000001
 44
0.0000000001
 40
0.0
 40
0.0
 40
0.0
 40
0.0
 40
0.2795679186
 40
0.5386610728
 40
0.77779601
 40
1.0
 40
1.0
 40
1.0
 40
1.0
 10
17.0056336896
 20
73.6629821854
 30
0.0
 10
17.16289114
 20
73.572191608
 30
0.0
 10
17.476426647
 20
73.4144798713
 30
0.0
 10
17.9563602055
 20
73.2509061893
 30
0.0
 10
18.4200296914
 20
73.1729132214
 30
0.0
 10
18.7220813521
 20
73.1801827464
 30
0.0
 10
18.8650788803
 20
73.1997152247
 30
0.0
  0
SPLINE
  5
2E7
100
AcDbEntity
  8
0
100
AcDbSpline
 62
7
  6
BYLAYER
 70
0
 71
3
 72
11
 73
7
 74
0
 42
0.0000001
 43
0.0000001
 44
0.0000000001
 40
0.0
 40
0.0
 40
0.0
 40
0.0
 40
0.289702329
 40
0.5490881649
 40
0.7822156415
 40
1.0
 40
1.0
 40
1.0
 40
1.0
 10
13.4539898784
 20
74.4887560439
 30
0.0
 10
13.3881716423
 20
74.5267553605
 30
0.0
 10
13.2572379472
 20
74.5890430862
 30
0.0
 10
13.0559902526
 20
74.6376407988
 30
0.0
 10
12.8671610398
 20
74.6328596774
 30
0.0
 10
12.7534757714
 20
74.5916024131
 30
0.0
 10
12.7039969785
 20
74.5630359804
 30
0.0
  0
SPLINE
  5
2E8
100
AcDbEntity
  8
0
100
AcDbSpline
 62
7
  6
BYLAYER
 70
0
 71
3
 72
11
 73
7
 74
0
 42
0.0000001
 43
0.0000001
 44
0.0000000001
 40
0.0
 40
0.0
 40
0.0
 40
0.0
 40
0.2895391946
 40
0.5491157945
 40
0.7822541179
 40
1.0
 40
1.0
 40
1.0
 40
1.0
 10
21.9393065802
 20
78.8979945449
 30
0.0
 10
21.9173799513
 20
78.9106536036
 30
0.0
 10
21.8737244222
 20
78.9313936331
 30
0.0
 10
21.8066523294
 20
78.9476281667
 30
0.0
 10
21.7436866238
 20
78.9460464393
 30
0.0
 10
21.7058113803
 20
78.9322527356
 30
0.0
 10
21.6893216878
 20
78.9227324561
 30
0.0
  0
SPLINE
  5
2E9
100
AcDbEntity
  8
0
100
AcDbSpline
 62
7
  6
BYLAYER
 70
0
 71
3
 72
11
 73
7
 74
0
 42
0.0000001
 43
0.0000001
 44
0.0000000001
 40
0.0
 40
0.0
 40
0.0
 40
0.0
 40
0.2177833598
 40
0.4509104088
 40
0.7102966711
 40
1.0
 40
1.0
 40
1.0
 40
1.0
 10
40.3670426088
 20
20.1174521679
 30
0.0
 10
40.4165224973
 20
20.1460192332
 30
0.0
 10
40.509097335
 20
20.2238467146
 30
0.0
 10
40.6076542217
 20
20.3849917119
 30
0.0
 10
40.6661912165
 20
20.5835822575
 30
0.0
 10
40.6777142966
 20
20.7281223817
 30
0.0
 10
40.6777142966
 20
20.8041245983
 30
0.0
  0
SPLINE
  5
2EA
100
AcDbEntity
  8
0
100
AcDbSpline
 62
7
  6
BYLAYER
 70
0
 71
3
 72
11
 73
7
 74
0
 42
0.0000001
 43
0.0000001
 44
0.0000000001
 40
0.0
 40
0.0
 40
0.0
 40
0.0
 40
0.217745073
 40
0.4508830113
 40
0.7104597664
 40
1.0
 40
1.0
 40
1.0
 40
1.0
 10
33.503047075
 20
13.553230528
 30
0.0
 10
33.5195371473
 20
13.5627510267
 30
0.0
 10
33.5504212795
 20
13.5886556976
 30
0.0
 10
33.5832744849
 20
13.6423963065
 30
0.0
 10
33.6027510504
 20
13.7086017046
 30
0.0
 10
33.6066170451
 20
13.7567799554
 30
0.0
 10
33.6066170451
 20
13.7820992705
 30
0.0
  0
SPLINE
  5
2EB
100
AcDbEntity
  8
0
100
AcDbSpline
 62
7
  6
BYLAYER
 70
0
 71
3
 72
11
 73
7
 74
0
 42
0.0000001
 43
0.0000001
 44
0.0000000001
 40
0.0
 40
0.0
 40
0.0
 40
0.0
 40
0.2426192534
 40
0.5053594995
 40
0.7652135318
 40
1.0
 40
1.0
 40
1.0
 40
1.0
 10
33.6051530435
 20
66.566114386
 30
0.0
 10
33.6009170741
 20
66.6221413745
 30
0.0
 10
33.5742804495
 20
66.7376421194
 30
0.0
 10
33.4972728779
 20
66.898563787
 30
0.0
 10
33.3902060006
 20
67.0389639923
 30
0.0
 10
33.3006209891
 20
67.1130448889
 30
0.0
 10
33.2535430511
 20
67.1402493796
 30
0.0
  0
SPLINE
  5
2EC
100
AcDbEntity
  8
0
100
AcDbSpline
 62
7
  6
BYLAYER
 70
0
 71
3
 72
15
 73
11
 74
0
 42
0.0000001
 43
0.0000001
 44
0.0000000001
 40
0.0
 40
0.0
 40
0.0
 40
0.0
 40
0.1131141217
 40
0.2348086043
 40
0.3628537996
 40
0.4945966419
 40
0.627081314
 40
0.7572995165
 40
0.882442178
 40
1.0
 40
1.0
 40
1.0
 40
1.0
 10
37.1260616535
 20
60.8219882159
 30
0.0
 10
36.898607367
 20
60.9533060386
 30
0.0
 10
36.4486401771
 20
61.2652982934
 30
0.0
 10
35.8250634452
 20
61.8348303294
 30
0.0
 10
35.2449497766
 20
62.5067724189
 30
0.0
 10
34.7276248047
 20
63.258522849
 30
0.0
 10
34.2903384699
 20
64.0651966985
 30
0.0
 10
33.9475229637
 20
64.8999341385
 30
0.0
 10
33.7108041481
 20
65.7347664807
 30
0.0
 10
33.6257265963
 20
66.2939328857
 30
0.0
 10
33.6051530435
 20
66.566114386
 30
0.0
  0
SPLINE
  5
2ED
100
AcDbEntity
  8
0
100
AcDbSpline
 62
7
  6
BYLAYER
 70
0
 71
3
 72
15
 73
11
 74
0
 42
0.0000001
 43
0.0000001
 44
0.0000000001
 40
0.0
 40
0.0
 40
0.0
 40
0.0
 40
0.1141241598
 40
0.2373483675
 40
0.3669736385
 40
0.5000010132
 40
0.6330282465
 40
0.7626531028
 40
0.8858766831
 40
1.0
 40
1.0
 40
1.0
 40
1.0
 10
40.6777142966
 20
57.5467333691
 30
0.0
 10
40.6777142966
 20
57.6305540741
 30
0.0
 10
40.6623236508
 20
57.8050377124
 30
0.0
 10
40.6011505249
 20
58.0682569595
 30
0.0
 10
40.5030363268
 20
58.3348787285
 30
0.0
 10
40.3718093572
 20
58.5948672856
 30
0.0
 10
40.2122651862
 20
58.8385064618
 30
0.0
 10
40.03042049
 20
59.0567851395
 30
0.0
 10
39.8330523275
 20
59.2413700493
 30
0.0
 10
39.6896404432
 20
59.3419387947
 30
0.0
 10
39.6170497088
 20
59.3838481266
 30
0.0
  0
SPLINE
  5
2EE
100
AcDbEntity
  8
0
100
AcDbSpline
 62
7
  6
BYLAYER
 70
0
 71
3
 72
11
 73
7
 74
0
 42
0.0000001
 43
0.0000001
 44
0.0000000001
 40
0.0
 40
0.0
 40
0.0
 40
0.0
 40
0.2177460211
 40
0.4508843679
 40
0.7104607696
 40
1.0
 40
1.0
 40
1.0
 40
1.0
 10
21.4821817478
 20
74.0558819187
 30
0.0
 10
21.4656920394
 20
74.0463616419
 30
0.0
 10
21.4278167872
 20
74.0325679186
 30
0.0
 10
21.364851082
 20
74.0309862225
 30
0.0
 10
21.2977789937
 20
74.0472207179
 30
0.0
 10
21.254123487
 20
74.0679607693
 30
0.0
 10
21.232196855
 20
74.0806198298
 30
0.0
  0
SPLINE
  5
2EF
100
AcDbEntity
  8
0
100
AcDbSpline
 62
7
  6
BYLAYER
 70
0
 71
3
 72
14
 73
10
 74
0
 42
0.0000001
 43
0.0000001
 44
0.0000000001
 40
0.0
 40
0.0
 40
0.0
 40
0.0
 40
0.2892730352
 40
0.4225562199
 40
0.5484998506
 40
0.6678886669
 40
0.7818692291
 40
0.8919533702
 40
1.0
 40
1.0
 40
1.0
 40
1.0
 10
33.6066170451
 20
19.5792664322
 30
0.0
 10
33.6066170451
 20
19.8326960804
 30
0.0
 10
33.6362049972
 20
20.2047152817
 30
0.0
 10
33.7505796038
 20
20.6722844081
 30
0.0
 10
33.8669145477
 20
20.9838627648
 30
0.0
 10
34.015257609
 20
21.2626341162
 30
0.0
 10
34.1943140346
 20
21.5059308738
 30
0.0
 10
34.4026129316
 20
21.7108522464
 30
0.0
 10
34.5602041401
 20
21.8208595926
 30
0.0
 10
34.642181131
 20
21.8681887479
 30
0.0
  0
SPLINE
  5
2F0
100
AcDbEntity
  8
0
100
AcDbSpline
 62
7
  6
BYLAYER
 70
0
 71
3
 72
14
 73
10
 74
0
 42
0.0000001
 43
0.0000001
 44
0.0000000001
 40
0.0
 40
0.0
 40
0.0
 40
0.0
 40
0.1080467833
 40
0.2181326623
 40
0.3321112209
 40
0.4514914972
 40
0.5774355199
 40
0.7107381207
 40
1.0
 40
1.0
 40
1.0
 40
1.0
 10
18.4449557117
 20
72.8030137416
 30
0.0
 10
18.3629763393
 20
72.755693896
 30
0.0
 10
18.1889366456
 20
72.6741732865
 30
0.0
 10
17.9073072866
 20
72.5963101471
 30
0.0
 10
17.6071030111
 20
72.5628526262
 30
0.0
 10
17.291523984
 20
72.5737666382
 30
0.0
 10
16.9635199435
 20
72.6287965653
 30
0.0
 10
16.5014175877
 20
72.763548803
 30
0.0
 10
16.1644409029
 20
72.9239118168
 30
0.0
 10
15.9449779338
 20
73.0506159546
 30
0.0
  0
SPLINE
  5
2F1
100
AcDbEntity
  8
0
100
AcDbSpline
 62
7
  6
BYLAYER
 70
0
 71
3
 72
11
 73
7
 74
0
 42
0.0000001
 43
0.0000001
 44
0.0000000001
 40
0.0
 40
0.0
 40
0.0
 40
0.0
 40
0.2895401978
 40
0.5491171512
 40
0.782255066
 40
1.0
 40
1.0
 40
1.0
 40
1.0
 10
30.7781781445
 20
14.5985598715
 30
0.0
 10
30.7781781445
 20
14.6238791831
 30
0.0
 10
30.7820441694
 20
14.6720574423
 30
0.0
 10
30.801520704
 20
14.7382628634
 30
0.0
 10
30.8343739367
 20
14.792003457
 30
0.0
 10
30.8652580477
 20
14.8179081301
 30
0.0
 10
30.8817481143
 20
14.8274286138
 30
0.0
  0
SPLINE
  5
2F2
100
AcDbEntity
  8
0
100
AcDbSpline
 62
7
  6
BYLAYER
 70
0
 71
3
 72
9
 73
5
 74
0
 42
0.0000001
 43
0.0000001
 44
0.0000000001
 40
0.0
 40
0.0
 40
0.0
 40
0.0
 40
0.5180389723
 40
1.0
 40
1.0
 40
1.0
 40
1.0
 10
67.7429289442
 20
81.006284124
 30
0.0
 10
67.8162431726
 20
80.7403240569
 30
0.0
 10
67.9287436262
 20
80.2183272905
 30
0.0
 10
67.971922413
 20
79.6853925738
 30
0.0
 10
67.971922413
 20
79.428725837
 30
0.0
  0
SPLINE
  5
2F3
100
AcDbEntity
  8
0
100
AcDbSpline
 62
7
  6
BYLAYER
 70
0
 71
3
 72
19
 73
15
 74
0
 42
0.0000001
 43
0.0000001
 44
0.0000000001
 40
0.0
 40
0.0
 40
0.0
 40
0.0
 40
0.0428394104
 40
0.0874448899
 40
0.1352571039
 40
0.1871950253
 40
0.2436735499
 40
0.3046656819
 40
0.4382689093
 40
0.5825434307
 40
0.7296392143
 40
0.871166535
 40
0.9376088396
 40
1.0
 40
1.0
 40
1.0
 40
1.0
 10
39.4941160768
 20
70.1295377953
 30
0.0
 10
39.5594443926
 20
70.167261473
 30
0.0
 10
39.7034716743
 20
70.2270660088
 30
0.0
 10
39.9411802514
 20
70.2619611264
 30
0.0
 10
40.1964553308
 20
70.243133417
 30
0.0
 10
40.4636134281
 20
70.1721717052
 30
0.0
 10
40.7374386921
 20
70.0511852155
 30
0.0
 10
41.115416598
 20
69.8198083896
 30
0.0
 10
41.5657083468
 20
69.4210430072
 30
0.0
 10
42.0285210975
 20
68.8285140321
 30
0.0
 10
42.39295103
 20
68.1550852592
 30
0.0
 10
42.5946044127
 20
67.5590899678
 30
0.0
 10
42.6779765474
 20
67.0896292289
 30
0.0
 10
42.692946396
 20
66.8626042356
 30
0.0
 10
42.692946396
 20
66.7527368709
 30
0.0
  0
SPLINE
  5
2F4
100
AcDbEntity
  8
0
100
AcDbSpline
 62
7
  6
BYLAYER
 70
0
 71
3
 72
17
 73
13
 74
0
 42
0.0000001
 43
0.0000001
 44
0.0000000001
 40
0.0
 40
0.0
 40
0.0
 40
0.0
 40
0.0428571277
 40
0.087483909
 40
0.1353159407
 40
0.187279013
 40
0.3045397097
 40
0.4382076182
 40
0.5825507004
 40
0.7297102646
 40
0.8713099941
 40
1.0
 40
1.0
 40
1.0
 40
1.0
 10
43.5547137578
 20
80.2861735697
 30
0.0
 10
43.5547329128
 20
80.238493797
 30
0.0
 10
43.5419662864
 20
80.1407499747
 30
0.0
 10
43.4859263668
 20
79.9996154001
 30
0.0
 10
43.3949485431
 20
79.8658213347
 30
0.0
 10
43.2237277094
 20
79.6939499209
 30
0.0
 10
42.9319371161
 20
79.5163330615
 30
0.0
 10
42.5123996329
 20
79.3761881832
 30
0.0
 10
42.0415761529
 20
79.3100214014
 30
0.0
 10
41.5576323314
 20
79.3234075634
 30
0.0
 10
41.1000798073
 20
79.4149492858
 30
0.0
 10
40.8193354738
 20
79.5307802298
 30
0.0
 10
40.695344789
 20
79.6023646656
 30
0.0
  0
SPLINE
  5
2F5
100
AcDbEntity
  8
0
100
AcDbSpline
 62
7
  6
BYLAYER
 70
0
 71
3
 72
17
 73
13
 74
0
 42
0.0000001
 43
0.0000001
 44
0.0000000001
 40
0.0
 40
0.0
 40
0.0
 40
0.0
 40
0.0428571277
 40
0.087483909
 40
0.1353159407
 40
0.187279013
 40
0.3045397097
 40
0.4382076182
 40
0.5825507004
 40
0.7297102646
 40
0.8713099941
 40
1.0
 40
1.0
 40
1.0
 40
1.0
 10
60.5252058509
 20
90.0840332626
 30
0.0
 10
60.5252250059
 20
90.0363534899
 30
0.0
 10
60.5124583795
 20
89.9386096677
 30
0.0
 10
60.4564184599
 20
89.797475093
 30
0.0
 10
60.3654406363
 20
89.6636810276
 30
0.0
 10
60.1942198025
 20
89.4918096138
 30
0.0
 10
59.9024292092
 20
89.3141927544
 30
0.0
 10
59.4828917261
 20
89.1740478761
 30
0.0
 10
59.0120682461
 20
89.1078810943
 30
0.0
 10
58.5281244245
 20
89.1212672563
 30
0.0
 10
58.0705719004
 20
89.2128089787
 30
0.0
 10
57.7898275669
 20
89.3286399227
 30
0.0
 10
57.6658368822
 20
89.4002243585
 30
0.0
  0
SPLINE
  5
2F6
100
AcDbEntity
  8
0
100
AcDbSpline
 62
7
  6
BYLAYER
 70
0
 71
3
 72
13
 73
9
 74
0
 42
0.0000001
 43
0.0000001
 44
0.0000000001
 40
0.0
 40
0.0
 40
0.0
 40
0.0
 40
0.2836973751
 40
0.416516185
 40
0.5433366539
 40
0.7802129641
 40
0.8918790963
 40
1.0
 40
1.0
 40
1.0
 40
1.0
 10
31.8034433809
 20
80.1840012457
 30
0.0
 10
31.2891140804
 20
80.4809426881
 30
0.0
 10
30.5605402712
 20
80.967879908
 30
0.0
 10
29.7001568699
 20
81.7138632848
 30
0.0
 10
28.9782872905
 20
82.4628931549
 30
0.0
 10
28.3926084147
 20
83.278935257
 30
0.0
 10
27.9819101614
 20
84.1443764289
 30
0.0
 10
27.8378274641
 20
84.5829918624
 30
0.0
 10
27.7818610088
 20
84.8023040562
 30
0.0
  0
SPLINE
  5
2F7
100
AcDbEntity
  8
0
100
AcDbSpline
 62
7
  6
BYLAYER
 70
0
 71
3
 72
10
 73
6
 74
0
 42
0.0000001
 43
0.0000001
 44
0.0000000001
 40
0.0
 40
0.0
 40
0.0
 40
0.0
 40
0.5181701664
 40
0.7642097412
 40
1.0
 40
1.0
 40
1.0
 40
1.0
 10
36.1816579262
 20
78.4607086297
 30
0.0
 10
35.3914593427
 20
78.6597307689
 30
0.0
 10
34.2407881834
 20
79.0216828259
 30
0.0
 10
32.7967276528
 20
79.6467586193
 30
0.0
 10
32.1245714766
 20
79.9986020475
 30
0.0
 10
31.8034433809
 20
80.1840012457
 30
0.0
  0
SPLINE
  5
2F8
100
AcDbEntity
  8
0
100
AcDbSpline
 62
7
  6
BYLAYER
 70
0
 71
3
 72
9
 73
5
 74
0
 42
0.0000001
 43
0.0000001
 44
0.0000000001
 40
0.0
 40
0.0
 40
0.0
 40
0.0
 40
0.5180389723
 40
1.0
 40
1.0
 40
1.0
 40
1.0
 10
67.7429289442
 20
32.0161390962
 30
0.0
 10
67.8162431726
 20
31.7501790291
 30
0.0
 10
67.9287436262
 20
31.2281822627
 30
0.0
 10
67.971922413
 20
30.695247546
 30
0.0
 10
67.971922413
 20
30.4385808093
 30
0.0
  0
SPLINE
  5
2F9
100
AcDbEntity
  8
0
100
AcDbSpline
 62
7
  6
BYLAYER
 70
0
 71
3
 72
11
 73
7
 74
0
 42
0.0000001
 43
0.0000001
 44
0.0000000001
 40
0.0
 40
0.0
 40
0.0
 40
0.0
 40
0.2897016594
 40
0.5490895814
 40
0.7822189142
 40
1.0
 40
1.0
 40
1.0
 40
1.0
 10
42.692946396
 20
66.7527368709
 30
0.0
 10
42.692946396
 20
66.6184667611
 30
0.0
 10
42.6725892155
 20
66.3631121588
 30
0.0
 10
42.5691790749
 20
66.0122657302
 30
0.0
 10
42.3950580565
 20
65.7275739411
 30
0.0
 10
42.2315051178
 20
65.590086607
 30
0.0
 10
42.1440951718
 20
65.5396119454
 30
0.0
  0
SPLINE
  5
2FA
100
AcDbEntity
  8
0
100
AcDbSpline
 62
7
  6
BYLAYER
 70
0
 71
3
 72
11
 73
7
 74
0
 42
0.0000001
 43
0.0000001
 44
0.0000000001
 40
0.0
 40
0.0
 40
0.0
 40
0.0
 40
0.2896433527
 40
0.5491132405
 40
0.7822372579
 40
1.0
 40
1.0
 40
1.0
 40
1.0
 10
40.695344789
 20
79.6023646656
 30
0.0
 10
40.6218625913
 20
79.6447886725
 30
0.0
 10
40.4885307187
 20
79.7366580947
 30
0.0
 10
40.329139597
 20
79.9041112612
 30
0.0
 10
40.2282810525
 20
80.0894037042
 30
0.0
 10
40.2047993031
 20
80.2223812647
 30
0.0
 10
40.204773675
 20
80.286173677
 30
0.0
  0
SPLINE
  5
2FB
100
AcDbEntity
  8
0
100
AcDbSpline
 62
7
  6
BYLAYER
 70
0
 71
3
 72
15
 73
11
 74
0
 42
0.0000001
 43
0.0000001
 44
0.0000000001
 40
0.0
 40
0.0
 40
0.0
 40
0.0
 40
0.0986800439
 40
0.2031680019
 40
0.3151342708
 40
0.4355702464
 40
0.5647586585
 40
0.7024315539
 40
0.8478737965
 40
1.0
 40
1.0
 40
1.0
 40
1.0
 10
55.9775024083
 20
84.8023718302
 30
0.0
 10
55.888058136
 20
84.4518520006
 30
0.0
 10
55.6250907961
 20
83.7485395278
 30
0.0
 10
55.0178235347
 20
82.7588793456
 30
0.0
 10
54.2014800878
 20
81.8253400743
 30
0.0
 10
53.1907930689
 20
80.961542153
 30
0.0
 10
52.0018539576
 20
80.1795939143
 30
0.0
 10
50.653372623
 20
79.4909268341
 30
0.0
 10
49.1665694929
 20
78.9059756698
 30
0.0
 10
48.1187939836
 20
78.5969952321
 30
0.0
 10
47.5780048124
 20
78.4607797015
 30
0.0
  0
SPLINE
  5
2FC
100
AcDbEntity
  8
0
100
AcDbSpline
 62
7
  6
BYLAYER
 70
0
 71
3
 72
15
 73
11
 74
0
 42
0.0000001
 43
0.0000001
 44
0.0000000001
 40
0.0
 40
0.0
 40
0.0
 40
0.0
 40
0.0957551397
 40
0.1960944741
 40
0.3045254232
 40
0.4232464058
 40
0.5529748665
 40
0.6933034574
 40
0.8429557802
 40
1.0
 40
1.0
 40
1.0
 40
1.0
 10
17.7808266091
 20
83.2427862176
 30
0.0
 10
17.8779729227
 20
83.2988342013
 30
0.0
 10
18.0941322205
 20
83.3860010615
 30
0.0
 10
18.4518908877
 20
83.4279970037
 30
0.0
 10
18.8358488458
 20
83.3839970641
 30
0.0
 10
19.2363796223
 20
83.2572266685
 30
0.0
 10
19.6445604285
 20
83.0517402727
 30
0.0
 10
20.0509956517
 20
82.7729196812
 30
0.0
 10
20.4460257668
 20
82.4277220354
 30
0.0
 10
20.6908407059
 20
82.16387195
 30
0.0
 10
20.8094111383
 20
82.0232467686
 30
0.0
  0
SPLINE
  5
2FD
100
AcDbEntity
  8
0
100
AcDbSpline
 62
7
  6
BYLAYER
 70
0
 71
3
 72
9
 73
5
 74
0
 42
0.0000001
 43
0.0000001
 44
0.0000000001
 40
0.0
 40
0.0
 40
0.0
 40
0.0
 40
0.5026077709
 40
1.0
 40
1.0
 40
1.0
 40
1.0
 10
27.7818610088
 20
88.8848161419
 30
0.0
 10
27.7316871364
 20
89.0814293091
 30
0.0
 10
27.655414308
 20
89.4790588887
 30
0.0
 10
27.6296707524
 20
89.8831839998
 30
0.0
 10
27.6296707525
 20
90.083992524
 30
0.0
  0
SPLINE
  5
2FE
100
AcDbEntity
  8
0
100
AcDbSpline
 62
7
  6
BYLAYER
 70
0
 71
3
 72
11
 73
7
 74
0
 42
0.0000001
 43
0.0000001
 44
0.0000000001
 40
0.0
 40
0.0
 40
0.0
 40
0.0
 40
0.2896433527
 40
0.5491132405
 40
0.7822372579
 40
1.0
 40
1.0
 40
1.0
 40
1.0
 10
23.7247113855
 20
89.4001427741
 30
0.0
 10
23.6512291877
 20
89.442566781
 30
0.0
 10
23.5178973151
 20
89.5344362032
 30
0.0
 10
23.3585061935
 20
89.7018893696
 30
0.0
 10
23.2576476489
 20
89.8871818127
 30
0.0
 10
23.2341658996
 20
90.0201593732
 30
0.0
 10
23.2341402714
 20
90.0839517854
 30
0.0
  0
SPLINE
  5
2FF
100
AcDbEntity
  8
0
100
AcDbSpline
 62
7
  6
BYLAYER
 70
0
 71
3
 72
11
 73
7
 74
0
 42
0.0000001
 43
0.0000001
 44
0.0000000001
 40
0.0
 40
0.0
 40
0.0
 40
0.0
 40
0.2896433527
 40
0.5491132405
 40
0.7822372579
 40
1.0
 40
1.0
 40
1.0
 40
1.0
 10
40.6952034786
 20
99.198002467
 30
0.0
 10
40.6217212809
 20
99.2404264739
 30
0.0
 10
40.4883894083
 20
99.3322958961
 30
0.0
 10
40.3289982866
 20
99.4997490626
 30
0.0
 10
40.2281397421
 20
99.6850415056
 30
0.0
 10
40.2046579927
 20
99.8180190661
 30
0.0
 10
40.2046323646
 20
99.8818114784
 30
0.0
  0
SPLINE
  5
300
100
AcDbEntity
  8
0
100
AcDbSpline
 62
7
  6
BYLAYER
 70
0
 71
3
 72
11
 73
7
 74
0
 42
0.0000001
 43
0.0000001
 44
0.0000000001
 40
0.0
 40
0.0
 40
0.0
 40
0.0
 40
0.2379311927
 40
0.480991456
 40
0.73378584
 40
1.0
 40
1.0
 40
1.0
 40
1.0
 10
53.8796423135
 20
85.5115789881
 30
0.0
 10
53.8796420096
 20
85.7549205669
 30
0.0
 10
53.8342931958
 20
86.247975457
 30
0.0
 10
53.6319393824
 20
86.9744528442
 30
0.0
 10
53.2986661342
 20
87.6826452555
 30
0.0
 10
53.0008764636
 20
88.1246439282
 30
0.0
 10
52.8341635374
 20
88.3399030514
 30
0.0
  0
SPLINE
  5
301
100
AcDbEntity
  8
0
100
AcDbSpline
 62
7
  6
BYLAYER
 70
0
 71
3
 72
11
 73
7
 74
0
 42
0.0000001
 43
0.0000001
 44
0.0000000001
 40
0.0
 40
0.0
 40
0.0
 40
0.0
 40
0.26621623
 40
0.5190051699
 40
0.762067353
 40
1.0
 40
1.0
 40
1.0
 40
1.0
 10
30.9251778432
 20
88.3399042755
 30
0.0
 10
30.7584570284
 20
88.1246487174
 30
0.0
 10
30.4606701689
 20
87.6826504407
 30
0.0
 10
30.1274163993
 20
86.9744521603
 30
0.0
 10
29.9250527251
 20
86.2479807622
 30
0.0
 10
29.8797035048
 20
85.7549219601
 30
0.0
 10
29.8797038088
 20
85.5115789881
 30
0.0
  0
SPLINE
  5
302
100
AcDbEntity
  8
0
100
AcDbSpline
 62
7
  6
BYLAYER
 70
0
 71
3
 72
9
 73
5
 74
0
 42
0.0000001
 43
0.0000001
 44
0.0000000001
 40
0.0
 40
0.0
 40
0.0
 40
0.0
 40
0.516599672
 40
1.0
 40
1.0
 40
1.0
 40
1.0
 10
36.9944078412
 20
80.311388934
 30
0.0
 10
36.4749888866
 20
80.4600356146
 30
0.0
 10
35.483635703
 20
80.8005633609
 30
0.0
 10
34.5393521798
 20
81.2580242026
 30
0.0
 10
34.1015308518
 20
81.5107947458
 30
0.0
  0
SPLINE
  5
303
100
AcDbEntity
  8
0
100
AcDbSpline
 62
7
  6
BYLAYER
 70
0
 71
3
 72
21
 73
17
 74
0
 42
0.0000001
 43
0.0000001
 44
0.0000000001
 40
0.0
 40
0.0
 40
0.0
 40
0.0
 40
0.0584426378
 40
0.1200560175
 40
0.1843825353
 40
0.2509369061
 40
0.3191275849
 40
0.3883169258
 40
0.526936443
 40
0.5951063112
 40
0.6616297485
 40
0.7259211807
 40
0.7874715725
 40
0.8458716875
 40
0.9008406515
 40
1.0
 40
1.0
 40
1.0
 40
1.0
 10
50.1199711533
 20
90.7589903615
 30
0.0
 10
49.7780585067
 20
90.9563892543
 30
0.0
 10
49.0535202294
 20
91.3243202746
 30
0.0
 10
47.8940077961
 20
91.7833984842
 30
0.0
 10
46.6474064976
 20
92.1586198918
 30
0.0
 10
45.3320736414
 20
92.4446340988
 30
0.0
 10
43.9666655082
 20
92.637401479
 30
0.0
 10
42.105513493
 20
92.7662819354
 30
0.0
 10
40.2349438907
 20
92.7010979112
 30
0.0
 10
38.4057934187
 20
92.4407937264
 30
0.0
 10
37.0912867339
 20
92.1532861021
 30
0.0
 10
35.8460465052
 20
91.7766315314
 30
0.0
 10
34.6880394871
 20
91.3163758434
 30
0.0
 10
33.6332192535
 20
90.7784714853
 30
0.0
 10
32.4283344183
 20
89.996421416
 30
0.0
 10
31.6516008315
 20
89.2777471499
 30
0.0
 10
31.2414184946
 20
88.7481560162
 30
0.0
  0
SPLINE
  5
304
100
AcDbEntity
  8
0
100
AcDbSpline
 62
7
  6
BYLAYER
 70
0
 71
3
 72
15
 73
11
 74
0
 42
0.0000001
 43
0.0000001
 44
0.0000000001
 40
0.0
 40
0.0
 40
0.0
 40
0.0
 40
0.1485554211
 40
0.2895099284
 40
0.4227336877
 40
0.5486417718
 40
0.6680028365
 40
0.7819406611
 40
0.8919880119
 40
1.0
 40
1.0
 40
1.0
 40
1.0
 10
34.1015308518
 20
81.5107947458
 30
0.0
 10
33.8534895444
 20
81.6539982217
 30
0.0
 10
33.3813429024
 20
81.953316734
 30
0.0
 10
32.7357601302
 20
82.4528910401
 30
0.0
 10
32.1773877362
 20
82.9873773439
 30
0.0
 10
31.7118254606
 20
83.5517252738
 30
0.0
 10
31.3437122665
 20
84.1409388996
 30
0.0
 10
31.0772889831
 20
84.7497644997
 30
0.0
 10
30.9158268207
 20
85.3719710698
 30
0.0
 10
30.8797098016
 20
85.7932355916
 30
0.0
 10
30.8797095234
 20
86.001480494
 30
0.0
  0
SPLINE
  5
305
100
AcDbEntity
  8
0
100
AcDbSpline
 62
7
  6
BYLAYER
 70
0
 71
3
 72
17
 73
13
 74
0
 42
0.0000001
 43
0.0000001
 44
0.0000000001
 40
0.0
 40
0.0
 40
0.0
 40
0.0
 40
0.0428571277
 40
0.087483909
 40
0.1353159407
 40
0.187279013
 40
0.3045397097
 40
0.4382076182
 40
0.5825507004
 40
0.7297102646
 40
0.8713099941
 40
1.0
 40
1.0
 40
1.0
 40
1.0
 10
26.5840803542
 20
90.0839516782
 30
0.0
 10
26.5840995093
 20
90.0362719055
 30
0.0
 10
26.5713328829
 20
89.9385280832
 30
0.0
 10
26.5152929633
 20
89.7973935086
 30
0.0
 10
26.4243151396
 20
89.6635994432
 30
0.0
 10
26.2530943058
 20
89.4917280294
 30
0.0
 10
25.9613037125
 20
89.31411117
 30
0.0
 10
25.5417662294
 20
89.1739662917
 30
0.0
 10
25.0709427494
 20
89.1077995099
 30
0.0
 10
24.5869989278
 20
89.1211856719
 30
0.0
 10
24.1294464038
 20
89.2127273943
 30
0.0
 10
23.8487020703
 20
89.3285583383
 30
0.0
 10
23.7247113855
 20
89.4001427741
 30
0.0
  0
SPLINE
  5
306
100
AcDbEntity
  8
0
100
AcDbSpline
 62
7
  6
BYLAYER
 70
0
 71
3
 72
17
 73
13
 74
0
 42
0.0000001
 43
0.0000001
 44
0.0000000001
 40
0.0
 40
0.0
 40
0.0
 40
0.0
 40
0.0428571277
 40
0.087483909
 40
0.1353159407
 40
0.187279013
 40
0.3045397097
 40
0.4382076182
 40
0.5825507004
 40
0.7297102646
 40
0.8713099941
 40
1.0
 40
1.0
 40
1.0
 40
1.0
 10
43.5545724474
 20
99.8818113711
 30
0.0
 10
43.5545916024
 20
99.8341315984
 30
0.0
 10
43.541824976
 20
99.7363877761
 30
0.0
 10
43.4857850564
 20
99.5952532015
 30
0.0
 10
43.3948072327
 20
99.4614591361
 30
0.0
 10
43.223586399
 20
99.2895877223
 30
0.0
 10
42.9317958057
 20
99.1119708629
 30
0.0
 10
42.5122583225
 20
98.9718259846
 30
0.0
 10
42.0414348425
 20
98.9056592028
 30
0.0
 10
41.557491021
 20
98.9190453648
 30
0.0
 10
41.0999384969
 20
99.0105870872
 30
0.0
 10
40.8191941634
 20
99.1264180312
 30
0.0
 10
40.6952034786
 20
99.198002467
 30
0.0
  0
SPLINE
  5
307
100
AcDbEntity
  8
0
100
AcDbSpline
 62
7
  6
BYLAYER
 70
0
 71
3
 72
9
 73
5
 74
0
 42
0.0000001
 43
0.0000001
 44
0.0000000001
 40
0.0
 40
0.0
 40
0.0
 40
0.0
 40
0.4973925293
 40
1.0
 40
1.0
 40
1.0
 40
1.0
 10
56.1296753698
 20
90.083992524
 30
0.0
 10
56.1296753697
 20
89.8831954534
 30
0.0
 10
56.1039347774
 20
89.4790936824
 30
0.0
 10
56.0276706388
 20
89.0814863268
 30
0.0
 10
55.9775024083
 20
88.8848839159
 30
0.0
  0
SPLINE
  5
308
100
AcDbEntity
  8
0
100
AcDbSpline
 62
7
  6
BYLAYER
 70
0
 71
3
 72
9
 73
5
 74
0
 42
0.0000001
 43
0.0000001
 44
0.0000000001
 40
0.0
 40
0.0
 40
0.0
 40
0.0
 40
0.2667235413
 40
1.0
 40
1.0
 40
1.0
 40
1.0
 10
67.9654447706
 20
79.1860339266
 30
0.0
 10
67.9601431631
 20
79.088181864
 30
0.0
 10
67.9278376104
 20
78.7223555563
 30
0.0
 10
67.8421737641
 20
78.3592821231
 30
0.0
 10
67.7405706765
 20
78.1097660329
 30
0.0
  0
SPLINE
  5
309
100
AcDbEntity
  8
0
100
AcDbSpline
 62
7
  6
BYLAYER
 70
0
 71
3
 72
11
 73
7
 74
0
 42
0.0000001
 43
0.0000001
 44
0.0000000001
 40
0.0
 40
0.0
 40
0.0
 40
0.0
 40
0.2896433527
 40
0.5491132405
 40
0.7822372579
 40
1.0
 40
1.0
 40
1.0
 40
1.0
 10
57.6658368822
 20
89.4002243585
 30
0.0
 10
57.5923546844
 20
89.4426483654
 30
0.0
 10
57.4590228118
 20
89.5345177877
 30
0.0
 10
57.2996316901
 20
89.7019709541
 30
0.0
 10
57.1987731456
 20
89.8872633971
 30
0.0
 10
57.1752913963
 20
90.0202409576
 30
0.0
 10
57.1752657681
 20
90.0840333699
 30
0.0
  0
SPLINE
  5
30A
100
AcDbEntity
  8
0
100
AcDbSpline
 62
7
  6
BYLAYER
 70
0
 71
3
 72
9
 73
5
 74
0
 42
0.0000001
 43
0.0000001
 44
0.0000000001
 40
0.0
 40
0.0
 40
0.0
 40
0.0
 40
0.2667235413
 40
1.0
 40
1.0
 40
1.0
 40
1.0
 10
67.9654447706
 20
30.1958888989
 30
0.0
 10
67.9601431631
 20
30.0980368363
 30
0.0
 10
67.9278376104
 20
29.7322105285
 30
0.0
 10
67.8421737641
 20
29.3691370954
 30
0.0
 10
67.7405706765
 20
29.1196210051
 30
0.0
  0
SPLINE
  5
30B
100
AcDbEntity
  8
0
100
AcDbSpline
 62
7
  6
BYLAYER
 70
0
 71
3
 72
11
 73
7
 74
0
 42
0.0000001
 43
0.0000001
 44
0.0000000001
 40
0.0
 40
0.0
 40
0.0
 40
0.0
 40
0.2897016594
 40
0.5490895814
 40
0.7822189142
 40
1.0
 40
1.0
 40
1.0
 40
1.0
 10
38.9452648527
 20
68.9164128698
 30
0.0
 10
38.9452648527
 20
69.0506829796
 30
0.0
 10
38.9656220332
 20
69.3060375819
 30
0.0
 10
39.0690321737
 20
69.6568840105
 30
0.0
 10
39.2431531922
 20
69.9415757996
 30
0.0
 10
39.4067061309
 20
70.0790631337
 30
0.0
 10
39.4941160768
 20
70.1295377953
 30
0.0
  0
SPLINE
  5
30C
100
AcDbEntity
  8
0
100
AcDbSpline
 62
7
  6
BYLAYER
 70
0
 71
3
 72
17
 73
13
 74
0
 42
0.0000001
 43
0.0000001
 44
0.0000000001
 40
0.0
 40
0.0
 40
0.0
 40
0.0
 40
0.0428571277
 40
0.087483909
 40
0.1353159407
 40
0.187279013
 40
0.3045397097
 40
0.4382076182
 40
0.5825507004
 40
0.7297102646
 40
0.8713099941
 40
1.0
 40
1.0
 40
1.0
 40
1.0
 10
40.204773675
 20
80.286173677
 30
0.0
 10
40.2047545199
 20
80.3338534496
 30
0.0
 10
40.2175211464
 20
80.4315972719
 30
0.0
 10
40.2735610659
 20
80.5727318465
 30
0.0
 10
40.3645388896
 20
80.7065259119
 30
0.0
 10
40.5357597234
 20
80.8783973257
 30
0.0
 10
40.8275503167
 20
81.0560141851
 30
0.0
 10
41.2470877998
 20
81.1961590634
 30
0.0
 10
41.7179112798
 20
81.2623258452
 30
0.0
 10
42.2018551014
 20
81.2489396832
 30
0.0
 10
42.6594076254
 20
81.1573979608
 30
0.0
 10
42.9401519589
 20
81.0415670168
 30
0.0
 10
43.0641426437
 20
80.969982581
 30
0.0
  0
SPLINE
  5
30D
100
AcDbEntity
  8
0
100
AcDbSpline
 62
7
  6
BYLAYER
 70
0
 71
3
 72
11
 73
7
 74
0
 42
0.0000001
 43
0.0000001
 44
0.0000000001
 40
0.0
 40
0.0
 40
0.0
 40
0.0
 40
0.2896433527
 40
0.5491132405
 40
0.7822372579
 40
1.0
 40
1.0
 40
1.0
 40
1.0
 10
43.0641426437
 20
80.969982581
 30
0.0
 10
43.1376248415
 20
80.9275585741
 30
0.0
 10
43.2709567141
 20
80.8356891519
 30
0.0
 10
43.4303478357
 20
80.6682359855
 30
0.0
 10
43.5312063803
 20
80.4829435424
 30
0.0
 10
43.5546881296
 20
80.3499659819
 30
0.0
 10
43.5547137578
 20
80.2861735697
 30
0.0
  0
SPLINE
  5
30E
100
AcDbEntity
  8
0
100
AcDbSpline
 62
7
  6
BYLAYER
 70
0
 71
3
 72
9
 73
5
 74
0
 42
0.0000001
 43
0.0000001
 44
0.0000000001
 40
0.0
 40
0.0
 40
0.0
 40
0.0
 40
0.2470079784
 40
1.0
 40
1.0
 40
1.0
 40
1.0
 10
18.3838501438
 20
78.1622403799
 30
0.0
 10
18.3229219804
 20
78.2352290567
 30
0.0
 10
18.0835599675
 20
78.5367545042
 30
0.0
 10
17.8729423548
 20
78.8609855427
 30
0.0
 10
17.7319730983
 20
79.1142307035
 30
0.0
  0
SPLINE
  5
30F
100
AcDbEntity
  8
0
100
AcDbSpline
 62
7
  6
BYLAYER
 70
0
 71
3
 72
15
 73
11
 74
0
 42
0.0000001
 43
0.0000001
 44
0.0000000001
 40
0.0
 40
0.0
 40
0.0
 40
0.0
 40
0.1080115581
 40
0.2180601975
 40
0.3319989174
 40
0.4513595871
 40
0.577266964
 40
0.7104902994
 40
0.8514448002
 40
1.0
 40
1.0
 40
1.0
 40
1.0
 10
29.8797038088
 20
85.5115789881
 30
0.0
 10
29.8797040926
 20
85.2844035115
 30
0.0
 10
29.9191081226
 20
84.8248402824
 30
0.0
 10
30.0952525715
 20
84.1460666201
 30
0.0
 10
30.3858961348
 20
83.4818886194
 30
0.0
 10
30.7874773681
 20
82.8391119391
 30
0.0
 10
31.2953635536
 20
82.2234635211
 30
0.0
 10
31.9044958978
 20
81.6403891352
 30
0.0
 10
32.6087680042
 20
81.095400429
 30
0.0
 10
33.1238367531
 20
80.7688709678
 30
0.0
 10
33.3944270146
 20
80.6126491416
 30
0.0
  0
SPLINE
  5
310
100
AcDbEntity
  8
0
100
AcDbSpline
 62
7
  6
BYLAYER
 70
0
 71
3
 72
15
 73
11
 74
0
 42
0.0000001
 43
0.0000001
 44
0.0000000001
 40
0.0
 40
0.0
 40
0.0
 40
0.0
 40
0.1141558384
 40
0.2373278161
 40
0.3669764076
 40
0.4999989181
 40
0.633021579
 40
0.7626706101
 40
0.8858432802
 40
1.0
 40
1.0
 40
1.0
 40
1.0
 10
38.7685044964
 20
61.7516523213
 30
0.0
 10
38.5264654658
 20
61.8913904595
 30
0.0
 10
38.048396978
 20
62.2265093545
 30
0.0
 10
37.3906036542
 20
62.8419226853
 30
0.0
 10
36.7844162595
 20
63.5693837558
 30
0.0
 10
36.2526629662
 20
64.3816017311
 30
0.0
 10
35.8151336207
 20
65.2482214597
 30
0.0
 10
35.4882218064
 20
66.1369268853
 30
0.0
 10
35.2841482124
 20
67.0143027513
 30
0.0
 10
35.2329558707
 20
67.5958850034
 30
0.0
 10
35.2329558707
 20
67.8753681796
 30
0.0
  0
SPLINE
  5
311
100
AcDbEntity
  8
0
100
AcDbSpline
 62
7
  6
BYLAYER
 70
0
 71
3
 72
15
 73
11
 74
0
 42
0.0000001
 43
0.0000001
 44
0.0000000001
 40
0.0
 40
0.0
 40
0.0
 40
0.0
 40
0.1196515532
 40
0.2331706773
 40
0.3445924296
 40
0.4583408237
 40
0.5784172249
 40
0.7077579549
 40
0.8481223204
 40
1.0
 40
1.0
 40
1.0
 40
1.0
 10
30.9386587139
 20
88.3180122297
 30
0.0
 10
30.7552998098
 20
88.02934957
 30
0.0
 10
30.4507816649
 20
87.4299096531
 30
0.0
 10
30.2133305771
 20
86.464637035
 30
0.0
 10
30.2198285491
 20
85.4864635456
 30
0.0
 10
30.4702045709
 20
84.5222932683
 30
0.0
 10
30.9544339854
 20
83.5953788624
 30
0.0
 10
31.6577463347
 20
82.7234952791
 30
0.0
 10
32.5635713786
 20
81.9219821357
 30
0.0
 10
33.2634488205
 20
81.4610066683
 30
0.0
 10
33.6393749691
 20
81.2439705152
 30
0.0
  0
SPLINE
  5
312
100
AcDbEntity
  8
0
100
AcDbSpline
 62
7
  6
BYLAYER
 70
0
 71
3
 72
9
 73
5
 74
0
 42
0.0000001
 43
0.0000001
 44
0.0000000001
 40
0.0
 40
0.0
 40
0.0
 40
0.0
 40
0.2751555159
 40
1.0
 40
1.0
 40
1.0
 40
1.0
 10
35.2329558707
 20
20.5182279861
 30
0.0
 10
35.2329558707
 20
20.666968939
 30
0.0
 10
35.2581613571
 20
21.2059472695
 30
0.0
 10
35.3961550541
 20
21.7490609727
 30
0.0
 10
35.5856503685
 20
22.0920214873
 30
0.0
  0
SPLINE
  5
313
100
AcDbEntity
  8
0
100
AcDbSpline
 62
7
  6
BYLAYER
 70
0
 71
3
 72
25
 73
21
 74
0
 42
0.0000001
 43
0.0000001
 44
0.0000000001
 40
0.0
 40
0.0
 40
0.0
 40
0.0
 40
0.0213319975
 40
0.0428925413
 40
0.0648979185
 40
0.0875425673
 40
0.1353176674
 40
0.1872187326
 40
0.2436564431
 40
0.3046040631
 40
0.3696912913
 40
0.4382880532
 40
0.5095742784
 40
0.5825987204
 40
0.6563305057
 40
0.7297062698
 40
0.8016835597
 40
0.8712734045
 40
0.9376202248
 40
1.0
 40
1.0
 40
1.0
 40
1.0
 10
30.8797095234
 20
86.001480494
 30
0.0
 10
30.879709315
 20
86.1575283399
 30
0.0
 10
30.8998052408
 20
86.4716619538
 30
0.0
 10
30.9901048128
 20
86.938929884
 30
0.0
 10
31.1398044684
 20
87.4008155134
 30
0.0
 10
31.4222305413
 20
88.0165568215
 30
0.0
 10
31.9290327575
 20
88.7623374038
 30
0.0
 10
32.7386525507
 20
89.5751812874
 30
0.0
 10
33.741998358
 20
90.3083742066
 30
0.0
 10
34.9175622086
 20
90.9477250747
 30
0.0
 10
36.2407662445
 20
91.4808023228
 30
0.0
 10
37.6838045307
 20
91.8966893707
 30
0.0
 10
39.2161813288
 20
92.1867218846
 30
0.0
 10
40.8053443348
 20
92.3447614797
 30
0.0
 10
42.4174146993
 20
92.3674349668
 30
0.0
 10
44.018025282
 20
92.2542992368
 30
0.0
 10
45.5729892521
 20
92.0077060585
 30
0.0
 10
47.0494406934
 20
91.6329576587
 30
0.0
 10
48.4156521615
 20
91.1378887873
 30
0.0
 10
49.2626278175
 20
90.7203225517
 30
0.0
 10
49.6578152705
 20
90.492166131
 30
0.0
  0
SPLINE
  5
314
100
AcDbEntity
  8
0
100
AcDbSpline
 62
7
  6
BYLAYER
 70
0
 71
3
 72
9
 73
5
 74
0
 42
0.0000001
 43
0.0000001
 44
0.0000000001
 40
0.0
 40
0.0
 40
0.0
 40
0.0
 40
0.2436448372
 40
1.0
 40
1.0
 40
1.0
 40
1.0
 10
34.6711600367
 20
67.9938716017
 30
0.0
 10
34.673462618
 20
67.9316157305
 30
0.0
 10
34.687011185
 20
67.6762571845
 30
0.0
 10
34.7163859503
 20
67.4218011431
 30
0.0
 10
34.7463603847
 20
67.2307429275
 30
0.0
  0
SPLINE
  5
315
100
AcDbEntity
  8
0
100
AcDbSpline
 62
7
  6
BYLAYER
 70
0
 71
3
 72
15
 73
11
 74
0
 42
0.0000001
 43
0.0000001
 44
0.0000000001
 40
0.0
 40
0.0
 40
0.0
 40
0.0
 40
0.1195289658
 40
0.2445200041
 40
0.3731660039
 40
0.503441987
 40
0.6332592864
 40
0.7605460543
 40
0.8833415035
 40
1.0
 40
1.0
 40
1.0
 40
1.0
 10
34.7463603847
 20
67.2307429275
 30
0.0
 10
34.7890960626
 20
66.9583440468
 30
0.0
 10
34.9088630602
 20
66.4058282886
 30
0.0
 10
35.1755405107
 20
65.5860343093
 30
0.0
 10
35.5277184224
 20
64.772073976
 30
0.0
 10
35.9570666548
 20
63.98343158
 30
0.0
 10
36.4533320873
 20
63.2388386601
 30
0.0
 10
37.0047784877
 20
62.556047244
 30
0.0
 10
37.5981796053
 20
61.9512116809
 30
0.0
 10
38.0254542722
 20
61.5989416118
 30
0.0
 10
38.2431843634
 20
61.4407854693
 30
0.0
  0
SPLINE
  5
316
100
AcDbEntity
  8
0
100
AcDbSpline
 62
7
  6
BYLAYER
 70
0
 71
3
 72
9
 73
5
 74
0
 42
0.0000001
 43
0.0000001
 44
0.0000000001
 40
0.0
 40
0.0
 40
0.0
 40
0.0
 40
0.2557763476
 40
1.0
 40
1.0
 40
1.0
 40
1.0
 10
38.2431843634
 20
61.4407854693
 30
0.0
 10
38.2864477006
 20
61.4093595764
 30
0.0
 10
38.4570852739
 20
61.2885717824
 30
0.0
 10
38.633761478
 20
61.1762425457
 30
0.0
 10
38.7685044964
 20
61.0984503876
 30
0.0
  0
SPLINE
  5
317
100
AcDbEntity
  8
0
100
AcDbSpline
 62
7
  6
BYLAYER
 70
0
 71
3
 72
9
 73
5
 74
0
 42
0.0000001
 43
0.0000001
 44
0.0000000001
 40
0.0
 40
0.0
 40
0.0
 40
0.0
 40
0.4849982042
 40
1.0
 40
1.0
 40
1.0
 40
1.0
 10
33.6393749691
 20
81.2439705152
 30
0.0
 10
34.0432753049
 20
81.010783823
 30
0.0
 10
34.9069924811
 20
80.5824999389
 30
0.0
 10
35.8109194793
 20
80.2492845493
 30
0.0
 10
36.283122455
 20
80.1000188199
 30
0.0
  0
SPLINE
  5
318
100
AcDbEntity
  8
0
100
AcDbSpline
 62
7
  6
BYLAYER
 70
0
 71
3
 72
15
 73
11
 74
0
 42
0.0000001
 43
0.0000001
 44
0.0000000001
 40
0.0
 40
0.0
 40
0.0
 40
0.0
 40
0.1485554211
 40
0.2895099284
 40
0.4227336877
 40
0.5486417718
 40
0.6680028365
 40
0.7819406611
 40
0.8919880119
 40
1.0
 40
1.0
 40
1.0
 40
1.0
 10
49.6578152705
 20
90.492166131
 30
0.0
 10
49.9058565779
 20
90.348962655
 30
0.0
 10
50.3780032199
 20
90.0496441427
 30
0.0
 10
51.0235859922
 20
89.5500698366
 30
0.0
 10
51.5819583861
 20
89.0155835329
 30
0.0
 10
52.0475206617
 20
88.4512356029
 30
0.0
 10
52.4156338559
 20
87.8620219771
 30
0.0
 10
52.6820571392
 20
87.2531963771
 30
0.0
 10
52.8435193016
 20
86.6309898069
 30
0.0
 10
52.8796363207
 20
86.2097252851
 30
0.0
 10
52.8796365989
 20
86.0014803827
 30
0.0
  0
SPLINE
  5
319
100
AcDbEntity
  8
0
100
AcDbSpline
 62
7
  6
BYLAYER
 70
0
 71
3
 72
9
 73
5
 74
0
 42
0.0000001
 43
0.0000001
 44
0.0000000001
 40
0.0
 40
0.0
 40
0.0
 40
0.0
 40
0.4847797749
 40
1.0
 40
1.0
 40
1.0
 40
1.0
 10
33.3944270146
 20
80.6126491416
 30
0.0
 10
33.8185005891
 20
80.3678156881
 30
0.0
 10
34.7263974191
 20
79.9190032368
 30
0.0
 10
35.6769962598
 20
79.5718093031
 30
0.0
 10
36.1737919855
 20
79.4167797251
 30
0.0
  0
SPLINE
  5
31A
100
AcDbEntity
  8
0
100
AcDbSpline
 62
7
  6
BYLAYER
 70
0
 71
3
 72
9
 73
5
 74
0
 42
0.0000001
 43
0.0000001
 44
0.0000000001
 40
0.0
 40
0.0
 40
0.0
 40
0.0
 40
0.2429676166
 40
1.0
 40
1.0
 40
1.0
 40
1.0
 10
51.9559027415
 20
90.1043045551
 30
0.0
 10
51.8201238534
 20
90.1826947592
 30
0.0
 10
51.2556333349
 20
90.4954875506
 30
0.0
 10
50.67016842
 20
90.7699895108
 30
0.0
 10
50.2192572301
 20
90.9579045707
 30
0.0
  0
SPLINE
  5
31B
100
AcDbEntity
  8
0
100
AcDbSpline
 62
7
  6
BYLAYER
 70
0
 71
3
 72
14
 73
10
 74
0
 42
0.0000001
 43
0.0000001
 44
0.0000000001
 40
0.0
 40
0.0
 40
0.0
 40
0.0
 40
0.2866163795
 40
0.419124082
 40
0.5448436099
 40
0.664547608
 40
0.7793144131
 40
0.8905708441
 40
1.0
 40
1.0
 40
1.0
 40
1.0
 10
33.0060167664
 20
79.6229408043
 30
0.0
 10
32.5336843908
 20
79.9225437639
 30
0.0
 10
31.8743206634
 20
80.4172542591
 30
0.0
 10
31.1330769697
 20
81.1819745271
 30
0.0
 10
30.6824532085
 20
81.7681725092
 30
0.0
 10
30.3268230581
 20
82.3768706646
 30
0.0
 10
30.0699448038
 20
83.0033545878
 30
0.0
 10
29.914443132
 20
83.6418225457
 30
0.0
 10
29.8797135466
 20
84.073271811
 30
0.0
 10
29.8797135058
 20
84.2868254269
 30
0.0
  0
SPLINE
  5
31C
100
AcDbEntity
  8
0
100
AcDbSpline
 62
7
  6
BYLAYER
 70
0
 71
3
 72
14
 73
10
 74
0
 42
0.0000001
 43
0.0000001
 44
0.0000000001
 40
0.0
 40
0.0
 40
0.0
 40
0.0
 40
0.1217135225
 40
0.2491114686
 40
0.5114174347
 40
0.641641082
 40
0.7678544604
 40
0.8879712441
 40
1.0
 40
1.0
 40
1.0
 40
1.0
 10
19.2131002543
 20
29.2027222129
 30
0.0
 10
19.10627791
 20
29.2908153118
 30
0.0
 10
18.898782626
 20
29.4849800243
 30
0.0
 10
18.5189223699
 20
29.9266186721
 30
0.0
 10
18.2026333625
 20
30.4319257045
 30
0.0
 10
17.9649718545
 20
30.972826201
 30
0.0
 10
17.8334144305
 20
31.3814203136
 30
0.0
 10
17.7521222703
 20
31.7817533368
 30
0.0
 10
17.7319730983
 20
32.0460469809
 30
0.0
 10
17.7319730983
 20
32.1734904777
 30
0.0
  0
SPLINE
  5
31D
100
AcDbEntity
  8
0
100
AcDbSpline
 62
7
  6
BYLAYER
 70
0
 71
3
 72
10
 73
6
 74
0
 42
0.0000001
 43
0.0000001
 44
0.0000000001
 40
0.0
 40
0.0
 40
0.0
 40
0.0
 40
0.227439168
 40
0.5960486844
 40
1.0
 40
1.0
 40
1.0
 40
1.0
 10
19.0482770757
 20
73.518790154
 30
0.0
 10
18.9284527314
 20
73.5234942951
 30
0.0
 10
18.6151230662
 20
73.5606319642
 30
0.0
 10
18.1068742634
 20
73.7120412607
 30
0.0
 10
17.7396617553
 20
73.8923856786
 30
0.0
 10
17.555212742
 20
73.9988749569
 30
0.0
  0
SPLINE
  5
31E
100
AcDbEntity
  8
0
100
AcDbSpline
 62
7
  6
BYLAYER
 70
0
 71
3
 72
17
 73
13
 74
0
 42
0.0000001
 43
0.0000001
 44
0.0000000001
 40
0.0
 40
0.0
 40
0.0
 40
0.0
 40
0.0428571277
 40
0.087483909
 40
0.1353159407
 40
0.187279013
 40
0.3045397097
 40
0.4382076182
 40
0.5825507004
 40
0.7297102646
 40
0.8713099941
 40
1.0
 40
1.0
 40
1.0
 40
1.0
 10
23.2341402714
 20
90.0839517854
 30
0.0
 10
23.2341211164
 20
90.1316315581
 30
0.0
 10
23.2468877428
 20
90.2293753804
 30
0.0
 10
23.3029276624
 20
90.370509955
 30
0.0
 10
23.3939054861
 20
90.5043040204
 30
0.0
 10
23.5651263198
 20
90.6761754342
 30
0.0
 10
23.8569169131
 20
90.8537922936
 30
0.0
 10
24.2764543963
 20
90.9939371719
 30
0.0
 10
24.7472778763
 20
91.0601039537
 30
0.0
 10
25.2312216978
 20
91.0467177917
 30
0.0
 10
25.6887742219
 20
90.9551760693
 30
0.0
 10
25.9695185554
 20
90.8393451253
 30
0.0
 10
26.0935092402
 20
90.7677606895
 30
0.0
  0
SPLINE
  5
31F
100
AcDbEntity
  8
0
100
AcDbSpline
 62
7
  6
BYLAYER
 70
0
 71
3
 72
17
 73
13
 74
0
 42
0.0000001
 43
0.0000001
 44
0.0000000001
 40
0.0
 40
0.0
 40
0.0
 40
0.0
 40
0.0428571277
 40
0.087483909
 40
0.1353159407
 40
0.187279013
 40
0.3045397097
 40
0.4382076182
 40
0.5825507004
 40
0.7297102646
 40
0.8713099941
 40
1.0
 40
1.0
 40
1.0
 40
1.0
 10
40.2046323646
 20
99.8818114784
 30
0.0
 10
40.2046132095
 20
99.929491251
 30
0.0
 10
40.217379836
 20
100.0272350733
 30
0.0
 10
40.2734197555
 20
100.1683696479
 30
0.0
 10
40.3643975792
 20
100.3021637133
 30
0.0
 10
40.535618413
 20
100.4740351271
 30
0.0
 10
40.8274090063
 20
100.6516519865
 30
0.0
 10
41.2469464894
 20
100.7917968648
 30
0.0
 10
41.7177699694
 20
100.8579636466
 30
0.0
 10
42.201713791
 20
100.8445774846
 30
0.0
 10
42.659266315
 20
100.7530357622
 30
0.0
 10
42.9400106485
 20
100.6372048182
 30
0.0
 10
43.0640013333
 20
100.5656203824
 30
0.0
  0
SPLINE
  5
320
100
AcDbEntity
  8
0
100
AcDbSpline
 62
7
  6
BYLAYER
 70
0
 71
3
 72
9
 73
5
 74
0
 42
0.0000001
 43
0.0000001
 44
0.0000000001
 40
0.0
 40
0.0
 40
0.0
 40
0.0
 40
0.4973925293
 40
1.0
 40
1.0
 40
1.0
 40
1.0
 10
27.6296707525
 20
90.083992524
 30
0.0
 10
27.6296707526
 20
90.2847895946
 30
0.0
 10
27.6554113449
 20
90.6888913657
 30
0.0
 10
27.7316754835
 20
91.0864987213
 30
0.0
 10
27.781843714
 20
91.2831011322
 30
0.0
  0
SPLINE
  5
321
100
AcDbEntity
  8
0
100
AcDbSpline
 62
7
  6
BYLAYER
 70
0
 71
3
 72
19
 73
15
 74
0
 42
0.0000001
 43
0.0000001
 44
0.0000000001
 40
0.0
 40
0.0
 40
0.0
 40
0.0
 40
0.0428394104
 40
0.0874448899
 40
0.1352571039
 40
0.1871950253
 40
0.2436735499
 40
0.3046656819
 40
0.4382689093
 40
0.5825434307
 40
0.7296392143
 40
0.871166535
 40
0.9376088396
 40
1.0
 40
1.0
 40
1.0
 40
1.0
 10
42.1440951718
 20
65.5396119454
 30
0.0
 10
42.078766856
 20
65.5018882677
 30
0.0
 10
41.9347395744
 20
65.4420837318
 30
0.0
 10
41.6970309973
 20
65.4071886143
 30
0.0
 10
41.4417559179
 20
65.4260163237
 30
0.0
 10
41.1745978206
 20
65.4969780355
 30
0.0
 10
40.9007725566
 20
65.6179645252
 30
0.0
 10
40.5227946507
 20
65.849341351
 30
0.0
 10
40.0725029019
 20
66.2481067335
 30
0.0
 10
39.6096901512
 20
66.8406357085
 30
0.0
 10
39.2452602187
 20
67.5140644814
 30
0.0
 10
39.043606836
 20
68.1100597729
 30
0.0
 10
38.9602347013
 20
68.5795205118
 30
0.0
 10
38.9452648527
 20
68.8065455051
 30
0.0
 10
38.9452648527
 20
68.9164128698
 30
0.0
  0
SPLINE
  5
322
100
AcDbEntity
  8
0
100
AcDbSpline
 62
7
  6
BYLAYER
 70
0
 71
3
 72
14
 73
10
 74
0
 42
0.0000001
 43
0.0000001
 44
0.0000000001
 40
0.0
 40
0.0
 40
0.0
 40
0.0
 40
0.1077419523
 40
0.2184261766
 40
0.3334060523
 40
0.4537534212
 40
0.7130535545
 40
0.8531407778
 40
1.0
 40
1.0
 40
1.0
 40
1.0
 10
56.0903564429
 20
84.8973218246
 30
0.0
 10
56.0587869313
 20
85.1423791474
 30
0.0
 10
55.9562432464
 20
85.6349705567
 30
0.0
 10
55.6916171841
 20
86.354903578
 30
0.0
 10
55.3173638021
 20
87.0573011866
 30
0.0
 10
54.6611133882
 20
87.9854835849
 30
0.0
 10
53.806999633
 20
88.8314970203
 30
0.0
 10
52.8055040239
 20
89.5851516987
 30
0.0
 10
52.2475724508
 20
89.9359127794
 30
0.0
 10
51.9559027415
 20
90.1043045551
 30
0.0
  0
SPLINE
  5
323
100
AcDbEntity
  8
0
100
AcDbSpline
 62
7
  6
BYLAYER
 70
0
 71
3
 72
11
 73
7
 74
0
 42
0.0000001
 43
0.0000001
 44
0.0000000001
 40
0.0
 40
0.0
 40
0.0
 40
0.0
 40
0.2896433527
 40
0.5491132405
 40
0.7822372579
 40
1.0
 40
1.0
 40
1.0
 40
1.0
 10
26.0935092402
 20
90.7677606895
 30
0.0
 10
26.1669914379
 20
90.7253366826
 30
0.0
 10
26.3003233106
 20
90.6334672604
 30
0.0
 10
26.4597144322
 20
90.466014094
 30
0.0
 10
26.5605729768
 20
90.2807216509
 30
0.0
 10
26.5840547261
 20
90.1477440904
 30
0.0
 10
26.5840803542
 20
90.0839516782
 30
0.0
  0
SPLINE
  5
324
100
AcDbEntity
  8
0
100
AcDbSpline
 62
7
  6
BYLAYER
 70
0
 71
3
 72
17
 73
13
 74
0
 42
0.0000001
 43
0.0000001
 44
0.0000000001
 40
0.0
 40
0.0
 40
0.0
 40
0.0
 40
0.0428571277
 40
0.087483909
 40
0.1353159407
 40
0.187279013
 40
0.3045397097
 40
0.4382076182
 40
0.5825507004
 40
0.7297102646
 40
0.8713099941
 40
1.0
 40
1.0
 40
1.0
 40
1.0
 10
57.1752657681
 20
90.0840333699
 30
0.0
 10
57.1752466131
 20
90.1317131425
 30
0.0
 10
57.1880132395
 20
90.2294569648
 30
0.0
 10
57.2440531591
 20
90.3705915395
 30
0.0
 10
57.3350309827
 20
90.5043856048
 30
0.0
 10
57.5062518165
 20
90.6762570186
 30
0.0
 10
57.7980424098
 20
90.853873878
 30
0.0
 10
58.2175798929
 20
90.9940187563
 30
0.0
 10
58.6884033729
 20
91.0601855381
 30
0.0
 10
59.1723471945
 20
91.0467993761
 30
0.0
 10
59.6298997186
 20
90.9552576537
 30
0.0
 10
59.9106440521
 20
90.8394267097
 30
0.0
 10
60.0346347368
 20
90.767842274
 30
0.0
  0
SPLINE
  5
325
100
AcDbEntity
  8
0
100
AcDbSpline
 62
7
  6
BYLAYER
 70
0
 71
3
 72
16
 73
12
 74
0
 42
0.0000001
 43
0.0000001
 44
0.0000000001
 40
0.0
 40
0.0
 40
0.0
 40
0.0
 40
0.0448962045
 40
0.0907112445
 40
0.1876806223
 40
0.2957460156
 40
0.4167324526
 40
0.5502029686
 40
0.69408301
 40
0.8453057915
 40
1.0
 40
1.0
 40
1.0
 40
1.0
 10
42.6440928852
 20
15.6834411309
 30
0.0
 10
42.5832185258
 20
15.648320034
 30
0.0
 10
42.4537365608
 20
15.5880137996
 30
0.0
 10
42.1691265091
 20
15.5103959759
 30
0.0
 10
41.7700457498
 20
15.5030972776
 30
0.0
 10
41.2710226257
 20
15.6293978397
 30
0.0
 10
40.7584160192
 20
15.8804500033
 30
0.0
 10
40.250254094
 20
16.2459456679
 30
0.0
 10
39.7646326736
 20
16.7116564731
 30
0.0
 10
39.3201609961
 20
17.2598082744
 30
0.0
 10
39.063042401
 20
17.6652807781
 30
0.0
 10
38.9452648527
 20
17.8768630401
 30
0.0
  0
SPLINE
  5
326
100
AcDbEntity
  8
0
100
AcDbSpline
 62
7
  6
BYLAYER
 70
0
 71
3
 72
17
 73
13
 74
0
 42
0.0000001
 43
0.0000001
 44
0.0000000001
 40
0.0
 40
0.0
 40
0.0
 40
0.0
 40
0.0462860904
 40
0.0940894277
 40
0.1954944617
 40
0.2497907659
 40
0.3066439712
 40
0.4280926072
 40
0.5596195917
 40
0.7000470901
 40
0.8475813214
 40
1.0
 40
1.0
 40
1.0
 40
1.0
 10
27.781843714
 20
87.2005890465
 30
0.0
 10
27.8378073136
 20
87.4199027137
 30
0.0
 10
27.9818882272
 20
87.858518294
 30
0.0
 10
28.3925651804
 20
88.7239635273
 30
0.0
 10
28.9782497878
 20
89.5400493443
 30
0.0
 10
29.7001207699
 20
90.2890259259
 30
0.0
 10
30.5605962759
 20
91.0351189386
 30
0.0
 10
31.8254541166
 20
91.8805718549
 30
0.0
 10
33.56008448
 20
92.723568635
 30
0.0
 10
35.5021681067
 20
93.397444138
 30
0.0
 10
37.6031401975
 20
93.8857398824
 30
0.0
 10
39.0599556479
 20
94.0775687041
 30
0.0
 10
39.8026089466
 20
94.1407396623
 30
0.0
  0
SPLINE
  5
327
100
AcDbEntity
  8
0
100
AcDbSpline
 62
7
  6
BYLAYER
 70
0
 71
3
 72
11
 73
7
 74
0
 42
0.0000001
 43
0.0000001
 44
0.0000000001
 40
0.0
 40
0.0
 40
0.0
 40
0.0
 40
0.2896433527
 40
0.5491132405
 40
0.7822372579
 40
1.0
 40
1.0
 40
1.0
 40
1.0
 10
43.0640013333
 20
100.5656203824
 30
0.0
 10
43.1374835311
 20
100.5231963756
 30
0.0
 10
43.2708154037
 20
100.4313269533
 30
0.0
 10
43.4302065254
 20
100.2638737869
 30
0.0
 10
43.5310650699
 20
100.0785813438
 30
0.0
 10
43.5545468192
 20
99.9456037833
 30
0.0
 10
43.5545724474
 20
99.8818113711
 30
0.0
  0
SPLINE
  5
328
100
AcDbEntity
  8
0
100
AcDbSpline
 62
7
  6
BYLAYER
 70
0
 71
3
 72
11
 73
7
 74
0
 42
0.0000001
 43
0.0000001
 44
0.0000000001
 40
0.0
 40
0.0
 40
0.0
 40
0.0
 40
0.2896433527
 40
0.5491132405
 40
0.7822372579
 40
1.0
 40
1.0
 40
1.0
 40
1.0
 10
60.0346347368
 20
90.767842274
 30
0.0
 10
60.1081169346
 20
90.7254182671
 30
0.0
 10
60.2414488072
 20
90.6335488448
 30
0.0
 10
60.4008399289
 20
90.4660956784
 30
0.0
 10
60.5016984734
 20
90.2808032353
 30
0.0
 10
60.5251802227
 20
90.1478256748
 30
0.0
 10
60.5252058509
 20
90.0840332626
 30
0.0
  0
SPLINE
  5
329
100
AcDbEntity
  8
0
100
AcDbSpline
 62
7
  6
BYLAYER
 70
0
 71
3
 72
15
 73
11
 74
0
 42
0.0000001
 43
0.0000001
 44
0.0000000001
 40
0.0
 40
0.0
 40
0.0
 40
0.0
 40
0.1141567198
 40
0.2373293899
 40
0.366978421
 40
0.5000010819
 40
0.6330235924
 40
0.7626721839
 40
0.8858441616
 40
1.0
 40
1.0
 40
1.0
 40
1.0
 10
37.2835569986
 20
69.0592762258
 30
0.0
 10
37.2835569986
 20
68.7797930496
 30
0.0
 10
37.3347493403
 20
68.1982107976
 30
0.0
 10
37.5388229343
 20
67.3208349315
 30
0.0
 10
37.8657347486
 20
66.432129506
 30
0.0
 10
38.3032640941
 20
65.5655097773
 30
0.0
 10
38.8350173874
 20
64.753291802
 30
0.0
 10
39.4412047821
 20
64.0258307315
 30
0.0
 10
40.0989981059
 20
63.4104174007
 30
0.0
 10
40.5770665937
 20
63.0752985057
 30
0.0
 10
40.8191056243
 20
62.9355603676
 30
0.0
  0
SPLINE
  5
32A
100
AcDbEntity
  8
0
100
AcDbSpline
 62
7
  6
BYLAYER
 70
0
 71
3
 72
9
 73
5
 74
0
 42
0.0000001
 43
0.0000001
 44
0.0000000001
 40
0.0
 40
0.0
 40
0.0
 40
0.0
 40
0.5026077709
 40
1.0
 40
1.0
 40
1.0
 40
1.0
 10
55.9774851135
 20
91.2831689062
 30
0.0
 10
56.027658986
 20
91.0865557389
 30
0.0
 10
56.1039318144
 20
90.6889261593
 30
0.0
 10
56.1296753699
 20
90.2848010482
 30
0.0
 10
56.1296753698
 20
90.083992524
 30
0.0
  0
SPLINE
  5
32B
100
AcDbEntity
  8
0
100
AcDbSpline
 62
7
  6
BYLAYER
 70
0
 71
3
 72
11
 73
7
 74
0
 42
0.0000001
 43
0.0000001
 44
0.0000000001
 40
0.0
 40
0.0
 40
0.0
 40
0.0
 40
0.2665082294
 40
0.5244765849
 40
0.7700195953
 40
1.0
 40
1.0
 40
1.0
 40
1.0
 10
43.956619786
 20
94.1407496473
 30
0.0
 10
44.6992725155
 20
94.0775823853
 30
0.0
 10
46.1560634352
 20
93.8857732299
 30
0.0
 10
48.2571520869
 20
93.397426424
 30
0.0
 10
50.1988757693
 20
92.7237717976
 30
0.0
 10
51.3988909484
 20
92.1405432645
 30
0.0
 10
51.9559027415
 20
91.818959631
 30
0.0
  0
SPLINE
  5
32C
100
AcDbEntity
  8
0
100
AcDbSpline
 62
7
  6
BYLAYER
 70
0
 71
3
 72
13
 73
9
 74
0
 42
0.0000001
 43
0.0000001
 44
0.0000000001
 40
0.0
 40
0.0
 40
0.0
 40
0.0
 40
0.2836973751
 40
0.416516185
 40
0.5433366539
 40
0.7802129641
 40
0.8918790963
 40
1.0
 40
1.0
 40
1.0
 40
1.0
 10
51.9559027415
 20
91.818959631
 30
0.0
 10
52.4702320419
 20
91.5220181887
 30
0.0
 10
53.1988058511
 20
91.0350809688
 30
0.0
 10
54.0591892524
 20
90.289097592
 30
0.0
 10
54.7810588319
 20
89.5400677218
 30
0.0
 10
55.3667377076
 20
88.7240256197
 30
0.0
 10
55.7774359609
 20
87.8585844478
 30
0.0
 10
55.9215186582
 20
87.4199690143
 30
0.0
 10
55.9774851135
 20
87.2006568205
 30
0.0
  0
ENDSEC
  0
SECTION
  2
OBJECTS
  0
DICTIONARY
  5
C
100
AcDbDictionary
280
0
281
1
  3
ACAD_GROUP
350
D
  3
ACAD_MLINESTYLE
350
17
  3
ACAD_LAYOUT
350
1A
  3
ACAD_PLOTSETTINGS
350
19
  3
ACAD_PLOTSTYLENAME
350
E
  0
DICTIONARY
  5
D
102
{ACAD_REACTORS
330
C
102
}
100
AcDbDictionary
280
0
281
1
  0
ACDBDICTIONARYWDFLT
  5
E
102
{ACAD_REACTORS
330
C
102
}
100
AcDbDictionary
281
1
  3
Normal
350
F
100
AcDbDictionaryWithDefault
340
F
  0
DICTIONARY
  5
17
102
{ACAD_REACTORS
330
C
102
}
100
AcDbDictionary
280
0
281
1
  3
Standard
350
18
  0
DICTIONARY
  5
19
102
{ACAD_REACTORS
330
C
102
}
100
AcDbDictionary
281
1
  0
DICTIONARY
  5
1A
102
{ACAD_REACTORS
330
C
102
}
100
AcDbDictionary
281
1
  3
Model
350
32D
  3
Layout1
350
32E
  0
ACDBPLACEHOLDER
  5
F
102
{ACAD_REACTORS
330
E
102
}
  0
MLINESTYLE
  5
18
102
{ACAD_REACTORS
330
17
102
}
100
AcDbMlineStyle
  2
STANDARD
 70
0
  3

 62
256
 51
90.0
 52
90.0
 71
2
 49
0.5
 62
256
  6
BYLAYER
 49
-0.5
 62
256
  6
BYLAYER
  0
LAYOUT
  5
32D
102
{ACAD_REACTORS
330
1A
102
}
100
AcDbPlotSettings
  1

  2
none_device
  4

  6

 40
0.0
 41
0.0
 42
0.0
 43
0.0
 44
210.0
 45
297.0
 46
0.0
 47
0.0
 48
0.0
 49
0.0
140
0.0
141
0.0
142
1.0
143
1.0
 70
1024
 72
1
 73
0
 74
0
  7

 75
0
147
1.0
148
0.0
149
0.0
100
AcDbLayout
  1
Model
 70
0
 71
0
 10
0.0
 20
0.0
 11
210.0
 21
297.0
 12
0.0
 22
0.0
 32
0.0
 14
0.0
 24
0.0
 34
0.0
 15
0.0
 25
0.0
 35
0.0
146
0.0
 13
0.0
 23
0.0
 33
0.0
 16
1.0
 26
0.0
 36
0.0
 17
0.0
 27
1.0
 37
0.0
 76
0
330
210
345
0
346
0
  0
LAYOUT
  5
32E
102
{ACAD_REACTORS
330
1A
102
}
100
AcDbPlotSettings
  1

  2
none_device
  4

  6

 40
0.0
 41
0.0
 42
0.0
 43
0.0
 44
210.0
 45
297.0
 46
0.0
 47
0.0
 48
0.0
 49
0.0
140
0.0
141
0.0
142
1.0
143
1.0
 70
0
 72
1
 73
0
 74
0
  7

 75
0
147
1.0
148
0.0
149
0.0
100
AcDbLayout
  1
Layout1
 70
0
 71
1
 10
0.0
 20
0.0
 11
210.0
 21
297.0
 12
0.0
 22
0.0
 32
0.0
 14
0.0
 24
0.0
 34
0.0
 15
0.0
 25
0.0
 35
0.0
146
0.0
 13
0.0
 23
0.0
 33
0.0
 16
1.0
 26
0.0
 36
0.0
 17
0.0
 27
1.0
 37
0.0
 76
0
330
211
345
0
346
0
  0
ENDSEC
  0
EOF
