999
DXF file: C:\Users\sesa63760\Dev\_Creo\CAD\MCADID0004740_3D-CAD\drw0001_2.dxf
999
Pro/ENGINEER 2019471 by Parametric Technology Corporation
  0
SECTION
  2
HEADER
  9
$ACADVER
  1
AC1024
  9
$DWGCODEPAGE
  3
ANSI_1252
  9
$EXTMAX
 10
114.5111039473
 20
161.9514184397
 30
0.0
  9
$EXTMIN
 10
0.0
 20
0.0
 30
0.0
  9
$LIMMIN
 10
0.0
 20
0.0
  9
$LIMMAX
 10
114.5111039473
 20
161.9514184397
  9
$VIEWCTR
 10
57.2555519736
 20
80.9757092199
  9
$VIEWSIZE
 40
161.9514184397
  9
$CLAYER
  8
0
  9
$LTSCALE
 40
10.556833202
  9
$CELTYPE
  6
BYLAYER
  9
$DIMSCALE
 40
1.0
  9
$DIMASZ
 40
1.3632274279
  9
$DIMEXO
 40
1.0
  9
$DIMDLI
 40
7.2938120305
  9
$DIMEXE
 40
1.0
  9
$DIMCEN
 40
1.7274817967
  9
$DIMLFAC
 40
1.0
  9
$DIMBLK
  1
_FILLED
  9
$DIMALT
 70
0
  9
$DIMALTF
 40
0.0393700787
  9
$DIMTXT
 40
1.9085183991
  9
$DIMTOL
 70
1
  9
$DIMLIM
 70
0
  9
$DIMTFAC
 40
1.0
  9
$DIMTP
 40
0.01
  9
$DIMTM
 40
0.01
  9
$DIMGAP
 40
0.625
  9
$DIMDSEP
 70
46
  9
$AUNITS
 70
0
  9
$PDMODE
 70
3
  9
$PDSIZE
 40
0.3125
  9
$HANDSEED
  5
366
  9
$TILEMODE
 70
1
  9
$MEASUREMENT
 70
1
  9
$INSUNITS
 70
4
  0
ENDSEC
  0
SECTION
  2
CLASSES
  0
CLASS
  1
ACDBDICTIONARYWDFLT
  2
AcDbDictionaryWithDefault
  3
AutoCAD 2000
 90
0
 91
1
280
0
281
0
  0
CLASS
  1
ACDBPLACEHOLDER
  2
AcDbPlaceHolder
  3
AutoCAD 2000
 90
0
 91
1
280
0
281
0
  0
CLASS
  1
LAYOUT
  2
AcDbLayout
  3
AutoCAD 2000
 90
0
 91
0
280
0
281
0
  0
ENDSEC
  0
SECTION
  2
TABLES
  0
TABLE
  2
VPORT
  5
8
100
AcDbSymbolTable
 70
2
  0
VPORT
  5
1F4
100
AcDbSymbolTableRecord
100
AcDbViewportTableRecord
  2
*ACTIVE
 70
0
 10
0.0
 20
0.0
 11
1.0
 21
1.0
 12
57.2555519736
 22
80.9757092199
 13
0.0
 23
0.0
 14
1.0
 24
1.0
 15
0.0
 25
0.0
 16
0.0
 26
0.0
 36
1.0
 17
0.0
 27
0.0
 37
0.0
 40
161.9514184397
 41
0.7070707071
 42
50.0
 43
0.0
 44
0.0
 50
0.0
 51
0.0
 71
0
 72
100
 73
1
 74
1
 75
0
 76
0
 77
0
 78
0
  0
ENDTAB
  0
TABLE
  2
LTYPE
  5
5
100
AcDbSymbolTable
 70
6
  0
LTYPE
  5
14
100
AcDbSymbolTableRecord
100
AcDbLinetypeTableRecord
  2
BYBLOCK
 70
0
  3

 72
65
 73
0
 40
0.0
  0
LTYPE
  5
15
100
AcDbSymbolTableRecord
100
AcDbLinetypeTableRecord
  2
BYLAYER
 70
0
  3

 72
65
 73
0
 40
0.0
  0
LTYPE
  5
16
100
AcDbSymbolTableRecord
100
AcDbLinetypeTableRecord
  2
CONTINUOUS
 70
64
  3
Solid line
 72
65
 73
0
 40
0.0
  0
LTYPE
  5
1F5
100
AcDbSymbolTableRecord
100
AcDbLinetypeTableRecord
  2
CENTER
 70
64
  3
____ _ ____ _ ____ _ ____ _ ____ _ ____ _ ____
 72
65
 73
4
 40
0.6
 49
0.375
 74
0
 49
-0.075
 74
0
 49
0.075
 74
0
 49
-0.075
 74
0
  0
LTYPE
  5
1F6
100
AcDbSymbolTableRecord
100
AcDbLinetypeTableRecord
  2
HIDDEN
 70
64
  3
- - - - - - - - - - - - - - - - - - - -
 72
65
 73
2
 40
0.2
 49
0.1
 74
0
 49
-0.1
 74
0
  0
LTYPE
  5
1F7
100
AcDbSymbolTableRecord
100
AcDbLinetypeTableRecord
  2
PHANTOM
 70
64
  3
_____ _ _ _____ _ _ _____ _ _ _____
 72
65
 73
6
 40
0.8
 49
0.45
 74
0
 49
-0.05
 74
0
 49
0.1
 74
0
 49
-0.05
 74
0
 49
0.1
 74
0
 49
-0.05
 74
0
  0
LTYPE
  5
1F8
100
AcDbSymbolTableRecord
100
AcDbLinetypeTableRecord
  2
DOT
 70
64
  3
. . . . . . . . . . . . . . . . . . . .
 72
65
 73
2
 40
0.2
 49
0.1
 74
0
 49
-0.1
 74
0
  0
LTYPE
  5
1F9
100
AcDbSymbolTableRecord
100
AcDbLinetypeTableRecord
  2
DASHED
 70
64
  3
- - - - - - - - - - - - - - - - - - - -
 72
65
 73
2
 40
0.2
 49
0.1
 74
0
 49
-0.1
 74
0
  0
ENDTAB
  0
TABLE
  2
LAYER
  5
2
100
AcDbSymbolTable
 70
36
  0
LAYER
  5
10
100
AcDbSymbolTableRecord
100
AcDbLayerTableRecord
  2
0
 70
0
 62
7
  6
CONTINUOUS
370
-3
390
F
  0
LAYER
  5
1FA
100
AcDbSymbolTableRecord
100
AcDbLayerTableRecord
  2
DEFAULT_1
 70
0
 62
7
  6
CENTER
370
-3
390
F
  0
LAYER
  5
1FB
100
AcDbSymbolTableRecord
100
AcDbLayerTableRecord
  2
DEFAULT_2
 70
0
 62
7
  6
HIDDEN
370
-3
390
F
  0
LAYER
  5
1FC
100
AcDbSymbolTableRecord
100
AcDbLayerTableRecord
  2
DEFAULT_3
 70
0
 62
7
  6
PHANTOM
370
-3
390
F
  0
LAYER
  5
1FD
100
AcDbSymbolTableRecord
100
AcDbLayerTableRecord
  2
00_COMPONENTS
 70
0
 62
7
  6
CONTINUOUS
370
-3
390
F
  0
LAYER
  5
1FE
100
AcDbSymbolTableRecord
100
AcDbLayerTableRecord
  2
01_1_DEFAULT_DATUMS
 70
0
 62
7
  6
CONTINUOUS
370
-3
390
F
  0
LAYER
  5
1FF
100
AcDbSymbolTableRecord
100
AcDbLayerTableRecord
  2
01_PLANES
 70
0
 62
7
  6
CONTINUOUS
370
-3
390
F
  0
LAYER
  5
200
100
AcDbSymbolTableRecord
100
AcDbLayerTableRecord
  2
02_COORD_SYS
 70
0
 62
7
  6
CONTINUOUS
370
-3
390
F
  0
LAYER
  5
201
100
AcDbSymbolTableRecord
100
AcDbLayerTableRecord
  2
03_AXES
 70
0
 62
7
  6
CONTINUOUS
370
-3
390
F
  0
LAYER
  5
202
100
AcDbSymbolTableRecord
100
AcDbLayerTableRecord
  2
04_POINTS
 70
0
 62
7
  6
CONTINUOUS
370
-3
390
F
  0
LAYER
  5
203
100
AcDbSymbolTableRecord
100
AcDbLayerTableRecord
  2
05_CURVES
 70
0
 62
7
  6
CONTINUOUS
370
-3
390
F
  0
LAYER
  5
204
100
AcDbSymbolTableRecord
100
AcDbLayerTableRecord
  2
06_SURFS
 70
0
 62
7
  6
CONTINUOUS
370
-3
390
F
  0
LAYER
  5
205
100
AcDbSymbolTableRecord
100
AcDbLayerTableRecord
  2
07_COSMETICS
 70
0
 62
7
  6
CONTINUOUS
370
-3
390
F
  0
LAYER
  5
206
100
AcDbSymbolTableRecord
100
AcDbLayerTableRecord
  2
10_NOTES
 70
0
 62
7
  6
CONTINUOUS
370
-3
390
F
  0
LAYER
  5
207
100
AcDbSymbolTableRecord
100
AcDbLayerTableRecord
  2
11_NOTES_PUB
 70
0
 62
7
  6
CONTINUOUS
370
-3
390
F
  0
LAYER
  5
208
100
AcDbSymbolTableRecord
100
AcDbLayerTableRecord
  2
13_REF_GTOL
 70
0
 62
7
  6
CONTINUOUS
370
-3
390
F
  0
LAYER
  5
209
100
AcDbSymbolTableRecord
100
AcDbLayerTableRecord
  2
16_MISC
 70
0
 62
7
  6
CONTINUOUS
370
-3
390
F
  0
LAYER
  5
20A
100
AcDbSymbolTableRecord
100
AcDbLayerTableRecord
  2
17_NO_PRINT
 70
0
 62
7
  6
CONTINUOUS
370
-3
390
F
  0
LAYER
  5
20B
100
AcDbSymbolTableRecord
100
AcDbLayerTableRecord
  2
18_DATUM_CAMS_JOINTS
 70
0
 62
7
  6
CONTINUOUS
370
-3
390
F
  0
LAYER
  5
20C
100
AcDbSymbolTableRecord
100
AcDbLayerTableRecord
  2
19_DATUM_FUNCTIONAL
 70
0
 62
7
  6
CONTINUOUS
370
-3
390
F
  0
LAYER
  5
20D
100
AcDbSymbolTableRecord
100
AcDbLayerTableRecord
  2
20_DATUM_KINEMATIC_SCHEME
 70
0
 62
7
  6
CONTINUOUS
370
-3
390
F
  0
ENDTAB
  0
TABLE
  2
STYLE
  5
3
100
AcDbSymbolTable
 70
1
  0
STYLE
  5
11
100
AcDbSymbolTableRecord
100
AcDbTextStyleTableRecord
  2
STANDARD
 70
0
 40
0.0
 41
1.0
 50
0.0
 71
0
 42
0.2
  3
ARIAL.TTF
  4

  0
STYLE
  5
20E
100
AcDbSymbolTableRecord
100
AcDbTextStyleTableRecord
  2
TEXTSTYLE_1
 70
0
 40
0.0
 41
0.8
 50
0.0
 71
0
 42
0.2
  3
gdt
  4

  0
ENDTAB
  0
TABLE
  2
VIEW
  5
6
100
AcDbSymbolTable
 70
0
  0
ENDTAB
  0
TABLE
  2
UCS
  5
7
100
AcDbSymbolTable
 70
0
  0
ENDTAB
  0
TABLE
  2
APPID
  5
9
100
AcDbSymbolTable
 70
1
  0
APPID
  5
20F
100
AcDbSymbolTableRecord
100
AcDbRegAppTableRecord
  2
ACAD
 70
0
  0
ENDTAB
  0
TABLE
  2
BLOCK_RECORD
  5
1
100
AcDbSymbolTable
 70
0
  0
BLOCK_RECORD
  5
210
100
AcDbSymbolTableRecord
100
AcDbBlockTableRecord
  2
*Model_Space
  0
BLOCK_RECORD
  5
211
100
AcDbSymbolTableRecord
100
AcDbBlockTableRecord
  2
*Paper_Space
  0
BLOCK_RECORD
  5
212
100
AcDbSymbolTableRecord
100
AcDbBlockTableRecord
  2
_FILLED
  0
ENDTAB
  0
TABLE
  2
DIMSTYLE
  5
A
100
AcDbSymbolTable
 70
1
100
AcDbDimStyleTable
 71
0
  0
DIMSTYLE
105
213
100
AcDbSymbolTableRecord
100
AcDbDimStyleTableRecord
  2
STANDARD
 70
0
  3

  4

 40
1.0
 41
1.3632274279
 42
1.0
 43
0.38
 44
1.0
 45
0.0
 46
0.0
 47
0.01
 48
0.01
140
1.9085183991
141
0.09
142
0.0
143
25.4
144
1.0
145
0.0
146
1.0
147
0.625
 71
1
 72
0
 73
0
 74
0
 75
0
 76
0
 77
1
 78
8
 79
2
170
0
171
1
172
0
173
0
174
0
175
0
176
0
177
0
178
0
270
2
179
2
271
2
272
2
273
2
274
2
275
0
280
0
281
0
282
0
283
1
284
8
285
0
286
0
287
3
288
0
340
11
278
46
341
212
342
212
343
212
344
212
  0
ENDTAB
  0
ENDSEC
  0
SECTION
  2
BLOCKS
  0
BLOCK
  5
20
100
AcDbEntity
  8
0
100
AcDbBlockBegin
  2
*Model_Space
 70
0
 10
0.0
 20
0.0
 30
0.0
  3
*Model_Space
  1

  0
ENDBLK
  5
21
100
AcDbEntity
  8
0
100
AcDbBlockEnd
  0
BLOCK
  5
1C
100
AcDbEntity
  8
0
100
AcDbBlockBegin
  2
*Paper_Space
 70
0
 10
0.0
 20
0.0
 30
0.0
  3
*Paper_Space
  1

  0
ENDBLK
  5
1D
100
AcDbEntity
  8
0
100
AcDbBlockEnd
  0
BLOCK
  5
214
100
AcDbEntity
  8
0
100
AcDbBlockBegin
  2
_FILLED
 70
64
 10
0.0
 20
0.0
  3
_FILLED
  1

  0
SOLID
  5
215
100
AcDbEntity
  8
0
  6
BYBLOCK
 62
0
100
AcDbTrace
 10
0.0
 20
0.0
 11
-1.0
 21
0.25
 12
-1.0
 22
-0.25
 13
-1.0
 23
-0.25
  0
ENDBLK
  5
216
100
AcDbEntity
  8
0
  6
BYBLOCK
 62
0
100
AcDbBlockEnd
  0
ENDSEC
  0
SECTION
  2
ENTITIES
  0
LINE
  5
217
100
AcDbEntity
  8
0
100
AcDbLine
 62
7
  6
BYLAYER
 10
59.7984597751
 20
10.8033687943
 11
56.2984597751
 21
10.8033687943
  0
LINE
  5
218
100
AcDbEntity
  8
0
100
AcDbLine
 62
7
  6
BYLAYER
 10
64.0984597751
 20
10.9533687943
 11
51.9984597751
 21
10.9533687943
  0
LINE
  5
219
100
AcDbEntity
  8
0
100
AcDbLine
 62
7
  6
BYLAYER
 10
64.3984597751
 20
11.9533687943
 11
51.6984597751
 21
11.9533687943
  0
LINE
  5
21A
100
AcDbEntity
  8
0
100
AcDbLine
 62
7
  6
BYLAYER
 10
51.6984597751
 20
12.7533687943
 11
64.3984597751
 21
12.7533687943
  0
LINE
  5
21B
100
AcDbEntity
  8
0
100
AcDbLine
 62
7
  6
BYLAYER
 10
64.3984597751
 20
13.9533687943
 11
51.6984597751
 21
13.9533687943
  0
LINE
  5
21C
100
AcDbEntity
  8
0
100
AcDbLine
 62
7
  6
BYLAYER
 10
51.6984597751
 20
15.1033687943
 11
64.3984597751
 21
15.1033687943
  0
LINE
  5
21D
100
AcDbEntity
  8
0
100
AcDbLine
 62
7
  6
BYLAYER
 10
64.7484597751
 20
16.4433687943
 11
51.3484597751
 21
16.4433687943
  0
LINE
  5
21E
100
AcDbEntity
  8
0
100
AcDbLine
 62
7
  6
BYLAYER
 10
66.0484597751
 20
18.5533687943
 11
50.0484597751
 21
18.5533687943
  0
LINE
  5
21F
100
AcDbEntity
  8
0
100
AcDbLine
 62
7
  6
BYLAYER
 10
50.0484597751
 20
19.5533687943
 11
66.0484597751
 21
19.5533687943
  0
LINE
  5
220
100
AcDbEntity
  8
0
100
AcDbLine
 62
7
  6
BYLAYER
 10
65.5484597751
 20
20.0533687943
 11
50.5484597751
 21
20.0533687943
  0
LINE
  5
221
100
AcDbEntity
  8
0
100
AcDbLine
 62
7
  6
BYLAYER
 10
50.5484597751
 20
20.5533687943
 11
65.5482401298
 21
20.5533687943
  0
LINE
  5
222
100
AcDbEntity
  8
0
100
AcDbLine
 62
7
  6
BYLAYER
 10
50.7484597974
 20
20.7533687943
 11
65.3482459647
 21
20.7533687943
  0
LINE
  5
223
100
AcDbEntity
  8
0
100
AcDbLine
 62
7
  6
BYLAYER
 10
65.3484597528
 20
21.9533687943
 11
50.7485657393
 21
21.9533687943
  0
LINE
  5
224
100
AcDbEntity
  8
0
100
AcDbLine
 62
7
  6
BYLAYER
 10
65.5484597751
 20
22.1533687943
 11
50.5485686195
 21
22.1533687943
  0
LINE
  5
225
100
AcDbEntity
  8
0
100
AcDbLine
 62
7
  6
BYLAYER
 10
50.5484597751
 20
24.3533687943
 11
65.5484597751
 21
24.3533687943
  0
LINE
  5
226
100
AcDbEntity
  8
0
100
AcDbLine
 62
7
  6
BYLAYER
 10
51.6484597751
 20
25.4533687943
 11
64.4484597751
 21
25.4533687943
  0
LINE
  5
227
100
AcDbEntity
  8
0
100
AcDbLine
 62
7
  6
BYLAYER
 10
53.2984597751
 20
26.9727435228
 11
62.7984597751
 21
26.9727435228
  0
LWPOLYLINE
  5
228
100
AcDbEntity
  8
0
100
AcDbPolyline
 62
7
  6
BYLAYER
 90
7
 70
0
 10
60.2277626774
 20
37.5733151228
 10
60.2168644704
 20
37.5706197898
 10
60.0718359037
 20
37.5416494607
 10
59.806761582
 20
37.5032560323
 10
59.4403034569
 20
37.4611884773
 10
58.9888783296
 20
37.417092745
 10
58.4707484647
 20
37.3711557283
  0
LWPOLYLINE
  5
229
100
AcDbEntity
  8
0
100
AcDbPolyline
 62
7
  6
BYLAYER
 90
5
 70
0
 10
56.0008974777
 20
37.1345882543
 10
55.6459462104
 20
37.0722227117
 10
55.3644934729
 20
36.9784067788
 10
55.0718429874
 20
36.6997390413
 10
54.9985452823
 20
36.409829888
  0
LWPOLYLINE
  5
22A
100
AcDbEntity
  8
0
100
AcDbPolyline
 62
7
  6
BYLAYER
 90
5
 70
0
 10
60.1054081647
 20
37.6372166388
 10
60.4520575861
 20
37.6978486755
 10
60.7243163503
 20
37.7881014271
 10
61.016361517
 20
38.0591435006
 10
61.0954570535
 20
38.3601147097
  0
LWPOLYLINE
  5
22B
100
AcDbEntity
  8
0
100
AcDbPolyline
 62
7
  6
BYLAYER
 90
5
 70
0
 10
60.0601425617
 20
36.3309422086
 10
60.4288154947
 20
36.3930472432
 10
60.7152699098
 20
36.4829906001
 10
61.0162907196
 20
36.7551510814
 10
61.0973869597
 20
37.05948042
  0
LWPOLYLINE
  5
22C
100
AcDbEntity
  8
0
100
AcDbPolyline
 62
7
  6
BYLAYER
 90
9
 70
0
 10
60.2200561207
 20
36.2709619865
 10
60.2150673881
 20
36.2703921988
 10
60.0532200666
 20
36.2383483303
 10
59.7492853229
 20
36.1959715661
 10
59.3259297347
 20
36.1495726995
 10
58.8043968878
 20
36.1003947901
 10
58.2086066481
 20
36.0487015765
 10
57.572106039
 20
35.9946852918
 10
57.0976335953
 20
35.9530111395
  0
LWPOLYLINE
  5
22D
100
AcDbEntity
  8
0
100
AcDbPolyline
 62
7
  6
BYLAYER
 90
3
 70
0
 10
57.4594531946
 20
38.5850958606
 10
56.8071200485
 20
38.5258160706
 10
56.2482910653
 20
38.4665435699
  0
LINE
  5
22E
100
AcDbEntity
  8
0
100
AcDbLine
 62
7
  6
BYLAYER
 10
57.0705980773
 20
36.0497418716
 11
57.5820080205
 21
36.0954306563
  0
LWPOLYLINE
  5
22F
100
AcDbEntity
  8
0
100
AcDbPolyline
 62
7
  6
BYLAYER
 90
5
 70
0
 10
58.4707484647
 20
37.3711557283
 10
57.6152939988
 20
37.298438649
 10
57.0333424297
 20
37.2471031411
 10
56.4805400056
 20
37.1928259986
 10
56.0008974777
 20
37.1345882543
  0
LWPOLYLINE
  5
230
100
AcDbEntity
  8
0
100
AcDbPolyline
 62
7
  6
BYLAYER
 90
5
 70
0
 10
57.5820080205
 20
36.0954306563
 10
58.4291048106
 20
36.1674769512
 10
59.0100996211
 20
36.21831584
 10
59.5685498239
 20
36.2724369387
 10
60.0601425617
 20
36.3309422086
  0
LINE
  5
231
100
AcDbEntity
  8
0
100
AcDbLine
 62
7
  6
BYLAYER
 10
54.6882890401
 20
34.5533687943
 11
61.40863051
 21
34.5533687943
  0
LINE
  5
232
100
AcDbEntity
  8
0
100
AcDbLine
 62
7
  6
BYLAYER
 10
60.9884597731
 20
34.6333687969
 11
55.1088424782
 21
34.6333687969
  0
LINE
  5
233
100
AcDbEntity
  8
0
100
AcDbLine
 62
7
  6
BYLAYER
 10
55.7984597751
 20
35.5533687943
 11
56.9055635757
 21
35.5533687943
  0
LWPOLYLINE
  5
234
100
AcDbEntity
  8
0
100
AcDbPolyline
 62
7
  6
BYLAYER
 90
6
 70
0
 10
55.8748052665
 20
35.8986734205
 10
55.8769163135
 20
35.8986632776
 10
56.0089278926
 20
35.9260613061
 10
56.2646186522
 20
35.9639781979
 10
56.6254169703
 20
36.0058279573
 10
57.0705980773
 20
36.0497418716
  0
LWPOLYLINE
  5
235
100
AcDbEntity
  8
0
100
AcDbPolyline
 62
7
  6
BYLAYER
 90
11
 70
0
 10
55.8782562617
 20
37.1999608714
 10
55.8805271269
 20
37.1998947817
 10
56.0333466027
 20
37.2304536603
 10
56.3273474186
 20
37.271782966
 10
56.7325310089
 20
37.3168730162
 10
57.2312245132
 20
37.3645459313
 10
57.8038866037
 20
37.4145108204
 10
58.4206122319
 20
37.4666938188
 10
59.0460641071
 20
37.5215464748
 10
59.6297805919
 20
37.5791179335
 10
60.1054081647
 20
37.6372166388
  0
LWPOLYLINE
  5
236
100
AcDbEntity
  8
0
100
AcDbPolyline
 62
7
  6
BYLAYER
 90
11
 70
0
 10
55.8755913365
 20
38.4995746498
 10
55.8770147582
 20
38.4992568183
 10
56.0241230433
 20
38.5286877079
 10
56.2968408009
 20
38.5678719861
 10
56.6718957588
 20
38.6107129103
 10
57.1404341847
 20
38.6563174367
 10
57.6875431361
 20
38.7045261637
 10
58.2923492159
 20
38.7557624889
 10
58.9229438015
 20
38.8104715747
 10
59.5236421753
 20
38.8679071624
 10
60.0373160357
 20
38.927590704
  0
LWPOLYLINE
  5
237
100
AcDbEntity
  8
0
100
AcDbPolyline
 62
7
  6
BYLAYER
 90
5
 70
0
 10
55.8034852601
 20
41.0037741136
 10
55.504011382
 20
40.9346204114
 10
55.2093473836
 20
40.7734167276
 10
55.0043358248
 20
40.3708211515
 10
55.0012121346
 20
40.3102364752
  0
LWPOLYLINE
  5
238
100
AcDbEntity
  8
0
100
AcDbPolyline
 62
7
  6
BYLAYER
 90
5
 70
0
 10
55.8231766176
 20
38.4072362277
 10
55.5156301583
 20
38.3378486463
 10
55.2188455046
 20
38.1814150148
 10
55.004512901
 20
37.77580357
 10
55.0007791563
 20
37.709445626
  0
LWPOLYLINE
  5
239
100
AcDbEntity
  8
0
100
AcDbPolyline
 62
7
  6
BYLAYER
 90
11
 70
0
 10
60.2235205014
 20
42.7722759005
 10
60.2156494138
 20
42.7705563749
 10
60.0610730495
 20
42.7396930977
 10
59.7703486729
 20
42.6985469992
 10
59.3666855491
 20
42.653672301
 10
58.8691183039
 20
42.606213231
 10
58.2965071998
 20
42.5561913487
 10
57.6775736309
 20
42.5037282434
 10
57.0535107828
 20
42.4490288441
 10
56.4725681684
 20
42.3919882632
 10
55.9941190792
 20
42.333434341
  0
LWPOLYLINE
  5
23A
100
AcDbEntity
  8
0
100
AcDbPolyline
 62
7
  6
BYLAYER
 90
5
 70
0
 10
55.8691418998
 20
39.7146370408
 10
55.5396646042
 20
39.6456728649
 10
55.2192555257
 20
39.482504057
 10
55.0050844837
 20
39.0782051449
 10
55.0012016188
 20
39.0105965614
  0
LWPOLYLINE
  5
23B
100
AcDbEntity
  8
0
100
AcDbPolyline
 62
7
  6
BYLAYER
 90
11
 70
0
 10
55.8711880981
 20
41.0978512649
 10
55.875828543
 20
41.0986795563
 10
56.0080618936
 20
41.1258101165
 10
56.2633048274
 20
41.1636374675
 10
56.6300874512
 20
41.206386801
 10
57.102845692
 20
41.2528061533
 10
57.6647205881
 20
41.3025307467
 10
58.2895928938
 20
41.3555623838
 10
58.9380131917
 20
41.4118635551
 10
59.547944932
 20
41.4703389711
 10
60.0573077449
 20
41.5303487298
  0
LWPOLYLINE
  5
23C
100
AcDbEntity
  8
0
100
AcDbPolyline
 62
7
  6
BYLAYER
 90
5
 70
0
 10
55.9941190792
 20
42.333434341
 10
55.6457318113
 20
42.2724223684
 10
55.3665633758
 20
42.1801115554
 10
55.0718760268
 20
41.8988920186
 10
54.9996823328
 20
41.6109579614
  0
LWPOLYLINE
  5
23D
100
AcDbEntity
  8
0
100
AcDbPolyline
 62
7
  6
BYLAYER
 90
5
 70
0
 10
60.0573077449
 20
41.5303487298
 10
60.4300948373
 20
41.5935006094
 10
60.7188280186
 20
41.6854091832
 10
61.0168422641
 20
41.9557905592
 10
61.098307111
 20
42.2606527018
  0
LWPOLYLINE
  5
23E
100
AcDbEntity
  8
0
100
AcDbPolyline
 62
7
  6
BYLAYER
 90
5
 70
0
 10
60.0626672744
 20
40.2310885298
 10
60.4305319086
 20
40.2932581968
 10
60.719772284
 20
40.3863759409
 10
61.0160158002
 20
40.6582941194
 10
61.0960197584
 20
40.9608515558
  0
LWPOLYLINE
  5
23F
100
AcDbEntity
  8
0
100
AcDbPolyline
 62
7
  6
BYLAYER
 90
5
 70
0
 10
60.0373160357
 20
38.927590704
 10
60.422425135
 20
38.9916456868
 10
60.7186284541
 20
39.0858165591
 10
61.0172873416
 20
39.3594689523
 10
61.0967809633
 20
39.661029337
  0
LWPOLYLINE
  5
240
100
AcDbEntity
  8
0
100
AcDbPolyline
 62
7
  6
BYLAYER
 90
5
 70
0
 10
60.0448978129
 20
42.8288666608
 10
60.4192102324
 20
42.8909485283
 10
60.7060837541
 20
42.9787324524
 10
61.0119176714
 20
43.2479816679
 10
61.097082532
 20
43.5594756821
  0
LWPOLYLINE
  5
241
100
AcDbEntity
  8
0
100
AcDbPolyline
 62
7
  6
BYLAYER
 90
9
 70
0
 10
56.0254856362
 20
39.828999488
 10
56.3035975726
 20
39.8687235112
 10
56.6880739665
 20
39.9123465294
 10
57.166975831
 20
39.9587499249
 10
57.7253448994
 20
40.0077824927
 10
58.3362116533
 20
40.0594844628
 10
58.9629662111
 20
40.1140418247
 10
59.5597753645
 20
40.1716881645
 10
60.0626672744
 20
40.2310885298
  0
LINE
  5
242
100
AcDbEntity
  8
0
100
AcDbLine
 62
7
  6
BYLAYER
 10
56.2086010955
 20
41.0616549273
 11
55.8034852601
 21
41.0037741136
  0
LINE
  5
243
100
AcDbEntity
  8
0
100
AcDbLine
 62
7
  6
BYLAYER
 10
56.2482910653
 20
38.4665435699
 11
55.8231766176
 21
38.4072362277
  0
LINE
  5
244
100
AcDbEntity
  8
0
100
AcDbLine
 62
7
  6
BYLAYER
 10
56.3310867482
 20
39.7761536171
 11
55.8691418998
 21
39.7146370408
  0
LWPOLYLINE
  5
245
100
AcDbEntity
  8
0
100
AcDbPolyline
 62
7
  6
BYLAYER
 90
3
 70
0
 10
55.875776573
 20
39.7994648983
 10
55.8796068811
 20
39.7999406193
 10
56.0254856362
 20
39.828999488
  0
LWPOLYLINE
  5
246
100
AcDbEntity
  8
0
100
AcDbPolyline
 62
7
  6
BYLAYER
 90
3
 70
0
 10
57.3777409228
 20
41.1779936336
 10
56.742593342
 20
41.1195917182
 10
56.2086010955
 20
41.0616549273
  0
LWPOLYLINE
  5
247
100
AcDbEntity
  8
0
100
AcDbPolyline
 62
7
  6
BYLAYER
 90
4
 70
0
 10
58.5125811764
 20
39.9746789865
 10
57.5554833658
 20
39.8933383965
 10
56.9107848974
 20
39.8358308822
 10
56.3310867482
 20
39.7761536171
  0
LINE
  5
248
100
AcDbEntity
  8
0
100
AcDbLine
 62
7
  6
BYLAYER
 10
56.8820676998
 20
39.9311436329
 11
58.0015529093
 21
39.9311436329
  0
LWPOLYLINE
  5
249
100
AcDbEntity
  8
0
100
AcDbPolyline
 62
7
  6
BYLAYER
 90
3
 70
0
 10
55.3710366554
 20
39.7389612695
 10
55.5185149794
 20
39.6817137499
 10
55.6122323231
 20
39.6608622968
  0
LINE
  5
24A
100
AcDbEntity
  8
0
100
AcDbLine
 62
7
  6
BYLAYER
 10
55.3626182876
 20
39.7431349258
 11
55.371040398
 21
39.7389416423
  0
LINE
  5
24B
100
AcDbEntity
  8
0
100
AcDbLine
 62
7
  6
BYLAYER
 10
66.0484597751
 20
19.5533687943
 11
65.5484597751
 21
20.0533687943
  0
LWPOLYLINE
  5
24C
100
AcDbEntity
  8
0
100
AcDbPolyline
 62
7
  6
BYLAYER
 90
11
 70
0
 10
55.8731182831
 20
42.3979630811
 10
55.8812786242
 20
42.3998199054
 10
56.0314604698
 20
42.4299631107
 10
56.3146774123
 20
42.4703462209
 10
56.7070279188
 20
42.514319941
 10
57.1881000618
 20
42.5605577975
 10
57.7383839336
 20
42.6088921043
 10
58.3334331544
 20
42.6593396407
 10
58.9444120978
 20
42.7123729257
 10
59.5349415569
 20
42.7689293807
 10
60.0448978129
 20
42.8288666608
  0
LWPOLYLINE
  5
24D
100
AcDbEntity
  8
0
100
AcDbPolyline
 62
7
  6
BYLAYER
 90
5
 70
0
 10
55.8239314809
 20
43.6071014148
 10
55.5130039859
 20
43.5369701438
 10
55.2103374135
 20
43.3755027241
 10
55.0021823493
 20
42.9736568932
 10
54.9986975589
 20
42.909639288
  0
LWPOLYLINE
  5
24E
100
AcDbEntity
  8
0
100
AcDbPolyline
 62
7
  6
BYLAYER
 90
5
 70
0
 10
60.2674733377
 20
46.7620804562
 10
60.5762081403
 20
46.8309749824
 10
60.872262702
 20
46.9839608736
 10
61.0908730065
 20
47.381162944
 10
61.0962706257
 20
47.4609417264
  0
LWPOLYLINE
  5
24F
100
AcDbEntity
  8
0
100
AcDbPolyline
 62
7
  6
BYLAYER
 90
5
 70
0
 10
60.2691852067
 20
45.4625246632
 10
60.5775604505
 20
45.5307865036
 10
60.8755274174
 20
45.6861487631
 10
61.090607996
 20
46.0828648041
 10
61.0956374237
 20
46.1598798329
  0
LWPOLYLINE
  5
250
100
AcDbEntity
  8
0
100
AcDbPolyline
 62
7
  6
BYLAYER
 90
5
 70
0
 10
55.8426369479
 20
44.9105177682
 10
55.524114207
 20
44.8405349247
 10
55.2182058428
 20
44.6807942732
 10
55.0047703423
 20
44.2761257837
 10
55.0010116539
 20
44.2095533713
  0
LWPOLYLINE
  5
251
100
AcDbEntity
  8
0
100
AcDbPolyline
 62
7
  6
BYLAYER
 90
10
 70
0
 10
55.8767900022
 20
43.6994464502
 10
55.8843955625
 20
43.7009705288
 10
56.0672470775
 20
43.7359196323
 10
56.4225346416
 20
43.7831824905
 10
56.9208081022
 20
43.835577371
 10
57.5515478381
 20
43.8928705197
 10
58.2684201386
 20
43.9537768761
 10
58.975766634
 20
44.0151517891
 10
59.5894080707
 20
44.0748051194
 10
60.0740816568
 20
44.1327946594
  0
LWPOLYLINE
  5
252
100
AcDbEntity
  8
0
100
AcDbPolyline
 62
7
  6
BYLAYER
 90
11
 70
0
 10
60.2227486035
 20
46.6713784317
 10
60.217054537
 20
46.6703642053
 10
60.062626782
 20
46.6399753486
 10
59.7842128605
 20
46.6005030599
 10
59.4040695991
 20
46.5574866941
 10
58.9311684547
 20
46.5117377001
 10
58.3810791505
 20
46.4634243973
 10
57.7750323365
 20
46.4121076121
 10
57.1465070731
 20
46.3574341436
 10
56.551125364
 20
46.3001610156
 10
56.0439446092
 20
46.2406542502
  0
LWPOLYLINE
  5
253
100
AcDbEntity
  8
0
100
AcDbPolyline
 62
7
  6
BYLAYER
 90
5
 70
0
 10
60.0827101845
 20
48.033917001
 10
60.4382898908
 20
48.0953059728
 10
60.7183450557
 20
48.1850560681
 10
61.0159551725
 20
48.4538662156
 10
61.0984239063
 20
48.760463047
  0
LWPOLYLINE
  5
254
100
AcDbEntity
  8
0
100
AcDbPolyline
 62
7
  6
BYLAYER
 90
5
 70
0
 10
60.0740816568
 20
44.1327946594
 10
60.4313112278
 20
44.193250391
 10
60.714808123
 20
44.2836192692
 10
61.0132987866
 20
44.5537868522
 10
61.0954791822
 20
44.8602669016
  0
LWPOLYLINE
  5
255
100
AcDbEntity
  8
0
100
AcDbPolyline
 62
7
  6
BYLAYER
 90
5
 70
0
 10
56.0439446092
 20
46.2406542502
 10
55.6650585218
 20
46.1767035394
 10
55.3701174278
 20
46.0805906534
 10
55.0741654377
 20
45.800717236
 10
55.0002381454
 20
45.5093548769
  0
LINE
  5
256
100
AcDbEntity
  8
0
100
AcDbLine
 62
7
  6
BYLAYER
 10
56.2662562913
 20
43.6688101503
 11
55.8239314809
 21
43.6071014148
  0
LINE
  5
257
100
AcDbEntity
  8
0
100
AcDbLine
 62
7
  6
BYLAYER
 10
56.2474639045
 20
47.5663521041
 11
55.8232424593
 21
47.5071362698
  0
LINE
  5
258
100
AcDbEntity
  8
0
100
AcDbLine
 62
7
  6
BYLAYER
 10
59.8448410016
 20
45.4034676409
 11
60.2691852067
 21
45.4625246632
  0
LINE
  5
259
100
AcDbEntity
  8
0
100
AcDbLine
 62
7
  6
BYLAYER
 10
59.8339408857
 20
46.7020778429
 11
60.2674733377
 21
46.7620804562
  0
LINE
  5
25A
100
AcDbEntity
  8
0
100
AcDbLine
 62
7
  6
BYLAYER
 10
56.28596778
 20
44.9709655755
 11
55.8426369479
 21
44.9105177682
  0
LWPOLYLINE
  5
25B
100
AcDbEntity
  8
0
100
AcDbPolyline
 62
7
  6
BYLAYER
 90
3
 70
0
 10
57.4322822501
 20
47.6827299549
 10
56.7987846506
 20
47.6251030672
 10
56.2474639045
 20
47.5663521041
  0
LWPOLYLINE
  5
25C
100
AcDbEntity
  8
0
100
AcDbPolyline
 62
7
  6
BYLAYER
 90
4
 70
0
 10
58.515549565
 20
43.8750151546
 10
57.5273710696
 20
43.7908937123
 10
56.8544580003
 20
43.7303732582
 10
56.2662562913
 20
43.6688101503
  0
LWPOLYLINE
  5
25D
100
AcDbEntity
  8
0
100
AcDbPolyline
 62
7
  6
BYLAYER
 90
4
 70
0
 10
58.4939944383
 20
45.1730834084
 10
57.5112190086
 20
45.089574
 10
56.8598969052
 20
45.0308996725
 10
56.28596778
 20
44.9709655755
  0
LWPOLYLINE
  5
25E
100
AcDbEntity
  8
0
100
AcDbPolyline
 62
7
  6
BYLAYER
 90
4
 70
0
 10
57.5713249831
 20
45.194572585
 10
58.5909660519
 20
45.2812878419
 10
59.2731365
 20
45.3428345659
 10
59.8448410016
 20
45.4034676409
  0
LWPOLYLINE
  5
25F
100
AcDbEntity
  8
0
100
AcDbPolyline
 62
7
  6
BYLAYER
 90
4
 70
0
 10
57.5522373144
 20
46.4929019476
 10
58.5683878315
 20
46.5793131046
 10
59.2524306923
 20
46.640964041
 10
59.8339408857
 20
46.7020778429
  0
LINE
  5
260
100
AcDbEntity
  8
0
100
AcDbLine
 62
7
  6
BYLAYER
 10
58.3029173538
 20
43.8566651519
 11
57.7964862971
 21
43.9134923804
  0
LINE
  5
261
100
AcDbEntity
  8
0
100
AcDbLine
 62
7
  6
BYLAYER
 10
58.3052273669
 20
46.4563998025
 11
57.7954699283
 21
46.5135545104
  0
LWPOLYLINE
  5
262
100
AcDbEntity
  8
0
100
AcDbPolyline
 62
7
  6
BYLAYER
 90
3
 70
0
 10
58.2940743155
 20
46.4560572957
 10
57.8319174442
 20
46.5094797052
 10
57.7969788942
 20
46.5138237296
  0
LWPOLYLINE
  5
263
100
AcDbEntity
  8
0
100
AcDbPolyline
 62
7
  6
BYLAYER
 90
3
 70
0
 10
58.2929087017
 20
43.8559916878
 10
57.9542961253
 20
43.8957329658
 10
57.8023219254
 20
43.914176596
  0
LWPOLYLINE
  5
264
100
AcDbEntity
  8
0
100
AcDbPolyline
 62
7
  6
BYLAYER
 90
11
 70
0
 10
60.2283147027
 20
50.5734203889
 10
60.2149307872
 20
50.5700382125
 10
60.0669627484
 20
50.5408275777
 10
59.7988493512
 20
50.5023002121
 10
59.4193313493
 20
50.4590052017
 10
58.9295281647
 20
50.4116259371
 10
58.3425686629
 20
50.360170635
 10
57.6972979883
 20
50.3054696233
 10
57.0462706359
 20
50.2482851996
 10
56.454683943
 20
50.1900183374
 10
55.9819170219
 20
50.1319271798
  0
LWPOLYLINE
  5
265
100
AcDbEntity
  8
0
100
AcDbPolyline
 62
7
  6
BYLAYER
 90
11
 70
0
 10
60.2253404996
 20
49.2729079379
 10
60.2139159053
 20
49.2701028405
 10
60.0583985942
 20
49.2392830231
 10
59.7715121213
 20
49.1986909227
 10
59.3740289523
 20
49.154407318
 10
58.8871328407
 20
49.1078465031
 10
58.3292501464
 20
49.058996315
 10
57.7232104873
 20
49.0076133512
 10
57.1063110633
 20
48.9538189721
 10
56.5239673821
 20
48.8974763003
 10
56.0280787418
 20
48.8382349905
  0
LWPOLYLINE
  5
266
100
AcDbEntity
  8
0
100
AcDbPolyline
 62
7
  6
BYLAYER
 90
5
 70
0
 10
55.8100844317
 20
51.4046519974
 10
55.5095722934
 20
51.3359900069
 10
55.2124414174
 20
51.1777563592
 10
55.0020464328
 20
50.7747542362
 10
54.9984768473
 20
50.7099828722
  0
LWPOLYLINE
  5
267
100
AcDbEntity
  8
0
100
AcDbPolyline
 62
7
  6
BYLAYER
 90
5
 70
0
 10
55.8232424593
 20
47.5071362698
 10
55.5126566087
 20
47.437424738
 10
55.2092854713
 20
47.2733459875
 10
55.0046039027
 20
46.8714975168
 10
55.0014281879
 20
46.8103501412
  0
LWPOLYLINE
  5
268
100
AcDbEntity
  8
0
100
AcDbPolyline
 62
7
  6
BYLAYER
 90
5
 70
0
 10
60.2448212239
 20
49.3586417504
 10
60.5630245978
 20
49.4264582677
 10
60.8681561168
 20
49.5787813678
 10
61.091409778
 20
49.97851806
 10
61.0969827102
 20
50.0595695346
  0
LWPOLYLINE
  5
269
100
AcDbEntity
  8
0
100
AcDbPolyline
 62
7
  6
BYLAYER
 90
11
 70
0
 10
55.8727759724
 20
50.1979395235
 10
55.8792900985
 20
50.1993080943
 10
56.0220279949
 20
50.2283002354
 10
56.2934080991
 20
50.2676665583
 10
56.6739055603
 20
50.3109254715
 10
57.1455720081
 20
50.3566719796
 10
57.6909898526
 20
50.4048121797
 10
58.2886009129
 20
50.4555335551
 10
58.9098253761
 20
50.5092928401
 10
59.5136947178
 20
50.5667203883
 10
60.0303539247
 20
50.62686172
  0
LWPOLYLINE
  5
26A
100
AcDbEntity
  8
0
100
AcDbPolyline
 62
7
  6
BYLAYER
 90
11
 70
0
 10
55.8709888292
 20
47.5977108241
 10
55.8762341986
 20
47.5987314974
 10
56.0095583751
 20
47.6260642005
 10
56.2658299046
 20
47.6639920817
 10
56.6330842685
 20
47.7067074278
 10
57.1072462634
 20
47.753201623
 10
57.6748879431
 20
47.8034026428
 10
58.312891003
 20
47.8575521943
 10
58.97457536
 20
47.9151599377
 10
59.5865118409
 20
47.9743678555
 10
60.0827101845
 20
48.033917001
  0
LWPOLYLINE
  5
26B
100
AcDbEntity
  8
0
100
AcDbPolyline
 62
7
  6
BYLAYER
 90
11
 70
0
 10
55.8763521054
 20
51.4991762373
 10
55.8821232003
 20
51.5002718312
 10
56.0316116251
 20
51.5301668408
 10
56.318693542
 20
51.5707281655
 10
56.7133597055
 20
51.6149070716
 10
57.1981273828
 20
51.6615300351
 10
57.7570639384
 20
51.7105248433
 10
58.3645790716
 20
51.7619385114
 10
58.9860750888
 20
51.8160798795
 10
59.5771428354
 20
51.8734791021
 10
60.0732348765
 20
51.9327194339
  0
LWPOLYLINE
  5
26C
100
AcDbEntity
  8
0
100
AcDbPolyline
 62
7
  6
BYLAYER
 90
5
 70
0
 10
55.9819170219
 20
50.1319271798
 10
55.6394675343
 20
50.0707548249
 10
55.3678012409
 20
49.9797952769
 10
55.0741428549
 20
49.7031311909
 10
54.9989091371
 20
49.4094899607
  0
LWPOLYLINE
  5
26D
100
AcDbEntity
  8
0
100
AcDbPolyline
 62
7
  6
BYLAYER
 90
5
 70
0
 10
56.0280787418
 20
48.8382349905
 10
55.6625332596
 20
48.7760947765
 10
55.3747809547
 20
48.6841056829
 10
55.0741900426
 20
48.4037455868
 10
54.99938288
 20
48.1109300079
  0
LWPOLYLINE
  5
26E
100
AcDbEntity
  8
0
100
AcDbPolyline
 62
7
  6
BYLAYER
 90
5
 70
0
 10
60.0732348765
 20
51.9327194339
 10
60.4353568811
 20
51.9941377469
 10
60.7159978395
 20
52.0839776725
 10
61.0134529978
 20
52.3537498728
 10
61.0955160765
 20
52.6600141225
  0
LINE
  5
26F
100
AcDbEntity
  8
0
100
AcDbLine
 62
7
  6
BYLAYER
 10
60.0303539247
 20
50.62686172
 11
60.4102303702
 21
50.6891395118
  0
LINE
  5
270
100
AcDbEntity
  8
0
100
AcDbLine
 62
7
  6
BYLAYER
 10
56.2250250508
 20
51.4638830646
 11
55.8100844317
 21
51.4046519974
  0
LINE
  5
271
100
AcDbEntity
  8
0
100
AcDbLine
 62
7
  6
BYLAYER
 10
59.799222813
 20
49.2980160304
 11
60.2448212239
 21
49.3586417504
  0
LWPOLYLINE
  5
272
100
AcDbEntity
  8
0
100
AcDbPolyline
 62
7
  6
BYLAYER
 90
4
 70
0
 10
58.4950154646
 20
51.6732482722
 10
57.4731251065
 20
51.5861901399
 10
56.7931547415
 20
51.5245090749
 10
56.2250250508
 20
51.4638830646
  0
LWPOLYLINE
  5
273
100
AcDbEntity
  8
0
100
AcDbPolyline
 62
7
  6
BYLAYER
 90
4
 70
0
 10
57.5178148661
 20
49.0898797957
 10
58.5165650629
 20
49.1749413218
 10
59.204205607
 20
49.236253037
 10
59.799222813
 20
49.2980160304
  0
LINE
  5
274
100
AcDbEntity
  8
0
100
AcDbLine
 62
7
  6
BYLAYER
 10
58.3030316792
 20
52.9566424591
 11
57.7959316526
 21
53.0134968615
  0
LINE
  5
275
100
AcDbEntity
  8
0
100
AcDbLine
 62
7
  6
BYLAYER
 10
58.3015470427
 20
51.6568063931
 11
57.7946413387
 21
51.7137123803
  0
LINE
  5
276
100
AcDbEntity
  8
0
100
AcDbLine
 62
7
  6
BYLAYER
 10
58.3014287162
 20
49.0567642577
 11
57.7925369746
 21
49.1139611592
  0
LWPOLYLINE
  5
277
100
AcDbEntity
  8
0
100
AcDbPolyline
 62
7
  6
BYLAYER
 90
3
 70
0
 10
58.2923915525
 20
52.9561061645
 10
57.8941776259
 20
53.0024767431
 10
57.7996854639
 20
53.0140518524
  0
LINE
  5
278
100
AcDbEntity
  8
0
100
AcDbLine
 62
7
  6
BYLAYER
 10
58.2929911945
 20
51.6560014478
 11
57.8026775304
 21
51.7143850962
  0
LWPOLYLINE
  5
279
100
AcDbEntity
  8
0
100
AcDbPolyline
 62
7
  6
BYLAYER
 90
3
 70
0
 10
58.2967113115
 20
49.0562375157
 10
58.1765420454
 20
49.0708505618
 10
57.8031730414
 20
49.1144060598
  0
LWPOLYLINE
  5
27A
100
AcDbEntity
  8
0
100
AcDbPolyline
 62
7
  6
BYLAYER
 90
10
 70
0
 10
60.2256255756
 20
53.1725156898
 10
60.2075876327
 20
53.1679824009
 10
60.0230155953
 20
53.1335843775
 10
59.6868478445
 20
53.0886775904
 10
59.2182938784
 20
53.0388087313
 10
58.6293395928
 20
52.9848310362
 10
57.9376150618
 20
52.9258614146
 10
57.1970430956
 20
52.8619924283
 10
56.53012689
 20
52.7979560347
 10
56.0204479333
 20
52.7374074451
  0
LWPOLYLINE
  5
27B
100
AcDbEntity
  8
0
100
AcDbPolyline
 62
7
  6
BYLAYER
 90
4
 70
0
 10
60.2229340805
 20
54.4721290877
 10
60.2087596869
 20
54.468587158
 10
60.0333286877
 20
54.4350043702
 10
59.6975265274
 20
54.3898663389
  0
LWPOLYLINE
  5
27C
100
AcDbEntity
  8
0
100
AcDbPolyline
 62
7
  6
BYLAYER
 90
11
 70
0
 10
55.8735241738
 20
52.7987317911
 10
55.8808744839
 20
52.8002736333
 10
56.0333145022
 20
52.8302455262
 10
56.3152144064
 20
52.8701841057
 10
56.6996105295
 20
52.9135829656
 10
57.1727579078
 20
52.9592766797
 10
57.7167313445
 20
53.0070284754
 10
58.3069109473
 20
53.0569965045
 10
58.9147221712
 20
53.1097229655
 10
59.5030072552
 20
53.1657871697
 10
60.0236113903
 20
53.2257696541
  0
LWPOLYLINE
  5
27D
100
AcDbEntity
  8
0
100
AcDbPolyline
 62
7
  6
BYLAYER
 90
7
 70
0
 10
60.1785975588
 20
54.5497696753
 10
60.3953545717
 20
54.5890843176
 10
60.5758769243
 20
54.6355642904
 10
60.7489034287
 20
54.7075975711
 10
60.9319525918
 20
54.8493318136
 10
61.0569172996
 20
55.0560001914
 10
61.0957624689
 20
55.2697847759
  0
LWPOLYLINE
  5
27E
100
AcDbEntity
  8
0
100
AcDbPolyline
 62
7
  6
BYLAYER
 90
5
 70
0
 10
56.0204479333
 20
52.7374074451
 10
55.6602259981
 20
52.675685932
 10
55.3753460647
 20
52.583109331
 10
55.0772361044
 20
52.3058797472
 10
55.0005734963
 20
52.0093932567
  0
LWPOLYLINE
  5
27F
100
AcDbEntity
  8
0
100
AcDbPolyline
 62
7
  6
BYLAYER
 90
5
 70
0
 10
56.0179961556
 20
54.0368493518
 10
55.6610305838
 20
53.9761066031
 10
55.3735448829
 20
53.8829321232
 10
55.0760977005
 20
53.6034948403
 10
55.0013208361
 20
53.3104883216
  0
LWPOLYLINE
  5
280
100
AcDbEntity
  8
0
100
AcDbPolyline
 62
7
  6
BYLAYER
 90
5
 70
0
 10
58.052025929
 20
55.9538337943
 10
59.0003783455
 20
56.114408574
 10
60.0857554964
 20
56.7112050605
 10
60.8076644466
 20
57.6796510568
 10
60.8550164266
 20
57.7977271845
  0
LWPOLYLINE
  5
281
100
AcDbEntity
  8
0
100
AcDbPolyline
 62
7
  6
BYLAYER
 90
5
 70
0
 10
60.0236113903
 20
53.2257696541
 10
60.4123023622
 20
53.2894394211
 10
60.71224473
 20
53.3828065353
 10
61.0148235022
 20
53.6554336392
 10
61.096549032
 20
53.9610041456
  0
LWPOLYLINE
  5
282
100
AcDbEntity
  8
0
100
AcDbPolyline
 62
7
  6
BYLAYER
 90
8
 70
0
 10
58.0481356426
 20
57.1533234485
 10
57.4669377912
 20
57.0779028564
 10
56.7474005868
 20
56.9799485343
 10
56.1588467804
 20
56.8860433004
 10
55.718732997
 20
56.7920127112
 10
55.3904557111
 20
56.6744973216
 10
55.0794329055
 20
56.3838177398
 10
54.9998070388
 20
56.0783353304
  0
LINE
  5
283
100
AcDbEntity
  8
0
100
AcDbLine
 62
7
  6
BYLAYER
 10
59.6975265274
 20
54.3898663389
 11
59.2250544921
 21
54.3395832916
  0
LINE
  5
284
100
AcDbEntity
  8
0
100
AcDbLine
 62
7
  6
BYLAYER
 10
59.3550968877
 20
55.6524196728
 11
59.3558758672
 21
55.6525007401
  0
LWPOLYLINE
  5
285
100
AcDbEntity
  8
0
100
AcDbPolyline
 62
7
  6
BYLAYER
 90
4
 70
0
 10
59.3895375811
 20
54.4541993032
 10
59.6010445219
 20
54.4760488029
 10
59.9156875887
 20
54.5127217441
 10
60.1785975588
 20
54.5497696753
  0
LINE
  5
286
100
AcDbEntity
  8
0
100
AcDbLine
 62
7
  6
BYLAYER
 10
59.3895375811
 20
54.4541993032
 11
59.2737082086
 21
54.4430005959
  0
LWPOLYLINE
  5
287
100
AcDbEntity
  8
0
100
AcDbPolyline
 62
7
  6
BYLAYER
 90
10
 70
0
 10
59.3551130123
 20
55.6525077785
 10
58.7011371806
 20
55.5912400835
 10
57.8653518013
 20
55.5196686283
 10
57.1012623547
 20
55.4533411288
 10
56.4682601309
 20
55.3915464242
 10
55.9905091256
 20
55.3329509317
 10
55.6471729751
 20
55.2726526733
 10
55.3679225735
 20
55.1807259757
 10
55.0716025984
 20
54.8992927445
 10
54.999109296
 20
54.6108658503
  0
LWPOLYLINE
  5
288
100
AcDbEntity
  8
0
100
AcDbPolyline
 62
7
  6
BYLAYER
 90
6
 70
0
 10
59.2250544921
 20
54.3395832916
 10
58.6312155166
 20
54.2849919956
 10
57.930352588
 20
54.2251821051
 10
57.182014827
 20
54.1607005531
 10
56.517757768
 20
54.0966936259
 10
56.0179961556
 20
54.0368493518
  0
LINE
  5
289
100
AcDbEntity
  8
0
100
AcDbLine
 62
7
  6
BYLAYER
 10
58.6983559122
 20
54.3906862795
 11
59.2737082086
 21
54.4430005959
  0
LWPOLYLINE
  5
28A
100
AcDbEntity
  8
0
100
AcDbPolyline
 62
7
  6
BYLAYER
 90
5
 70
0
 10
60.2055477027
 20
55.7701028153
 10
60.1983671636
 20
55.7694563518
 10
60.0159041835
 20
55.7340168329
 10
59.6814926321
 20
55.6882639142
 10
59.3558758672
 20
55.6525007401
  0
LINE
  5
28B
100
AcDbEntity
  8
0
100
AcDbLine
 62
7
  6
BYLAYER
 10
58.0481867938
 20
57.1533271065
 11
58.0481356426
 21
57.1533234485
  0
LINE
  5
28C
100
AcDbEntity
  8
0
100
AcDbLine
 62
7
  6
BYLAYER
 10
58.3061405586
 20
54.2562213829
 11
57.7891244953
 21
54.3142808628
  0
LINE
  5
28D
100
AcDbEntity
  8
0
100
AcDbLine
 62
7
  6
BYLAYER
 10
58.3014094433
 20
54.2568471697
 11
57.8007274722
 21
54.3140105713
  0
LINE
  5
28E
100
AcDbEntity
  8
0
100
AcDbLine
 62
7
  6
BYLAYER
 10
60.6024677497
 20
35.1480248281
 11
60.9884597731
 21
34.6333687969
  0
LINE
  5
28F
100
AcDbEntity
  8
0
100
AcDbLine
 62
7
  6
BYLAYER
 10
51.9984597751
 20
10.9533687943
 11
51.6984597751
 21
11.9533687943
  0
LINE
  5
290
100
AcDbEntity
  8
0
100
AcDbLine
 62
7
  6
BYLAYER
 10
59.8984625635
 20
59.5533828345
 11
60.4984596444
 21
59.5533682964
  0
LWPOLYLINE
  5
291
100
AcDbEntity
  8
0
100
AcDbPolyline
 62
7
  6
BYLAYER
 90
4
 70
0
 10
55.0012016789
 20
39.0106962109
 10
55.0821098272
 20
38.7064919746
 10
55.3860195096
 20
38.432086948
 10
55.616458727
 20
38.3605972435
  0
LINE
  5
292
100
AcDbEntity
  8
0
100
AcDbLine
 62
7
  6
BYLAYER
 10
59.9769288914
 20
40.1276731206
 11
59.9443743255
 21
40.2171160553
  0
LINE
  5
293
100
AcDbEntity
  8
0
100
AcDbLine
 62
7
  6
BYLAYER
 10
59.5245681603
 20
41.3705240146
 11
59.4902516693
 21
41.4648077988
  0
LINE
  5
294
100
AcDbEntity
  8
0
100
AcDbLine
 62
7
  6
BYLAYER
 10
59.0679126641
 20
42.6251746791
 11
59.0330841392
 21
42.7208652647
  0
LWPOLYLINE
  5
295
100
AcDbEntity
  8
0
100
AcDbPolyline
 62
7
  6
BYLAYER
 90
4
 70
0
 10
54.999682468
 20
41.6110493964
 10
55.0842837114
 20
41.3005237543
 10
55.3834922898
 20
41.033272479
 10
55.6135117737
 20
40.9599059472
  0
LWPOLYLINE
  5
296
100
AcDbEntity
  8
0
100
AcDbPolyline
 62
7
  6
BYLAYER
 90
4
 70
0
 10
55.0002382543
 20
45.509514081
 10
55.0842977385
 20
45.1998816678
 10
55.3954452814
 20
44.9266829518
 10
55.6161156365
 20
44.86074862
  0
LWPOLYLINE
  5
297
100
AcDbEntity
  8
0
100
AcDbPolyline
 62
7
  6
BYLAYER
 90
4
 70
0
 10
54.998697659
 20
42.9097814099
 10
55.0823610174
 20
42.6010686737
 10
55.3833185291
 20
42.3324358314
 10
55.6112202703
 20
42.2610106613
  0
LWPOLYLINE
  5
298
100
AcDbEntity
  8
0
100
AcDbPolyline
 62
7
  6
BYLAYER
 90
4
 70
0
 10
54.9991094087
 20
54.6109513156
 10
55.0822817151
 20
54.3029925846
 10
55.3778926428
 20
54.0357673447
 10
55.6104278837
 20
53.9597062039
  0
LWPOLYLINE
  5
299
100
AcDbEntity
  8
0
100
AcDbPolyline
 62
7
  6
BYLAYER
 90
4
 70
0
 10
55.0005735658
 20
52.009559181
 10
55.0833227401
 20
51.7021804368
 10
55.3870505577
 20
51.4305947271
 10
55.6162721368
 20
51.3603691341
  0
LWPOLYLINE
  5
29A
100
AcDbEntity
  8
0
100
AcDbPolyline
 62
7
  6
BYLAYER
 90
4
 70
0
 10
55.0010116868
 20
44.2097083057
 10
55.0808087491
 20
43.9075243702
 10
55.37514564
 20
43.6364338181
 10
55.6117209774
 20
43.5592362612
  0
LWPOLYLINE
  5
29B
100
AcDbEntity
  8
0
100
AcDbPolyline
 62
7
  6
BYLAYER
 90
4
 70
0
 10
54.9984769232
 20
50.7101122209
 10
55.077319541
 20
50.4100066156
 10
55.368703433
 20
50.1396246476
 10
55.6096398303
 20
50.0607678867
  0
LWPOLYLINE
  5
29C
100
AcDbEntity
  8
0
100
AcDbPolyline
 62
7
  6
BYLAYER
 90
4
 70
0
 10
54.9993829376
 20
48.1110067915
 10
55.0782626092
 20
47.8106431993
 10
55.3761505462
 20
47.5366911438
 10
55.6146450162
 20
47.4603162126
  0
LWPOLYLINE
  5
29D
100
AcDbEntity
  8
0
100
AcDbPolyline
 62
7
  6
BYLAYER
 90
4
 70
0
 10
54.9989091748
 20
49.4096386924
 10
55.0774497236
 20
49.1099871154
 10
55.3741850842
 20
48.8366646194
 10
55.6119019757
 20
48.7599088908
  0
LWPOLYLINE
  5
29E
100
AcDbEntity
  8
0
100
AcDbPolyline
 62
7
  6
BYLAYER
 90
4
 70
0
 10
55.0013208884
 20
53.3105936796
 10
55.0797216445
 20
53.0108879692
 10
55.3788303301
 20
52.7354446548
 10
55.6144681879
 20
52.6608161498
  0
LWPOLYLINE
  5
29F
100
AcDbEntity
  8
0
100
AcDbPolyline
 62
7
  6
BYLAYER
 90
4
 70
0
 10
55.0012120876
 20
40.3102584253
 10
55.0617905872
 20
40.0453900384
 10
55.1784583732
 20
39.8767593011
 10
55.3626182876
 20
39.7431349258
  0
LWPOLYLINE
  5
2A0
100
AcDbEntity
  8
0
100
AcDbPolyline
 62
7
  6
BYLAYER
 90
5
 70
0
 10
55.0014283194
 20
46.8104727596
 10
55.0072782848
 20
46.7273859666
 10
55.2289693704
 20
46.3304184766
 10
55.5447910009
 20
46.17349404
 10
55.6122194542
 20
46.1594847951
  0
LWPOLYLINE
  5
2A1
100
AcDbEntity
  8
0
100
AcDbPolyline
 62
7
  6
BYLAYER
 90
5
 70
0
 10
55.0007792539
 20
37.7096260403
 10
55.0064979055
 20
37.6274952074
 10
55.2320316588
 20
37.2266884859
 10
55.5333460191
 20
37.0765316845
 10
55.6098944451
 20
37.0602056674
  0
LWPOLYLINE
  5
2A2
100
AcDbEntity
  8
0
100
AcDbPolyline
 62
7
  6
BYLAYER
 90
6
 70
0
 10
54.9985453384
 20
36.4099412044
 10
55.0035376968
 20
36.3333058789
 10
55.214128777
 20
35.9408159121
 10
55.5119394399
 20
35.78350171
 10
55.8142221334
 20
35.7150403075
 10
56.0484597751
 20
35.6818881584
  0
LINE
  5
2A3
100
AcDbEntity
  8
0
100
AcDbLine
 62
7
  6
BYLAYER
 10
50.0484597751
 20
19.5533687943
 11
50.0484597751
 21
18.5533687943
  0
LINE
  5
2A4
100
AcDbEntity
  8
0
100
AcDbLine
 62
7
  6
BYLAYER
 10
50.5484597751
 20
24.3533687943
 11
50.5484597751
 21
22.1533687943
  0
LINE
  5
2A5
100
AcDbEntity
  8
0
100
AcDbLine
 62
7
  6
BYLAYER
 10
50.5484597751
 20
20.5533687943
 11
50.5484597751
 21
20.0533687943
  0
LINE
  5
2A6
100
AcDbEntity
  8
0
100
AcDbLine
 62
7
  6
BYLAYER
 10
51.3484597751
 20
18.5533687943
 11
51.3484597751
 21
16.4433687943
  0
LINE
  5
2A7
100
AcDbEntity
  8
0
100
AcDbLine
 62
7
  6
BYLAYER
 10
51.6984597751
 20
15.1033687943
 11
51.6984597751
 21
13.9533687943
  0
LINE
  5
2A8
100
AcDbEntity
  8
0
100
AcDbLine
 62
7
  6
BYLAYER
 10
51.6984597751
 20
12.7533687943
 11
51.6984597751
 21
11.9533687943
  0
LINE
  5
2A9
100
AcDbEntity
  8
0
100
AcDbLine
 62
7
  6
BYLAYER
 10
52.4484597751
 20
13.9533687943
 11
52.4484597751
 21
12.7533687943
  0
LINE
  5
2AA
100
AcDbEntity
  8
0
100
AcDbLine
 62
7
  6
BYLAYER
 10
52.5484597751
 20
16.4433687943
 11
52.5484597751
 21
15.1033687943
  0
LWPOLYLINE
  5
2AB
100
AcDbEntity
  8
0
100
AcDbPolyline
 62
7
  6
BYLAYER
 90
4
 70
0
 10
61.0983071841
 20
42.2605545791
 10
61.0231001096
 20
42.5540050174
 10
60.7263654173
 20
42.8318048414
 10
60.483925459
 20
42.9107515289
  0
LWPOLYLINE
  5
2AC
100
AcDbEntity
  8
0
100
AcDbPolyline
 62
7
  6
BYLAYER
 90
4
 70
0
 10
61.0960198198
 20
40.9607522734
 10
61.0216095623
 20
41.2530209589
 10
60.7150727364
 20
41.5372101073
 10
60.4806359126
 20
41.6095886743
  0
LWPOLYLINE
  5
2AD
100
AcDbEntity
  8
0
100
AcDbPolyline
 62
7
  6
BYLAYER
 90
4
 70
0
 10
61.0981312958
 20
35.7606990572
 10
61.0240829882
 20
36.0520256771
 10
60.7290150022
 20
36.330609902
 10
60.485769297
 20
36.4109300751
  0
LWPOLYLINE
  5
2AE
100
AcDbEntity
  8
0
100
AcDbPolyline
 62
7
  6
BYLAYER
 90
4
 70
0
 10
61.0954571057
 20
38.3599895486
 10
61.021464008
 20
38.6515676734
 10
60.7240556219
 20
38.9321697254
 10
60.4818660252
 20
39.0105435186
  0
LWPOLYLINE
  5
2AF
100
AcDbEntity
  8
0
100
AcDbPolyline
 62
7
  6
BYLAYER
 90
4
 70
0
 10
61.0967810195
 20
39.6609484074
 10
61.0239684541
 20
39.950110723
 10
60.7283431952
 20
40.2310536817
 10
60.4829392727
 20
40.3101301688
  0
LWPOLYLINE
  5
2B0
100
AcDbEntity
  8
0
100
AcDbPolyline
 62
7
  6
BYLAYER
 90
4
 70
0
 10
61.0973870366
 20
37.0593262485
 10
61.0247325233
 20
37.3482109072
 10
60.7308900242
 20
37.6286833235
 10
60.4870691725
 20
37.7094548841
  0
LWPOLYLINE
  5
2B1
100
AcDbEntity
  8
0
100
AcDbPolyline
 62
7
  6
BYLAYER
 90
4
 70
0
 10
61.0956374927
 20
46.1597387586
 10
61.0229558705
 20
46.4488395802
 10
60.7219378616
 20
46.7330466148
 10
60.4818678147
 20
46.8099228303
  0
LWPOLYLINE
  5
2B2
100
AcDbEntity
  8
0
100
AcDbPolyline
 62
7
  6
BYLAYER
 90
4
 70
0
 10
61.0962707351
 20
47.4608522577
 10
61.0236501449
 20
47.7497074566
 10
60.7299691745
 20
48.0300928597
 10
60.4863647789
 20
48.1107126724
  0
LWPOLYLINE
  5
2B3
100
AcDbEntity
  8
0
100
AcDbPolyline
 62
7
  6
BYLAYER
 90
4
 70
0
 10
61.0976174772
 20
51.3593753042
 10
61.0252173468
 20
51.6477347023
 10
60.7302883786
 20
51.9290537217
 10
60.4851180852
 20
52.010067506
  0
LWPOLYLINE
  5
2B4
100
AcDbEntity
  8
0
100
AcDbPolyline
 62
7
  6
BYLAYER
 90
5
 70
0
 10
54.9997709967
 20
56.078427895
 10
55.0658304812
 20
55.7990915468
 10
55.3808286818
 20
55.4872954927
 10
55.7343584162
 20
55.362558518
 10
55.9353726067
 20
55.3232676052
  0
LINE
  5
2B5
100
AcDbEntity
  8
0
100
AcDbLine
 62
7
  6
BYLAYER
 10
58.0484461058
 20
55.953364073
 11
58.0460255338
 21
56.0441559781
  0
LINE
  5
2B6
100
AcDbEntity
  8
0
100
AcDbLine
 62
7
  6
BYLAYER
 10
54.9998070388
 20
56.0783353304
 11
54.9998068755
 21
56.0784801124
  0
LINE
  5
2B7
100
AcDbEntity
  8
0
100
AcDbLine
 62
7
  6
BYLAYER
 10
55.0012121346
 20
40.3102364752
 11
55.0012120901
 21
40.310315061
  0
LINE
  5
2B8
100
AcDbEntity
  8
0
100
AcDbLine
 62
7
  6
BYLAYER
 10
54.8708896032
 20
18.5533687943
 11
54.8708896032
 21
16.4433687943
  0
LINE
  5
2B9
100
AcDbEntity
  8
0
100
AcDbLine
 62
7
  6
BYLAYER
 10
54.9758110068
 20
16.4433687943
 11
54.9758110068
 21
18.5533687943
  0
LINE
  5
2BA
100
AcDbEntity
  8
0
100
AcDbLine
 62
7
  6
BYLAYER
 10
55.0000583287
 20
18.5533687943
 11
55.0000583287
 21
16.4433687943
  0
LINE
  5
2BB
100
AcDbEntity
  8
0
100
AcDbLine
 62
7
  6
BYLAYER
 10
55.120740423
 20
18.5533687943
 11
55.120740423
 21
16.4433687943
  0
LINE
  5
2BC
100
AcDbEntity
  8
0
100
AcDbLine
 62
7
  6
BYLAYER
 10
55.3130243756
 20
18.5533687943
 11
55.3130243756
 21
16.4433687943
  0
LINE
  5
2BD
100
AcDbEntity
  8
0
100
AcDbLine
 62
7
  6
BYLAYER
 10
55.5220731036
 20
16.4433687943
 11
55.5220731036
 21
18.5533687943
  0
LINE
  5
2BE
100
AcDbEntity
  8
0
100
AcDbLine
 62
7
  6
BYLAYER
 10
55.9319138195
 20
18.5533687943
 11
55.9319138195
 21
16.4433687943
  0
LINE
  5
2BF
100
AcDbEntity
  8
0
100
AcDbLine
 62
7
  6
BYLAYER
 10
56.0484597751
 20
39.8322809913
 11
56.0484597751
 21
39.7385165619
  0
LINE
  5
2C0
100
AcDbEntity
  8
0
100
AcDbLine
 62
7
  6
BYLAYER
 10
56.0484597751
 20
38.5321844266
 11
56.0484597751
 21
38.4386652826
  0
LINE
  5
2C1
100
AcDbEntity
  8
0
100
AcDbLine
 62
7
  6
BYLAYER
 10
56.0484597751
 20
37.2325782017
 11
56.0484597751
 21
37.1403632237
  0
LINE
  5
2C2
100
AcDbEntity
  8
0
100
AcDbLine
 62
7
  6
BYLAYER
 10
56.0484597751
 20
35.9319235677
 11
56.0484597751
 21
35.5533687943
  0
LINE
  5
2C3
100
AcDbEntity
  8
0
100
AcDbLine
 62
7
  6
BYLAYER
 10
56.1244642252
 20
16.4433687943
 11
56.1244642252
 21
18.5533687943
  0
LINE
  5
2C4
100
AcDbEntity
  8
0
100
AcDbLine
 62
7
  6
BYLAYER
 10
56.2984597751
 20
10.9533687943
 11
56.2984597751
 21
10.8033687943
  0
LINE
  5
2C5
100
AcDbEntity
  8
0
100
AcDbLine
 62
7
  6
BYLAYER
 10
56.5057855062
 20
18.5533687943
 11
56.5057855062
 21
16.4433687943
  0
LINE
  5
2C6
100
AcDbEntity
  8
0
100
AcDbLine
 62
7
  6
BYLAYER
 10
56.6504785828
 20
16.4433687943
 11
56.6504785828
 21
18.5533687943
  0
LINE
  5
2C7
100
AcDbEntity
  8
0
100
AcDbLine
 62
7
  6
BYLAYER
 10
56.8176361421
 20
18.5533687943
 11
56.8176361421
 21
16.4433687943
  0
LINE
  5
2C8
100
AcDbEntity
  8
0
100
AcDbLine
 62
7
  6
BYLAYER
 10
56.9794884144
 20
18.5533687943
 11
56.9794884144
 21
16.4433687943
  0
LINE
  5
2C9
100
AcDbEntity
  8
0
100
AcDbLine
 62
7
  6
BYLAYER
 10
57.1858345126
 20
18.5533687943
 11
57.1858345126
 21
16.4433687943
  0
LINE
  5
2CA
100
AcDbEntity
  8
0
100
AcDbLine
 62
7
  6
BYLAYER
 10
57.377826998
 20
16.4433687943
 11
57.377826998
 21
18.5533687943
  0
LINE
  5
2CB
100
AcDbEntity
  8
0
100
AcDbLine
 62
7
  6
BYLAYER
 10
57.6765032833
 20
18.5533687943
 11
57.6765032833
 21
16.4433687943
  0
LINE
  5
2CC
100
AcDbEntity
  8
0
100
AcDbLine
 62
7
  6
BYLAYER
 10
57.8510733508
 20
16.4433687943
 11
57.8510733508
 21
18.5533687943
  0
LINE
  5
2CD
100
AcDbEntity
  8
0
100
AcDbLine
 62
7
  6
BYLAYER
 10
58.2458461896
 20
18.5533687943
 11
58.2458461896
 21
16.4433687943
  0
LINE
  5
2CE
100
AcDbEntity
  8
0
100
AcDbLine
 62
7
  6
BYLAYER
 10
58.4204162668
 20
16.4433687943
 11
58.4204162668
 21
18.5533687943
  0
LINE
  5
2CF
100
AcDbEntity
  8
0
100
AcDbLine
 62
7
  6
BYLAYER
 10
58.0484579715
 20
56.539624856
 11
58.0484608589
 21
56.5533466161
  0
LINE
  5
2D0
100
AcDbEntity
  8
0
100
AcDbLine
 62
7
  6
BYLAYER
 10
54.9989091371
 20
49.4094899607
 11
54.9989091764
 21
49.4096064455
  0
LINE
  5
2D1
100
AcDbEntity
  8
0
100
AcDbLine
 62
7
  6
BYLAYER
 10
55.0010116539
 20
44.2095533713
 11
55.0010116882
 21
44.2096797989
  0
LINE
  5
2D2
100
AcDbEntity
  8
0
100
AcDbLine
 62
7
  6
BYLAYER
 10
55.0013208361
 20
53.3104883216
 11
55.0013208883
 21
53.310608355
  0
LINE
  5
2D3
100
AcDbEntity
  8
0
100
AcDbLine
 62
7
  6
BYLAYER
 10
54.99938288
 20
48.1109300079
 11
54.9993829381
 21
48.1110463007
  0
LINE
  5
2D4
100
AcDbEntity
  8
0
100
AcDbLine
 62
7
  6
BYLAYER
 10
55.0005734963
 20
52.0093932567
 11
55.0005735676
 21
52.0095259636
  0
LINE
  5
2D5
100
AcDbEntity
  8
0
100
AcDbLine
 62
7
  6
BYLAYER
 10
55.0012016188
 20
39.0105965614
 11
55.0012016791
 21
39.0107269938
  0
LINE
  5
2D6
100
AcDbEntity
  8
0
100
AcDbLine
 62
7
  6
BYLAYER
 10
54.9985452823
 20
36.409829888
 11
54.9985453384
 21
36.4099407787
  0
LINE
  5
2D7
100
AcDbEntity
  8
0
100
AcDbLine
 62
7
  6
BYLAYER
 10
54.9984768473
 20
50.7099828722
 11
54.9984769234
 21
50.7101054194
  0
LINE
  5
2D8
100
AcDbEntity
  8
0
100
AcDbLine
 62
7
  6
BYLAYER
 10
55.0007791563
 20
37.709445626
 11
55.0007792564
 21
37.7095860847
  0
LINE
  5
2D9
100
AcDbEntity
  8
0
100
AcDbLine
 62
7
  6
BYLAYER
 10
54.9986975589
 20
42.909639288
 11
54.9986976597
 21
42.9097642083
  0
LINE
  5
2DA
100
AcDbEntity
  8
0
100
AcDbLine
 62
7
  6
BYLAYER
 10
55.0002381454
 20
45.5093548769
 11
55.0002382557
 21
45.5094859004
  0
LINE
  5
2DB
100
AcDbEntity
  8
0
100
AcDbLine
 62
7
  6
BYLAYER
 10
54.999109296
 20
54.6108658503
 11
54.9991094089
 21
54.6109851082
  0
LINE
  5
2DC
100
AcDbEntity
  8
0
100
AcDbLine
 62
7
  6
BYLAYER
 10
55.0014281879
 20
46.8103501412
 11
55.0014283193
 21
46.8104778725
  0
LINE
  5
2DD
100
AcDbEntity
  8
0
100
AcDbLine
 62
7
  6
BYLAYER
 10
54.9996823328
 20
41.6109579614
 11
54.9996824681
 21
41.6110812764
  0
LWPOLYLINE
  5
2DE
100
AcDbEntity
  8
0
100
AcDbPolyline
 62
7
  6
BYLAYER
 90
7
 70
0
 10
61.0957554833
 20
55.2696908219
 10
61.0159035784
 20
55.5728567911
 10
60.712962071
 20
55.8510057413
 10
60.4079816689
 20
55.9512912874
 10
60.0062691364
 20
56.0241817885
 10
59.4476621687
 20
56.0982130402
 10
59.0513771557
 20
56.1424503572
  0
LWPOLYLINE
  5
2DF
100
AcDbEntity
  8
0
100
AcDbPolyline
 62
7
  6
BYLAYER
 90
5
 70
0
 10
61.095516139
 20
52.6598621321
 10
61.0917302633
 20
52.7266750453
 10
60.878940398
 20
53.1306129049
 10
60.5652853888
 20
53.2929930864
 10
60.4815195526
 20
53.3109855913
  0
LWPOLYLINE
  5
2E0
100
AcDbEntity
  8
0
100
AcDbPolyline
 62
7
  6
BYLAYER
 90
5
 70
0
 10
61.0965491047
 20
53.9609178393
 10
61.0928289297
 20
54.0270582413
 10
60.8786317078
 20
54.4325146747
 10
60.5636932547
 20
54.5937691894
 10
60.4816280376
 20
54.6112975687
  0
LWPOLYLINE
  5
2E1
100
AcDbEntity
  8
0
100
AcDbPolyline
 62
7
  6
BYLAYER
 90
5
 70
0
 10
61.0970826513
 20
43.5593024506
 10
61.0937840907
 20
43.6216416893
 10
60.8868809928
 20
44.0242061241
 10
60.595290378
 20
44.183272888
 10
60.4828826545
 20
44.2096895551
  0
LWPOLYLINE
  5
2E2
100
AcDbEntity
  8
0
100
AcDbPolyline
 62
7
  6
BYLAYER
 90
5
 70
0
 10
61.0954792875
 20
44.860153251
 10
61.0922067087
 20
44.9222252166
 10
60.8893324787
 20
45.3216150859
 10
60.5753155806
 20
45.4901030398
 10
60.4840379539
 20
45.5100843951
  0
LWPOLYLINE
  5
2E3
100
AcDbEntity
  8
0
100
AcDbPolyline
 62
7
  6
BYLAYER
 90
5
 70
0
 10
61.0984240122
 20
48.7603545192
 10
61.095302904
 20
48.8208909791
 10
60.8937975476
 20
49.2197064592
 10
60.5946304836
 20
49.3837852607
 10
60.4835742246
 20
49.4095255509
  0
LWPOLYLINE
  5
2E4
100
AcDbEntity
  8
0
100
AcDbPolyline
 62
7
  6
BYLAYER
 90
6
 70
0
 10
61.0969829029
 20
50.0594172171
 10
61.095825372
 20
50.0963114896
 10
60.9317091666
 20
50.4800794025
 10
60.7929783466
 20
50.5941212112
 10
60.5373693432
 20
50.7007774195
 10
60.4922995147
 20
50.7126210366
  0
LINE
  5
2E5
100
AcDbEntity
  8
0
100
AcDbLine
 62
7
  6
BYLAYER
 10
61.0969829029
 20
50.0594172171
 11
61.0969827057
 21
50.059510994
  0
LINE
  5
2E6
100
AcDbEntity
  8
0
100
AcDbLine
 62
7
  6
BYLAYER
 10
61.0970826513
 20
43.5593024506
 11
61.0970825292
 21
43.5594321128
  0
LINE
  5
2E7
100
AcDbEntity
  8
0
100
AcDbLine
 62
7
  6
BYLAYER
 10
61.0954792875
 20
44.860153251
 11
61.0954791824
 21
44.8602752824
  0
LINE
  5
2E8
100
AcDbEntity
  8
0
100
AcDbLine
 62
7
  6
BYLAYER
 10
61.0962707351
 20
47.4608522577
 11
61.0962706256
 21
47.4609738036
  0
LINE
  5
2E9
100
AcDbEntity
  8
0
100
AcDbLine
 62
7
  6
BYLAYER
 10
61.0984240122
 20
48.7603545192
 11
61.0984239065
 21
48.7604702399
  0
LINE
  5
2EA
100
AcDbEntity
  8
0
100
AcDbLine
 62
7
  6
BYLAYER
 10
61.0976174772
 20
51.3593753042
 11
61.0976173581
 21
51.3595002585
  0
LINE
  5
2EB
100
AcDbEntity
  8
0
100
AcDbLine
 62
7
  6
BYLAYER
 10
61.0973870366
 20
37.0593262485
 11
61.0973869578
 21
37.0594450075
  0
LINE
  5
2EC
100
AcDbEntity
  8
0
100
AcDbLine
 62
7
  6
BYLAYER
 10
61.0983071841
 20
42.2605545791
 11
61.098307111
 21
42.2606753984
  0
LINE
  5
2ED
100
AcDbEntity
  8
0
100
AcDbLine
 62
7
  6
BYLAYER
 10
61.0956374927
 20
46.1597387586
 11
61.095637423
 21
46.1598602218
  0
LINE
  5
2EE
100
AcDbEntity
  8
0
100
AcDbLine
 62
7
  6
BYLAYER
 10
61.0960198198
 20
40.9607522734
 11
61.0960197584
 21
40.9608749905
  0
LINE
  5
2EF
100
AcDbEntity
  8
0
100
AcDbLine
 62
7
  6
BYLAYER
 10
61.0965491047
 20
53.9609178393
 11
61.0965490314
 21
53.9610465275
  0
LINE
  5
2F0
100
AcDbEntity
  8
0
100
AcDbLine
 62
7
  6
BYLAYER
 10
61.095516139
 20
52.6598621321
 11
61.0955160757
 21
52.6599939722
  0
LINE
  5
2F1
100
AcDbEntity
  8
0
100
AcDbLine
 62
7
  6
BYLAYER
 10
61.0954571057
 20
38.3599895486
 11
61.0954570533
 21
38.3601089276
  0
LINE
  5
2F2
100
AcDbEntity
  8
0
100
AcDbLine
 62
7
  6
BYLAYER
 10
61.0967810195
 20
39.6609484074
 11
61.0967809628
 21
39.6610677888
  0
LINE
  5
2F3
100
AcDbEntity
  8
0
100
AcDbLine
 62
7
  6
BYLAYER
 10
61.0981312958
 20
35.7606990572
 11
61.0981312558
 21
35.7608087122
  0
LINE
  5
2F4
100
AcDbEntity
  8
0
100
AcDbLine
 62
7
  6
BYLAYER
 10
58.7190925521
 20
18.5533687943
 11
58.7190925521
 21
16.4433687943
  0
LINE
  5
2F5
100
AcDbEntity
  8
0
100
AcDbLine
 62
7
  6
BYLAYER
 10
58.9110850375
 20
18.5533687943
 11
58.9110850375
 21
16.4433687943
  0
LINE
  5
2F6
100
AcDbEntity
  8
0
100
AcDbLine
 62
7
  6
BYLAYER
 10
59.1174311357
 20
18.5533687943
 11
59.1174311357
 21
16.4433687943
  0
LINE
  5
2F7
100
AcDbEntity
  8
0
100
AcDbLine
 62
7
  6
BYLAYER
 10
59.279283408
 20
16.4433687943
 11
59.279283408
 21
18.5533687943
  0
LINE
  5
2F8
100
AcDbEntity
  8
0
100
AcDbLine
 62
7
  6
BYLAYER
 10
59.4464409673
 20
18.5533687943
 11
59.4464409673
 21
16.4433687943
  0
LINE
  5
2F9
100
AcDbEntity
  8
0
100
AcDbLine
 62
7
  6
BYLAYER
 10
59.591134035
 20
16.4433687943
 11
59.591134035
 21
18.5533687943
  0
LINE
  5
2FA
100
AcDbEntity
  8
0
100
AcDbLine
 62
7
  6
BYLAYER
 10
59.7984597751
 20
10.9533687943
 11
59.7984597751
 21
10.8033687943
  0
LINE
  5
2FB
100
AcDbEntity
  8
0
100
AcDbLine
 62
7
  6
BYLAYER
 10
59.8984597751
 20
59.5533828949
 11
59.8984597751
 21
150.5533687943
  0
LINE
  5
2FC
100
AcDbEntity
  8
0
100
AcDbLine
 62
7
  6
BYLAYER
 10
59.9724553152
 20
18.5533687943
 11
59.9724553152
 21
16.4433687943
  0
LINE
  5
2FD
100
AcDbEntity
  8
0
100
AcDbLine
 62
7
  6
BYLAYER
 10
60.0484597751
 20
36.2376846162
 11
60.0484597751
 21
36.3295518207
  0
LINE
  5
2FE
100
AcDbEntity
  8
0
100
AcDbLine
 62
7
  6
BYLAYER
 10
60.0484597751
 20
37.5382636566
 11
60.0484597751
 21
37.6302602976
  0
LINE
  5
2FF
100
AcDbEntity
  8
0
100
AcDbLine
 62
7
  6
BYLAYER
 10
60.0484597751
 20
38.8391327587
 11
60.0484597751
 21
38.929444236
  0
LINE
  5
300
100
AcDbEntity
  8
0
100
AcDbLine
 62
7
  6
BYLAYER
 10
60.1650057306
 20
16.4433687943
 11
60.1650057306
 21
18.5533687943
  0
LINE
  5
301
100
AcDbEntity
  8
0
100
AcDbLine
 62
7
  6
BYLAYER
 10
60.5748464465
 20
18.5533687943
 11
60.5748464465
 21
16.4433687943
  0
LINE
  5
302
100
AcDbEntity
  8
0
100
AcDbLine
 62
7
  6
BYLAYER
 10
60.7838951745
 20
18.5533687943
 11
60.7838951745
 21
16.4433687943
  0
LINE
  5
303
100
AcDbEntity
  8
0
100
AcDbLine
 62
7
  6
BYLAYER
 10
60.9761791271
 20
18.5533687943
 11
60.9761791271
 21
16.4433687943
  0
LINE
  5
304
100
AcDbEntity
  8
0
100
AcDbLine
 62
7
  6
BYLAYER
 10
61.0968612214
 20
16.4433687943
 11
61.0968612214
 21
18.5533687943
  0
LINE
  5
305
100
AcDbEntity
  8
0
100
AcDbLine
 62
7
  6
BYLAYER
 10
61.0984597751
 20
59.5533603079
 11
61.0984597751
 21
150.5533687943
  0
LINE
  5
306
100
AcDbEntity
  8
0
100
AcDbLine
 62
7
  6
BYLAYER
 10
61.1211085433
 20
18.5533687943
 11
61.1211085433
 21
16.4433687943
  0
LINE
  5
307
100
AcDbEntity
  8
0
100
AcDbLine
 62
7
  6
BYLAYER
 10
61.2260298637
 20
16.4433687943
 11
61.2260298637
 21
18.5533687943
  0
LINE
  5
308
100
AcDbEntity
  8
0
100
AcDbLine
 62
7
  6
BYLAYER
 10
61.0957554833
 20
55.2696908219
 11
61.0957556518
 21
55.2697752405
  0
LWPOLYLINE
  5
309
100
AcDbEntity
  8
0
100
AcDbPolyline
 62
7
  6
BYLAYER
 90
4
 70
0
 10
59.8988294579
 20
59.5533809684
 10
59.871157188
 20
58.8783339051
 10
59.8156412778
 20
58.5111344662
 10
59.7319430539
 20
58.2207956208
  0
LINE
  5
30A
100
AcDbEntity
  8
0
100
AcDbLine
 62
7
  6
BYLAYER
 10
63.5484597751
 20
16.4433687943
 11
63.5484597751
 21
15.1033687943
  0
LINE
  5
30B
100
AcDbEntity
  8
0
100
AcDbLine
 62
7
  6
BYLAYER
 10
63.6484597751
 20
13.9533687943
 11
63.6484597751
 21
12.7533687943
  0
LINE
  5
30C
100
AcDbEntity
  8
0
100
AcDbLine
 62
7
  6
BYLAYER
 10
64.3984597751
 20
15.1033687943
 11
64.3984597751
 21
13.9533687943
  0
LINE
  5
30D
100
AcDbEntity
  8
0
100
AcDbLine
 62
7
  6
BYLAYER
 10
64.3984597751
 20
12.7533687943
 11
64.3984597751
 21
11.9533687943
  0
LINE
  5
30E
100
AcDbEntity
  8
0
100
AcDbLine
 62
7
  6
BYLAYER
 10
64.7484597751
 20
16.4433687943
 11
64.7484597751
 21
18.5533687943
  0
LINE
  5
30F
100
AcDbEntity
  8
0
100
AcDbLine
 62
7
  6
BYLAYER
 10
65.5484597751
 20
24.3533687943
 11
65.5484597751
 21
22.1533687943
  0
LINE
  5
310
100
AcDbEntity
  8
0
100
AcDbLine
 62
7
  6
BYLAYER
 10
65.5484597751
 20
20.5533687943
 11
65.5484597751
 21
20.0533687943
  0
LINE
  5
311
100
AcDbEntity
  8
0
100
AcDbLine
 62
7
  6
BYLAYER
 10
66.0484597751
 20
19.5533687943
 11
66.0484597751
 21
18.5533687943
  0
LWPOLYLINE
  5
312
100
AcDbEntity
  8
0
100
AcDbPolyline
 62
7
  6
BYLAYER
 90
4
 70
0
 10
60.8541871925
 20
57.7955186967
 10
60.97507456
 20
58.1984739668
 10
61.057374502
 20
58.6899738786
 10
61.0980901595
 20
59.5533592644
  0
LINE
  5
313
100
AcDbEntity
  8
0
100
AcDbLine
 62
7
  6
BYLAYER
 10
59.7319398378
 20
58.2207870791
 11
59.7315909632
 21
58.219860476
  0
LINE
  5
314
100
AcDbEntity
  8
0
100
AcDbLine
 62
7
  6
BYLAYER
 10
56.4702653133
 20
41.0900448246
 11
56.5074059929
 21
41.1920880032
  0
LINE
  5
315
100
AcDbEntity
  8
0
100
AcDbLine
 62
7
  6
BYLAYER
 10
56.961610828
 20
42.4400055315
 11
56.9988684307
 21
42.5423699537
  0
LINE
  5
316
100
AcDbEntity
  8
0
100
AcDbLine
 62
7
  6
BYLAYER
 10
60.8550164266
 20
57.7977271845
 11
60.8541893402
 21
57.7955244007
  0
LWPOLYLINE
  5
317
100
AcDbEntity
  8
0
100
AcDbPolyline
 62
7
  6
BYLAYER
 90
5
 70
0
 10
59.7315909632
 20
58.219860476
 10
59.4621058512
 20
57.7702042084
 10
59.2496717914
 20
57.577228844
 10
58.6441650345
 20
57.2595406578
 10
58.0481975156
 20
57.1529056159
  0
LWPOLYLINE
  5
318
100
AcDbEntity
  8
0
100
AcDbPolyline
 62
7
  6
BYLAYER
 90
8
 70
0
 10
55.9331508224
 20
55.6134245871
 10
55.9319769693
 20
55.6128784049
 10
56.0677939765
 20
55.6520812686
 10
56.2090770059
 20
55.6834206625
 10
56.6161818212
 20
55.7559818188
 10
57.1768894657
 20
55.838195672
 10
57.8624491947
 20
55.929196668
 10
58.0520989191
 20
55.9538387332
  0
LINE
  5
319
100
AcDbEntity
  8
0
100
AcDbLine
 62
7
  6
BYLAYER
 10
64.0984597751
 20
10.9533687943
 11
64.3984597751
 21
11.9533687943
  0
LINE
  5
31A
100
AcDbEntity
  8
0
100
AcDbLine
 62
7
  6
BYLAYER
 10
55.7984597751
 20
35.5533687943
 11
55.108459777
 21
34.6333687969
  0
LWPOLYLINE
  5
31B
100
AcDbEntity
  8
0
100
AcDbPolyline
 62
7
  6
BYLAYER
 90
3
 70
0
 10
60.7051674175
 20
50.7783597159
 10
61.0133006158
 20
51.0495692006
 10
61.0976173591
 20
51.3595226731
  0
LWPOLYLINE
  5
31C
100
AcDbEntity
  8
0
100
AcDbPolyline
 62
7
  6
BYLAYER
 90
9
 70
0
 10
55.8727215813
 20
54.0983059972
 10
55.8675666765
 20
54.096375502
 10
55.9275572375
 20
54.1105584169
 10
56.124916222
 20
54.144500623
 10
56.4307348062
 20
54.1842938873
 10
56.6190277547
 20
54.2052127232
 10
57.0566490925
 20
54.2484893012
 10
57.5620753131
 20
54.2936724528
 10
58.6983559122
 20
54.3906862795
  0
LWPOLYLINE
  5
31D
100
AcDbEntity
  8
0
100
AcDbPolyline
 62
7
  6
BYLAYER
 90
7
 70
0
 10
60.2279245711
 20
51.8734296599
 10
60.2308553295
 20
51.8744778498
 10
60.153694264
 20
51.8566066879
 10
59.9221754289
 20
51.8186945491
 10
59.5604732476
 20
51.7741023206
 10
59.0793684941
 20
51.7255272492
 10
58.4950154646
 20
51.6732482722
  0
LWPOLYLINE
  5
31E
100
AcDbEntity
  8
0
100
AcDbPolyline
 62
7
  6
BYLAYER
 90
7
 70
0
 10
55.8773231386
 20
44.9995313932
 10
55.8730397498
 20
44.9978962914
 10
55.9343659932
 20
45.0122293565
 10
56.157893345
 20
45.0494930496
 10
56.5163133032
 20
45.093891052
 10
56.9913244638
 20
45.142301542
 10
57.5713249831
 20
45.194572585
  0
LWPOLYLINE
  5
31F
100
AcDbEntity
  8
0
100
AcDbPolyline
 62
7
  6
BYLAYER
 90
7
 70
0
 10
55.8739825907
 20
48.8982490147
 10
55.8702905113
 20
48.8968729273
 10
55.935100141
 20
48.9121730639
 10
56.1496239324
 20
48.9483194223
 10
56.4932214426
 20
48.9913998414
 10
56.9530258836
 20
49.0386442215
 10
57.5178148661
 20
49.0898797957
  0
LWPOLYLINE
  5
320
100
AcDbEntity
  8
0
100
AcDbPolyline
 62
7
  6
BYLAYER
 90
8
 70
0
 10
60.2216040033
 20
47.9715821774
 10
60.2252142585
 20
47.9729161032
 10
60.1437952717
 20
47.9543169552
 10
59.8878602119
 20
47.9138279306
 10
59.4991187563
 20
47.8675979521
 10
58.9989061058
 20
47.8180415561
 10
58.4068656133
 20
47.7655753669
 10
57.4322822501
 20
47.6827299549
  0
LWPOLYLINE
  5
321
100
AcDbEntity
  8
0
100
AcDbPolyline
 62
7
  6
BYLAYER
 90
7
 70
0
 10
55.8742350061
 20
46.2989292094
 10
55.8705105987
 20
46.2975588303
 10
55.9380983796
 20
46.3130629713
 10
56.1610820454
 20
46.3497381394
 10
56.5095841625
 20
46.3931260729
 10
56.9756368822
 20
46.4409205554
 10
57.5522373144
 20
46.4929019476
  0
LINE
  5
322
100
AcDbEntity
  8
0
100
AcDbLine
 62
7
  6
BYLAYER
 10
60.4102303702
 20
50.6891395118
 11
60.7051674175
 21
50.7783597159
  0
LINE
  5
323
100
AcDbEntity
  8
0
100
AcDbLine
 62
7
  6
BYLAYER
 10
50.0484597751
 20
19.5533687943
 11
50.5484597751
 21
20.0533687943
  0
LWPOLYLINE
  5
324
100
AcDbEntity
  8
0
100
AcDbPolyline
 62
7
  6
BYLAYER
 90
8
 70
0
 10
60.2216046412
 20
41.4715271725
 10
60.2251739514
 20
41.4728435304
 10
60.1473802333
 20
41.4549923474
 10
59.8970168371
 20
41.4150936513
 10
59.5093646524
 20
41.3687046637
 10
59.0009939414
 20
41.3182211122
 10
58.3875704678
 20
41.2639256018
 10
57.3777409228
 20
41.1779936336
  0
LWPOLYLINE
  5
325
100
AcDbEntity
  8
0
100
AcDbPolyline
 62
7
  6
BYLAYER
 90
7
 70
0
 10
60.2279747368
 20
44.0733331416
 10
60.2309236367
 20
44.0743849501
 10
60.1542241382
 20
44.056665881
 10
59.9234238536
 20
44.018905113
 10
59.5639117789
 20
43.9745058874
 10
59.0883440171
 20
43.9263522911
 10
58.515549565
 20
43.8750151546
  0
LWPOLYLINE
  5
326
100
AcDbEntity
  8
0
100
AcDbPolyline
 62
7
  6
BYLAYER
 90
7
 70
0
 10
60.224961867
 20
45.3724028194
 10
60.227479241
 20
45.3732868951
 10
60.1411419082
 20
45.3537967939
 10
59.9006574721
 20
45.3157099355
 10
59.5385434475
 20
45.2718627394
 10
59.0677075947
 20
45.2243959927
 10
58.4939944383
 20
45.1730834084
  0
LWPOLYLINE
  5
327
100
AcDbEntity
  8
0
100
AcDbPolyline
 62
7
  6
BYLAYER
 90
7
 70
0
 10
60.2242319942
 20
40.1726360624
 10
60.2268104638
 20
40.1735534054
 10
60.1417124954
 20
40.1539774081
 10
59.9020372989
 20
40.1157182299
 10
59.5375079588
 20
40.0717326426
 10
59.0700696413
 20
40.0247166813
 10
58.5125811764
 20
39.9746789865
  0
LWPOLYLINE
  5
328
100
AcDbEntity
  8
0
100
AcDbPolyline
 62
7
  6
BYLAYER
 90
8
 70
0
 10
60.2255036804
 20
38.8725265955
 10
60.2279619691
 20
38.8733860412
 10
60.1413874623
 20
38.8538726213
 10
59.9024311411
 20
38.8159702107
 10
59.5400005668
 20
38.7720093727
 10
59.0605527286
 20
38.7237145238
 10
58.4666770318
 20
38.6707410695
 10
57.4594531946
 20
38.5850958606
  0
LINE
  5
329
100
AcDbEntity
  8
0
100
AcDbLine
 62
7
  6
BYLAYER
 10
59.8984762777
 20
150.5533687943
 11
61.0984432725
 21
150.5533687943
  0
ARC
  5
32A
100
AcDbEntity
  8
0
100
AcDbCircle
 62
7
  6
BYLAYER
 10
69.8370722807
 20
140.7525274005
 40
85.9155398521
100
AcDbArc
 50
261.949327983
 51
262.0868727645
  0
ARC
  5
32B
100
AcDbEntity
  8
0
100
AcDbCircle
 62
7
  6
BYLAYER
 10
51.3232812187
 20
45.2034900864
 40
6.5629177225
100
AcDbArc
 50
359.2447790765
 51
359.9989405944
  0
ARC
  5
32C
100
AcDbEntity
  8
0
100
AcDbCircle
 62
7
  6
BYLAYER
 10
51.3817034119
 20
45.2033622963
 40
6.5045076588
100
AcDbArc
 50
0.0000567364
 51
0.1612729246
  0
ARC
  5
32D
100
AcDbEntity
  8
0
100
AcDbCircle
 62
7
  6
BYLAYER
 10
61.0484597751
 20
30.5696171653
 40
4.0
100
AcDbArc
 50
295.9444797723
 51
84.8339373416
  0
ARC
  5
32E
100
AcDbEntity
  8
0
100
AcDbCircle
 62
7
  6
BYLAYER
 10
55.0484597751
 20
30.5696171653
 40
4.0
100
AcDbArc
 50
95.1660626584
 51
244.0555202277
  0
ARC
  5
32F
100
AcDbEntity
  8
0
100
AcDbCircle
 62
7
  6
BYLAYER
 10
58.4596565265
 20
58.6971706022
 40
2.5587291676
100
AcDbArc
 50
338.8244426874
 51
339.3661288782
  0
ARC
  5
330
100
AcDbEntity
  8
0
100
AcDbCircle
 62
7
  6
BYLAYER
 10
58.5462961387
 20
58.6628684796
 40
2.4655488867
100
AcDbArc
 50
335.4989644041
 51
338.8404639045
  0
ARC
  5
331
100
AcDbEntity
  8
0
100
AcDbCircle
 62
7
  6
BYLAYER
 10
64.4484597751
 20
24.3533687943
 40
1.1
100
AcDbArc
 50
0.0
 51
90.0
  0
ARC
  5
332
100
AcDbEntity
  8
0
100
AcDbCircle
 62
7
  6
BYLAYER
 10
51.6484597751
 20
24.3533687943
 40
1.1
100
AcDbArc
 50
90.0
 51
180.0
  0
ARC
  5
333
100
AcDbEntity
  8
0
100
AcDbCircle
 62
7
  6
BYLAYER
 10
52.9484597751
 20
26.2533687943
 40
0.8
100
AcDbArc
 50
270.0
 51
64.0555202276
  0
ARC
  5
334
100
AcDbEntity
  8
0
100
AcDbCircle
 62
7
  6
BYLAYER
 10
63.1484597751
 20
26.2533687943
 40
0.8
100
AcDbArc
 50
115.9444797724
 51
270.0
  0
ARC
  5
335
100
AcDbEntity
  8
0
100
AcDbCircle
 62
7
  6
BYLAYER
 10
65.0484597751
 20
21.3533687943
 40
0.6
100
AcDbArc
 50
90.0
 51
270.0
  0
ARC
  5
336
100
AcDbEntity
  8
0
100
AcDbCircle
 62
7
  6
BYLAYER
 10
51.0484597751
 20
21.3533687943
 40
0.6
100
AcDbArc
 50
270.0
 51
90.0
  0
ARC
  5
337
100
AcDbEntity
  8
0
100
AcDbCircle
 62
7
  6
BYLAYER
 10
55.6356466688
 20
40.2620469239
 40
0.5800235451
100
AcDbArc
 50
305.3980463681
 51
315.1602185603
  0
ARC
  5
338
100
AcDbEntity
  8
0
100
AcDbCircle
 62
7
  6
BYLAYER
 10
60.3711904324
 20
50.1676155226
 40
0.5604690673
100
AcDbArc
 50
136.5989315783
 51
139.4712983372
  0
ARC
  5
339
100
AcDbEntity
  8
0
100
AcDbCircle
 62
7
  6
BYLAYER
 10
54.9484597751
 20
34.7533687943
 40
0.2
100
AcDbArc
 50
270.0000016725
 51
323.1301032709
  0
ARC
  5
33A
100
AcDbEntity
  8
0
100
AcDbCircle
 62
7
  6
BYLAYER
 10
61.1484597751
 20
34.7533687943
 40
0.2
100
AcDbArc
 50
216.8698967291
 51
269.9999983275
  0
ARC
  5
33B
100
AcDbEntity
  8
0
100
AcDbCircle
 62
7
  6
BYLAYER
 10
65.3484597751
 20
22.1533687943
 40
0.2
100
AcDbArc
 50
269.9999936227
 51
360.0
  0
ARC
  5
33C
100
AcDbEntity
  8
0
100
AcDbCircle
 62
7
  6
BYLAYER
 10
50.7484597751
 20
22.1533687943
 40
0.2
100
AcDbArc
 50
180.0
 51
270.0000063773
  0
ARC
  5
33D
100
AcDbEntity
  8
0
100
AcDbCircle
 62
7
  6
BYLAYER
 10
50.7484597751
 20
20.5533687943
 40
0.2
100
AcDbArc
 50
89.9999935989
 51
180.0
  0
ARC
  5
33E
100
AcDbEntity
  8
0
100
AcDbCircle
 62
7
  6
BYLAYER
 10
65.3484597751
 20
20.5533687943
 40
0.2
100
AcDbArc
 50
0.0
 51
90.0000064011
  0
SPLINE
  5
33F
100
AcDbEntity
  8
0
100
AcDbSpline
 62
7
  6
BYLAYER
 70
0
 71
3
 72
13
 73
9
 74
0
 42
0.0000001
 43
0.0000001
 44
0.0000000001
 40
0.0
 40
0.0
 40
0.0
 40
0.0
 40
0.3334805673
 40
0.6269049111
 40
0.7476859962
 40
0.848762096
 40
0.9312679297
 40
1.0
 40
1.0
 40
1.0
 40
1.0
 10
56.8743214395
 20
35.353368763
 30
0.0
 10
56.8743219286
 20
35.4284902209
 30
0.0
 10
56.8849049794
 20
35.5697567305
 30
0.0
 10
56.9221402274
 20
35.7352917746
 30
0.0
 10
56.9689877853
 20
35.8419375915
 30
0.0
 10
57.007070677
 20
35.8994706305
 30
0.0
 10
57.0491046543
 20
35.9388205682
 30
0.0
 10
57.0822045677
 20
35.9516109105
 30
0.0
 10
57.0976241205
 20
35.9530102808
 30
0.0
  0
SPLINE
  5
340
100
AcDbEntity
  8
0
100
AcDbSpline
 62
7
  6
BYLAYER
 70
0
 71
3
 72
14
 73
10
 74
0
 42
0.0000001
 43
0.0000001
 44
0.0000000001
 40
0.0
 40
0.0
 40
0.0
 40
0.0
 40
0.067680828
 40
0.1471204233
 40
0.2454911522
 40
0.3647702763
 40
0.5043406374
 40
0.6603571023
 40
1.0
 40
1.0
 40
1.0
 40
1.0
 10
57.1131261976
 20
34.7537219154
 30
0.0
 10
57.0975974292
 20
34.7522876821
 30
0.0
 10
57.0626216346
 20
34.7595263289
 30
0.0
 10
57.0172994346
 20
34.7952814297
 30
0.0
 10
56.9765894876
 20
34.8509339954
 30
0.0
 10
56.9411010274
 20
34.925606696
 30
0.0
 10
56.9124140224
 20
35.0170311965
 30
0.0
 10
56.883010301
 20
35.1605656192
 30
0.0
 10
56.8743397492
 20
35.2751090335
 30
0.0
 10
56.8743401859
 20
35.3533687675
 30
0.0
  0
SPLINE
  5
341
100
AcDbEntity
  8
0
100
AcDbSpline
 62
7
  6
BYLAYER
 70
0
 71
3
 72
14
 73
10
 74
0
 42
0.0000001
 43
0.0000001
 44
0.0000000001
 40
0.0
 40
0.0
 40
0.0
 40
0.0
 40
0.0868824427
 40
0.1801309081
 40
0.2852183412
 40
0.4045822108
 40
0.5387428817
 40
0.6854633708
 40
1.0
 40
1.0
 40
1.0
 40
1.0
 10
59.355897829
 20
55.6525029773
 30
0.0
 10
59.3777102442
 20
55.6547224318
 30
0.0
 10
59.4242808766
 20
55.6499580728
 30
0.0
 10
59.4895218526
 20
55.6168423815
 30
0.0
 10
59.5488491051
 20
55.5617401301
 30
0.0
 10
59.6005469907
 20
55.4867513136
 30
0.0
 10
59.6422338838
 20
55.3942651867
 30
0.0
 10
59.6845132925
 20
55.2497890227
 30
0.0
 10
59.6972672425
 20
55.1327430788
 30
0.0
 10
59.6972671039
 20
55.0533688306
 30
0.0
  0
SPLINE
  5
342
100
AcDbEntity
  8
0
100
AcDbSpline
 62
7
  6
BYLAYER
 70
0
 71
3
 72
32
 73
28
 74
0
 42
0.0000001
 43
0.0000001
 44
0.0000000001
 40
0.0
 40
0.0
 40
0.0
 40
0.0
 40
0.0041184073
 40
0.0075810102
 40
0.0121146572
 40
0.0244591118
 40
0.0411411876
 40
0.0620424643
 40
0.0870168608
 40
0.1485470461
 40
0.223828477
 40
0.3096165027
 40
0.4024798017
 40
0.4989801841
 40
0.5956050971
 40
0.6887314665
 40
0.7747290333
 40
0.850004523
 40
0.9118050586
 40
0.9370770143
 40
0.9583057062
 40
0.9752853897
 40
0.9821254893
 40
0.9878419914
 40
0.9924285429
 40
0.9959026902
 40
1.0
 40
1.0
 40
1.0
 40
1.0
 10
54.9984769232
 20
50.7101122349
 30
0.0
 10
54.9985207496
 20
50.718569212
 30
0.0
 10
55.0127266456
 20
50.7310319381
 30
0.0
 10
55.0340920687
 20
50.7417012463
 30
0.0
 10
55.0736266171
 20
50.7567596099
 30
0.0
 10
55.1402140981
 20
50.773760111
 30
0.0
 10
55.2409669846
 20
50.7935352505
 30
0.0
 10
55.367874098
 20
50.8133178529
 30
0.0
 10
55.5865880902
 20
50.8420184713
 30
0.0
 10
55.9170702221
 20
50.876344158
 30
0.0
 10
56.3724975713
 20
50.9155846876
 30
0.0
 10
56.892446151
 20
50.9551622833
 30
0.0
 10
57.4560654051
 20
50.9949392409
 30
0.0
 10
58.0419858338
 20
51.0347827411
 30
0.0
 10
58.6284495986
 20
51.0746007191
 30
0.0
 10
59.1932997053
 20
51.1143469492
 30
0.0
 10
59.7142159561
 20
51.1538590551
 30
0.0
 10
60.1706053369
 20
51.1932319689
 30
0.0
 10
60.5022470776
 20
51.2276439642
 30
0.0
 10
60.7228116893
 20
51.2562043881
 30
0.0
 10
60.8516696333
 20
51.276069907
 30
0.0
 10
60.9425567411
 20
51.2933654836
 30
0.0
 10
61.001540035
 20
51.3078013697
 30
0.0
 10
61.0352210172
 20
51.3176599833
 30
0.0
 10
61.0620536606
 20
51.3277872764
 30
0.0
 10
61.0835794755
 20
51.3383892234
 30
0.0
 10
61.0975875491
 20
51.3509838886
 30
0.0
 10
61.0976174773
 20
51.3593976025
 30
0.0
  0
SPLINE
  5
343
100
AcDbEntity
  8
0
100
AcDbSpline
 62
7
  6
BYLAYER
 70
0
 71
3
 72
32
 73
28
 74
0
 42
0.0000001
 43
0.0000001
 44
0.0000000001
 40
0.0
 40
0.0
 40
0.0
 40
0.0
 40
0.0040971223
 40
0.0075682893
 40
0.012153765
 40
0.0178716178
 40
0.0247152177
 40
0.0417069874
 40
0.0629521341
 40
0.088241956
 40
0.1500705585
 40
0.2253524589
 40
0.3113646846
 40
0.4045120079
 40
0.50115518
 40
0.5976615774
 40
0.690516578
 40
0.7762921173
 40
0.8515675758
 40
0.9130888926
 40
0.9380464128
 40
0.9589260686
 40
0.9755849291
 40
0.9879078143
 40
0.9924323941
 40
0.9958877533
 40
1.0
 40
1.0
 40
1.0
 40
1.0
 10
54.9993829376
 20
48.1110068057
 30
0.0
 10
54.9994224274
 20
48.1194200359
 30
0.0
 10
55.0134083134
 20
48.1320099064
 30
0.0
 10
55.034923957
 20
48.1426247443
 30
0.0
 10
55.0617500756
 20
48.1527495394
 30
0.0
 10
55.0954391003
 20
48.1626089204
 30
0.0
 10
55.1544573722
 20
48.1770459555
 30
0.0
 10
55.2454108111
 20
48.1943419936
 30
0.0
 10
55.3743641057
 20
48.2142080111
 30
0.0
 10
55.5950564766
 20
48.2427671413
 30
0.0
 10
55.9268037984
 20
48.2771785581
 30
0.0
 10
56.3832899638
 20
48.3165660737
 30
0.0
 10
56.9042890492
 20
48.3560789053
 30
0.0
 10
57.4692459019
 20
48.3958272311
 30
0.0
 10
58.055798516
 20
48.435646587
 30
0.0
 10
58.6417475042
 20
48.4754928525
 30
0.0
 10
59.2053319724
 20
48.5152752767
 30
0.0
 10
59.7252214086
 20
48.5548584094
 30
0.0
 10
60.1805887183
 20
48.594102453
 30
0.0
 10
60.5110041608
 20
48.6284202925
 30
0.0
 10
60.7296172994
 20
48.6571294303
 30
0.0
 10
60.8563954995
 20
48.6769134705
 30
0.0
 10
60.9570073101
 20
48.6966909765
 30
0.0
 10
61.0234823838
 20
48.7136929735
 30
0.0
 10
61.0629291544
 20
48.7287557114
 30
0.0
 10
61.0842482979
 20
48.7394259844
 30
0.0
 10
61.0983954795
 20
48.7519029301
 30
0.0
 10
61.0984240123
 20
48.7603472623
 30
0.0
  0
SPLINE
  5
344
100
AcDbEntity
  8
0
100
AcDbSpline
 62
7
  6
BYLAYER
 70
0
 71
3
 72
9
 73
5
 74
0
 42
0.0000001
 43
0.0000001
 44
0.0000000001
 40
0.0
 40
0.0
 40
0.0
 40
0.0
 40
0.5081991773
 40
1.0
 40
1.0
 40
1.0
 40
1.0
 10
56.8743281143
 20
35.3533596613
 30
0.0
 10
57.3342890196
 20
35.3871177884
 30
0.0
 10
58.2397770677
 20
35.4477353249
 30
0.0
 10
59.1451740391
 20
35.509998903
 30
0.0
 10
59.5901197905
 20
35.5449492788
 30
0.0
  0
SPLINE
  5
345
100
AcDbEntity
  8
0
100
AcDbSpline
 62
7
  6
BYLAYER
 70
0
 71
3
 72
9
 73
5
 74
0
 42
0.0000001
 43
0.0000001
 44
0.0000000001
 40
0.0
 40
0.0
 40
0.0
 40
0.0
 40
0.2752744689
 40
1.0
 40
1.0
 40
1.0
 40
1.0
 10
59.5901197905
 20
35.5449492788
 30
0.0
 10
59.6618542129
 20
35.5505839994
 30
0.0
 10
59.9224029161
 20
35.5715624214
 30
0.0
 10
60.1828134818
 20
35.5945654185
 30
0.0
 10
60.3712223954
 20
35.6143004103
 30
0.0
  0
SPLINE
  5
346
100
AcDbEntity
  8
0
100
AcDbSpline
 62
7
  6
BYLAYER
 70
0
 71
3
 72
14
 73
10
 74
0
 42
0.0000001
 43
0.0000001
 44
0.0000000001
 40
0.0
 40
0.0
 40
0.0
 40
0.0
 40
0.4157542773
 40
0.7232077537
 40
0.8345246638
 40
0.916894052
 40
0.9472874312
 40
0.9707362603
 40
1.0
 40
1.0
 40
1.0
 40
1.0
 10
60.3712223954
 20
35.6143004103
 30
0.0
 10
60.4747403617
 20
35.6251434547
 30
0.0
 10
60.6546185102
 20
35.6458400224
 30
0.0
 10
60.8613741817
 20
35.6765502717
 30
0.0
 10
60.9840926291
 20
35.7032538561
 30
0.0
 10
61.0379685109
 20
35.7186625036
 30
0.0
 10
61.0696483178
 20
35.7322108987
 30
0.0
 10
61.0872460677
 20
35.742079583
 30
0.0
 10
61.0981046404
 20
35.7533521835
 30
0.0
 10
61.0981312965
 20
35.7606783273
 30
0.0
  0
SPLINE
  5
347
100
AcDbEntity
  8
0
100
AcDbSpline
 62
7
  6
BYLAYER
 70
0
 71
3
 72
32
 73
28
 74
0
 42
0.0000001
 43
0.0000001
 44
0.0000000001
 40
0.0
 40
0.0
 40
0.0
 40
0.0
 40
0.0040523851
 40
0.0074140611
 40
0.0118341769
 40
0.0173608152
 40
0.0240193135
 40
0.040778347
 40
0.0620149023
 40
0.0874444854
 40
0.1496628102
 40
0.2249546026
 40
0.310791717
 40
0.4040975045
 40
0.5010994858
 40
0.597977415
 40
0.6909325621
 40
0.7765768656
 40
0.851893658
 40
0.9138918231
 40
0.9389739085
 40
0.9597487732
 40
0.976159648
 40
0.9881922811
 40
0.9925886127
 40
0.9959451853
 40
1.0
 40
1.0
 40
1.0
 40
1.0
 10
55.0014283194
 20
46.8104727734
 30
0.0
 10
55.0014737455
 20
46.8187900357
 30
0.0
 10
55.0147374064
 20
46.8313665039
 30
0.0
 10
55.0355443485
 20
46.842133448
 30
0.0
 10
55.0612776246
 20
46.8522929072
 30
0.0
 10
55.0937941019
 20
46.8621901543
 30
0.0
 10
55.151463194
 20
46.876735566
 30
0.0
 10
55.2414856435
 20
46.8940607892
 30
0.0
 10
55.3701679039
 20
46.9138866485
 30
0.0
 10
55.5918307316
 20
46.9424422422
 30
0.0
 10
55.9245352784
 20
46.9767540974
 30
0.0
 10
56.3812426641
 20
47.016317288
 30
0.0
 10
56.9019581651
 20
47.0560141045
 30
0.0
 10
57.4673410688
 20
47.0957693729
 30
0.0
 10
58.0554315287
 20
47.1356233027
 30
0.0
 10
58.6428015771
 20
47.1754638298
 30
0.0
 10
59.2068048484
 20
47.215312059
 30
0.0
 10
59.726450002
 20
47.2550347188
 30
0.0
 10
60.1823689611
 20
47.2944953649
 30
0.0
 10
60.5139627903
 20
47.3286652523
 30
0.0
 10
60.7334979931
 20
47.3573388538
 30
0.0
 10
60.8597429577
 20
47.377158464
 30
0.0
 10
60.9589325351
 20
47.3969771358
 30
0.0
 10
61.0239947215
 20
47.414050572
 30
0.0
 10
61.0621996365
 20
47.4291703232
 30
0.0
 10
61.0829341883
 20
47.43994732
 30
0.0
 10
61.0962427962
 20
47.4524978672
 30
0.0
 10
61.0962707365
 20
47.4608201934
 30
0.0
  0
SPLINE
  5
348
100
AcDbEntity
  8
0
100
AcDbSpline
 62
7
  6
BYLAYER
 70
0
 71
3
 72
18
 73
14
 74
0
 42
0.0000001
 43
0.0000001
 44
0.0000000001
 40
0.0
 40
0.0
 40
0.0
 40
0.0
 40
0.0082466206
 40
0.0149529612
 40
0.023693158
 40
0.0475212024
 40
0.0799252284
 40
0.1702200153
 40
0.2929028007
 40
0.4430039185
 40
0.6147754319
 40
0.8024411897
 40
1.0
 40
1.0
 40
1.0
 40
1.0
 10
55.0002382543
 20
45.5095140951
 30
0.0
 10
55.0002811383
 20
45.5173662421
 30
0.0
 10
55.0123198721
 20
45.5293399668
 30
0.0
 10
55.0315139147
 20
45.539733991
 30
0.0
 10
55.0664649304
 20
45.5541470182
 30
0.0
 10
55.126038337
 20
45.5704887006
 30
0.0
 10
55.2627860038
 20
45.5989276444
 30
0.0
 10
55.4942594667
 20
45.6314296974
 30
0.0
 10
55.8379871575
 20
45.6686122079
 30
0.0
 10
56.2596339162
 20
45.706164886
 30
0.0
 10
56.7433194545
 20
45.7441511036
 30
0.0
 10
57.2723105689
 20
45.7822742355
 30
0.0
 10
57.6382557289
 20
45.8073469181
 30
0.0
 10
57.8259333704
 20
45.8201152315
 30
0.0
  0
SPLINE
  5
349
100
AcDbEntity
  8
0
100
AcDbSpline
 62
7
  6
BYLAYER
 70
0
 71
3
 72
20
 73
16
 74
0
 42
0.0000001
 43
0.0000001
 44
0.0000000001
 40
0.0
 40
0.0
 40
0.0
 40
0.0
 40
0.1896609153
 40
0.3743138028
 40
0.5458728934
 40
0.6970821129
 40
0.8225408009
 40
0.8740194422
 40
0.9171613795
 40
0.9513660051
 40
0.9649616877
 40
0.9762210295
 40
0.9851965013
 40
0.9919842629
 40
1.0
 40
1.0
 40
1.0
 40
1.0
 10
57.8259333704
 20
45.8201152315
 30
0.0
 10
58.0341591383
 20
45.8342814999
 30
0.0
 10
58.4451278368
 20
45.8620150552
 30
0.0
 10
59.044383767
 20
45.903507981
 30
0.0
 10
59.6012357976
 20
45.9448495466
 30
0.0
 10
60.0927469097
 20
45.9861557792
 30
0.0
 10
60.4521048251
 20
46.0219872156
 30
0.0
 10
60.6924573423
 20
46.0517753447
 30
0.0
 10
60.8327201915
 20
46.0725069049
 30
0.0
 10
60.9311691982
 20
46.0905531565
 30
0.0
 10
60.9944448721
 20
46.1057299054
 30
0.0
 10
61.0300905218
 20
46.11605671
 30
0.0
 10
61.0583114629
 20
46.1266746704
 30
0.0
 10
61.0808493757
 20
46.1377989893
 30
0.0
 10
61.0956052888
 20
46.1509379571
 30
0.0
 10
61.0956374927
 20
46.1597585941
 30
0.0
  0
SPLINE
  5
34A
100
AcDbEntity
  8
0
100
AcDbSpline
 62
7
  6
BYLAYER
 70
0
 71
3
 72
32
 73
28
 74
0
 42
0.0000001
 43
0.0000001
 44
0.0000000001
 40
0.0
 40
0.0
 40
0.0
 40
0.0
 40
0.0040463601
 40
0.0074006073
 40
0.0118085983
 40
0.0173166987
 40
0.0239484563
 40
0.040629366
 40
0.0618066795
 40
0.0872036733
 40
0.1494042541
 40
0.2246863722
 40
0.3104652014
 40
0.4037377194
 40
0.5007537322
 40
0.597681777
 40
0.6907006497
 40
0.7763626221
 40
0.8516930013
 40
0.9137593551
 40
0.938911831
 40
0.9597379159
 40
0.9761684971
 40
0.9882013302
 40
0.9925942818
 40
0.9959472399
 40
1.0
 40
1.0
 40
1.0
 40
1.0
 10
55.0012120876
 20
40.3102557107
 30
0.0
 10
55.001230206
 20
40.3185607913
 30
0.0
 10
55.0144471488
 20
40.3311525412
 30
0.0
 10
55.035196385
 20
40.3419189492
 30
0.0
 10
55.0608439961
 20
40.352081154
 30
0.0
 10
55.0932376214
 20
40.3619797105
 30
0.0
 10
55.1506456163
 20
40.3765253627
 30
0.0
 10
55.2403199608
 20
40.3938842307
 30
0.0
 10
55.368652504
 20
40.413702423
 30
0.0
 10
55.5900895101
 20
40.4422671376
 30
0.0
 10
55.9226749796
 20
40.4765694978
 30
0.0
 10
56.3792104569
 20
40.5161265494
 30
0.0
 10
56.8997203708
 20
40.5558535416
 30
0.0
 10
57.4649486823
 20
40.5956174798
 30
0.0
 10
58.0531080396
 20
40.6354763147
 30
0.0
 10
58.640746428
 20
40.6753224994
 30
0.0
 10
59.205026489
 20
40.7151612939
 30
0.0
 10
59.7248706333
 20
40.7549036491
 30
0.0
 10
60.1809975416
 20
40.7943835778
 30
0.0
 10
60.5129047281
 20
40.8285827142
 30
0.0
 10
60.7328385693
 20
40.85722498
 30
0.0
 10
60.8593799689
 20
40.8770379223
 30
0.0
 10
60.9587175918
 20
40.8968623386
 30
0.0
 10
61.0238165454
 20
40.9139431955
 30
0.0
 10
61.0620009913
 20
40.929070968
 30
0.0
 10
61.0827187145
 20
40.9398551008
 30
0.0
 10
61.0959883627
 20
40.9524107847
 30
0.0
 10
61.0960198207
 20
40.9607289616
 30
0.0
  0
SPLINE
  5
34B
100
AcDbEntity
  8
0
100
AcDbSpline
 62
7
  6
BYLAYER
 70
0
 71
3
 72
17
 73
13
 74
0
 42
0.0000001
 43
0.0000001
 44
0.0000000001
 40
0.0
 40
0.0
 40
0.0
 40
0.0
 40
0.2149404435
 40
0.4088240706
 40
0.5790009434
 40
0.7228498967
 40
0.8378133399
 40
0.8837148743
 40
0.9216766071
 40
0.9518229025
 40
0.9744208573
 40
1.0
 40
1.0
 40
1.0
 40
1.0
 10
59.6972684324
 20
55.0533697967
 30
0.0
 10
59.7992631862
 20
55.0616088304
 30
0.0
 10
59.9932062136
 20
55.0779668678
 30
0.0
 10
60.2676382044
 20
55.10389147
 30
0.0
 10
60.5080347164
 20
55.1299596661
 30
0.0
 10
60.7106138338
 20
55.1561817017
 30
0.0
 10
60.8538274414
 20
55.179216478
 30
0.0
 10
60.9465843373
 20
55.1987487394
 30
0.0
 10
60.9989547463
 20
55.2121243148
 30
0.0
 10
61.0406156812
 20
55.2259961257
 30
0.0
 10
61.0730603544
 20
55.2402779205
 30
0.0
 10
61.0957012941
 20
55.2575234236
 30
0.0
 10
61.0957554831
 20
55.2697007996
 30
0.0
  0
SPLINE
  5
34C
100
AcDbEntity
  8
0
100
AcDbSpline
 62
7
  6
BYLAYER
 70
0
 71
3
 72
32
 73
28
 74
0
 42
0.0000001
 43
0.0000001
 44
0.0000000001
 40
0.0
 40
0.0
 40
0.0
 40
0.0
 40
0.004090129
 40
0.0075441935
 40
0.01211492
 40
0.0178267916
 40
0.024672348
 40
0.0416872572
 40
0.0629728334
 40
0.0883100113
 40
0.1502122134
 40
0.2254910138
 40
0.3115271218
 40
0.4047291716
 40
0.5014280227
 40
0.5979583956
 40
0.6907914729
 40
0.7765357523
 40
0.8518110829
 40
0.9133429438
 40
0.9382633636
 40
0.9590884959
 40
0.9756867008
 40
0.9879542771
 40
0.9924569498
 40
0.9958963242
 40
1.0
 40
1.0
 40
1.0
 40
1.0
 10
54.999682468
 20
41.6110494108
 30
0.0
 10
54.9997287782
 20
41.6194478937
 30
0.0
 10
55.0135970402
 20
41.6320340675
 30
0.0
 10
55.0350242388
 20
41.6426875774
 30
0.0
 10
55.0617618602
 20
41.6528109574
 30
0.0
 10
55.0954114707
 20
41.6626692403
 30
0.0
 10
55.1544657904
 20
41.6771115743
 30
0.0
 10
55.2455530735
 20
41.6944069287
 30
0.0
 10
55.3747310668
 20
41.7142725826
 30
0.0
 10
55.595748956
 20
41.7428261648
 30
0.0
 10
55.9277257219
 20
41.777230053
 30
0.0
 10
56.3843830181
 20
41.8166653922
 30
0.0
 10
56.9055156554
 20
41.8561799922
 30
0.0
 10
57.4707248661
 20
41.8959320275
 30
0.0
 10
58.0575292337
 20
41.9357534755
 30
0.0
 10
58.6435720985
 20
41.9756044034
 30
0.0
 10
59.2070714862
 20
42.0154037651
 30
0.0
 10
59.7268282113
 20
42.0550032226
 30
0.0
 10
60.1821312845
 20
42.0942634721
 30
0.0
 10
60.512482227
 20
42.1285461455
 30
0.0
 10
60.7309146567
 20
42.1572801733
 30
0.0
 10
60.8573716008
 20
42.1770695218
 30
0.0
 10
60.9576181811
 20
42.196852521
 30
0.0
 10
61.0238038625
 20
42.213864559
 30
0.0
 10
61.0630318302
 20
42.2289327714
 30
0.0
 10
61.0842566194
 20
42.239620633
 30
0.0
 10
61.0982748331
 20
42.2521053497
 30
0.0
 10
61.098307185
 20
42.260531715
 30
0.0
  0
SPLINE
  5
34D
100
AcDbEntity
  8
0
100
AcDbSpline
 62
7
  6
BYLAYER
 70
0
 71
3
 72
32
 73
28
 74
0
 42
0.0000001
 43
0.0000001
 44
0.0000000001
 40
0.0
 40
0.0
 40
0.0
 40
0.0
 40
0.004056254
 40
0.00743091
 40
0.0118751118
 40
0.0174395981
 40
0.0241523486
 40
0.0410330828
 40
0.0623358489
 40
0.0877860341
 40
0.1499736406
 40
0.2252485096
 40
0.3111693632
 40
0.4045043562
 40
0.5014688109
 40
0.5982643895
 40
0.6911454571
 40
0.7767946237
 40
0.8521063302
 40
0.9139892965
 40
0.9389663058
 40
0.9596915839
 40
0.9761002294
 40
0.9881565399
 40
0.9925675178
 40
0.9959367947
 40
1.0
 40
1.0
 40
1.0
 40
1.0
 10
55.0012016789
 20
39.0106962249
 30
0.0
 10
55.0012434028
 20
39.0190222213
 30
0.0
 10
55.0145833944
 20
39.0316065485
 30
0.0
 10
55.0354839195
 20
39.042355943
 30
0.0
 10
55.0613903703
 20
39.0525153648
 30
0.0
 10
55.0941584346
 20
39.0624094722
 30
0.0
 10
55.1522915457
 20
39.0769354087
 30
0.0
 10
55.2428340233
 20
39.0942208529
 30
0.0
 10
55.3719574343
 20
39.1140700796
 30
0.0
 10
55.5937582861
 20
39.1426169669
 30
0.0
 10
55.9264352433
 20
39.1769538259
 30
0.0
 10
56.3832594631
 20
39.2165265056
 30
0.0
 10
56.904225479
 20
39.2561681048
 30
0.0
 10
57.4698164247
 20
39.2959214317
 30
0.0
 10
58.0577755929
 20
39.3357703159
 30
0.0
 10
58.6448014296
 20
39.3756115738
 30
0.0
 10
59.2085444308
 20
39.4154732253
 30
0.0
 10
59.7280877377
 20
39.4551641017
 30
0.0
 10
60.1838138086
 20
39.4945933209
 30
0.0
 10
60.5149787987
 20
39.5287291251
 30
0.0
 10
60.7339679776
 20
39.5574692112
 30
0.0
 10
60.8598976103
 20
39.5772879834
 30
0.0
 10
60.9590412867
 20
39.5971001711
 30
0.0
 10
61.0241819805
 20
39.6141625039
 30
0.0
 10
61.062515835
 20
39.6292696575
 30
0.0
 10
61.0833236268
 20
39.6400334889
 30
0.0
 10
61.09674986
 20
39.6525697253
 30
0.0
 10
61.0967810215
 20
39.6609100368
 30
0.0
  0
SPLINE
  5
34E
100
AcDbEntity
  8
0
100
AcDbSpline
 62
7
  6
BYLAYER
 70
0
 71
3
 72
9
 73
5
 74
0
 42
0.0000001
 43
0.0000001
 44
0.0000000001
 40
0.0
 40
0.0
 40
0.0
 40
0.0
 40
0.1878817239
 40
1.0
 40
1.0
 40
1.0
 40
1.0
 10
58.0460255338
 20
56.0441559781
 30
0.0
 10
58.0462482004
 20
56.0751854156
 30
0.0
 10
58.0473287085
 20
56.2403398324
 30
0.0
 10
58.0486682818
 20
56.4054969024
 30
0.0
 10
58.0484579715
 20
56.539624856
 30
0.0
  0
SPLINE
  5
34F
100
AcDbEntity
  8
0
100
AcDbSpline
 62
7
  6
BYLAYER
 70
0
 71
3
 72
32
 73
28
 74
0
 42
0.0000001
 43
0.0000001
 44
0.0000000001
 40
0.0
 40
0.0
 40
0.0
 40
0.0
 40
0.0041022361
 40
0.0075359306
 40
0.0120302792
 40
0.0242762492
 40
0.0408511843
 40
0.0616571702
 40
0.0865682877
 40
0.1481229336
 40
0.2234071961
 40
0.3091436326
 40
0.4019731761
 40
0.4985218716
 40
0.5952491348
 40
0.6884737419
 40
0.7745121241
 40
0.8497812433
 40
0.9117098077
 40
0.9370629722
 40
0.9583594291
 40
0.9753749674
 40
0.9822154662
 40
0.9879179822
 40
0.9924749299
 40
0.9959173949
 40
1.0
 40
1.0
 40
1.0
 40
1.0
 10
54.998697659
 20
42.9097814239
 30
0.0
 10
54.9987429776
 20
42.9182045702
 30
0.0
 10
55.0127148784
 20
42.9306854357
 30
0.0
 10
55.0339085819
 20
42.9413848332
 30
0.0
 10
55.073051717
 20
42.9564544852
 30
0.0
 10
55.1391251083
 20
42.9734729639
 30
0.0
 10
55.2392332601
 20
42.9932588302
 30
0.0
 10
55.365579746
 20
43.0130515356
 30
0.0
 10
55.583993511
 20
43.0417969793
 30
0.0
 10
55.9143850145
 20
43.0760607291
 30
0.0
 10
56.3697248514
 20
43.115333223
 30
0.0
 10
56.8894634065
 20
43.1549412921
 30
0.0
 10
57.4529627705
 20
43.1947499964
 30
0.0
 10
58.0390802563
 20
43.2346027599
 30
0.0
 10
58.6260128949
 20
43.2744262543
 30
0.0
 10
59.191317863
 20
43.3141804234
 30
0.0
 10
59.7124688956
 20
43.3536983462
 30
0.0
 10
60.1691521481
 20
43.3931570789
 30
0.0
 10
60.5011884637
 20
43.4275565147
 30
0.0
 10
60.7223114345
 20
43.4561086331
 30
0.0
 10
60.85154318
 20
43.4759741875
 30
0.0
 10
60.9426424458
 20
43.4932687538
 30
0.0
 10
61.0016646411
 20
43.5077157745
 30
0.0
 10
61.035255198
 20
43.5175713437
 30
0.0
 10
61.0619106471
 20
43.5277016161
 30
0.0
 10
61.0832660951
 20
43.5383658063
 30
0.0
 10
61.0970517114
 20
43.5509630652
 30
0.0
 10
61.0970826523
 20
43.5593459672
 30
0.0
  0
SPLINE
  5
350
100
AcDbEntity
  8
0
100
AcDbSpline
 62
7
  6
BYLAYER
 70
0
 71
3
 72
32
 73
28
 74
0
 42
0.0000001
 43
0.0000001
 44
0.0000000001
 40
0.0
 40
0.0
 40
0.0
 40
0.0
 40
0.0041098224
 40
0.0075584107
 40
0.0120732408
 40
0.0243707008
 40
0.0410011761
 40
0.0618552345
 40
0.0867956164
 40
0.1483255914
 40
0.223606092
 40
0.30936976
 40
0.4022160151
 40
0.4987352685
 40
0.5954069552
 40
0.6885816153
 40
0.7746044923
 40
0.8498803389
 40
0.9117404528
 40
0.9370515015
 40
0.9583144413
 40
0.9753153206
 40
0.9821586379
 40
0.9878722152
 40
0.9924490145
 40
0.9959094325
 40
1.0
 40
1.0
 40
1.0
 40
1.0
 10
54.9985453384
 20
36.4099412182
 30
0.0
 10
54.998584211
 20
36.4183803768
 30
0.0
 10
55.0126769513
 20
36.430855489
 30
0.0
 10
55.0339580778
 20
36.4415370178
 30
0.0
 10
55.073305973
 20
36.4566013956
 30
0.0
 10
55.1396476364
 20
36.4736095629
 30
0.0
 10
55.2400893016
 20
36.4933899147
 30
0.0
 10
55.3667175542
 20
36.5131771532
 30
0.0
 10
55.585254243
 20
36.5418993273
 30
0.0
 10
55.9156586911
 20
36.5762004273
 30
0.0
 10
56.3710204029
 20
36.6154521415
 30
0.0
 10
56.8908676374
 20
36.6550442682
 30
0.0
 10
57.4544251336
 20
36.6948357276
 30
0.0
 10
58.0404303184
 20
36.7346852263
 30
0.0
 10
58.6271134933
 20
36.7745059979
 30
0.0
 10
59.1921966949
 20
36.814256715
 30
0.0
 10
59.7132520032
 20
36.8537701887
 30
0.0
 10
60.1698020502
 20
36.8931826448
 30
0.0
 10
60.5016396442
 20
36.9275911353
 30
0.0
 10
60.7224742951
 20
36.9561478807
 30
0.0
 10
60.8515250444
 20
36.976013888
 30
0.0
 10
60.942532793
 20
36.9933097686
 30
0.0
 10
61.0015586297
 20
37.0077497906
 30
0.0
 10
61.0352197584
 20
37.0176086774
 30
0.0
 10
61.061991573
 20
37.0277321016
 30
0.0
 10
61.083449319
 20
37.0383642638
 30
0.0
 10
61.0973567947
 20
37.0509620232
 30
0.0
 10
61.0973870371
 20
37.0593616783
 30
0.0
  0
SPLINE
  5
351
100
AcDbEntity
  8
0
100
AcDbSpline
 62
7
  6
BYLAYER
 70
0
 71
3
 72
23
 73
19
 74
0
 42
0.0000001
 43
0.0000001
 44
0.0000000001
 40
0.0
 40
0.0
 40
0.0
 40
0.0
 40
0.0032772851
 40
0.0086065934
 40
0.0165718634
 40
0.0272539219
 40
0.0406250713
 40
0.0566241198
 40
0.0961984989
 40
0.1453197628
 40
0.203288692
 40
0.26936771
 40
0.3424134577
 40
0.4209491461
 40
0.5034855858
 40
0.674597716
 40
0.8439091233
 40
1.0
 40
1.0
 40
1.0
 40
1.0
 10
54.9991094087
 20
54.6109513297
 30
0.0
 10
54.9991366652
 20
54.6161211542
 30
0.0
 10
55.0076797706
 20
54.6286619319
 30
0.0
 10
55.0307001368
 20
54.6409274936
 30
0.0
 10
55.0661702956
 20
54.6544816274
 30
0.0
 10
55.1149348582
 20
54.6677167139
 30
0.0
 10
55.1766577668
 20
54.6813133824
 30
0.0
 10
55.2836615493
 20
54.700858446
 30
0.0
 10
55.4471715679
 20
54.7244291066
 30
0.0
 10
55.6769596948
 20
54.7514536407
 30
0.0
 10
55.9487880082
 20
54.7786451038
 30
0.0
 10
56.2585111025
 20
54.8058802603
 30
0.0
 10
56.6007870816
 20
54.8331514286
 30
0.0
 10
56.9690938814
 20
54.8604962532
 30
0.0
 10
57.491808455
 20
54.8974502494
 30
0.0
 10
58.157504975
 20
54.9424766319
 30
0.0
 10
58.9389258948
 20
54.9959276227
 30
0.0
 10
59.4508685972
 20
55.0336313832
 30
0.0
 10
59.6963078962
 20
55.0533779342
 30
0.0
  0
SPLINE
  5
352
100
AcDbEntity
  8
0
100
AcDbSpline
 62
7
  6
BYLAYER
 70
0
 71
3
 72
13
 73
9
 74
0
 42
0.0000001
 43
0.0000001
 44
0.0000000001
 40
0.0
 40
0.0
 40
0.0
 40
0.0
 40
0.3088813878
 40
0.5881777865
 40
0.7093336401
 40
0.8170516842
 40
0.9127906785
 40
1.0
 40
1.0
 40
1.0
 40
1.0
 10
59.697269891
 20
55.0533688304
 30
0.0
 10
59.6972697479
 20
54.9788874199
 30
0.0
 10
59.6824867532
 20
54.8368654316
 30
0.0
 10
59.6299419223
 20
54.6718789395
 30
0.0
 10
59.565774155
 20
54.566769694
 30
0.0
 10
59.5124827583
 20
54.5086238563
 30
0.0
 10
59.4537143932
 20
54.4690228899
 30
0.0
 10
59.4104412743
 20
54.4562750582
 30
0.0
 10
59.3895151726
 20
54.4541970777
 30
0.0
  0
SPLINE
  5
353
100
AcDbEntity
  8
0
100
AcDbSpline
 62
7
  6
BYLAYER
 70
0
 71
3
 72
32
 73
28
 74
0
 42
0.0000001
 43
0.0000001
 44
0.0000000001
 40
0.0
 40
0.0
 40
0.0
 40
0.0
 40
0.0040531146
 40
0.0074205854
 40
0.011852353
 40
0.0173980267
 40
0.0240844429
 40
0.0409127682
 40
0.0621889393
 40
0.0876319302
 40
0.1498344484
 40
0.2251144805
 40
0.3109973575
 40
0.4043228749
 40
0.5013071643
 40
0.5981411582
 40
0.6910531119
 40
0.7767001519
 40
0.852016956
 40
0.9139553775
 40
0.9389769539
 40
0.9597203742
 40
0.9761275082
 40
0.9881720535
 40
0.9925763259
 40
0.9959400067
 40
1.0
 40
1.0
 40
1.0
 40
1.0
 10
55.0013208884
 20
53.3105936936
 30
0.0
 10
55.0013592535
 20
53.3189128991
 30
0.0
 10
55.0146537456
 20
53.3314974366
 30
0.0
 10
55.03550304
 20
53.3422541775
 30
0.0
 10
55.0613207261
 20
53.3524141028
 30
0.0
 10
55.0939643111
 20
53.3623094654
 30
0.0
 10
55.1518845713
 20
53.3768486832
 30
0.0
 10
55.2422017845
 20
53.3941464521
 30
0.0
 10
55.371141887
 20
53.4139864833
 30
0.0
 10
55.5928935576
 20
53.4425366488
 30
0.0
 10
55.9255836103
 20
53.4768630979
 30
0.0
 10
56.3823508602
 20
53.5164335821
 30
0.0
 10
56.9032050315
 20
53.5561007208
 30
0.0
 10
57.4687143904
 20
53.595854128
 30
0.0
 10
58.0567479305
 20
53.6357059023
 30
0.0
 10
58.6439314521
 20
53.6755464256
 30
0.0
 10
59.2077882684
 20
53.7154043401
 30
0.0
 10
59.7273773272
 20
53.7551096959
 30
0.0
 10
60.1832025763
 20
53.7945544117
 30
0.0
 10
60.5145680209
 20
53.8287018097
 30
0.0
 10
60.7337955385
 20
53.857413965
 30
0.0
 10
60.8598470123
 20
53.8772351413
 30
0.0
 10
60.9589947663
 20
53.8970502818
 30
0.0
 10
61.0240920273
 20
53.9141182016
 30
0.0
 10
61.0623652805
 20
53.9292304896
 30
0.0
 10
61.0831412276
 20
53.9400015525
 30
0.0
 10
61.0965161353
 20
53.952542102
 30
0.0
 10
61.0965491071
 20
53.9608754498
 30
0.0
  0
SPLINE
  5
354
100
AcDbEntity
  8
0
100
AcDbSpline
 62
7
  6
BYLAYER
 70
0
 71
3
 72
32
 73
28
 74
0
 42
0.0000001
 43
0.0000001
 44
0.0000000001
 40
0.0
 40
0.0
 40
0.0
 40
0.0
 40
0.0040593009
 40
0.0074199915
 40
0.0118207033
 40
0.0238608094
 40
0.0402743908
 40
0.0610437693
 40
0.0861128304
 40
0.1481023208
 40
0.2234248065
 40
0.3090730892
 40
0.4020174072
 40
0.4988834977
 40
0.595879514
 40
0.6891881948
 40
0.7750328684
 40
0.8503152204
 40
0.9125232191
 40
0.9379536683
 40
0.9591984555
 40
0.975973287
 40
0.9826372275
 40
0.9881669591
 40
0.9925882626
 40
0.9959497052
 40
1.0
 40
1.0
 40
1.0
 40
1.0
 10
55.0005735658
 20
52.0095591954
 30
0.0
 10
55.0006167923
 20
52.0178907622
 30
0.0
 10
55.0139621819
 20
52.0304288991
 30
0.0
 10
55.034723804
 20
52.0412075226
 30
0.0
 10
55.072966989
 20
52.0563229669
 30
0.0
 10
55.1380596349
 20
52.0733961279
 30
0.0
 10
55.2372609084
 20
52.0932133351
 30
0.0
 10
55.3634740871
 20
52.1130342093
 30
0.0
 10
55.5829544992
 20
52.1417175712
 30
0.0
 10
55.9145201674
 20
52.1758804252
 30
0.0
 10
56.3704468917
 20
52.2153366104
 30
0.0
 10
56.8900962055
 20
52.2550543138
 30
0.0
 10
57.4540674826
 20
52.294905263
 30
0.0
 10
58.0413856156
 20
52.3347452255
 30
0.0
 10
58.6294524156
 20
52.3745982345
 30
0.0
 10
59.1948513174
 20
52.4143522179
 30
0.0
 10
59.7155756979
 20
52.4540406797
 30
0.0
 10
60.1722632811
 20
52.4936057558
 30
0.0
 10
60.5049322994
 20
52.5279213276
 30
0.0
 10
60.7265954868
 20
52.5564752165
 30
0.0
 10
60.8553302772
 20
52.576304604
 30
0.0
 10
60.9454169193
 20
52.5936210597
 30
0.0
 10
61.0031385412
 20
52.6081658797
 30
0.0
 10
61.0356764081
 20
52.6180621351
 30
0.0
 10
61.061419379
 20
52.6282222708
 30
0.0
 10
61.0822250621
 20
52.638984324
 30
0.0
 10
61.0954820597
 20
52.6515693725
 30
0.0
 10
61.095516139
 20
52.6598824967
 30
0.0
  0
SPLINE
  5
355
100
AcDbEntity
  8
0
100
AcDbSpline
 62
7
  6
BYLAYER
 70
0
 71
3
 72
18
 73
14
 74
0
 42
0.0000001
 43
0.0000001
 44
0.0000000001
 40
0.0
 40
0.0
 40
0.0
 40
0.0
 40
0.0082105612
 40
0.0148752136
 40
0.0235684386
 40
0.0473201565
 40
0.0797258847
 40
0.1704624913
 40
0.2934091249
 40
0.443365201
 40
0.6148858719
 40
0.802485728
 40
1.0
 40
1.0
 40
1.0
 40
1.0
 10
55.0010116868
 20
44.2097083197
 30
0.0
 10
55.0010483499
 20
44.2175469414
 30
0.0
 10
55.0129642551
 20
44.2295492549
 30
0.0
 10
55.032097312
 20
44.2399679618
 30
0.0
 10
55.0669657204
 20
44.254412046
 30
0.0
 10
55.1265895992
 20
44.2707828352
 30
0.0
 10
55.2640533669
 20
44.299312082
 30
0.0
 10
55.4968615353
 20
44.3316707507
 30
0.0
 10
55.8420357383
 20
44.3689440078
 30
0.0
 10
56.2646801027
 20
44.4065773758
 30
0.0
 10
56.7492100696
 20
44.4446428028
 30
0.0
 10
57.2792675349
 20
44.4827849449
 30
0.0
 10
57.646082568
 20
44.5078797649
 30
0.0
 10
57.8342173137
 20
44.5206684838
 30
0.0
  0
SPLINE
  5
356
100
AcDbEntity
  8
0
100
AcDbSpline
 62
7
  6
BYLAYER
 70
0
 71
3
 72
20
 73
16
 74
0
 42
0.0000001
 43
0.0000001
 44
0.0000000001
 40
0.0
 40
0.0
 40
0.0
 40
0.0
 40
0.1900956375
 40
0.3749292075
 40
0.5464230768
 40
0.697801025
 40
0.8234451163
 40
0.87488977
 40
0.9178433052
 40
0.9516941761
 40
0.9651452961
 40
0.9763077476
 40
0.9852251489
 40
0.9919848739
 40
1.0
 40
1.0
 40
1.0
 40
1.0
 10
57.8342173137
 20
44.5206684838
 30
0.0
 10
58.0423963359
 20
44.5348197401
 30
0.0
 10
58.4530059577
 20
44.5625227265
 30
0.0
 10
59.0513554711
 20
44.6039829523
 30
0.0
 10
59.6071084206
 20
44.6453782751
 30
0.0
 10
60.0976956567
 20
44.6866439948
 30
0.0
 10
60.4565020797
 20
44.7224043798
 30
0.0
 10
60.6962012748
 20
44.7521829895
 30
0.0
 10
60.8354733278
 20
44.772862506
 30
0.0
 10
60.9328920344
 20
44.7909686996
 30
0.0
 10
60.995323739
 20
44.8061534959
 30
0.0
 10
61.0305335706
 20
44.8164767353
 30
0.0
 10
61.0584545057
 20
44.8270865926
 30
0.0
 10
61.0808249529
 20
44.8382252667
 30
0.0
 10
61.0954496817
 20
44.8513472521
 30
0.0
 10
61.0954792877
 20
44.8601450463
 30
0.0
  0
LINE
  5
357
100
AcDbEntity
  8
0
100
AcDbLine
 62
7
  6
BYLAYER
 10
58.3033297624
 20
45.1566332098
 11
57.8862028415
 21
45.2033779941
  0
SPLINE
  5
358
100
AcDbEntity
  8
0
100
AcDbSpline
 62
7
  6
BYLAYER
 70
0
 71
3
 72
10
 73
6
 74
0
 42
0.0000001
 43
0.0000001
 44
0.0000000001
 40
0.0
 40
0.0
 40
0.0
 40
0.0
 40
0.2881447335
 40
0.5517498375
 40
1.0
 40
1.0
 40
1.0
 40
1.0
 10
59.9095059
 20
59.5533688047
 30
0.0
 10
59.9095467799
 20
59.4236979101
 30
0.0
 10
59.9053130276
 20
59.175213872
 30
0.0
 10
59.8697824418
 20
58.7267733117
 30
0.0
 10
59.8029539117
 20
58.4096136974
 30
0.0
 10
59.7319429418
 20
58.2208042004
 30
0.0
  0
SPLINE
  5
359
100
AcDbEntity
  8
0
100
AcDbSpline
 62
7
  6
BYLAYER
 70
0
 71
3
 72
9
 73
5
 74
0
 42
0.0000001
 43
0.0000001
 44
0.0000000001
 40
0.0
 40
0.0
 40
0.0
 40
0.0
 40
0.4859383658
 40
1.0
 40
1.0
 40
1.0
 40
1.0
 10
60.7898316564
 20
57.6403814658
 30
0.0
 10
60.7258057579
 20
57.5000084049
 30
0.0
 10
60.5648100361
 20
57.2233378082
 30
0.0
 10
60.3476278223
 20
56.9880614527
 30
0.0
 10
60.2259944519
 20
56.879230269
 30
0.0
  0
SPLINE
  5
35A
100
AcDbEntity
  8
0
100
AcDbSpline
 62
7
  6
BYLAYER
 70
0
 71
3
 72
11
 73
7
 74
0
 42
0.0000001
 43
0.0000001
 44
0.0000000001
 40
0.0
 40
0.0
 40
0.0
 40
0.0
 40
0.2226436791
 40
0.4699340397
 40
0.7317686151
 40
1.0
 40
1.0
 40
1.0
 40
1.0
 10
60.2259944519
 20
56.879230269
 30
0.0
 10
60.0943881478
 20
56.7614758254
 30
0.0
 10
59.7913960046
 20
56.5404919069
 30
0.0
 10
59.2711036052
 20
56.2780727529
 30
0.0
 10
58.6802875941
 20
56.0917986959
 30
0.0
 10
58.258807722
 20
56.0436921488
 30
0.0
 10
58.0460520148
 20
56.0438543605
 30
0.0
  0
SPLINE
  5
35B
100
AcDbEntity
  8
0
100
AcDbSpline
 62
7
  6
BYLAYER
 70
0
 71
3
 72
15
 73
11
 74
0
 42
0.0000001
 43
0.0000001
 44
0.0000000001
 40
0.0
 40
0.0
 40
0.0
 40
0.0
 40
0.0334352545
 40
0.0580699761
 40
0.0894663356
 40
0.1737844347
 40
0.2867313173
 40
0.4272613755
 40
0.5939995623
 40
1.0
 40
1.0
 40
1.0
 40
1.0
 10
54.9998068738
 20
56.0784276805
 30
0.0
 10
54.9998236811
 20
56.0893133104
 30
0.0
 10
55.0123006354
 20
56.1069018504
 30
0.0
 10
55.0357868472
 20
56.1233588257
 30
0.0
 10
55.0765179397
 20
56.1447783038
 30
0.0
 10
55.1468533259
 20
56.1694972942
 30
0.0
 10
55.253102495
 20
56.1981362997
 30
0.0
 10
55.3868559092
 20
56.2270705828
 30
0.0
 10
55.6152695934
 20
56.2690720501
 30
0.0
 10
55.7997628056
 20
56.2964988056
 30
0.0
 10
55.9306894626
 20
56.3146807674
 30
0.0
  0
SPLINE
  5
35C
100
AcDbEntity
  8
0
100
AcDbSpline
 62
7
  6
BYLAYER
 70
0
 71
3
 72
9
 73
5
 74
0
 42
0.0000001
 43
0.0000001
 44
0.0000000001
 40
0.0
 40
0.0
 40
0.0
 40
0.0
 40
0.46093492
 40
1.0
 40
1.0
 40
1.0
 40
1.0
 10
55.9306894626
 20
56.3146807674
 30
0.0
 10
56.2550307635
 20
56.3597224819
 30
0.0
 10
56.9609591334
 20
56.4405534309
 30
0.0
 10
57.6675702839
 20
56.5136034519
 30
0.0
 10
58.048459073
 20
56.5533645248
 30
0.0
  0
SPLINE
  5
35D
100
AcDbEntity
  8
0
100
AcDbSpline
 62
7
  6
BYLAYER
 70
0
 71
3
 72
9
 73
5
 74
0
 42
0.0000001
 43
0.0000001
 44
0.0000000001
 40
0.0
 40
0.0
 40
0.0
 40
0.0
 40
0.245462994
 40
1.0
 40
1.0
 40
1.0
 40
1.0
 10
58.5701625003
 20
55.5769491054
 30
0.0
 10
58.5242588842
 20
55.5834497321
 30
0.0
 10
58.3372189538
 20
55.609709569
 30
0.0
 10
58.1501052488
 20
55.635438918
 30
0.0
 10
58.0089526256
 20
55.6550798859
 30
0.0
  0
SPLINE
  5
35E
100
AcDbEntity
  8
0
100
AcDbSpline
 62
7
  6
BYLAYER
 70
0
 71
3
 72
9
 73
5
 74
0
 42
0.0000001
 43
0.0000001
 44
0.0000000001
 40
0.0
 40
0.0
 40
0.0
 40
0.0
 40
0.2660360047
 40
1.0
 40
1.0
 40
1.0
 40
1.0
 10
57.8047011795
 20
55.6837197577
 30
0.0
 10
57.7308382205
 20
55.6941783789
 30
0.0
 10
57.4532808467
 20
55.7340337366
 30
0.0
 10
57.1760632752
 20
55.7766868364
 30
0.0
 10
56.9734647772
 20
55.8129166855
 30
0.0
  0
SPLINE
  5
35F
100
AcDbEntity
  8
0
100
AcDbSpline
 62
7
  6
BYLAYER
 70
0
 71
3
 72
32
 73
28
 74
0
 42
0.0000001
 43
0.0000001
 44
0.0000000001
 40
0.0
 40
0.0
 40
0.0
 40
0.0
 40
0.0040573271
 40
0.0074144692
 40
0.0118114339
 40
0.0238483643
 40
0.0402725697
 40
0.0610758107
 40
0.0861970582
 40
0.1482353637
 40
0.2235611228
 40
0.3092128989
 40
0.4021965221
 40
0.4990958664
 40
0.5961013426
 40
0.6893881681
 40
0.7751946756
 40
0.8504823653
 40
0.9126928291
 40
0.9381057876
 40
0.9593113401
 40
0.9760270087
 40
0.9826693081
 40
0.9881840138
 40
0.9925957449
 40
0.9959519126
 40
1.0
 40
1.0
 40
1.0
 40
1.0
 10
55.0007792539
 20
37.7096260545
 30
0.0
 10
55.0008260543
 20
37.7179532703
 30
0.0
 10
55.0141358022
 20
37.7304939419
 30
0.0
 10
55.0348789978
 20
37.7412781252
 30
0.0
 10
55.0730931365
 20
37.7563983767
 30
0.0
 10
55.1381926834
 20
37.7734762529
 30
0.0
 10
55.2374757469
 20
37.7932961577
 30
0.0
 10
55.3638865842
 20
37.8131127435
 30
0.0
 10
55.5836421175
 20
37.841766819
 30
0.0
 10
55.9154089023
 20
37.8759495796
 30
0.0
 10
56.3714339014
 20
37.9154175559
 30
0.0
 10
56.8911594075
 20
37.9551481218
 30
0.0
 10
57.4552688043
 20
37.9949895094
 30
0.0
 10
58.0427357113
 20
38.0348303357
 30
0.0
 10
58.6308254514
 20
38.0746844972
 30
0.0
 10
59.1961010166
 20
38.1144414041
 30
0.0
 10
59.7166935858
 20
38.1541512953
 30
0.0
 10
60.1733035302
 20
38.1937086374
 30
0.0
 10
60.5059427793
 20
38.2280127452
 30
0.0
 10
60.7274854467
 20
38.2565713318
 30
0.0
 10
60.8559772295
 20
38.2763906146
 30
0.0
 10
60.945805701
 20
38.2937318173
 30
0.0
 10
61.0033217072
 20
38.3082777224
 30
0.0
 10
61.0357594827
 20
38.3181750618
 30
0.0
 10
61.0614337497
 20
38.3283353538
 30
0.0
 10
61.082200399
 20
38.3391025197
 30
0.0
 10
61.0954263309
 20
38.3516871106
 30
0.0
 10
61.0954571057
 20
38.3599954372
 30
0.0
  0
SPLINE
  5
360
100
AcDbEntity
  8
0
100
AcDbSpline
 62
7
  6
BYLAYER
 70
0
 71
3
 72
20
 73
16
 74
0
 42
0.0000001
 43
0.0000001
 44
0.0000000001
 40
0.0
 40
0.0
 40
0.0
 40
0.0
 40
0.1941136012
 40
0.3807913193
 40
0.4693119703
 40
0.5534589308
 40
0.7050842858
 40
0.7708030432
 40
0.8291203922
 40
0.8796607657
 40
0.9220078429
 40
0.9556359692
 40
0.9800076051
 40
0.99470153
 40
1.0
 40
1.0
 40
1.0
 40
1.0
 10
58.0484609424
 20
56.5533466171
 30
0.0
 10
58.0574952194
 20
56.5912004493
 30
0.0
 10
58.0663963761
 20
56.6679496929
 30
0.0
 10
58.0567924761
 20
56.7617535717
 30
0.0
 10
58.0494551497
 20
56.8334114314
 30
0.0
 10
58.0463342781
 20
56.898384891
 30
0.0
 10
58.046273786
 20
56.9588452858
 30
0.0
 10
58.0467168815
 20
57.0141008856
 30
0.0
 10
58.0473134544
 20
57.0491155382
 30
0.0
 10
58.0481431154
 20
57.0793620339
 30
0.0
 10
58.0492330722
 20
57.1048682485
 30
0.0
 10
58.0500211751
 20
57.1245364658
 30
0.0
 10
58.0506426191
 20
57.140098365
 30
0.0
 10
58.049912363
 20
57.1472309082
 30
0.0
 10
58.0494344843
 20
57.1530937331
 30
0.0
 10
58.0483723127
 20
57.153079521
 30
0.0
  0
SPLINE
  5
361
100
AcDbEntity
  8
0
100
AcDbSpline
 62
7
  6
BYLAYER
 70
0
 71
3
 72
22
 73
18
 74
0
 42
0.0000001
 43
0.0000001
 44
0.0000000001
 40
0.0
 40
0.0
 40
0.0
 40
0.0
 40
0.1947848844
 40
0.3826217575
 40
0.5554823472
 40
0.7069435992
 40
0.7728453408
 40
0.8313526824
 40
0.8818446073
 40
0.9238147402
 40
0.9569185294
 40
0.9700416829
 40
0.9808236124
 40
0.9892230334
 40
0.9952159826
 40
0.9988062207
 40
1.0
 40
1.0
 40
1.0
 40
1.0
 10
60.4984596444
 20
59.5533682966
 30
0.0
 10
60.5374130056
 20
59.5534639894
 30
0.0
 10
60.6139303568
 20
59.5536185712
 30
0.0
 10
60.7250169467
 20
59.5536303833
 30
0.0
 10
60.8274393146
 20
59.5533749611
 30
0.0
 10
60.9054766931
 20
59.5532694401
 30
0.0
 10
60.9606463615
 20
59.5533163762
 30
0.0
 10
60.9956220135
 20
59.5533649634
 30
0.0
 10
61.025817299
 20
59.5533968631
 30
0.0
 10
61.0509165233
 20
59.5534047973
 30
0.0
 10
61.0685815856
 20
59.5533792404
 30
0.0
 10
61.0799402945
 20
59.5533863319
 30
0.0
 10
61.0864894798
 20
59.5533343818
 30
0.0
 10
61.0912939816
 20
59.5534395149
 30
0.0
 10
61.0954098049
 20
59.5531831454
 30
0.0
 10
61.096655389
 20
59.5536243058
 30
0.0
 10
61.098551886
 20
59.5531673801
 30
0.0
 10
61.098405265
 20
59.553355785
 30
0.0
  0
SPLINE
  5
362
100
AcDbEntity
  8
0
100
AcDbSpline
 62
7
  6
BYLAYER
 70
0
 71
3
 72
10
 73
6
 74
0
 42
0.0000001
 43
0.0000001
 44
0.0000000001
 40
0.0
 40
0.0
 40
0.0
 40
0.0
 40
0.2513364785
 40
0.5017283059
 40
1.0
 40
1.0
 40
1.0
 40
1.0
 10
55.3710367985
 20
39.7389611997
 30
0.0
 10
55.4183505568
 20
39.7158620318
 30
0.0
 10
55.5194139834
 20
39.6818237047
 30
0.0
 10
55.7305106983
 20
39.6700634816
 30
0.0
 10
55.8865735731
 20
39.7287343516
 30
0.0
 10
55.9716272669
 20
39.7892421538
 30
0.0
  0
SPLINE
  5
363
100
AcDbEntity
  8
0
100
AcDbSpline
 62
7
  6
BYLAYER
 70
0
 71
3
 72
32
 73
28
 74
0
 42
0.0000001
 43
0.0000001
 44
0.0000000001
 40
0.0
 40
0.0
 40
0.0
 40
0.0
 40
0.0040932524
 40
0.0075122006
 40
0.0119871516
 40
0.0241868297
 40
0.0407155798
 40
0.0614870481
 40
0.086386675
 40
0.1479986692
 40
0.22330588
 40
0.3090384206
 40
0.4018795934
 40
0.4984860344
 40
0.5952832522
 40
0.688556679
 40
0.7745919454
 40
0.8498338884
 40
0.911796701
 40
0.9371689816
 40
0.9584734252
 40
0.975476676
 40
0.9823007496
 40
0.9879787707
 40
0.9925062735
 40
0.9959286825
 40
1.0
 40
1.0
 40
1.0
 40
1.0
 10
54.9989091748
 20
49.4096387064
 30
0.0
 10
54.9989475517
 20
49.4180433188
 30
0.0
 10
55.0127960786
 20
49.4305412512
 30
0.0
 10
55.0339013694
 20
49.4412559584
 30
0.0
 10
55.0728545603
 20
49.4563362234
 30
0.0
 10
55.1386940278
 20
49.4733667448
 30
0.0
 10
55.2385304147
 20
49.4931622933
 30
0.0
 10
55.3646833608
 20
49.5129639627
 30
0.0
 10
55.583114006
 20
49.5417339762
 30
0.0
 10
55.9136467464
 20
49.5759651009
 30
0.0
 10
56.3691336895
 20
49.6152730354
 30
0.0
 10
56.8889263439
 20
49.6549040236
 30
0.0
 10
57.4525505039
 20
49.6947373809
 30
0.0
 10
58.0389457081
 20
49.7345979587
 30
0.0
 10
58.626232347
 20
49.7744324011
 30
0.0
 10
59.1917664932
 20
49.8141959082
 30
0.0
 10
59.7129469686
 20
49.8537305841
 30
0.0
 10
60.1696274419
 20
49.8932384023
 30
0.0
 10
60.501712856
 20
49.9276347886
 30
0.0
 10
60.7229593149
 20
49.9561909573
 30
0.0
 10
60.8522190805
 20
49.9760594073
 30
0.0
 10
60.9432746946
 20
49.9933559463
 30
0.0
 10
61.002179889
 20
50.0078147274
 30
0.0
 10
61.0356225568
 20
50.0176696243
 30
0.0
 10
61.0621016645
 20
50.0278200566
 30
0.0
 10
61.0833255182
 20
50.0385024369
 30
0.0
 10
61.096972511
 20
50.0511153611
 30
0.0
 10
61.0969829056
 20
50.0594750156
 30
0.0
  0
ENDSEC
  0
SECTION
  2
OBJECTS
  0
DICTIONARY
  5
C
100
AcDbDictionary
280
0
281
1
  3
ACAD_GROUP
350
D
  3
ACAD_MLINESTYLE
350
17
  3
ACAD_LAYOUT
350
1A
  3
ACAD_PLOTSETTINGS
350
19
  3
ACAD_PLOTSTYLENAME
350
E
  0
DICTIONARY
  5
D
102
{ACAD_REACTORS
330
C
102
}
100
AcDbDictionary
280
0
281
1
  0
ACDBDICTIONARYWDFLT
  5
E
102
{ACAD_REACTORS
330
C
102
}
100
AcDbDictionary
281
1
  3
Normal
350
F
100
AcDbDictionaryWithDefault
340
F
  0
DICTIONARY
  5
17
102
{ACAD_REACTORS
330
C
102
}
100
AcDbDictionary
280
0
281
1
  3
Standard
350
18
  0
DICTIONARY
  5
19
102
{ACAD_REACTORS
330
C
102
}
100
AcDbDictionary
281
1
  0
DICTIONARY
  5
1A
102
{ACAD_REACTORS
330
C
102
}
100
AcDbDictionary
281
1
  3
Model
350
364
  3
Layout1
350
365
  0
ACDBPLACEHOLDER
  5
F
102
{ACAD_REACTORS
330
E
102
}
  0
MLINESTYLE
  5
18
102
{ACAD_REACTORS
330
17
102
}
100
AcDbMlineStyle
  2
STANDARD
 70
0
  3

 62
256
 51
90.0
 52
90.0
 71
2
 49
0.5
 62
256
  6
BYLAYER
 49
-0.5
 62
256
  6
BYLAYER
  0
LAYOUT
  5
364
102
{ACAD_REACTORS
330
1A
102
}
100
AcDbPlotSettings
  1

  2
none_device
  4

  6

 40
0.0
 41
0.0
 42
0.0
 43
0.0
 44
210.0
 45
297.0
 46
0.0
 47
0.0
 48
0.0
 49
0.0
140
0.0
141
0.0
142
1.0
143
1.0
 70
1024
 72
1
 73
0
 74
0
  7

 75
0
147
1.0
148
0.0
149
0.0
100
AcDbLayout
  1
Model
 70
0
 71
0
 10
0.0
 20
0.0
 11
210.0
 21
297.0
 12
0.0
 22
0.0
 32
0.0
 14
0.0
 24
0.0
 34
0.0
 15
0.0
 25
0.0
 35
0.0
146
0.0
 13
0.0
 23
0.0
 33
0.0
 16
1.0
 26
0.0
 36
0.0
 17
0.0
 27
1.0
 37
0.0
 76
0
330
210
345
0
346
0
  0
LAYOUT
  5
365
102
{ACAD_REACTORS
330
1A
102
}
100
AcDbPlotSettings
  1

  2
none_device
  4

  6

 40
0.0
 41
0.0
 42
0.0
 43
0.0
 44
210.0
 45
297.0
 46
0.0
 47
0.0
 48
0.0
 49
0.0
140
0.0
141
0.0
142
1.0
143
1.0
 70
0
 72
1
 73
0
 74
0
  7

 75
0
147
1.0
148
0.0
149
0.0
100
AcDbLayout
  1
Layout1
 70
0
 71
1
 10
0.0
 20
0.0
 11
210.0
 21
297.0
 12
0.0
 22
0.0
 32
0.0
 14
0.0
 24
0.0
 34
0.0
 15
0.0
 25
0.0
 35
0.0
146
0.0
 13
0.0
 23
0.0
 33
0.0
 16
1.0
 26
0.0
 36
0.0
 17
0.0
 27
1.0
 37
0.0
 76
0
330
211
345
0
346
0
  0
ENDSEC
  0
EOF
