999
DXF file: C:\Users\sesa63760\Dev\_Creo\CAD\MCADID0004778_3D-CAD\drw0001_1.dxf
999
Pro/ENGINEER 2019471 by Parametric Technology Corporation
  0
SECTION
  2
HEADER
  9
$ACADVER
  1
AC1024
  9
$DWGCODEPAGE
  3
ANSI_1252
  9
$EXTMAX
 10
57.9781477805
 20
81.9976661467
 30
0.0
  9
$EXTMIN
 10
0.0
 20
0.0
 30
0.0
  9
$LIMMIN
 10
0.0
 20
0.0
  9
$LIMMAX
 10
57.9781477805
 20
81.9976661467
  9
$VIEWCTR
 10
28.9890738903
 20
40.9988330734
  9
$VIEWSIZE
 40
81.9976661467
  9
$CLAYER
  8
0
  9
$LTSCALE
 40
5.3450330525
  9
$CELTYPE
  6
BYLAYER
  9
$DIMSCALE
 40
1.0
  9
$DIMASZ
 40
0.690216045
  9
$DIMEXO
 40
1.0
  9
$DIMDLI
 40
3.6929319272
  9
$DIMEXE
 40
1.0
  9
$DIMCEN
 40
0.8746417722
  9
$DIMLFAC
 40
1.0
  9
$DIMBLK
  1
_FILLED
  9
$DIMALT
 70
0
  9
$DIMALTF
 40
0.0393700787
  9
$DIMTXT
 40
0.966302463
  9
$DIMTOL
 70
1
  9
$DIMLIM
 70
0
  9
$DIMTFAC
 40
1.0
  9
$DIMTP
 40
0.01
  9
$DIMTM
 40
0.01
  9
$DIMGAP
 40
0.625
  9
$DIMDSEP
 70
46
  9
$AUNITS
 70
0
  9
$PDMODE
 70
3
  9
$PDSIZE
 40
0.3125
  9
$HANDSEED
  5
2D5
  9
$TILEMODE
 70
1
  9
$MEASUREMENT
 70
1
  9
$INSUNITS
 70
4
  0
ENDSEC
  0
SECTION
  2
CLASSES
  0
CLASS
  1
ACDBDICTIONARYWDFLT
  2
AcDbDictionaryWithDefault
  3
AutoCAD 2000
 90
0
 91
1
280
0
281
0
  0
CLASS
  1
ACDBPLACEHOLDER
  2
AcDbPlaceHolder
  3
AutoCAD 2000
 90
0
 91
1
280
0
281
0
  0
CLASS
  1
LAYOUT
  2
AcDbLayout
  3
AutoCAD 2000
 90
0
 91
0
280
0
281
0
  0
ENDSEC
  0
SECTION
  2
TABLES
  0
TABLE
  2
VPORT
  5
8
100
AcDbSymbolTable
 70
2
  0
VPORT
  5
1F4
100
AcDbSymbolTableRecord
100
AcDbViewportTableRecord
  2
*ACTIVE
 70
0
 10
0.0
 20
0.0
 11
1.0
 21
1.0
 12
28.9890738903
 22
40.9988330734
 13
0.0
 23
0.0
 14
1.0
 24
1.0
 15
0.0
 25
0.0
 16
0.0
 26
0.0
 36
1.0
 17
0.0
 27
0.0
 37
0.0
 40
81.9976661467
 41
0.7070707071
 42
50.0
 43
0.0
 44
0.0
 50
0.0
 51
0.0
 71
0
 72
100
 73
1
 74
1
 75
0
 76
0
 77
0
 78
0
  0
ENDTAB
  0
TABLE
  2
LTYPE
  5
5
100
AcDbSymbolTable
 70
6
  0
LTYPE
  5
14
100
AcDbSymbolTableRecord
100
AcDbLinetypeTableRecord
  2
BYBLOCK
 70
0
  3

 72
65
 73
0
 40
0.0
  0
LTYPE
  5
15
100
AcDbSymbolTableRecord
100
AcDbLinetypeTableRecord
  2
BYLAYER
 70
0
  3

 72
65
 73
0
 40
0.0
  0
LTYPE
  5
16
100
AcDbSymbolTableRecord
100
AcDbLinetypeTableRecord
  2
CONTINUOUS
 70
64
  3
Solid line
 72
65
 73
0
 40
0.0
  0
LTYPE
  5
1F5
100
AcDbSymbolTableRecord
100
AcDbLinetypeTableRecord
  2
CENTER
 70
64
  3
____ _ ____ _ ____ _ ____ _ ____ _ ____ _ ____
 72
65
 73
4
 40
0.6
 49
0.375
 74
0
 49
-0.075
 74
0
 49
0.075
 74
0
 49
-0.075
 74
0
  0
LTYPE
  5
1F6
100
AcDbSymbolTableRecord
100
AcDbLinetypeTableRecord
  2
HIDDEN
 70
64
  3
- - - - - - - - - - - - - - - - - - - -
 72
65
 73
2
 40
0.2
 49
0.1
 74
0
 49
-0.1
 74
0
  0
LTYPE
  5
1F7
100
AcDbSymbolTableRecord
100
AcDbLinetypeTableRecord
  2
PHANTOM
 70
64
  3
_____ _ _ _____ _ _ _____ _ _ _____
 72
65
 73
6
 40
0.8
 49
0.45
 74
0
 49
-0.05
 74
0
 49
0.1
 74
0
 49
-0.05
 74
0
 49
0.1
 74
0
 49
-0.05
 74
0
  0
LTYPE
  5
1F8
100
AcDbSymbolTableRecord
100
AcDbLinetypeTableRecord
  2
DOT
 70
64
  3
. . . . . . . . . . . . . . . . . . . .
 72
65
 73
2
 40
0.2
 49
0.1
 74
0
 49
-0.1
 74
0
  0
LTYPE
  5
1F9
100
AcDbSymbolTableRecord
100
AcDbLinetypeTableRecord
  2
DASHED
 70
64
  3
- - - - - - - - - - - - - - - - - - - -
 72
65
 73
2
 40
0.2
 49
0.1
 74
0
 49
-0.1
 74
0
  0
ENDTAB
  0
TABLE
  2
LAYER
  5
2
100
AcDbSymbolTable
 70
36
  0
LAYER
  5
10
100
AcDbSymbolTableRecord
100
AcDbLayerTableRecord
  2
0
 70
0
 62
7
  6
CONTINUOUS
370
-3
390
F
  0
LAYER
  5
1FA
100
AcDbSymbolTableRecord
100
AcDbLayerTableRecord
  2
DEFAULT_1
 70
0
 62
7
  6
CENTER
370
-3
390
F
  0
LAYER
  5
1FB
100
AcDbSymbolTableRecord
100
AcDbLayerTableRecord
  2
DEFAULT_2
 70
0
 62
7
  6
HIDDEN
370
-3
390
F
  0
LAYER
  5
1FC
100
AcDbSymbolTableRecord
100
AcDbLayerTableRecord
  2
DEFAULT_3
 70
0
 62
7
  6
PHANTOM
370
-3
390
F
  0
LAYER
  5
1FD
100
AcDbSymbolTableRecord
100
AcDbLayerTableRecord
  2
00_COMPONENTS
 70
0
 62
7
  6
CONTINUOUS
370
-3
390
F
  0
LAYER
  5
1FE
100
AcDbSymbolTableRecord
100
AcDbLayerTableRecord
  2
01_1_DEFAULT_DATUMS
 70
0
 62
7
  6
CONTINUOUS
370
-3
390
F
  0
LAYER
  5
1FF
100
AcDbSymbolTableRecord
100
AcDbLayerTableRecord
  2
01_PLANES
 70
0
 62
7
  6
CONTINUOUS
370
-3
390
F
  0
LAYER
  5
200
100
AcDbSymbolTableRecord
100
AcDbLayerTableRecord
  2
02_COORD_SYS
 70
0
 62
7
  6
CONTINUOUS
370
-3
390
F
  0
LAYER
  5
201
100
AcDbSymbolTableRecord
100
AcDbLayerTableRecord
  2
03_AXES
 70
0
 62
7
  6
CONTINUOUS
370
-3
390
F
  0
LAYER
  5
202
100
AcDbSymbolTableRecord
100
AcDbLayerTableRecord
  2
04_POINTS
 70
0
 62
7
  6
CONTINUOUS
370
-3
390
F
  0
LAYER
  5
203
100
AcDbSymbolTableRecord
100
AcDbLayerTableRecord
  2
05_CURVES
 70
0
 62
7
  6
CONTINUOUS
370
-3
390
F
  0
LAYER
  5
204
100
AcDbSymbolTableRecord
100
AcDbLayerTableRecord
  2
06_SURFS
 70
0
 62
7
  6
CONTINUOUS
370
-3
390
F
  0
LAYER
  5
205
100
AcDbSymbolTableRecord
100
AcDbLayerTableRecord
  2
07_COSMETICS
 70
0
 62
7
  6
CONTINUOUS
370
-3
390
F
  0
LAYER
  5
206
100
AcDbSymbolTableRecord
100
AcDbLayerTableRecord
  2
10_NOTES
 70
0
 62
7
  6
CONTINUOUS
370
-3
390
F
  0
LAYER
  5
207
100
AcDbSymbolTableRecord
100
AcDbLayerTableRecord
  2
11_NOTES_PUB
 70
0
 62
7
  6
CONTINUOUS
370
-3
390
F
  0
LAYER
  5
208
100
AcDbSymbolTableRecord
100
AcDbLayerTableRecord
  2
13_REF_GTOL
 70
0
 62
7
  6
CONTINUOUS
370
-3
390
F
  0
LAYER
  5
209
100
AcDbSymbolTableRecord
100
AcDbLayerTableRecord
  2
16_MISC
 70
0
 62
7
  6
CONTINUOUS
370
-3
390
F
  0
LAYER
  5
20A
100
AcDbSymbolTableRecord
100
AcDbLayerTableRecord
  2
17_NO_PRINT
 70
0
 62
7
  6
CONTINUOUS
370
-3
390
F
  0
LAYER
  5
20B
100
AcDbSymbolTableRecord
100
AcDbLayerTableRecord
  2
18_DATUM_CAMS_JOINTS
 70
0
 62
7
  6
CONTINUOUS
370
-3
390
F
  0
LAYER
  5
20C
100
AcDbSymbolTableRecord
100
AcDbLayerTableRecord
  2
19_DATUM_FUNCTIONAL
 70
0
 62
7
  6
CONTINUOUS
370
-3
390
F
  0
LAYER
  5
20D
100
AcDbSymbolTableRecord
100
AcDbLayerTableRecord
  2
20_DATUM_KINEMATIC_SCHEME
 70
0
 62
7
  6
CONTINUOUS
370
-3
390
F
  0
ENDTAB
  0
TABLE
  2
STYLE
  5
3
100
AcDbSymbolTable
 70
1
  0
STYLE
  5
11
100
AcDbSymbolTableRecord
100
AcDbTextStyleTableRecord
  2
STANDARD
 70
0
 40
0.0
 41
1.0
 50
0.0
 71
0
 42
0.2
  3
ARIAL.TTF
  4

  0
STYLE
  5
20E
100
AcDbSymbolTableRecord
100
AcDbTextStyleTableRecord
  2
TEXTSTYLE_1
 70
0
 40
0.0
 41
0.8
 50
0.0
 71
0
 42
0.2
  3
gdt
  4

  0
ENDTAB
  0
TABLE
  2
VIEW
  5
6
100
AcDbSymbolTable
 70
0
  0
ENDTAB
  0
TABLE
  2
UCS
  5
7
100
AcDbSymbolTable
 70
0
  0
ENDTAB
  0
TABLE
  2
APPID
  5
9
100
AcDbSymbolTable
 70
1
  0
APPID
  5
20F
100
AcDbSymbolTableRecord
100
AcDbRegAppTableRecord
  2
ACAD
 70
0
  0
ENDTAB
  0
TABLE
  2
BLOCK_RECORD
  5
1
100
AcDbSymbolTable
 70
0
  0
BLOCK_RECORD
  5
210
100
AcDbSymbolTableRecord
100
AcDbBlockTableRecord
  2
*Model_Space
  0
BLOCK_RECORD
  5
211
100
AcDbSymbolTableRecord
100
AcDbBlockTableRecord
  2
*Paper_Space
  0
BLOCK_RECORD
  5
212
100
AcDbSymbolTableRecord
100
AcDbBlockTableRecord
  2
_FILLED
  0
ENDTAB
  0
TABLE
  2
DIMSTYLE
  5
A
100
AcDbSymbolTable
 70
1
100
AcDbDimStyleTable
 71
0
  0
DIMSTYLE
105
213
100
AcDbSymbolTableRecord
100
AcDbDimStyleTableRecord
  2
STANDARD
 70
0
  3

  4

 40
1.0
 41
0.690216045
 42
1.0
 43
0.38
 44
1.0
 45
0.0
 46
0.0
 47
0.01
 48
0.01
140
0.966302463
141
0.09
142
0.0
143
25.4
144
1.0
145
0.0
146
1.0
147
0.625
 71
1
 72
0
 73
0
 74
0
 75
0
 76
0
 77
1
 78
8
 79
2
170
0
171
1
172
0
173
0
174
0
175
0
176
0
177
0
178
0
270
2
179
2
271
2
272
2
273
2
274
2
275
0
280
0
281
0
282
0
283
1
284
8
285
0
286
0
287
3
288
0
340
11
278
46
341
212
342
212
343
212
344
212
  0
ENDTAB
  0
ENDSEC
  0
SECTION
  2
BLOCKS
  0
BLOCK
  5
20
100
AcDbEntity
  8
0
100
AcDbBlockBegin
  2
*Model_Space
 70
0
 10
0.0
 20
0.0
 30
0.0
  3
*Model_Space
  1

  0
ENDBLK
  5
21
100
AcDbEntity
  8
0
100
AcDbBlockEnd
  0
BLOCK
  5
1C
100
AcDbEntity
  8
0
100
AcDbBlockBegin
  2
*Paper_Space
 70
0
 10
0.0
 20
0.0
 30
0.0
  3
*Paper_Space
  1

  0
ENDBLK
  5
1D
100
AcDbEntity
  8
0
100
AcDbBlockEnd
  0
BLOCK
  5
214
100
AcDbEntity
  8
0
100
AcDbBlockBegin
  2
_FILLED
 70
64
 10
0.0
 20
0.0
  3
_FILLED
  1

  0
SOLID
  5
215
100
AcDbEntity
  8
0
  6
BYBLOCK
 62
0
100
AcDbTrace
 10
0.0
 20
0.0
 11
-1.0
 21
0.25
 12
-1.0
 22
-0.25
 13
-1.0
 23
-0.25
  0
ENDBLK
  5
216
100
AcDbEntity
  8
0
  6
BYBLOCK
 62
0
100
AcDbBlockEnd
  0
ENDSEC
  0
SECTION
  2
ENTITIES
  0
LINE
  5
217
100
AcDbEntity
  8
0
100
AcDbLine
 62
7
  6
BYLAYER
 10
6.726132197
 20
31.99065865
 11
6.726132197
 21
43.8299436984
  0
LINE
  5
218
100
AcDbEntity
  8
0
100
AcDbLine
 62
7
  6
BYLAYER
 10
7.1654764412
 20
31.3782924191
 11
7.1654764413
 21
43.2175774675
  0
LINE
  5
219
100
AcDbEntity
  8
0
100
AcDbLine
 62
7
  6
BYLAYER
 10
10.468772884
 20
43.4650637618
 11
10.468772884
 21
52.484879518
  0
LINE
  5
21A
100
AcDbEntity
  8
0
100
AcDbLine
 62
7
  6
BYLAYER
 10
11.3373973238
 20
53.4646656921
 11
11.0545534337
 21
53.301361027
  0
LINE
  5
21B
100
AcDbEntity
  8
0
100
AcDbLine
 62
7
  6
BYLAYER
 10
28.3078894169
 20
63.262525385
 11
28.0250455269
 21
63.09922072
  0
LINE
  5
21C
100
AcDbEntity
  8
0
100
AcDbLine
 62
7
  6
BYLAYER
 10
24.9609092823
 20
60.3096059126
 11
22.3918734626
 21
58.8263812441
  0
LINE
  5
21D
100
AcDbEntity
  8
0
100
AcDbLine
 62
7
  6
BYLAYER
 10
28.4823243582
 20
18.9021767084
 11
7.2690326015
 21
31.1493993453
  0
LINE
  5
21E
100
AcDbEntity
  8
0
100
AcDbLine
 62
7
  6
BYLAYER
 10
28.3787681967
 20
19.1310697829
 11
7.1654764412
 21
31.3782924191
  0
LINE
  5
21F
100
AcDbEntity
  8
0
100
AcDbLine
 62
7
  6
BYLAYER
 10
11.8324006271
 20
44.2790996065
 11
11.8324006271
 21
40.5231884877
  0
LINE
  5
220
100
AcDbEntity
  8
0
100
AcDbLine
 62
7
  6
BYLAYER
 10
20.0893356324
 20
55.6597700916
 11
14.468772884
 21
52.414756046
  0
LINE
  5
221
100
AcDbEntity
  8
0
100
AcDbLine
 62
7
  6
BYLAYER
 10
14.468772884
 20
45.801200753
 11
14.468772884
 21
52.484879518
  0
LWPOLYLINE
  5
222
100
AcDbEntity
  8
0
100
AcDbPolyline
 62
7
  6
BYLAYER
 90
5
 70
0
 10
20.0893356324
 20
54.1017994572
 10
18.6873344824
 20
53.3506301539
 10
16.6401609431
 20
51.3031369467
 10
15.7281816389
 20
48.9986394381
 10
15.6895116895
 20
48.4024082243
  0
LWPOLYLINE
  5
223
100
AcDbEntity
  8
0
100
AcDbPolyline
 62
7
  6
BYLAYER
 90
7
 70
0
 10
15.6895116895
 20
48.4024082243
 10
15.7272931324
 20
47.8130275108
 10
16.6359552989
 20
45.5078729056
 10
18.6796793807
 20
43.4597361043
 10
21.6797785047
 20
41.8488346442
 10
25.3724503955
 20
40.8191377535
 10
27.4394062876
 20
40.6386222853
  0
LINE
  5
224
100
AcDbEntity
  8
0
100
AcDbLine
 62
7
  6
BYLAYER
 10
15.6893356324
 20
48.4024082246
 11
15.6893356324
 21
46.5058887779
  0
LINE
  5
225
100
AcDbEntity
  8
0
100
AcDbLine
 62
7
  6
BYLAYER
 10
10.468772884
 20
46.3494576356
 11
7.1654676092
 21
44.4423048302
  0
LINE
  5
226
100
AcDbEntity
  8
0
100
AcDbLine
 62
7
  6
BYLAYER
 10
15.8021626339
 20
46.5710290888
 11
11.8324006271
 21
44.2790996065
  0
LINE
  5
227
100
AcDbEntity
  8
0
100
AcDbLine
 62
7
  6
BYLAYER
 10
20.0893356324
 20
55.8325802205
 11
20.0893356324
 21
47.5859058074
  0
LINE
  5
228
100
AcDbEntity
  8
0
100
AcDbLine
 62
7
  6
BYLAYER
 10
21.0893356324
 20
55.8325802205
 11
21.0893356324
 21
56.240831429
  0
LINE
  5
229
100
AcDbEntity
  8
0
100
AcDbLine
 62
7
  6
BYLAYER
 10
7.1654764411
 20
43.2175774676
 11
11.8324006271
 21
40.5231884877
  0
LINE
  5
22A
100
AcDbEntity
  8
0
100
AcDbLine
 62
7
  6
BYLAYER
 10
23.7118440096
 20
33.6647438118
 11
28.3787681955
 21
30.970354832
  0
LINE
  5
22B
100
AcDbEntity
  8
0
100
AcDbLine
 62
7
  6
BYLAYER
 10
22.3919107532
 20
51.0424399991
 11
22.3919107532
 21
53.655247734
  0
LINE
  5
22C
100
AcDbEntity
  8
0
100
AcDbLine
 62
7
  6
BYLAYER
 10
23.1893356324
 20
56.240831429
 11
23.1893356324
 21
57.7105357799
  0
LINE
  5
22D
100
AcDbEntity
  8
0
100
AcDbLine
 62
7
  6
BYLAYER
 10
33.9177619824
 20
52.1720569455
 11
36.4867978022
 21
53.6552816139
  0
LINE
  5
22E
100
AcDbEntity
  8
0
100
AcDbLine
 62
7
  6
BYLAYER
 10
23.7118440096
 20
37.4206549306
 11
23.7118440096
 21
33.6647438118
  0
LINE
  5
22F
100
AcDbEntity
  8
0
100
AcDbLine
 62
7
  6
BYLAYER
 10
24.9609679649
 20
52.172035416
 11
24.9609679649
 21
51.8814413135
  0
LINE
  5
230
100
AcDbEntity
  8
0
100
AcDbLine
 62
7
  6
BYLAYER
 10
11.8324006271
 20
44.2790996065
 11
23.7118440096
 21
37.4206549306
  0
LINE
  5
231
100
AcDbEntity
  8
0
100
AcDbLine
 62
7
  6
BYLAYER
 10
27.4392649772
 20
61.1541112953
 11
27.4392649772
 21
62.2827392109
  0
LINE
  5
232
100
AcDbEntity
  8
0
100
AcDbLine
 62
7
  6
BYLAYER
 10
27.4394062876
 20
33.6672856533
 11
27.4394062876
 21
42.6871014095
  0
LINE
  5
233
100
AcDbEntity
  8
0
100
AcDbLine
 62
7
  6
BYLAYER
 10
28.3080307273
 20
43.6668875836
 11
28.0251868373
 21
43.5035829186
  0
LINE
  5
234
100
AcDbEntity
  8
0
100
AcDbLine
 62
7
  6
BYLAYER
 10
45.2785228205
 20
53.4647472765
 11
44.9956789304
 21
53.3014426115
  0
LINE
  5
235
100
AcDbEntity
  8
0
100
AcDbLine
 62
7
  6
BYLAYER
 10
35.1669738647
 20
33.6647713465
 11
31.4394062876
 21
35.8168348044
  0
LINE
  5
236
100
AcDbEntity
  8
0
100
AcDbLine
 62
7
  6
BYLAYER
 10
28.3787681954
 20
30.970354832
 11
28.3787681967
 21
19.1310697829
  0
LWPOLYLINE
  5
237
100
AcDbEntity
  8
0
100
AcDbPolyline
 62
7
  6
BYLAYER
 90
4
 70
0
 10
31.4394062876
 20
40.6159779593
 10
32.9981157522
 20
40.7344565788
 10
36.3144159417
 20
41.527535539
 10
39.1620943531
 20
42.7890978499
  0
LWPOLYLINE
  5
238
100
AcDbEntity
  8
0
100
AcDbPolyline
 62
7
  6
BYLAYER
 90
7
 70
0
 10
27.4394062876
 20
41.3598091192
 10
25.7520800152
 20
41.5067564312
 10
22.3988211807
 20
42.4392427486
 10
19.6660553239
 20
43.9031076828
 10
17.8046345488
 20
45.7640407156
 10
16.9747695331
 20
47.8594657334
 10
16.9395000185
 20
48.402408225
  0
LINE
  5
239
100
AcDbEntity
  8
0
100
AcDbLine
 62
7
  6
BYLAYER
 10
14.468772884
 20
49.3705240317
 11
15.7059746271
 21
48.6562414315
  0
LINE
  5
23A
100
AcDbEntity
  8
0
100
AcDbLine
 62
7
  6
BYLAYER
 10
31.4394062876
 20
39.5727459232
 11
35.1669738647
 21
37.4206824653
  0
LINE
  5
23B
100
AcDbEntity
  8
0
100
AcDbLine
 62
7
  6
BYLAYER
 10
30.5000885393
 20
19.1310748827
 11
30.5000885394
 21
30.9703599311
  0
LINE
  5
23C
100
AcDbEntity
  8
0
100
AcDbLine
 62
7
  6
BYLAYER
 10
31.4392649772
 20
61.1674323013
 11
31.4392649772
 21
62.2827392109
  0
LINE
  5
23D
100
AcDbEntity
  8
0
100
AcDbLine
 62
7
  6
BYLAYER
 10
31.4394062876
 20
33.5969068154
 11
31.4394062876
 21
42.6871014095
  0
LINE
  5
23E
100
AcDbEntity
  8
0
100
AcDbLine
 62
7
  6
BYLAYER
 10
23.7118440096
 20
37.4206549306
 11
27.4394062876
 21
39.5727511689
  0
LINE
  5
23F
100
AcDbEntity
  8
0
100
AcDbLine
 62
7
  6
BYLAYER
 10
43.1678383962
 20
48.653511476
 11
44.4098983807
 21
49.3706108618
  0
LINE
  5
240
100
AcDbEntity
  8
0
100
AcDbLine
 62
7
  6
BYLAYER
 10
33.9177619824
 20
51.9144061273
 11
33.9177619824
 21
52.1720569455
  0
LINE
  5
241
100
AcDbEntity
  8
0
100
AcDbLine
 62
7
  6
BYLAYER
 10
27.4394062876
 20
35.8168400501
 11
23.7118440096
 21
33.6647438118
  0
LINE
  5
242
100
AcDbEntity
  8
0
100
AcDbLine
 62
7
  6
BYLAYER
 10
13.6001679941
 20
53.4646544049
 11
13.8830167716
 21
53.3013469181
  0
LINE
  5
243
100
AcDbEntity
  8
0
100
AcDbLine
 62
7
  6
BYLAYER
 10
30.5708013976
 20
43.6668762964
 11
30.8536501751
 21
43.5035688096
  0
LINE
  5
244
100
AcDbEntity
  8
0
100
AcDbLine
 62
7
  6
BYLAYER
 10
35.1669738647
 20
37.4206824653
 11
35.1669738647
 21
33.6647713465
  0
LINE
  5
245
100
AcDbEntity
  8
0
100
AcDbLine
 62
7
  6
BYLAYER
 10
35.6893356324
 20
56.240831429
 11
35.6893356324
 21
57.7105357799
  0
LINE
  5
246
100
AcDbEntity
  8
0
100
AcDbLine
 62
7
  6
BYLAYER
 10
35.1669738647
 20
37.4206824653
 11
47.0463183299
 21
44.2791842504
  0
LINE
  5
247
100
AcDbEntity
  8
0
100
AcDbLine
 62
7
  6
BYLAYER
 10
36.4867978022
 20
53.6552816139
 11
36.4867978022
 21
51.0424738791
  0
LINE
  5
248
100
AcDbEntity
  8
0
100
AcDbLine
 62
7
  6
BYLAYER
 10
37.7893356324
 20
55.8325802205
 11
37.7893356324
 21
56.240831429
  0
LINE
  5
249
100
AcDbEntity
  8
0
100
AcDbLine
 62
7
  6
BYLAYER
 10
22.3919107532
 20
53.655247734
 11
24.9609679649
 21
52.172035416
  0
LINE
  5
24A
100
AcDbEntity
  8
0
100
AcDbLine
 62
7
  6
BYLAYER
 10
38.7893356324
 20
55.8325802205
 11
38.7893356324
 21
47.5859058074
  0
LINE
  5
24B
100
AcDbEntity
  8
0
100
AcDbLine
 62
7
  6
BYLAYER
 10
51.7132036552
 20
43.217684547
 11
47.0463183299
 21
40.5232731316
  0
LINE
  5
24C
100
AcDbEntity
  8
0
100
AcDbLine
 62
7
  6
BYLAYER
 10
35.1669738647
 20
33.6647713465
 11
30.5000885394
 21
30.9703599311
  0
LWPOLYLINE
  5
24D
100
AcDbEntity
  8
0
100
AcDbPolyline
 62
7
  6
BYLAYER
 90
7
 70
0
 10
41.9391712463
 20
48.4024082242
 10
41.9048856178
 20
47.8670482736
 10
41.0787038365
 20
45.7709115347
 10
39.2210910757
 20
43.9092511743
 10
36.4944444376
 20
42.4449953481
 10
33.1359484779
 20
41.5084266664
 10
31.4394062876
 20
41.3602800377
  0
LINE
  5
24E
100
AcDbEntity
  8
0
100
AcDbLine
 62
7
  6
BYLAYER
 10
47.0463183299
 20
44.2791842504
 11
43.0765232676
 21
46.5710946483
  0
LWPOLYLINE
  5
24F
100
AcDbEntity
  8
0
100
AcDbPolyline
 62
7
  6
BYLAYER
 90
5
 70
0
 10
43.1891817225
 20
48.4024082048
 10
43.1229708795
 20
49.1813757851
 10
42.1429068444
 20
51.4399926146
 10
40.0735673753
 20
53.4347448921
 10
38.7893356324
 20
54.1077189496
  0
LINE
  5
250
100
AcDbEntity
  8
0
100
AcDbLine
 62
7
  6
BYLAYER
 10
43.1893356324
 20
48.4024082246
 11
43.1893356324
 21
46.5059638726
  0
LINE
  5
251
100
AcDbEntity
  8
0
100
AcDbLine
 62
7
  6
BYLAYER
 10
44.4098983807
 20
45.8012875832
 11
44.4098983807
 21
52.4849611024
  0
LINE
  5
252
100
AcDbEntity
  8
0
100
AcDbLine
 62
7
  6
BYLAYER
 10
48.4098983807
 20
46.3495278555
 11
51.7131948235
 21
44.4424119098
  0
LINE
  5
253
100
AcDbEntity
  8
0
100
AcDbLine
 62
7
  6
BYLAYER
 10
44.4098983807
 20
52.4147878066
 11
38.7893356324
 21
55.6597478116
  0
LINE
  5
254
100
AcDbEntity
  8
0
100
AcDbLine
 62
7
  6
BYLAYER
 10
47.0463183299
 20
44.2791842504
 11
47.0463183299
 21
40.5232731316
  0
LINE
  5
255
100
AcDbEntity
  8
0
100
AcDbLine
 62
7
  6
BYLAYER
 10
48.4098983807
 20
43.3947665083
 11
48.4098983807
 21
52.4849611024
  0
LINE
  5
256
100
AcDbEntity
  8
0
100
AcDbLine
 62
7
  6
BYLAYER
 10
36.4867605115
 20
58.8264151241
 11
33.9177032998
 21
60.3096274421
  0
LINE
  5
257
100
AcDbEntity
  8
0
100
AcDbLine
 62
7
  6
BYLAYER
 10
51.7132036579
 20
31.3783995001
 11
30.5000885393
 21
19.1310748827
  0
LINE
  5
258
100
AcDbEntity
  8
0
100
AcDbLine
 62
7
  6
BYLAYER
 10
51.6096476786
 20
31.1495065308
 11
30.3965325573
 21
18.9021819118
  0
LWPOLYLINE
  5
259
100
AcDbEntity
  8
0
100
AcDbPolyline
 62
7
  6
BYLAYER
 90
4
 70
0
 10
29.4392987863
 20
61.3503082658
 10
26.5163311557
 20
61.0635744159
 10
23.9214220786
 20
60.2355680156
 10
23.1813064301
 20
59.8536996742
  0
LINE
  5
25A
100
AcDbEntity
  8
0
100
AcDbLine
 62
7
  6
BYLAYER
 10
29.9069838987
 20
61.3431558114
 11
29.8900696227
 21
61.3436637421
  0
LINE
  5
25B
100
AcDbEntity
  8
0
100
AcDbLine
 62
7
  6
BYLAYER
 10
29.9037435807
 20
61.3078396531
 11
29.8870367292
 21
61.3093673197
  0
LINE
  5
25C
100
AcDbEntity
  8
0
100
AcDbLine
 62
7
  6
BYLAYER
 10
30.5706600872
 20
63.2625140978
 11
30.8535088647
 21
63.099206611
  0
LINE
  5
25D
100
AcDbEntity
  8
0
100
AcDbLine
 62
7
  6
BYLAYER
 10
47.5412934907
 20
53.4647359893
 11
47.8241422682
 21
53.3014285025
  0
LINE
  5
25E
100
AcDbEntity
  8
0
100
AcDbLine
 62
7
  6
BYLAYER
 10
51.7132036552
 20
43.217684547
 11
51.7132036579
 21
31.3783995001
  0
LINE
  5
25F
100
AcDbEntity
  8
0
100
AcDbLine
 62
7
  6
BYLAYER
 10
52.1525390678
 20
31.9907606305
 11
52.1525390678
 21
43.8300456789
  0
ARC
  5
260
100
AcDbEntity
  8
0
100
AcDbCircle
 62
7
  6
BYLAYER
 10
29.4392230924
 20
46.0514888123
 40
15.2988194537
100
AcDbArc
 50
88.311285141
 51
89.999716518
  0
ARC
  5
261
100
AcDbEntity
  8
0
100
AcDbCircle
 62
7
  6
BYLAYER
 10
29.439340132
 20
44.3644593105
 40
12.9693619674
100
AcDbArc
 50
82.6204120432
 51
97.3844420935
  0
ARC
  5
262
100
AcDbEntity
  8
0
100
AcDbCircle
 62
7
  6
BYLAYER
 10
28.7185350592
 20
50.0560158408
 40
10.92043318
100
AcDbArc
 50
107.7214800976
 51
110.1263336922
  0
ARC
  5
263
100
AcDbEntity
  8
0
100
AcDbCircle
 62
7
  6
BYLAYER
 10
30.2046185373
 20
50.1852302222
 40
10.7838034811
100
AcDbArc
 50
69.8596770295
 51
72.1868751092
  0
ARC
  5
264
100
AcDbEntity
  8
0
100
AcDbCircle
 62
7
  6
BYLAYER
 10
27.1958259705
 20
52.8968266746
 40
8.0320778035
100
AcDbArc
 50
119.9873961028
 51
123.0116615878
  0
ARC
  5
265
100
AcDbEntity
  8
0
100
AcDbCircle
 62
7
  6
BYLAYER
 10
31.7513485665
 20
53.0099257053
 40
7.8998916602
100
AcDbArc
 50
56.8986578597
 51
60.034245109
  0
ARC
  5
266
100
AcDbEntity
  8
0
100
AcDbCircle
 62
7
  6
BYLAYER
 10
27.1791929881
 20
58.7583063849
 40
7.3078241058
100
AcDbArc
 50
236.8080232478
 51
238.0022772639
  0
ARC
  5
267
100
AcDbEntity
  8
0
100
AcDbCircle
 62
7
  6
BYLAYER
 10
31.7102061703
 20
58.7426297249
 40
7.2888531876
100
AcDbArc
 50
301.7350453468
 51
303.1270787691
  0
ARC
  5
268
100
AcDbEntity
  8
0
100
AcDbCircle
 62
7
  6
BYLAYER
 10
21.195134483
 20
47.577515923
 40
4.2562121847
100
AcDbArc
 50
169.4538626196
 51
174.3790702707
  0
ARC
  5
269
100
AcDbEntity
  8
0
100
AcDbCircle
 62
7
  6
BYLAYER
 10
37.7016631946
 20
47.5800818644
 40
4.2379219295
100
AcDbArc
 50
5.6096218334
 51
10.5535789139
  0
ARC
  5
26A
100
AcDbEntity
  8
0
100
AcDbCircle
 62
7
  6
BYLAYER
 10
34.9857844153
 20
56.2415741154
 40
2.8035427897
100
AcDbArc
 50
351.9095435838
 51
359.9848217779
  0
ARC
  5
26B
100
AcDbEntity
  8
0
100
AcDbCircle
 62
7
  6
BYLAYER
 10
23.8848569709
 20
56.2410051698
 40
2.7955128182
100
AcDbArc
 50
180.0035609263
 51
188.1020849535
  0
SPLINE
  5
26C
100
AcDbEntity
  8
0
100
AcDbSpline
 62
7
  6
BYLAYER
 70
0
 71
3
 72
15
 73
11
 74
0
 42
0.0000001
 43
0.0000001
 44
0.0000000001
 40
0.0
 40
0.0
 40
0.0
 40
0.0
 40
0.1141512577
 40
0.2373200215
 40
0.3669685884
 40
0.4999912727
 40
0.633015914
 40
0.7626659783
 40
0.8858477055
 40
1.0
 40
1.0
 40
1.0
 40
1.0
 10
30.5706516733
 20
63.2625092378
 30
0.0
 10
30.4932026581
 20
63.3072258868
 30
0.0
 10
30.3238453769
 20
63.3860920937
 30
0.0
 10
30.0480545234
 20
63.4699213972
 30
0.0
 10
29.7494648576
 20
63.5215217107
 30
0.0
 10
29.4392915946
 20
63.5389374703
 30
0.0
 10
29.1291172351
 20
63.5215277505
 30
0.0
 10
28.8305121272
 20
63.4699396016
 30
0.0
 10
28.5547096188
 20
63.3861062151
 30
0.0
 10
28.3853398744
 20
63.3072411606
 30
0.0
 10
28.3078894169
 20
63.262525385
 30
0.0
  0
SPLINE
  5
26D
100
AcDbEntity
  8
0
100
AcDbSpline
 62
7
  6
BYLAYER
 70
0
 71
3
 72
15
 73
11
 74
0
 42
0.0000001
 43
0.0000001
 44
0.0000000001
 40
0.0
 40
0.0
 40
0.0
 40
0.0
 40
0.1080131279
 40
0.2180612218
 40
0.3320010906
 40
0.4513569005
 40
0.5772797604
 40
0.7104997397
 40
0.8513973505
 40
1.0
 40
1.0
 40
1.0
 40
1.0
 10
31.4392649772
 20
62.2827392109
 30
0.0
 10
31.4392645963
 20
62.3206007955
 30
0.0
 10
31.4326738886
 20
62.3971887312
 30
0.0
 10
31.4033496938
 20
62.5103217507
 30
0.0
 10
31.3548886424
 20
62.6210029271
 30
0.0
 10
31.2879833551
 20
62.7281458137
 30
0.0
 10
31.2033179611
 20
62.8307370981
 30
0.0
 10
31.1018238514
 20
62.9279122049
 30
0.0
 10
30.9844577666
 20
63.0187439191
 30
0.0
 10
30.898619226
 20
63.0731613828
 30
0.0
 10
30.8535088647
 20
63.099206611
 30
0.0
  0
SPLINE
  5
26E
100
AcDbEntity
  8
0
100
AcDbSpline
 62
7
  6
BYLAYER
 70
0
 71
3
 72
15
 73
11
 74
0
 42
0.0000001
 43
0.0000001
 44
0.0000000001
 40
0.0
 40
0.0
 40
0.0
 40
0.0
 40
0.1485260938
 40
0.2895006119
 40
0.4227409634
 40
0.5486445713
 40
0.6679954014
 40
0.7819394365
 40
0.8919880463
 40
1.0
 40
1.0
 40
1.0
 40
1.0
 10
28.0250455269
 20
63.09922072
 30
0.0
 10
27.9799568113
 20
63.0731888933
 30
0.0
 10
27.8941209033
 20
63.0187626109
 30
0.0
 10
27.7767346528
 20
62.9279394793
 30
0.0
 10
27.6752100544
 20
62.8307498863
 30
0.0
 10
27.5905513659
 20
62.7281499183
 30
0.0
 10
27.5236500972
 20
62.6210096079
 30
0.0
 10
27.4751816735
 20
62.5103283243
 30
0.0
 10
27.4458540789
 20
62.3971913567
 30
0.0
 10
27.4392645962
 20
62.3206013936
 30
0.0
 10
27.4392649771
 20
62.2827392109
 30
0.0
  0
SPLINE
  5
26F
100
AcDbEntity
  8
0
100
AcDbSpline
 62
7
  6
BYLAYER
 70
0
 71
3
 72
15
 73
11
 74
0
 42
0.0000001
 43
0.0000001
 44
0.0000000001
 40
0.0
 40
0.0
 40
0.0
 40
0.0
 40
0.1485260938
 40
0.2895006119
 40
0.4227409634
 40
0.5486445713
 40
0.6679954014
 40
0.7819394365
 40
0.8919880463
 40
1.0
 40
1.0
 40
1.0
 40
1.0
 10
30.8534844275
 20
61.4662577019
 30
0.0
 10
30.8985731431
 20
61.4922895286
 30
0.0
 10
30.9844090511
 20
61.5467158109
 30
0.0
 10
31.1017953016
 20
61.6375389425
 30
0.0
 10
31.2033199
 20
61.7347285356
 30
0.0
 10
31.2879785885
 20
61.8373285036
 30
0.0
 10
31.3548798572
 20
61.9444688139
 30
0.0
 10
31.4033482809
 20
62.0551500976
 30
0.0
 10
31.4326758755
 20
62.1682870651
 30
0.0
 10
31.4392653582
 20
62.2448770283
 30
0.0
 10
31.4392649772
 20
62.2827392109
 30
0.0
  0
SPLINE
  5
270
100
AcDbEntity
  8
0
100
AcDbSpline
 62
7
  6
BYLAYER
 70
0
 71
3
 72
9
 73
5
 74
0
 42
0.0000001
 43
0.0000001
 44
0.0000000001
 40
0.0
 40
0.0
 40
0.0
 40
0.0
 40
0.5175908732
 40
1.0
 40
1.0
 40
1.0
 40
1.0
 10
28.3078894169
 20
63.262525385
 30
0.0
 10
28.2608643705
 20
63.2353756238
 30
0.0
 10
28.1727463996
 20
63.1779652069
 30
0.0
 10
28.0925064128
 20
63.109783751
 30
0.0
 10
28.0565700507
 20
63.0741489619
 30
0.0
  0
SPLINE
  5
271
100
AcDbEntity
  8
0
100
AcDbSpline
 62
7
  6
BYLAYER
 70
0
 71
3
 72
27
 73
23
 74
0
 42
0.0000001
 43
0.0000001
 44
0.0000000001
 40
0.0
 40
0.0
 40
0.0
 40
0.0
 40
0.0521182558
 40
0.0763994176
 40
0.0997525388
 40
0.1224626785
 40
0.1448671171
 40
0.1673253461
 40
0.1901930937
 40
0.2137929291
 40
0.2383991237
 40
0.291320302
 40
0.3499898693
 40
0.4144512727
 40
0.4840824668
 40
0.5577891877
 40
0.6341612853
 40
0.7116005095
 40
0.7884448437
 40
0.8630593364
 40
0.9339875222
 40
1.0
 40
1.0
 40
1.0
 40
1.0
 10
28.0565700507
 20
63.0741489619
 30
0.0
 10
28.0107096055
 20
63.0286733713
 30
0.0
 10
27.949570389
 20
62.9549076387
 30
0.0
 10
27.8904390465
 20
62.8460122137
 30
0.0
 10
27.8596633433
 20
62.7641217285
 30
0.0
 10
27.8418794974
 20
62.6808271992
 30
0.0
 10
27.8372215204
 20
62.5968769267
 30
0.0
 10
27.8457909758
 20
62.5130405281
 30
0.0
 10
27.8674622956
 20
62.4300922485
 30
0.0
 10
27.9019825181
 20
62.3487438448
 30
0.0
 10
27.966232092
 20
62.2407692354
 30
0.0
 10
28.0792469053
 20
62.1133020927
 30
0.0
 10
28.2543024387
 20
61.981294314
 30
0.0
 10
28.466510231
 20
61.8697018487
 30
0.0
 10
28.7092760215
 20
61.7817922052
 30
0.0
 10
28.975077453
 20
61.7201622017
 30
0.0
 10
29.2555610102
 20
61.686733746
 30
0.0
 10
29.5418684951
 20
61.6825450965
 30
0.0
 10
29.8249140233
 20
61.7077475393
 30
0.0
 10
30.0957921281
 20
61.7615221053
 30
0.0
 10
30.345858722
 20
61.8422020272
 30
0.0
 10
30.4997972907
 20
61.9152538471
 30
0.0
 10
30.5706405374
 20
61.9561549705
 30
0.0
  0
SPLINE
  5
272
100
AcDbEntity
  8
0
100
AcDbSpline
 62
7
  6
BYLAYER
 70
0
 71
3
 72
19
 73
15
 74
0
 42
0.0000001
 43
0.0000001
 44
0.0000000001
 40
0.0
 40
0.0
 40
0.0
 40
0.0
 40
0.1502310308
 40
0.2874245777
 40
0.41249624
 40
0.4714370892
 40
0.5285721513
 40
0.5845232331
 40
0.6399904438
 40
0.6957023035
 40
0.7523717849
 40
0.8106484086
 40
0.87109725
 40
1.0
 40
1.0
 40
1.0
 40
1.0
 10
30.5706405374
 20
61.9561549705
 30
0.0
 10
30.6293210973
 20
61.9900340053
 30
0.0
 10
30.7374963717
 20
62.0625345888
 30
0.0
 10
30.8735681734
 20
62.1907890707
 30
0.0
 10
30.9577413563
 20
62.3103380087
 30
0.0
 10
31.0031579666
 20
62.4094515697
 30
0.0
 10
31.0262114188
 20
62.4837813764
 30
0.0
 10
31.0386557538
 20
62.5590251952
 30
0.0
 10
31.0404439774
 20
62.6346356404
 30
0.0
 10
31.0315022241
 20
62.7100613649
 30
0.0
 10
31.0119485457
 20
62.7847473649
 30
0.0
 10
30.9819521587
 20
62.8581901818
 30
0.0
 10
30.927191992
 20
62.9557775813
 30
0.0
 10
30.8726352834
 20
63.0225636818
 30
0.0
 10
30.8319467978
 20
63.0640914857
 30
0.0
  0
SPLINE
  5
273
100
AcDbEntity
  8
0
100
AcDbSpline
 62
7
  6
BYLAYER
 70
0
 71
3
 72
9
 73
5
 74
0
 42
0.0000001
 43
0.0000001
 44
0.0000000001
 40
0.0
 40
0.0
 40
0.0
 40
0.0
 40
0.2362491101
 40
1.0
 40
1.0
 40
1.0
 40
1.0
 10
30.8319467978
 20
63.0640914857
 30
0.0
 10
30.8138322839
 20
63.082579664
 30
0.0
 10
30.7340135943
 20
63.1577500731
 30
0.0
 10
30.6431168485
 20
63.2206701029
 30
0.0
 10
30.5706516733
 20
63.2625092378
 30
0.0
  0
SPLINE
  5
274
100
AcDbEntity
  8
0
100
AcDbSpline
 62
7
  6
BYLAYER
 70
0
 71
3
 72
15
 73
11
 74
0
 42
0.0000001
 43
0.0000001
 44
0.0000000001
 40
0.0
 40
0.0
 40
0.0
 40
0.0
 40
0.0993948548
 40
0.2024199741
 40
0.3120925186
 40
0.430476259
 40
0.5586259013
 40
0.6967131982
 40
0.8442024618
 40
1.0
 40
1.0
 40
1.0
 40
1.0
 10
27.4392649771
 20
62.2827392109
 30
0.0
 10
27.4392655141
 20
62.2293690936
 30
0.0
 10
27.4525806366
 20
62.1202670502
 30
0.0
 10
27.5113134902
 20
61.9619170819
 30
0.0
 10
27.6069842624
 20
61.8107308377
 30
0.0
 10
27.7371980458
 20
61.6694450386
 30
0.0
 10
27.8992425164
 20
61.5403056178
 30
0.0
 10
28.0900399724
 20
61.4254488615
 30
0.0
 10
28.3060383145
 20
61.3268707272
 30
0.0
 10
28.4605246846
 20
61.2744361326
 30
0.0
 10
28.540863353
 20
61.2511133503
 30
0.0
  0
SPLINE
  5
275
100
AcDbEntity
  8
0
100
AcDbSpline
 62
7
  6
BYLAYER
 70
0
 71
3
 72
9
 73
5
 74
0
 42
0.0000001
 43
0.0000001
 44
0.0000000001
 40
0.0
 40
0.0
 40
0.0
 40
0.0
 40
0.5161467129
 40
1.0
 40
1.0
 40
1.0
 40
1.0
 10
30.3510373795
 20
61.255026606
 30
0.0
 10
30.4411165415
 20
61.2816649663
 30
0.0
 10
30.6131747623
 20
61.3421580866
 30
0.0
 10
30.7772236802
 20
61.4222288017
 30
0.0
 10
30.8534844275
 20
61.4662577019
 30
0.0
  0
SPLINE
  5
276
100
AcDbEntity
  8
0
100
AcDbSpline
 62
7
  6
BYLAYER
 70
0
 71
3
 72
15
 73
11
 74
0
 42
0.0000001
 43
0.0000001
 44
0.0000000001
 40
0.0
 40
0.0
 40
0.0
 40
0.0
 40
0.1141512577
 40
0.2373200215
 40
0.3669685884
 40
0.4999912727
 40
0.633015914
 40
0.7626659783
 40
0.8858477055
 40
1.0
 40
1.0
 40
1.0
 40
1.0
 10
47.5412850768
 20
53.4647311294
 30
0.0
 10
47.4638360616
 20
53.5094477783
 30
0.0
 10
47.2944787805
 20
53.5883139852
 30
0.0
 10
47.0186879269
 20
53.6721432887
 30
0.0
 10
46.7200982611
 20
53.7237436022
 30
0.0
 10
46.4099249981
 20
53.7411593618
 30
0.0
 10
46.0997506386
 20
53.723749642
 30
0.0
 10
45.8011455307
 20
53.6721614931
 30
0.0
 10
45.5253430223
 20
53.5883281066
 30
0.0
 10
45.3559732779
 20
53.5094630521
 30
0.0
 10
45.2785228205
 20
53.4647472765
 30
0.0
  0
SPLINE
  5
277
100
AcDbEntity
  8
0
100
AcDbSpline
 62
7
  6
BYLAYER
 70
0
 71
3
 72
15
 73
11
 74
0
 42
0.0000001
 43
0.0000001
 44
0.0000000001
 40
0.0
 40
0.0
 40
0.0
 40
0.0
 40
0.1080131279
 40
0.2180612218
 40
0.3320010906
 40
0.4513569005
 40
0.5772797604
 40
0.7104997397
 40
0.8513973505
 40
1.0
 40
1.0
 40
1.0
 40
1.0
 10
48.4098983808
 20
52.4849611024
 30
0.0
 10
48.4098979998
 20
52.522822687
 30
0.0
 10
48.4033072921
 20
52.5994106227
 30
0.0
 10
48.3739830973
 20
52.7125436422
 30
0.0
 10
48.325522046
 20
52.8232248186
 30
0.0
 10
48.2586167586
 20
52.9303677052
 30
0.0
 10
48.1739513647
 20
53.0329589896
 30
0.0
 10
48.072457255
 20
53.1301340965
 30
0.0
 10
47.9550911701
 20
53.2209658107
 30
0.0
 10
47.8692526295
 20
53.2753832743
 30
0.0
 10
47.8241422682
 20
53.3014285025
 30
0.0
  0
SPLINE
  5
278
100
AcDbEntity
  8
0
100
AcDbSpline
 62
7
  6
BYLAYER
 70
0
 71
3
 72
15
 73
11
 74
0
 42
0.0000001
 43
0.0000001
 44
0.0000000001
 40
0.0
 40
0.0
 40
0.0
 40
0.0
 40
0.1485260938
 40
0.2895006119
 40
0.4227409634
 40
0.5486445713
 40
0.6679954014
 40
0.7819394365
 40
0.8919880463
 40
1.0
 40
1.0
 40
1.0
 40
1.0
 10
44.9956789304
 20
53.3014426115
 30
0.0
 10
44.9505902148
 20
53.2754107848
 30
0.0
 10
44.8647543068
 20
53.2209845025
 30
0.0
 10
44.7473680563
 20
53.1301613709
 30
0.0
 10
44.6458434579
 20
53.0329717778
 30
0.0
 10
44.5611847694
 20
52.9303718098
 30
0.0
 10
44.4942835007
 20
52.8232314995
 30
0.0
 10
44.445815077
 20
52.7125502158
 30
0.0
 10
44.4164874824
 20
52.5994132482
 30
0.0
 10
44.4098979997
 20
52.5228232851
 30
0.0
 10
44.4098983807
 20
52.4849611024
 30
0.0
  0
SPLINE
  5
279
100
AcDbEntity
  8
0
100
AcDbSpline
 62
7
  6
BYLAYER
 70
0
 71
3
 72
15
 73
11
 74
0
 42
0.0000001
 43
0.0000001
 44
0.0000000001
 40
0.0
 40
0.0
 40
0.0
 40
0.0
 40
0.1485260938
 40
0.2895006119
 40
0.4227409634
 40
0.5486445713
 40
0.6679954014
 40
0.7819394365
 40
0.8919880463
 40
1.0
 40
1.0
 40
1.0
 40
1.0
 10
47.824117831
 20
51.6684795934
 30
0.0
 10
47.8692065466
 20
51.6945114201
 30
0.0
 10
47.9550424546
 20
51.7489377024
 30
0.0
 10
48.0724287051
 20
51.839760834
 30
0.0
 10
48.1739533035
 20
51.9369504271
 30
0.0
 10
48.258611992
 20
52.0395503951
 30
0.0
 10
48.3255132607
 20
52.1466907054
 30
0.0
 10
48.3739816844
 20
52.2573719891
 30
0.0
 10
48.403309279
 20
52.3705089566
 30
0.0
 10
48.4098987617
 20
52.4470989198
 30
0.0
 10
48.4098983808
 20
52.4849611024
 30
0.0
  0
SPLINE
  5
27A
100
AcDbEntity
  8
0
100
AcDbSpline
 62
7
  6
BYLAYER
 70
0
 71
3
 72
9
 73
5
 74
0
 42
0.0000001
 43
0.0000001
 44
0.0000000001
 40
0.0
 40
0.0
 40
0.0
 40
0.0
 40
0.5175908732
 40
1.0
 40
1.0
 40
1.0
 40
1.0
 10
45.2785228205
 20
53.4647472765
 30
0.0
 10
45.231497774
 20
53.4375975154
 30
0.0
 10
45.1433798031
 20
53.3801870984
 30
0.0
 10
45.0631398163
 20
53.3120056425
 30
0.0
 10
45.0272034543
 20
53.2763708534
 30
0.0
  0
SPLINE
  5
27B
100
AcDbEntity
  8
0
100
AcDbSpline
 62
7
  6
BYLAYER
 70
0
 71
3
 72
27
 73
23
 74
0
 42
0.0000001
 43
0.0000001
 44
0.0000000001
 40
0.0
 40
0.0
 40
0.0
 40
0.0
 40
0.0521182558
 40
0.0763994176
 40
0.0997525388
 40
0.1224626785
 40
0.1448671171
 40
0.1673253461
 40
0.1901930937
 40
0.2137929291
 40
0.2383991237
 40
0.291320302
 40
0.3499898693
 40
0.4144512727
 40
0.4840824668
 40
0.5577891877
 40
0.6341612853
 40
0.7116005095
 40
0.7884448437
 40
0.8630593364
 40
0.9339875222
 40
1.0
 40
1.0
 40
1.0
 40
1.0
 10
45.0272034543
 20
53.2763708534
 30
0.0
 10
44.9813430091
 20
53.2308952628
 30
0.0
 10
44.9202037926
 20
53.1571295302
 30
0.0
 10
44.86107245
 20
53.0482341052
 30
0.0
 10
44.8302967468
 20
52.96634362
 30
0.0
 10
44.8125129009
 20
52.8830490907
 30
0.0
 10
44.8078549239
 20
52.7990988182
 30
0.0
 10
44.8164243793
 20
52.7152624196
 30
0.0
 10
44.8380956992
 20
52.63231414
 30
0.0
 10
44.8726159216
 20
52.5509657363
 30
0.0
 10
44.9368654955
 20
52.4429911269
 30
0.0
 10
45.0498803088
 20
52.3155239842
 30
0.0
 10
45.2249358423
 20
52.1835162055
 30
0.0
 10
45.4371436345
 20
52.0719237402
 30
0.0
 10
45.6799094251
 20
51.9840140967
 30
0.0
 10
45.9457108565
 20
51.9223840932
 30
0.0
 10
46.2261944138
 20
51.8889556375
 30
0.0
 10
46.5125018986
 20
51.884766988
 30
0.0
 10
46.7955474268
 20
51.9099694308
 30
0.0
 10
47.0664255316
 20
51.9637439968
 30
0.0
 10
47.3164921255
 20
52.0444239187
 30
0.0
 10
47.4704306942
 20
52.1174757386
 30
0.0
 10
47.5412739409
 20
52.1583768621
 30
0.0
  0
SPLINE
  5
27C
100
AcDbEntity
  8
0
100
AcDbSpline
 62
7
  6
BYLAYER
 70
0
 71
3
 72
19
 73
15
 74
0
 42
0.0000001
 43
0.0000001
 44
0.0000000001
 40
0.0
 40
0.0
 40
0.0
 40
0.0
 40
0.1502310308
 40
0.2874245777
 40
0.41249624
 40
0.4714370892
 40
0.5285721513
 40
0.5845232331
 40
0.6399904438
 40
0.6957023035
 40
0.7523717849
 40
0.8106484086
 40
0.87109725
 40
1.0
 40
1.0
 40
1.0
 40
1.0
 10
47.5412739409
 20
52.1583768621
 30
0.0
 10
47.5999545008
 20
52.1922558968
 30
0.0
 10
47.7081297753
 20
52.2647564803
 30
0.0
 10
47.8442015769
 20
52.3930109622
 30
0.0
 10
47.9283747599
 20
52.5125599002
 30
0.0
 10
47.9737913701
 20
52.6116734613
 30
0.0
 10
47.9968448223
 20
52.6860032679
 30
0.0
 10
48.0092891573
 20
52.7612470868
 30
0.0
 10
48.0110773809
 20
52.8368575319
 30
0.0
 10
48.0021356276
 20
52.9122832564
 30
0.0
 10
47.9825819492
 20
52.9869692564
 30
0.0
 10
47.9525855623
 20
53.0604120733
 30
0.0
 10
47.8978253955
 20
53.1579994728
 30
0.0
 10
47.843268687
 20
53.2247855733
 30
0.0
 10
47.8025802013
 20
53.2663133772
 30
0.0
  0
SPLINE
  5
27D
100
AcDbEntity
  8
0
100
AcDbSpline
 62
7
  6
BYLAYER
 70
0
 71
3
 72
9
 73
5
 74
0
 42
0.0000001
 43
0.0000001
 44
0.0000000001
 40
0.0
 40
0.0
 40
0.0
 40
0.0
 40
0.2362491101
 40
1.0
 40
1.0
 40
1.0
 40
1.0
 10
47.8025802013
 20
53.2663133772
 30
0.0
 10
47.7844656874
 20
53.2848015555
 30
0.0
 10
47.7046469978
 20
53.3599719646
 30
0.0
 10
47.613750252
 20
53.4228919944
 30
0.0
 10
47.5412850768
 20
53.4647311294
 30
0.0
  0
SPLINE
  5
27E
100
AcDbEntity
  8
0
100
AcDbSpline
 62
7
  6
BYLAYER
 70
0
 71
3
 72
25
 73
21
 74
0
 42
0.0000001
 43
0.0000001
 44
0.0000000001
 40
0.0
 40
0.0
 40
0.0
 40
0.0
 40
0.0213317797
 40
0.042892043
 40
0.0648969414
 40
0.0875419536
 40
0.1353163243
 40
0.1872166937
 40
0.2436548455
 40
0.3046029226
 40
0.3696903377
 40
0.4382877458
 40
0.5095749599
 40
0.5825996089
 40
0.6563309761
 40
0.7297087932
 40
0.8016867703
 40
0.8712723804
 40
0.9376269365
 40
1.0
 40
1.0
 40
1.0
 40
1.0
 10
44.4098983807
 20
52.4849611024
 30
0.0
 10
44.4098986661
 20
52.4565889631
 30
0.0
 10
44.4135714888
 20
52.3994756926
 30
0.0
 10
44.4299728625
 20
52.3145168559
 30
0.0
 10
44.4571901679
 20
52.2305364563
 30
0.0
 10
44.5085516404
 20
52.118589784
 30
0.0
 10
44.6006894541
 20
51.9829905475
 30
0.0
 10
44.7478891944
 20
51.835196426
 30
0.0
 10
44.9303184316
 20
51.701890493
 30
0.0
 10
45.144059867
 20
51.585645238
 30
0.0
 10
45.3846436723
 20
51.4887186483
 30
0.0
 10
45.6470169581
 20
51.4130994048
 30
0.0
 10
45.9256356279
 20
51.3603719053
 30
0.0
 10
46.2145765575
 20
51.3316419739
 30
0.0
 10
46.5076834317
 20
51.3275146067
 30
0.0
 10
46.7987080714
 20
51.348083039
 30
0.0
 10
47.0814265134
 20
51.3929247444
 30
0.0
 10
47.3498794006
 20
51.4610600102
 30
0.0
 10
47.5982733457
 20
51.5510845441
 30
0.0
 10
47.7522733606
 20
51.6270004166
 30
0.0
 10
47.824117831
 20
51.6684795934
 30
0.0
  0
SPLINE
  5
27F
100
AcDbEntity
  8
0
100
AcDbSpline
 62
7
  6
BYLAYER
 70
0
 71
3
 72
15
 73
11
 74
0
 42
0.0000001
 43
0.0000001
 44
0.0000000001
 40
0.0
 40
0.0
 40
0.0
 40
0.0
 40
0.1141512577
 40
0.2373200215
 40
0.3669685884
 40
0.4999912727
 40
0.633015914
 40
0.7626659783
 40
0.8858477055
 40
1.0
 40
1.0
 40
1.0
 40
1.0
 10
13.6001595802
 20
53.4646495449
 30
0.0
 10
13.5227105649
 20
53.5093661939
 30
0.0
 10
13.3533532838
 20
53.5882324007
 30
0.0
 10
13.0775624302
 20
53.6720617043
 30
0.0
 10
12.7789727644
 20
53.7236620178
 30
0.0
 10
12.4687995014
 20
53.7410777774
 30
0.0
 10
12.158625142
 20
53.7236680575
 30
0.0
 10
11.860020034
 20
53.6720799087
 30
0.0
 10
11.5842175257
 20
53.5882465222
 30
0.0
 10
11.4148477813
 20
53.5093814676
 30
0.0
 10
11.3373973238
 20
53.4646656921
 30
0.0
  0
SPLINE
  5
280
100
AcDbEntity
  8
0
100
AcDbSpline
 62
7
  6
BYLAYER
 70
0
 71
3
 72
15
 73
11
 74
0
 42
0.0000001
 43
0.0000001
 44
0.0000000001
 40
0.0
 40
0.0
 40
0.0
 40
0.0
 40
0.1080131279
 40
0.2180612218
 40
0.3320010906
 40
0.4513569005
 40
0.5772797604
 40
0.7104997397
 40
0.8513973505
 40
1.0
 40
1.0
 40
1.0
 40
1.0
 10
14.4687728841
 20
52.484879518
 30
0.0
 10
14.4687725031
 20
52.5227411026
 30
0.0
 10
14.4621817955
 20
52.5993290383
 30
0.0
 10
14.4328576007
 20
52.7124620578
 30
0.0
 10
14.3843965493
 20
52.8231432342
 30
0.0
 10
14.317491262
 20
52.9302861208
 30
0.0
 10
14.232825868
 20
53.0328774052
 30
0.0
 10
14.1313317583
 20
53.130052512
 30
0.0
 10
14.0139656735
 20
53.2208842262
 30
0.0
 10
13.9281271328
 20
53.2753016899
 30
0.0
 10
13.8830167716
 20
53.301346918
 30
0.0
  0
SPLINE
  5
281
100
AcDbEntity
  8
0
100
AcDbSpline
 62
7
  6
BYLAYER
 70
0
 71
3
 72
15
 73
11
 74
0
 42
0.0000001
 43
0.0000001
 44
0.0000000001
 40
0.0
 40
0.0
 40
0.0
 40
0.0
 40
0.1485260938
 40
0.2895006119
 40
0.4227409634
 40
0.5486445713
 40
0.6679954014
 40
0.7819394365
 40
0.8919880463
 40
1.0
 40
1.0
 40
1.0
 40
1.0
 10
11.0545534337
 20
53.301361027
 30
0.0
 10
11.0094647181
 20
53.2753292003
 30
0.0
 10
10.9236288101
 20
53.220902918
 30
0.0
 10
10.8062425596
 20
53.1300797864
 30
0.0
 10
10.7047179612
 20
53.0328901933
 30
0.0
 10
10.6200592727
 20
52.9302902253
 30
0.0
 10
10.553158004
 20
52.823149915
 30
0.0
 10
10.5046895803
 20
52.7124686314
 30
0.0
 10
10.4753619858
 20
52.5993316638
 30
0.0
 10
10.468772503
 20
52.5227417007
 30
0.0
 10
10.468772884
 20
52.484879518
 30
0.0
  0
SPLINE
  5
282
100
AcDbEntity
  8
0
100
AcDbSpline
 62
7
  6
BYLAYER
 70
0
 71
3
 72
15
 73
11
 74
0
 42
0.0000001
 43
0.0000001
 44
0.0000000001
 40
0.0
 40
0.0
 40
0.0
 40
0.0
 40
0.1485260938
 40
0.2895006119
 40
0.4227409634
 40
0.5486445713
 40
0.6679954014
 40
0.7819394365
 40
0.8919880463
 40
1.0
 40
1.0
 40
1.0
 40
1.0
 10
13.8829923343
 20
51.668398009
 30
0.0
 10
13.9280810499
 20
51.6944298357
 30
0.0
 10
14.0139169579
 20
51.748856118
 30
0.0
 10
14.1313032085
 20
51.8396792496
 30
0.0
 10
14.2328278069
 20
51.9368688427
 30
0.0
 10
14.3174864954
 20
52.0394688107
 30
0.0
 10
14.3843877641
 20
52.146609121
 30
0.0
 10
14.4328561877
 20
52.2572904046
 30
0.0
 10
14.4621837823
 20
52.3704273722
 30
0.0
 10
14.468773265
 20
52.4470173353
 30
0.0
 10
14.4687728841
 20
52.484879518
 30
0.0
  0
SPLINE
  5
283
100
AcDbEntity
  8
0
100
AcDbSpline
 62
7
  6
BYLAYER
 70
0
 71
3
 72
9
 73
5
 74
0
 42
0.0000001
 43
0.0000001
 44
0.0000000001
 40
0.0
 40
0.0
 40
0.0
 40
0.0
 40
0.5175908732
 40
1.0
 40
1.0
 40
1.0
 40
1.0
 10
11.3373973238
 20
53.4646656921
 30
0.0
 10
11.2903722774
 20
53.4375159309
 30
0.0
 10
11.2022543064
 20
53.380105514
 30
0.0
 10
11.1220143196
 20
53.3119240581
 30
0.0
 10
11.0860779576
 20
53.276289269
 30
0.0
  0
SPLINE
  5
284
100
AcDbEntity
  8
0
100
AcDbSpline
 62
7
  6
BYLAYER
 70
0
 71
3
 72
27
 73
23
 74
0
 42
0.0000001
 43
0.0000001
 44
0.0000000001
 40
0.0
 40
0.0
 40
0.0
 40
0.0
 40
0.0521182558
 40
0.0763994176
 40
0.0997525388
 40
0.1224626785
 40
0.1448671171
 40
0.1673253461
 40
0.1901930937
 40
0.2137929291
 40
0.2383991237
 40
0.291320302
 40
0.3499898693
 40
0.4144512727
 40
0.4840824668
 40
0.5577891877
 40
0.6341612853
 40
0.7116005095
 40
0.7884448437
 40
0.8630593364
 40
0.9339875222
 40
1.0
 40
1.0
 40
1.0
 40
1.0
 10
11.0860779576
 20
53.276289269
 30
0.0
 10
11.0402175124
 20
53.2308136784
 30
0.0
 10
10.9790782959
 20
53.1570479458
 30
0.0
 10
10.9199469533
 20
53.0481525208
 30
0.0
 10
10.8891712501
 20
52.9662620356
 30
0.0
 10
10.8713874043
 20
52.8829675062
 30
0.0
 10
10.8667294272
 20
52.7990172337
 30
0.0
 10
10.8752988826
 20
52.7151808352
 30
0.0
 10
10.8969702025
 20
52.6322325556
 30
0.0
 10
10.931490425
 20
52.5508841519
 30
0.0
 10
10.9957399988
 20
52.4429095425
 30
0.0
 10
11.1087548122
 20
52.3154423998
 30
0.0
 10
11.2838103456
 20
52.183434621
 30
0.0
 10
11.4960181378
 20
52.0718421558
 30
0.0
 10
11.7387839284
 20
51.9839325123
 30
0.0
 10
12.0045853598
 20
51.9223025087
 30
0.0
 10
12.2850689171
 20
51.8888740531
 30
0.0
 10
12.571376402
 20
51.8846854036
 30
0.0
 10
12.8544219301
 20
51.9098878464
 30
0.0
 10
13.1253000349
 20
51.9636624124
 30
0.0
 10
13.3753666289
 20
52.0443423343
 30
0.0
 10
13.5293051976
 20
52.1173941542
 30
0.0
 10
13.6001484443
 20
52.1582952776
 30
0.0
  0
SPLINE
  5
285
100
AcDbEntity
  8
0
100
AcDbSpline
 62
7
  6
BYLAYER
 70
0
 71
3
 72
19
 73
15
 74
0
 42
0.0000001
 43
0.0000001
 44
0.0000000001
 40
0.0
 40
0.0
 40
0.0
 40
0.0
 40
0.1502310308
 40
0.2874245777
 40
0.41249624
 40
0.4714370892
 40
0.5285721513
 40
0.5845232331
 40
0.6399904438
 40
0.6957023035
 40
0.7523717849
 40
0.8106484086
 40
0.87109725
 40
1.0
 40
1.0
 40
1.0
 40
1.0
 10
13.6001484443
 20
52.1582952776
 30
0.0
 10
13.6588290041
 20
52.1921743124
 30
0.0
 10
13.7670042786
 20
52.2646748959
 30
0.0
 10
13.9030760803
 20
52.3929293778
 30
0.0
 10
13.9872492632
 20
52.5124783158
 30
0.0
 10
14.0326658734
 20
52.6115918768
 30
0.0
 10
14.0557193256
 20
52.6859216835
 30
0.0
 10
14.0681636607
 20
52.7611655023
 30
0.0
 10
14.0699518843
 20
52.8367759475
 30
0.0
 10
14.061010131
 20
52.912201672
 30
0.0
 10
14.0414564525
 20
52.986887672
 30
0.0
 10
14.0114600656
 20
53.0603304889
 30
0.0
 10
13.9566998988
 20
53.1579178883
 30
0.0
 10
13.9021431903
 20
53.2247039889
 30
0.0
 10
13.8614547046
 20
53.2662317927
 30
0.0
  0
SPLINE
  5
286
100
AcDbEntity
  8
0
100
AcDbSpline
 62
7
  6
BYLAYER
 70
0
 71
3
 72
9
 73
5
 74
0
 42
0.0000001
 43
0.0000001
 44
0.0000000001
 40
0.0
 40
0.0
 40
0.0
 40
0.0
 40
0.2362491101
 40
1.0
 40
1.0
 40
1.0
 40
1.0
 10
13.8614547046
 20
53.2662317927
 30
0.0
 10
13.8433401908
 20
53.2847199711
 30
0.0
 10
13.7635215012
 20
53.3598903801
 30
0.0
 10
13.6726247554
 20
53.42281041
 30
0.0
 10
13.6001595802
 20
53.4646495449
 30
0.0
  0
SPLINE
  5
287
100
AcDbEntity
  8
0
100
AcDbSpline
 62
7
  6
BYLAYER
 70
0
 71
3
 72
25
 73
21
 74
0
 42
0.0000001
 43
0.0000001
 44
0.0000000001
 40
0.0
 40
0.0
 40
0.0
 40
0.0
 40
0.0213317797
 40
0.042892043
 40
0.0648969414
 40
0.0875419536
 40
0.1353163243
 40
0.1872166937
 40
0.2436548455
 40
0.3046029226
 40
0.3696903377
 40
0.4382877458
 40
0.5095749599
 40
0.5825996089
 40
0.6563309761
 40
0.7297087932
 40
0.8016867703
 40
0.8712723804
 40
0.9376269365
 40
1.0
 40
1.0
 40
1.0
 40
1.0
 10
10.468772884
 20
52.484879518
 30
0.0
 10
10.4687731695
 20
52.4565073787
 30
0.0
 10
10.4724459921
 20
52.3993941082
 30
0.0
 10
10.4888473659
 20
52.3144352715
 30
0.0
 10
10.5160646712
 20
52.2304548719
 30
0.0
 10
10.5674261438
 20
52.1185081996
 30
0.0
 10
10.6595639575
 20
51.9829089631
 30
0.0
 10
10.8067636978
 20
51.8351148416
 30
0.0
 10
10.989192935
 20
51.7018089085
 30
0.0
 10
11.2029343704
 20
51.5855636536
 30
0.0
 10
11.4435181756
 20
51.4886370638
 30
0.0
 10
11.7058914614
 20
51.4130178204
 30
0.0
 10
11.9845101313
 20
51.3602903208
 30
0.0
 10
12.2734510608
 20
51.3315603895
 30
0.0
 10
12.566557935
 20
51.3274330223
 30
0.0
 10
12.8575825748
 20
51.3480014545
 30
0.0
 10
13.1403010167
 20
51.3928431599
 30
0.0
 10
13.408753904
 20
51.4609784257
 30
0.0
 10
13.657147849
 20
51.5510029596
 30
0.0
 10
13.8111478639
 20
51.6269188322
 30
0.0
 10
13.8829923343
 20
51.668398009
 30
0.0
  0
SPLINE
  5
288
100
AcDbEntity
  8
0
100
AcDbSpline
 62
7
  6
BYLAYER
 70
0
 71
3
 72
15
 73
11
 74
0
 42
0.0000001
 43
0.0000001
 44
0.0000000001
 40
0.0
 40
0.0
 40
0.0
 40
0.0
 40
0.1141512577
 40
0.2373200215
 40
0.3669685884
 40
0.4999912727
 40
0.633015914
 40
0.7626659783
 40
0.8858477055
 40
1.0
 40
1.0
 40
1.0
 40
1.0
 10
30.5707929837
 20
43.6668714364
 30
0.0
 10
30.4933439684
 20
43.7115880854
 30
0.0
 10
30.3239866873
 20
43.7904542923
 30
0.0
 10
30.0481958338
 20
43.8742835958
 30
0.0
 10
29.749606168
 20
43.9258839093
 30
0.0
 10
29.439432905
 20
43.9432996689
 30
0.0
 10
29.1292585455
 20
43.9258899491
 30
0.0
 10
28.8306534376
 20
43.8743018002
 30
0.0
 10
28.5548509292
 20
43.7904684137
 30
0.0
 10
28.3854811848
 20
43.7116033592
 30
0.0
 10
28.3080307273
 20
43.6668875836
 30
0.0
  0
SPLINE
  5
289
100
AcDbEntity
  8
0
100
AcDbSpline
 62
7
  6
BYLAYER
 70
0
 71
3
 72
15
 73
11
 74
0
 42
0.0000001
 43
0.0000001
 44
0.0000000001
 40
0.0
 40
0.0
 40
0.0
 40
0.0
 40
0.1080131279
 40
0.2180612218
 40
0.3320010906
 40
0.4513569005
 40
0.5772797604
 40
0.7104997397
 40
0.8513973505
 40
1.0
 40
1.0
 40
1.0
 40
1.0
 10
31.4394062876
 20
42.6871014095
 30
0.0
 10
31.4394059067
 20
42.7249629941
 30
0.0
 10
31.432815199
 20
42.8015509298
 30
0.0
 10
31.4034910042
 20
42.9146839493
 30
0.0
 10
31.3550299528
 20
43.0253651257
 30
0.0
 10
31.2881246655
 20
43.1325080123
 30
0.0
 10
31.2034592715
 20
43.2350992967
 30
0.0
 10
31.1019651618
 20
43.3322744035
 30
0.0
 10
30.984599077
 20
43.4231061177
 30
0.0
 10
30.8987605364
 20
43.4775235814
 30
0.0
 10
30.8536501751
 20
43.5035688096
 30
0.0
  0
SPLINE
  5
28A
100
AcDbEntity
  8
0
100
AcDbSpline
 62
7
  6
BYLAYER
 70
0
 71
3
 72
15
 73
11
 74
0
 42
0.0000001
 43
0.0000001
 44
0.0000000001
 40
0.0
 40
0.0
 40
0.0
 40
0.0
 40
0.1485260938
 40
0.2895006119
 40
0.4227409634
 40
0.5486445713
 40
0.6679954014
 40
0.7819394365
 40
0.8919880463
 40
1.0
 40
1.0
 40
1.0
 40
1.0
 10
28.0251868373
 20
43.5035829186
 30
0.0
 10
27.9800981217
 20
43.4775510919
 30
0.0
 10
27.8942622137
 20
43.4231248095
 30
0.0
 10
27.7768759632
 20
43.3323016779
 30
0.0
 10
27.6753513648
 20
43.2351120849
 30
0.0
 10
27.5906926763
 20
43.1325121168
 30
0.0
 10
27.5237914075
 20
43.0253718065
 30
0.0
 10
27.4753229839
 20
42.9146905229
 30
0.0
 10
27.4459953893
 20
42.8015535553
 30
0.0
 10
27.4394059066
 20
42.7249635922
 30
0.0
 10
27.4394062875
 20
42.6871014095
 30
0.0
  0
SPLINE
  5
28B
100
AcDbEntity
  8
0
100
AcDbSpline
 62
7
  6
BYLAYER
 70
0
 71
3
 72
15
 73
11
 74
0
 42
0.0000001
 43
0.0000001
 44
0.0000000001
 40
0.0
 40
0.0
 40
0.0
 40
0.0
 40
0.1485260938
 40
0.2895006119
 40
0.4227409634
 40
0.5486445713
 40
0.6679954014
 40
0.7819394365
 40
0.8919880463
 40
1.0
 40
1.0
 40
1.0
 40
1.0
 10
30.8536257379
 20
41.8706199005
 30
0.0
 10
30.8987144535
 20
41.8966517272
 30
0.0
 10
30.9845503615
 20
41.9510780095
 30
0.0
 10
31.101936612
 20
42.0419011411
 30
0.0
 10
31.2034612104
 20
42.1390907342
 30
0.0
 10
31.2881198989
 20
42.2416907022
 30
0.0
 10
31.3550211676
 20
42.3488310125
 30
0.0
 10
31.4034895913
 20
42.4595122962
 30
0.0
 10
31.4328171858
 20
42.5726492637
 30
0.0
 10
31.4394066686
 20
42.6492392269
 30
0.0
 10
31.4394062876
 20
42.6871014095
 30
0.0
  0
SPLINE
  5
28C
100
AcDbEntity
  8
0
100
AcDbSpline
 62
7
  6
BYLAYER
 70
0
 71
3
 72
9
 73
5
 74
0
 42
0.0000001
 43
0.0000001
 44
0.0000000001
 40
0.0
 40
0.0
 40
0.0
 40
0.0
 40
0.5175908732
 40
1.0
 40
1.0
 40
1.0
 40
1.0
 10
28.3080307273
 20
43.6668875836
 30
0.0
 10
28.2610056809
 20
43.6397378224
 30
0.0
 10
28.17288771
 20
43.5823274055
 30
0.0
 10
28.0926477232
 20
43.5141459496
 30
0.0
 10
28.0567113611
 20
43.4785111605
 30
0.0
  0
SPLINE
  5
28D
100
AcDbEntity
  8
0
100
AcDbSpline
 62
7
  6
BYLAYER
 70
0
 71
3
 72
27
 73
23
 74
0
 42
0.0000001
 43
0.0000001
 44
0.0000000001
 40
0.0
 40
0.0
 40
0.0
 40
0.0
 40
0.0521182558
 40
0.0763994176
 40
0.0997525388
 40
0.1224626785
 40
0.1448671171
 40
0.1673253461
 40
0.1901930937
 40
0.2137929291
 40
0.2383991237
 40
0.291320302
 40
0.3499898693
 40
0.4144512727
 40
0.4840824668
 40
0.5577891877
 40
0.6341612853
 40
0.7116005095
 40
0.7884448437
 40
0.8630593364
 40
0.9339875222
 40
1.0
 40
1.0
 40
1.0
 40
1.0
 10
28.0567113611
 20
43.4785111605
 30
0.0
 10
28.0108509159
 20
43.4330355699
 30
0.0
 10
27.9497116994
 20
43.3592698373
 30
0.0
 10
27.8905803568
 20
43.2503744123
 30
0.0
 10
27.8598046537
 20
43.1684839271
 30
0.0
 10
27.8420208078
 20
43.0851893978
 30
0.0
 10
27.8373628308
 20
43.0012391253
 30
0.0
 10
27.8459322861
 20
42.9174027267
 30
0.0
 10
27.867603606
 20
42.8344544471
 30
0.0
 10
27.9021238285
 20
42.7531060434
 30
0.0
 10
27.9663734024
 20
42.645131434
 30
0.0
 10
28.0793882157
 20
42.5176642913
 30
0.0
 10
28.2544437491
 20
42.3856565126
 30
0.0
 10
28.4666515414
 20
42.2740640473
 30
0.0
 10
28.7094173319
 20
42.1861544038
 30
0.0
 10
28.9752187634
 20
42.1245244002
 30
0.0
 10
29.2557023206
 20
42.0910959446
 30
0.0
 10
29.5420098055
 20
42.0869072951
 30
0.0
 10
29.8250553337
 20
42.1121097379
 30
0.0
 10
30.0959334385
 20
42.1658843039
 30
0.0
 10
30.3460000324
 20
42.2465642258
 30
0.0
 10
30.4999386011
 20
42.3196160457
 30
0.0
 10
30.5707818478
 20
42.3605171691
 30
0.0
  0
SPLINE
  5
28E
100
AcDbEntity
  8
0
100
AcDbSpline
 62
7
  6
BYLAYER
 70
0
 71
3
 72
19
 73
15
 74
0
 42
0.0000001
 43
0.0000001
 44
0.0000000001
 40
0.0
 40
0.0
 40
0.0
 40
0.0
 40
0.1502310308
 40
0.2874245777
 40
0.41249624
 40
0.4714370892
 40
0.5285721513
 40
0.5845232331
 40
0.6399904438
 40
0.6957023035
 40
0.7523717849
 40
0.8106484086
 40
0.87109725
 40
1.0
 40
1.0
 40
1.0
 40
1.0
 10
30.5707818478
 20
42.3605171691
 30
0.0
 10
30.6294624077
 20
42.3943962039
 30
0.0
 10
30.7376376821
 20
42.4668967874
 30
0.0
 10
30.8737094838
 20
42.5951512693
 30
0.0
 10
30.9578826667
 20
42.7147002073
 30
0.0
 10
31.0032992769
 20
42.8138137683
 30
0.0
 10
31.0263527292
 20
42.888143575
 30
0.0
 10
31.0387970642
 20
42.9633873938
 30
0.0
 10
31.0405852878
 20
43.038997839
 30
0.0
 10
31.0316435345
 20
43.1144235635
 30
0.0
 10
31.0120898561
 20
43.1891095635
 30
0.0
 10
30.9820934691
 20
43.2625523804
 30
0.0
 10
30.9273333024
 20
43.3601397799
 30
0.0
 10
30.8727765938
 20
43.4269258804
 30
0.0
 10
30.8320881082
 20
43.4684536843
 30
0.0
  0
SPLINE
  5
28F
100
AcDbEntity
  8
0
100
AcDbSpline
 62
7
  6
BYLAYER
 70
0
 71
3
 72
9
 73
5
 74
0
 42
0.0000001
 43
0.0000001
 44
0.0000000001
 40
0.0
 40
0.0
 40
0.0
 40
0.0
 40
0.2362491101
 40
1.0
 40
1.0
 40
1.0
 40
1.0
 10
30.8320881082
 20
43.4684536843
 30
0.0
 10
30.8139735943
 20
43.4869418626
 30
0.0
 10
30.7341549047
 20
43.5621122717
 30
0.0
 10
30.6432581589
 20
43.6250323015
 30
0.0
 10
30.5707929837
 20
43.6668714364
 30
0.0
  0
SPLINE
  5
290
100
AcDbEntity
  8
0
100
AcDbSpline
 62
7
  6
BYLAYER
 70
0
 71
3
 72
25
 73
21
 74
0
 42
0.0000001
 43
0.0000001
 44
0.0000000001
 40
0.0
 40
0.0
 40
0.0
 40
0.0
 40
0.0213317797
 40
0.042892043
 40
0.0648969414
 40
0.0875419536
 40
0.1353163243
 40
0.1872166937
 40
0.2436548455
 40
0.3046029226
 40
0.3696903377
 40
0.4382877458
 40
0.5095749599
 40
0.5825996089
 40
0.6563309761
 40
0.7297087932
 40
0.8016867703
 40
0.8712723804
 40
0.9376269365
 40
1.0
 40
1.0
 40
1.0
 40
1.0
 10
27.4394062875
 20
42.6871014095
 30
0.0
 10
27.439406573
 20
42.6587292702
 30
0.0
 10
27.4430793956
 20
42.6016159997
 30
0.0
 10
27.4594807694
 20
42.516657163
 30
0.0
 10
27.4866980748
 20
42.4326767634
 30
0.0
 10
27.5380595473
 20
42.3207300911
 30
0.0
 10
27.630197361
 20
42.1851308546
 30
0.0
 10
27.7773971013
 20
42.0373367331
 30
0.0
 10
27.9598263385
 20
41.9040308
 30
0.0
 10
28.1735677739
 20
41.7877855451
 30
0.0
 10
28.4141515791
 20
41.6908589553
 30
0.0
 10
28.6765248649
 20
41.6152397119
 30
0.0
 10
28.9551435348
 20
41.5625122124
 30
0.0
 10
29.2440844644
 20
41.533782281
 30
0.0
 10
29.5371913386
 20
41.5296549138
 30
0.0
 10
29.8282159783
 20
41.550223346
 30
0.0
 10
30.1109344202
 20
41.5950650515
 30
0.0
 10
30.3793873075
 20
41.6632003173
 30
0.0
 10
30.6277812525
 20
41.7532248511
 30
0.0
 10
30.7817812674
 20
41.8291407237
 30
0.0
 10
30.8536257379
 20
41.8706199005
 30
0.0
  0
SPLINE
  5
291
100
AcDbEntity
  8
0
100
AcDbSpline
 62
7
  6
BYLAYER
 70
0
 71
3
 72
23
 73
19
 74
0
 42
0.0000001
 43
0.0000001
 44
0.0000000001
 40
0.0
 40
0.0
 40
0.0
 40
0.0
 40
0.0457811485
 40
0.0949746517
 40
0.1479196237
 40
0.2046662713
 40
0.2650339284
 40
0.3286524406
 40
0.3950076248
 40
0.4634799645
 40
0.5333701617
 40
0.6039304068
 40
0.6743911252
 40
0.7439893375
 40
0.8119839948
 40
0.8776908572
 40
0.9405454215
 40
1.0
 40
1.0
 40
1.0
 40
1.0
 10
31.2513277838
 20
57.3873017858
 30
0.0
 10
31.2261152347
 20
57.4334538342
 30
0.0
 10
31.1644051374
 20
57.5242434036
 30
0.0
 10
31.0468170435
 20
57.6477364956
 30
0.0
 10
30.9032412312
 20
57.7612795459
 30
0.0
 10
30.7360762933
 20
57.8631645253
 30
0.0
 10
30.5479752347
 20
57.9518571176
 30
0.0
 10
30.3419558672
 20
58.0259786278
 30
0.0
 10
30.1213312995
 20
58.0843780739
 30
0.0
 10
29.8896534256
 20
58.1260982275
 30
0.0
 10
29.6506731122
 20
58.1504723674
 30
0.0
 10
29.4082662502
 20
58.1571228396
 30
0.0
 10
29.1663616757
 20
58.145918544
 30
0.0
 10
28.9288856977
 20
58.1170438068
 30
0.0
 10
28.6996883481
 20
58.0709930098
 30
0.0
 10
28.482438819
 20
58.0084709489
 30
0.0
 10
28.2807266888
 20
57.9304793245
 30
0.0
 10
28.1549739467
 20
57.8671394922
 30
0.0
 10
28.0958271546
 20
57.8329912797
 30
0.0
  0
SPLINE
  5
292
100
AcDbEntity
  8
0
100
AcDbSpline
 62
7
  6
BYLAYER
 70
0
 71
3
 72
14
 73
10
 74
0
 42
0.0000001
 43
0.0000001
 44
0.0000000001
 40
0.0
 40
0.0
 40
0.0
 40
0.0
 40
0.1080578617
 40
0.2181536135
 40
0.3321483672
 40
0.4515529382
 40
0.7103677854
 40
0.8514074843
 40
1.0
 40
1.0
 40
1.0
 40
1.0
 10
31.339333391
 20
57.7105357797
 30
0.0
 10
31.3393336898
 20
57.674567611
 30
0.0
 10
31.3330751313
 20
57.6018082874
 30
0.0
 10
31.3052148506
 20
57.4943321152
 30
0.0
 10
31.2591676835
 20
57.3891774833
 30
0.0
 10
31.1721364197
 20
57.2498079021
 30
0.0
 10
31.0517281437
 20
57.123110861
 30
0.0
 10
30.9072463571
 20
57.0113343828
 30
0.0
 10
30.825678262
 20
56.9596085077
 30
0.0
 10
30.7828441102
 20
56.9348783463
 30
0.0
  0
SPLINE
  5
293
100
AcDbEntity
  8
0
100
AcDbSpline
 62
7
  6
BYLAYER
 70
0
 71
3
 72
28
 73
24
 74
0
 42
0.0000001
 43
0.0000001
 44
0.0000000001
 40
0.0
 40
0.0
 40
0.0
 40
0.0
 40
0.021329098
 40
0.0428866739
 40
0.0648889103
 40
0.087530704
 40
0.1109768854
 40
0.1353607094
 40
0.187254797
 40
0.2149150587
 40
0.2437224237
 40
0.3046626035
 40
0.3697422387
 40
0.438331036
 40
0.5096087139
 40
0.5826239842
 40
0.6563464097
 40
0.7297145361
 40
0.8016819268
 40
0.871266416
 40
0.9375963875
 40
0.9693350078
 40
1.0
 40
1.0
 40
1.0
 40
1.0
 10
35.689326996
 20
57.7105357794
 30
0.0
 10
35.6893268916
 20
57.7991988296
 30
0.0
 10
35.6778964394
 20
57.9776812225
 30
0.0
 10
35.6265988751
 20
58.2431756125
 30
0.0
 10
35.541556406
 20
58.5056028106
 30
0.0
 10
35.4232736181
 20
58.7634045743
 30
0.0
 10
35.2725480277
 20
59.0152461766
 30
0.0
 10
35.0244049573
 20
59.3480363444
 30
0.0
 10
34.7177817432
 20
59.6560522446
 30
0.0
 10
34.3652026549
 20
59.9367758518
 30
0.0
 10
33.96204148
 20
60.2125612366
 30
0.0
 10
33.3950406941
 20
60.5209348786
 30
0.0
 10
32.6432766959
 20
60.8237882532
 30
0.0
 10
31.8233377409
 20
61.0600964897
 30
0.0
 10
30.9526648278
 20
61.2248804805
 30
0.0
 10
30.0497247633
 20
61.3146733317
 30
0.0
 10
29.133763469
 20
61.3275617091
 30
0.0
 10
28.2243270023
 20
61.2632717081
 30
0.0
 10
27.3407744634
 20
61.1231696284
 30
0.0
 10
26.5020021438
 20
60.9102360585
 30
0.0
 10
25.8454131936
 20
60.6723505289
 30
0.0
 10
25.3592126493
 20
60.4482145601
 30
0.0
 10
25.1302935572
 20
60.3257759516
 30
0.0
 10
25.0198998502
 20
60.2620404956
 30
0.0
  0
SPLINE
  5
294
100
AcDbEntity
  8
0
100
AcDbSpline
 62
7
  6
BYLAYER
 70
0
 71
3
 72
15
 73
11
 74
0
 42
0.0000001
 43
0.0000001
 44
0.0000000001
 40
0.0
 40
0.0
 40
0.0
 40
0.0
 40
0.1145548202
 40
0.2302436291
 40
0.3481465996
 40
0.4692404232
 40
0.5943589897
 40
0.7242032221
 40
0.8593218132
 40
1.0
 40
1.0
 40
1.0
 40
1.0
 10
37.7893271067
 20
56.240831429
 30
0.0
 10
37.7893271064
 20
56.354658908
 30
0.0
 10
37.7752315303
 20
56.5836849766
 30
0.0
 10
37.7119892327
 20
56.9245986706
 30
0.0
 10
37.6070604398
 20
57.2618850122
 30
0.0
 10
37.4610665982
 20
57.593713691
 30
0.0
 10
37.2748816028
 20
57.9184478643
 30
0.0
 10
37.0494984361
 20
58.2345134427
 30
0.0
 10
36.7861383314
 20
58.5402987579
 30
0.0
 10
36.5902220179
 20
58.7324174775
 30
0.0
 10
36.4867605115
 20
58.8264151241
 30
0.0
  0
SPLINE
  5
295
100
AcDbEntity
  8
0
100
AcDbSpline
 62
7
  6
BYLAYER
 70
0
 71
3
 72
15
 73
11
 74
0
 42
0.0000001
 43
0.0000001
 44
0.0000000001
 40
0.0
 40
0.0
 40
0.0
 40
0.0
 40
0.1406778591
 40
0.2757962216
 40
0.4056403317
 40
0.5307588797
 40
0.6518527803
 40
0.7697559084
 40
0.8854449332
 40
1.0
 40
1.0
 40
1.0
 40
1.0
 10
22.3918734626
 20
58.8263812441
 30
0.0
 10
22.2884148045
 20
58.7323844564
 30
0.0
 10
22.0925039203
 20
58.5402676131
 30
0.0
 10
21.829151291
 20
58.2344857523
 30
0.0
 10
21.6037745981
 20
57.9184240712
 30
0.0
 10
21.417595005
 20
57.5936941738
 30
0.0
 10
21.2716054382
 20
57.2618700846
 30
0.0
 10
21.1666797379
 20
56.9245885788
 30
0.0
 10
21.1034393152
 20
56.5836798858
 30
0.0
 10
21.0893441577
 20
56.3546572312
 30
0.0
 10
21.0893441581
 20
56.240831429
 30
0.0
  0
SPLINE
  5
296
100
AcDbEntity
  8
0
100
AcDbSpline
 62
7
  6
BYLAYER
 70
0
 71
3
 72
16
 73
12
 74
0
 42
0.0000001
 43
0.0000001
 44
0.0000000001
 40
0.0
 40
0.0
 40
0.0
 40
0.0
 40
0.148571225
 40
0.2894805763
 40
0.422682787
 40
0.5485900627
 40
0.6679373439
 40
0.7818631986
 40
0.8919013685
 40
0.9460798862
 40
1.0
 40
1.0
 40
1.0
 40
1.0
 10
25.0198998502
 20
60.2620404956
 30
0.0
 10
24.8789408427
 20
60.1806582605
 30
0.0
 10
24.6106656168
 20
60.0106143736
 30
0.0
 10
24.2438993644
 20
59.7267367862
 30
0.0
 10
23.9266662456
 20
59.4230809811
 30
0.0
 10
23.6621315515
 20
59.1024464611
 30
0.0
 10
23.4529901265
 20
58.767633324
 30
0.0
 10
23.3015963808
 20
58.4217924785
 30
0.0
 10
23.2247650206
 20
58.1253700539
 30
0.0
 10
23.1943898607
 20
57.8881010796
 30
0.0
 10
23.1893441991
 20
57.7696072327
 30
0.0
 10
23.1893442687
 20
57.7105357803
 30
0.0
  0
SPLINE
  5
297
100
AcDbEntity
  8
0
100
AcDbSpline
 62
7
  6
BYLAYER
 70
0
 71
3
 72
25
 73
21
 74
0
 42
0.0000001
 43
0.0000001
 44
0.0000000001
 40
0.0
 40
0.0
 40
0.0
 40
0.0
 40
0.0623731472
 40
0.128728048
 40
0.1983142965
 40
0.2702924517
 40
0.3436691482
 40
0.4174005707
 40
0.4904262446
 40
0.5617140822
 40
0.6303117052
 40
0.6953989143
 40
0.7563464804
 40
0.8127840572
 40
0.8646839837
 40
0.9124580541
 40
0.9351030159
 40
0.9571079433
 40
0.9786682911
 40
1.0
 40
1.0
 40
1.0
 40
1.0
 10
30.7828441102
 20
56.9348783463
 30
0.0
 10
30.7145918452
 20
56.8954731179
 30
0.0
 10
30.5682914917
 20
56.8233528843
 30
0.0
 10
30.3323161084
 20
56.7378295183
 30
0.0
 10
30.0772845766
 20
56.6731012235
 30
0.0
 10
29.8087026403
 20
56.630502387
 30
0.0
 10
29.5322306592
 20
56.610962205
 30
0.0
 10
29.2537794929
 20
56.614884379
 30
0.0
 10
28.9792837577
 20
56.6421778362
 30
0.0
 10
28.7145941079
 20
56.6922701295
 30
0.0
 10
28.4653392423
 20
56.7641094114
 30
0.0
 10
28.2367857021
 20
56.8561899224
 30
0.0
 10
28.0337333529
 20
56.9666227028
 30
0.0
 10
27.8604277458
 20
57.0932625523
 30
0.0
 10
27.7205892084
 20
57.2336655537
 30
0.0
 10
27.6330591749
 20
57.3624839115
 30
0.0
 10
27.5842652898
 20
57.4688324848
 30
0.0
 10
27.5584097047
 20
57.5486141287
 30
0.0
 10
27.5428276615
 20
57.6293247877
 30
0.0
 10
27.5393380978
 20
57.6835823662
 30
0.0
 10
27.5393378738
 20
57.71053578
 30
0.0
  0
SPLINE
  5
298
100
AcDbEntity
  8
0
100
AcDbSpline
 62
7
  6
BYLAYER
 70
0
 71
3
 72
11
 73
7
 74
0
 42
0.0000001
 43
0.0000001
 44
0.0000000001
 40
0.0
 40
0.0
 40
0.0
 40
0.0
 40
0.2755217852
 40
0.5337303489
 40
0.774654546
 40
1.0
 40
1.0
 40
1.0
 40
1.0
 10
28.0958271546
 20
57.8329912797
 30
0.0
 10
28.0439535787
 20
57.8030422355
 30
0.0
 10
27.9462703681
 20
57.7399256897
 30
0.0
 10
27.8160672316
 20
57.6324323202
 30
0.0
 10
27.7087504741
 20
57.5164603164
 30
0.0
 10
27.6518466371
 20
57.4319094578
 30
0.0
 10
27.6282597435
 20
57.3889713378
 30
0.0
  0
SPLINE
  5
299
100
AcDbEntity
  8
0
100
AcDbSpline
 62
7
  6
BYLAYER
 70
0
 71
3
 72
16
 73
12
 74
0
 42
0.0000001
 43
0.0000001
 44
0.0000000001
 40
0.0
 40
0.0
 40
0.0
 40
0.0
 40
0.0539198454
 40
0.1080981286
 40
0.2181358948
 40
0.3320616074
 40
0.4514089954
 40
0.5773163581
 40
0.7105188782
 40
0.8514287932
 40
1.0
 40
1.0
 40
1.0
 40
1.0
 10
35.6893269185
 20
56.2408314283
 30
0.0
 10
35.6893270672
 20
56.181760272
 30
0.0
 10
35.6842815866
 20
56.0632669585
 30
0.0
 10
35.6539059144
 20
55.8259990732
 30
0.0
 10
35.5770759649
 20
55.529577241
 30
0.0
 10
35.4256824903
 20
55.1837367263
 30
0.0
 10
35.2165411577
 20
54.8489235403
 30
0.0
 10
34.9520069119
 20
54.5282879483
 30
0.0
 10
34.6347730352
 20
54.2246313822
 30
0.0
 10
34.2680060208
 20
53.9407532965
 30
0.0
 10
33.9997303997
 20
53.7707089355
 30
0.0
 10
33.8587714145
 20
53.6893267133
 30
0.0
  0
SPLINE
  5
29A
100
AcDbEntity
  8
0
100
AcDbSpline
 62
7
  6
BYLAYER
 70
0
 71
3
 72
13
 73
9
 74
0
 42
0.0000001
 43
0.0000001
 44
0.0000000001
 40
0.0
 40
0.0
 40
0.0
 40
0.0
 40
0.2734758189
 40
0.5288871907
 40
0.6508414581
 40
0.7695819094
 40
0.8857306405
 40
1.0
 40
1.0
 40
1.0
 40
1.0
 10
36.4867978022
 20
53.6552816139
 30
0.0
 10
36.6612291371
 20
53.8137602322
 30
0.0
 10
36.979517938
 20
54.1423664622
 30
0.0
 10
37.3054244317
 20
54.6021835139
 30
0.0
 10
37.5045061527
 20
54.9811247155
 30
0.0
 10
37.6220020051
 20
55.2658259095
 30
0.0
 10
37.7093850266
 20
55.5542389989
 30
0.0
 10
37.7475802984
 20
55.7495179361
 30
0.0
 10
37.7614238618
 20
55.8470138069
 30
0.0
  0
SPLINE
  5
29B
100
AcDbEntity
  8
0
100
AcDbSpline
 62
7
  6
BYLAYER
 70
0
 71
3
 72
15
 73
11
 74
0
 42
0.0000001
 43
0.0000001
 44
0.0000000001
 40
0.0
 40
0.0
 40
0.0
 40
0.0
 40
0.1192530835
 40
0.243358334
 40
0.3708233628
 40
0.5000003825
 40
0.6291773519
 40
0.7566422315
 40
0.8807472403
 40
1.0
 40
1.0
 40
1.0
 40
1.0
 10
24.9609679649
 20
52.172035416
 30
0.0
 10
25.3015050274
 20
52.047100295
 30
0.0
 10
26.0099377933
 20
51.8278508971
 30
0.0
 10
27.1147552514
 20
51.5939842071
 30
0.0
 10
28.2654982952
 20
51.4517635458
 30
0.0
 10
29.4393702574
 20
51.4040567561
 30
0.0
 10
30.6132415393
 20
51.4517691479
 30
0.0
 10
31.7639825573
 20
51.5939953028
 30
0.0
 10
32.8687966838
 20
51.8278672707
 30
0.0
 10
33.577226588
 20
52.0471201382
 30
0.0
 10
33.9177619824
 20
52.1720569455
 30
0.0
  0
SPLINE
  5
29C
100
AcDbEntity
  8
0
100
AcDbSpline
 62
7
  6
BYLAYER
 70
0
 71
3
 72
13
 73
9
 74
0
 42
0.0000001
 43
0.0000001
 44
0.0000000001
 40
0.0
 40
0.0
 40
0.0
 40
0.0
 40
0.1142691123
 40
0.2304176379
 40
0.3491579462
 40
0.4711121486
 40
0.7265236585
 40
1.0
 40
1.0
 40
1.0
 40
1.0
 10
21.1172474806
 20
55.8470132582
 30
0.0
 10
21.1310912994
 20
55.7495157248
 30
0.0
 10
21.1692874473
 20
55.5542334416
 30
0.0
 10
21.2566727957
 20
55.2658155192
 30
0.0
 10
21.3741719871
 20
54.9811096623
 30
0.0
 10
21.5732596198
 20
54.6021623129
 30
0.0
 10
21.8991760628
 20
54.142338309
 30
0.0
 10
22.2174742773
 20
53.8137281078
 30
0.0
 10
22.3919107532
 20
53.655247734
 30
0.0
  0
SPLINE
  5
29D
100
AcDbEntity
  8
0
100
AcDbSpline
 62
7
  6
BYLAYER
 70
0
 71
3
 72
14
 73
10
 74
0
 42
0.0000001
 43
0.0000001
 44
0.0000000001
 40
0.0
 40
0.0
 40
0.0
 40
0.0
 40
0.1080578617
 40
0.2181536135
 40
0.3321483672
 40
0.4515529382
 40
0.7103677854
 40
0.8514074843
 40
1.0
 40
1.0
 40
1.0
 40
1.0
 10
27.5393378738
 20
57.71053578
 30
0.0
 10
27.5393375749
 20
57.7465039487
 30
0.0
 10
27.5455961334
 20
57.8192632723
 30
0.0
 10
27.5734564141
 20
57.9267394445
 30
0.0
 10
27.6195035812
 20
58.0318940764
 30
0.0
 10
27.7065348451
 20
58.1712636576
 30
0.0
 10
27.8269431211
 20
58.2979606987
 30
0.0
 10
27.9714249076
 20
58.4097371769
 30
0.0
 10
28.0529930028
 20
58.461463052
 30
0.0
 10
28.0958271546
 20
58.4861932134
 30
0.0
  0
SPLINE
  5
29E
100
AcDbEntity
  8
0
100
AcDbSpline
 62
7
  6
BYLAYER
 70
0
 71
3
 72
28
 73
24
 74
0
 42
0.0000001
 43
0.0000001
 44
0.0000000001
 40
0.0
 40
0.0
 40
0.0
 40
0.0
 40
0.0306649623
 40
0.0624034409
 40
0.1287330966
 40
0.1983173565
 40
0.2702846573
 40
0.3436529429
 40
0.4173756199
 40
0.4903910395
 40
0.5616687709
 40
0.6302576308
 40
0.6953373499
 40
0.7562775816
 40
0.7850849601
 40
0.812745222
 40
0.864639328
 40
0.8890231727
 40
0.9124693698
 40
0.9351111722
 40
0.9571133983
 40
0.9786709441
 40
1.0
 40
1.0
 40
1.0
 40
1.0
 10
33.8587714145
 20
53.6893267133
 30
0.0
 10
33.7483778158
 20
53.6255913197
 30
0.0
 10
33.5194594231
 20
53.5031529203
 30
0.0
 10
33.0332607037
 20
53.2790178344
 30
0.0
 10
32.3766745803
 20
53.0411329814
 30
0.0
 10
31.5379050401
 20
52.8281992309
 30
0.0
 10
30.6543532777
 20
52.6880965282
 30
0.0
 10
29.7449155377
 20
52.6238056407
 30
0.0
 10
28.8289519019
 20
52.6366935141
 30
0.0
 10
27.9260099228
 20
52.7264861986
 30
0.0
 10
27.055335881
 20
52.8912701582
 30
0.0
 10
26.2353960876
 20
53.1275784616
 30
0.0
 10
25.483631249
 20
53.4304319877
 30
0.0
 10
24.9166299872
 20
53.7388060203
 30
0.0
 10
24.5134684319
 20
54.0145913334
 30
0.0
 10
24.1608894125
 20
54.295315254
 30
0.0
 10
23.8542661654
 20
54.6033312993
 30
0.0
 10
23.6061227943
 20
54.9361215438
 30
0.0
 10
23.4553974002
 20
55.187963478
 30
0.0
 10
23.337114513
 20
55.4457652575
 30
0.0
 10
23.2520723161
 20
55.7081924054
 30
0.0
 10
23.2007748393
 20
55.9736864652
 30
0.0
 10
23.1893445696
 20
56.1521685551
 30
0.0
 10
23.1893443463
 20
56.2408314297
 30
0.0
  0
SPLINE
  5
29F
100
AcDbEntity
  8
0
100
AcDbSpline
 62
7
  6
BYLAYER
 70
0
 71
3
 72
28
 73
24
 74
0
 42
0.0000001
 43
0.0000001
 44
0.0000000001
 40
0.0
 40
0.0
 40
0.0
 40
0.0
 40
0.021329098
 40
0.0428866739
 40
0.0648889103
 40
0.087530704
 40
0.1109768854
 40
0.1353607094
 40
0.187254797
 40
0.2149150587
 40
0.2437224237
 40
0.3046626035
 40
0.3697422387
 40
0.438331036
 40
0.5096087139
 40
0.5826239842
 40
0.6563464097
 40
0.7297145361
 40
0.8016819268
 40
0.871266416
 40
0.9375963875
 40
0.9693350078
 40
1.0
 40
1.0
 40
1.0
 40
1.0
 10
23.1893442687
 20
57.7105357803
 30
0.0
 10
23.1893443732
 20
57.6218727301
 30
0.0
 10
23.2007748253
 20
57.4433903372
 30
0.0
 10
23.2520723897
 20
57.1778959472
 30
0.0
 10
23.3371148588
 20
56.9154687491
 30
0.0
 10
23.4553976467
 20
56.6576669854
 30
0.0
 10
23.606123237
 20
56.4058253831
 30
0.0
 10
23.8542663075
 20
56.0730352153
 30
0.0
 10
24.1608895216
 20
55.7650193151
 30
0.0
 10
24.5134686098
 20
55.4842957079
 30
0.0
 10
24.9166297848
 20
55.2085103231
 30
0.0
 10
25.4836305707
 20
54.9001366811
 30
0.0
 10
26.2353945688
 20
54.5972833065
 30
0.0
 10
27.0553335239
 20
54.36097507
 30
0.0
 10
27.9260064369
 20
54.1961910792
 30
0.0
 10
28.8289465014
 20
54.106398228
 30
0.0
 10
29.7449077957
 20
54.0935098506
 30
0.0
 10
30.6543442625
 20
54.1577998516
 30
0.0
 10
31.5378968014
 20
54.2979019313
 30
0.0
 10
32.3766691209
 20
54.5108355012
 30
0.0
 10
33.0332580712
 20
54.7487210308
 30
0.0
 10
33.5194586154
 20
54.9728569996
 30
0.0
 10
33.7483777076
 20
55.0952956081
 30
0.0
 10
33.8587714145
 20
55.1590310641
 30
0.0
  0
SPLINE
  5
2A0
100
AcDbEntity
  8
0
100
AcDbSpline
 62
7
  6
BYLAYER
 70
0
 71
3
 72
16
 73
12
 74
0
 42
0.0000001
 43
0.0000001
 44
0.0000000001
 40
0.0
 40
0.0
 40
0.0
 40
0.0
 40
0.148571225
 40
0.2894805763
 40
0.422682787
 40
0.5485900627
 40
0.6679373439
 40
0.7818631986
 40
0.8919013685
 40
0.9460798862
 40
1.0
 40
1.0
 40
1.0
 40
1.0
 10
33.8587714145
 20
55.1590310641
 30
0.0
 10
33.999730422
 20
55.2404132992
 30
0.0
 10
34.268005648
 20
55.4104571862
 30
0.0
 10
34.6347719004
 20
55.6943347735
 30
0.0
 10
34.9520050192
 20
55.9979905786
 30
0.0
 10
35.2165397133
 20
56.3186250986
 30
0.0
 10
35.4256811382
 20
56.6534382357
 30
0.0
 10
35.5770748839
 20
56.9992790812
 30
0.0
 10
35.6539062442
 20
57.2957015058
 30
0.0
 10
35.684281404
 20
57.5329704801
 30
0.0
 10
35.6893270656
 20
57.651464327
 30
0.0
 10
35.689326996
 20
57.7105357794
 30
0.0
  0
SPLINE
  5
2A1
100
AcDbEntity
  8
0
100
AcDbSpline
 62
7
  6
BYLAYER
 70
0
 71
3
 72
25
 73
21
 74
0
 42
0.0000001
 43
0.0000001
 44
0.0000000001
 40
0.0
 40
0.0
 40
0.0
 40
0.0
 40
0.0623731472
 40
0.128728048
 40
0.1983142965
 40
0.2702924517
 40
0.3436691482
 40
0.4174005707
 40
0.4904262446
 40
0.5617140822
 40
0.6303117052
 40
0.6953989143
 40
0.7563464804
 40
0.8127840572
 40
0.8646839837
 40
0.9124580541
 40
0.9351030159
 40
0.9571079433
 40
0.9786682911
 40
1.0
 40
1.0
 40
1.0
 40
1.0
 10
28.0958271546
 20
58.4861932134
 30
0.0
 10
28.1640794196
 20
58.5255984418
 30
0.0
 10
28.3103797731
 20
58.5977186754
 30
0.0
 10
28.5463551564
 20
58.6832420414
 30
0.0
 10
28.8013866881
 20
58.7479703362
 30
0.0
 10
29.0699686244
 20
58.7905691727
 30
0.0
 10
29.3464406056
 20
58.8101093547
 30
0.0
 10
29.6248917719
 20
58.8061871807
 30
0.0
 10
29.8993875071
 20
58.7788937235
 30
0.0
 10
30.1640771568
 20
58.7288014302
 30
0.0
 10
30.4133320225
 20
58.6569621483
 30
0.0
 10
30.6418855627
 20
58.5648816373
 30
0.0
 10
30.8449379119
 20
58.4544488569
 30
0.0
 10
31.0182435189
 20
58.3278090075
 30
0.0
 10
31.1580820563
 20
58.187406006
 30
0.0
 10
31.2456120899
 20
58.0585876482
 30
0.0
 10
31.2944059749
 20
57.9522390749
 30
0.0
 10
31.3202615601
 20
57.872457431
 30
0.0
 10
31.3358436032
 20
57.791746772
 30
0.0
 10
31.339333167
 20
57.7374891935
 30
0.0
 10
31.339333391
 20
57.7105357797
 30
0.0
  0
SPLINE
  5
2A2
100
AcDbEntity
  8
0
100
AcDbSpline
 62
7
  6
BYLAYER
 70
0
 71
3
 72
11
 73
7
 74
0
 42
0.0000001
 43
0.0000001
 44
0.0000000001
 40
0.0
 40
0.0
 40
0.0
 40
0.0
 40
0.2485741145
 40
0.499991377
 40
0.7514132687
 40
1.0
 40
1.0
 40
1.0
 40
1.0
 10
31.2214172644
 20
57.3540473415
 30
0.0
 10
30.9287261757
 20
57.3992271142
 30
0.0
 10
30.3361578476
 20
57.466749578
 30
0.0
 10
29.4407274758
 20
57.5004425973
 30
0.0
 10
28.5452743119
 20
57.4669572375
 30
0.0
 10
27.9526695997
 20
57.3995741459
 30
0.0
 10
27.6599525499
 20
57.3544640809
 30
0.0
  0
SPLINE
  5
2A3
100
AcDbEntity
  8
0
100
AcDbSpline
 62
7
  6
BYLAYER
 70
0
 71
3
 72
13
 73
9
 74
0
 42
0.0000001
 43
0.0000001
 44
0.0000000001
 40
0.0
 40
0.0
 40
0.0
 40
0.0
 40
0.2659769341
 40
0.5251852922
 40
0.6503575048
 40
0.77159226
 40
0.8882996875
 40
1.0
 40
1.0
 40
1.0
 40
1.0
 10
29.4393724784
 20
51.1313545922
 30
0.0
 10
30.015849457
 20
51.1313559779
 30
0.0
 10
31.1551160582
 20
51.1952724685
 30
0.0
 10
32.5476397235
 20
51.4359090913
 30
0.0
 10
33.6057396514
 20
51.7237084693
 30
0.0
 10
34.3503833542
 20
51.9804344987
 30
0.0
 10
35.048072978
 20
52.2778929617
 30
0.0
 10
35.4876885847
 20
52.5069231901
 30
0.0
 10
35.6973539251
 20
52.6279694825
 30
0.0
  0
SPLINE
  5
2A4
100
AcDbEntity
  8
0
100
AcDbSpline
 62
7
  6
BYLAYER
 70
0
 71
3
 72
13
 73
9
 74
0
 42
0.0000001
 43
0.0000001
 44
0.0000000001
 40
0.0
 40
0.0
 40
0.0
 40
0.0
 40
0.1116798938
 40
0.2284166979
 40
0.3496458487
 40
0.4748140097
 40
0.7340245056
 40
1.0
 40
1.0
 40
1.0
 40
1.0
 10
23.181466673
 20
52.6278706673
 30
0.0
 10
23.3910897358
 20
52.5068474735
 30
0.0
 10
23.8307482823
 20
52.2778767823
 30
0.0
 10
24.5284030519
 20
51.980352892
 30
0.0
 10
25.2730931492
 20
51.723662519
 30
0.0
 10
26.3311618369
 20
51.4358844592
 30
0.0
 10
27.7236580907
 20
51.1952617044
 30
0.0
 10
28.8629079268
 20
51.1313532065
 30
0.0
 10
29.4393724784
 20
51.1313545922
 30
0.0
  0
SPLINE
  5
2A5
100
AcDbEntity
  8
0
100
AcDbSpline
 62
7
  6
BYLAYER
 70
0
 71
3
 72
14
 73
10
 74
0
 42
0.0000001
 43
0.0000001
 44
0.0000000001
 40
0.0
 40
0.0
 40
0.0
 40
0.0
 40
0.2856866926
 40
0.4179486157
 40
0.5436058994
 40
0.6634198123
 40
0.7784584605
 40
0.8901095964
 40
1.0
 40
1.0
 40
1.0
 40
1.0
 10
23.1785535892
 20
52.6428196862
 30
0.0
 10
22.8620804466
 20
52.849891536
 30
0.0
 10
22.4207909955
 20
53.190674386
 30
0.0
 10
21.9257249527
 20
53.71454625
 30
0.0
 10
21.6248139038
 20
54.115455843
 30
0.0
 10
21.3874982241
 20
54.5310803303
 30
0.0
 10
21.2161635337
 20
54.9582956964
 30
0.0
 10
21.1125196741
 20
55.3933192338
 30
0.0
 10
21.0893546398
 20
55.6871048744
 30
0.0
 10
21.0893453138
 20
55.8325802207
 30
0.0
  0
SPLINE
  5
2A6
100
AcDbEntity
  8
0
100
AcDbSpline
 62
7
  6
BYLAYER
 70
0
 71
3
 72
14
 73
10
 74
0
 42
0.0000001
 43
0.0000001
 44
0.0000000001
 40
0.0
 40
0.0
 40
0.0
 40
0.0
 40
0.1080431444
 40
0.2181326404
 40
0.3321056638
 40
0.4514814971
 40
0.5774303852
 40
0.7107553626
 40
1.0
 40
1.0
 40
1.0
 40
1.0
 10
48.5598826004
 20
43.8300354813
 30
0.0
 10
48.5598836385
 20
43.7893351189
 30
0.0
 10
48.5528382178
 20
43.7069948089
 30
0.0
 10
48.5212483918
 20
43.5853913603
 30
0.0
 10
48.4691981624
 20
43.4663948637
 30
0.0
 10
48.397268339
 20
43.3512346364
 30
0.0
 10
48.306257992
 20
43.2409094784
 30
0.0
 10
48.1567072616
 20
43.0978139016
 30
0.0
 10
48.0245464028
 20
43.0067975248
 30
0.0
 10
47.9301842898
 20
42.9523178586
 30
0.0
  0
SPLINE
  5
2A7
100
AcDbEntity
  8
0
100
AcDbSpline
 62
7
  6
BYLAYER
 70
0
 71
3
 72
14
 73
10
 74
0
 42
0.0000001
 43
0.0000001
 44
0.0000000001
 40
0.0
 40
0.0
 40
0.0
 40
0.0
 40
0.1080431444
 40
0.2181326404
 40
0.3321056638
 40
0.4514814971
 40
0.5774303852
 40
0.7107553626
 40
1.0
 40
1.0
 40
1.0
 40
1.0
 10
31.5893905073
 20
34.0321757884
 30
0.0
 10
31.5893915454
 20
33.991475426
 30
0.0
 10
31.5823461247
 20
33.909135116
 30
0.0
 10
31.5507562986
 20
33.7875316674
 30
0.0
 10
31.4987060693
 20
33.6685351708
 30
0.0
 10
31.4267762458
 20
33.5533749435
 30
0.0
 10
31.3357658988
 20
33.4430497855
 30
0.0
 10
31.1862151685
 20
33.2999542086
 30
0.0
 10
31.0540543097
 20
33.2089378319
 30
0.0
 10
30.9596921966
 20
33.1544581657
 30
0.0
  0
SPLINE
  5
2A8
100
AcDbEntity
  8
0
100
AcDbSpline
 62
7
  6
BYLAYER
 70
0
 71
3
 72
12
 73
8
 74
0
 42
0.0000001
 43
0.0000001
 44
0.0000000001
 40
0.0
 40
0.0
 40
0.0
 40
0.0
 40
0.2548564345
 40
0.503934778
 40
0.7514770213
 40
0.8754143235
 40
1.0
 40
1.0
 40
1.0
 40
1.0
 10
7.2690326015
 20
31.1493993453
 30
0.0
 10
7.1919656926
 20
31.1938929393
 30
0.0
 10
7.04714097
 20
31.2963538697
 30
0.0
 10
6.8706484622
 20
31.4939212646
 30
0.0
 10
6.7731897897
 20
31.6911650271
 30
0.0
 10
6.7329557405
 20
31.860212205
 30
0.0
 10
6.726132197
 20
31.9471568363
 30
0.0
 10
6.726132197
 20
31.99065865
 30
0.0
  0
SPLINE
  5
2A9
100
AcDbEntity
  8
0
100
AcDbSpline
 62
7
  6
BYLAYER
 70
0
 71
3
 72
13
 73
9
 74
0
 42
0.0000001
 43
0.0000001
 44
0.0000000001
 40
0.0
 40
0.0
 40
0.0
 40
0.0
 40
0.2431637846
 40
0.3705652065
 40
0.5000102065
 40
0.6294542157
 40
0.7568528182
 40
1.0
 40
1.0
 40
1.0
 40
1.0
 10
28.4823243585
 20
18.9021767082
 30
0.0
 10
28.6219944665
 20
18.8215399584
 30
0.0
 10
28.8561324268
 20
18.7335881719
 30
0.0
 10
29.1830252358
 20
18.6759365137
 30
0.0
 10
29.4394488951
 20
18.6611321858
 30
0.0
 10
29.6958703986
 20
18.6759421909
 30
0.0
 10
30.022748293
 20
18.733600243
 30
0.0
 10
30.2568725674
 20
18.8215496603
 30
0.0
 10
30.3965325573
 20
18.9021819118
 30
0.0
  0
SPLINE
  5
2AA
100
AcDbEntity
  8
0
100
AcDbSpline
 62
7
  6
BYLAYER
 70
0
 71
3
 72
12
 73
8
 74
0
 42
0.0000001
 43
0.0000001
 44
0.0000000001
 40
0.0
 40
0.0
 40
0.0
 40
0.0
 40
0.1245855944
 40
0.248509433
 40
0.4960607137
 40
0.7451475046
 40
1.0
 40
1.0
 40
1.0
 40
1.0
 10
52.1525390678
 20
31.9907606305
 30
0.0
 10
52.1525390678
 20
31.9472592769
 30
0.0
 10
52.145721241
 20
31.8603195211
 30
0.0
 10
52.1054778492
 20
31.6912780814
 30
0.0
 10
52.008033316
 20
31.4940292035
 30
0.0
 10
51.8315344287
 20
31.2964625908
 30
0.0
 10
51.6867123118
 20
31.1939995524
 30
0.0
 10
51.6096476793
 20
31.1495065312
 30
0.0
  0
SPLINE
  5
2AB
100
AcDbEntity
  8
0
100
AcDbSpline
 62
7
  6
BYLAYER
 70
0
 71
3
 72
12
 73
8
 74
0
 42
0.0000001
 43
0.0000001
 44
0.0000000001
 40
0.0
 40
0.0
 40
0.0
 40
0.0
 40
0.1081697852
 40
0.218371964
 40
0.451322281
 40
0.7105133255
 40
1.0
 40
1.0
 40
1.0
 40
1.0
 10
52.152531583
 20
43.8300456789
 30
0.0
 10
52.1525315777
 20
43.8584442553
 30
0.0
 10
52.1475626344
 20
43.9158912638
 30
0.0
 10
52.1177466607
 20
44.0310518589
 30
0.0
 10
52.0411448976
 20
44.172304461
 30
0.0
 10
51.8984253591
 20
44.3221240151
 30
0.0
 10
51.7790139734
 20
44.4044120655
 30
0.0
 10
51.7131948236
 20
44.4424119097
 30
0.0
  0
SPLINE
  5
2AC
100
AcDbEntity
  8
0
100
AcDbSpline
 62
7
  6
BYLAYER
 70
0
 71
3
 72
22
 73
18
 74
0
 42
0.0000001
 43
0.0000001
 44
0.0000000001
 40
0.0
 40
0.0
 40
0.0
 40
0.0
 40
0.062381819
 40
0.1287711536
 40
0.1983767448
 40
0.270373488
 40
0.4173890991
 40
0.490433548
 40
0.5617415043
 40
0.6303610233
 40
0.6954679348
 40
0.7564347634
 40
0.8128902258
 40
0.8648051613
 40
0.9125944043
 40
0.9571819392
 40
1.0
 40
1.0
 40
1.0
 40
1.0
 10
30.9596921966
 20
33.1544581657
 30
0.0
 10
30.8824715148
 20
33.1098750504
 30
0.0
 10
30.716905644
 20
33.0282786244
 30
0.0
 10
30.4498918144
 20
32.9314780973
 30
0.0
 10
30.1612648392
 20
32.8582161402
 30
0.0
 10
29.7534010919
 20
32.7935979291
 30
0.0
 10
29.3336618243
 20
32.7820053992
 30
0.0
 10
28.9188572437
 20
32.8232457743
 30
0.0
 10
28.6193175072
 20
32.8799339848
 30
0.0
 10
28.337266116
 20
32.9612092383
 30
0.0
 10
28.0786387974
 20
33.0654185281
 30
0.0
 10
27.848862511
 20
33.1903823759
 30
0.0
 10
27.652752487
 20
33.3336707358
 30
0.0
 10
27.4945092366
 20
33.4926072334
 30
0.0
 10
27.377737441
 20
33.6643404944
 30
0.0
 10
27.3057746332
 20
33.8455050007
 30
0.0
 10
27.289423629
 20
33.9709729845
 30
0.0
 10
27.2894220679
 20
34.0321757875
 30
0.0
  0
SPLINE
  5
2AD
100
AcDbEntity
  8
0
100
AcDbSpline
 62
7
  6
BYLAYER
 70
0
 71
3
 72
13
 73
9
 74
0
 42
0.0000001
 43
0.0000001
 44
0.0000000001
 40
0.0
 40
0.0
 40
0.0
 40
0.0
 40
0.2893072232
 40
0.5483377861
 40
0.6677621071
 40
0.7817625478
 40
0.8918968242
 40
1.0
 40
1.0
 40
1.0
 40
1.0
 10
7.1654676092
 20
44.4423048302
 30
0.0
 10
7.0996496907
 20
44.4043050639
 30
0.0
 10
6.9802738228
 20
44.3221216064
 30
0.0
 10
6.8581593535
 20
44.1936948451
 30
0.0
 10
6.7894035354
 20
44.0836453318
 30
0.0
 10
6.7530975635
 20
44.0006258093
 30
0.0
 10
6.7311010265
 20
43.9157852504
 30
0.0
 10
6.7261396765
 20
43.8583419786
 30
0.0
 10
6.7261396818
 20
43.8299436984
 30
0.0
  0
SPLINE
  5
2AE
100
AcDbEntity
  8
0
100
AcDbSpline
 62
7
  6
BYLAYER
 70
0
 71
3
 72
16
 73
12
 74
0
 42
0.0000001
 43
0.0000001
 44
0.0000000001
 40
0.0
 40
0.0
 40
0.0
 40
0.0
 40
0.1570153845
 40
0.3065556416
 40
0.4467559898
 40
0.5763728863
 40
0.6950350583
 40
0.8035006882
 40
0.9038992871
 40
0.952242732
 40
1.0
 40
1.0
 40
1.0
 40
1.0
 10
11.8163067688
 20
42.647212039
 30
0.0
 10
11.7106056635
 20
42.6666433353
 30
0.0
 10
11.505867444
 20
42.714425493
 30
0.0
 10
11.216374939
 20
42.8147439033
 30
0.0
 10
10.9572784946
 20
42.9400117498
 30
0.0
 10
10.7348328919
 20
43.0873968433
 30
0.0
 10
10.5543862793
 20
43.2537549706
 30
0.0
 10
10.4205665525
 20
43.4355964916
 30
0.0
 10
10.350659044
 20
43.5993559422
 30
0.0
 10
10.3233111514
 20
43.7313948878
 30
0.0
 10
10.3187894981
 20
43.7972654797
 30
0.0
 10
10.3187886644
 20
43.829953896
 30
0.0
  0
SPLINE
  5
2AF
100
AcDbEntity
  8
0
100
AcDbSpline
 62
7
  6
BYLAYER
 70
0
 71
3
 72
15
 73
11
 74
0
 42
0.0000001
 43
0.0000001
 44
0.0000000001
 40
0.0
 40
0.0
 40
0.0
 40
0.0
 40
0.1080124495
 40
0.2180620536
 40
0.3319994798
 40
0.4513572193
 40
0.5772780622
 40
0.7104994083
 40
0.8513950056
 40
1.0
 40
1.0
 40
1.0
 40
1.0
 10
38.7893173119
 20
55.8325802205
 30
0.0
 10
38.7893173104
 20
56.009582468
 30
0.0
 10
38.7586043188
 20
56.367646503
 30
0.0
 10
38.6213813727
 20
56.8965097425
 30
0.0
 10
38.3949248706
 20
57.413985724
 30
0.0
 10
38.0820741009
 20
57.9148380631
 30
0.0
 10
37.6863103668
 20
58.3944916672
 30
0.0
 10
37.2117899422
 20
58.8487473433
 30
0.0
 10
36.6631330883
 20
59.2734284148
 30
0.0
 10
36.2618168631
 20
59.5278039955
 30
0.0
 10
36.0509181463
 20
59.6495608929
 30
0.0
  0
SPLINE
  5
2B0
100
AcDbEntity
  8
0
100
AcDbSpline
 62
7
  6
BYLAYER
 70
0
 71
3
 72
10
 73
6
 74
0
 42
0.0000001
 43
0.0000001
 44
0.0000000001
 40
0.0
 40
0.0
 40
0.0
 40
0.0
 40
0.232936713
 40
0.4786551182
 40
1.0
 40
1.0
 40
1.0
 40
1.0
 10
47.9301842898
 20
42.9523178586
 30
0.0
 10
47.8672849374
 20
42.9160031174
 30
0.0
 10
47.7339439872
 20
42.8482948913
 30
0.0
 10
47.4438230347
 20
42.7332765075
 30
0.0
 10
47.2107234852
 20
42.6740072382
 30
0.0
 10
47.0507445077
 20
42.6451790275
 30
0.0
  0
SPLINE
  5
2B1
100
AcDbEntity
  8
0
100
AcDbSpline
 62
7
  6
BYLAYER
 70
0
 71
3
 72
15
 73
11
 74
0
 42
0.0000001
 43
0.0000001
 44
0.0000000001
 40
0.0
 40
0.0
 40
0.0
 40
0.0
 40
0.1486049948
 40
0.2895005918
 40
0.4227219378
 40
0.5486427811
 40
0.6680005201
 40
0.7819379466
 40
0.8919875506
 40
1.0
 40
1.0
 40
1.0
 40
1.0
 10
22.8277531205
 20
59.6495608918
 30
0.0
 10
22.6168544033
 20
59.5278039935
 30
0.0
 10
22.2155381741
 20
59.2734284185
 30
0.0
 10
21.6668813239
 20
58.8487473413
 30
0.0
 10
21.192360899
 20
58.3944916662
 30
0.0
 10
20.7965971594
 20
57.9148380659
 30
0.0
 10
20.4837463999
 20
57.4139857208
 30
0.0
 10
20.2572898857
 20
56.8965097445
 30
0.0
 10
20.1200669524
 20
56.3676465018
 30
0.0
 10
20.0893539514
 20
56.0095824679
 30
0.0
 10
20.0893539528
 20
55.8325802205
 30
0.0
  0
SPLINE
  5
2B2
100
AcDbEntity
  8
0
100
AcDbSpline
 62
7
  6
BYLAYER
 70
0
 71
3
 72
13
 73
9
 74
0
 42
0.0000001
 43
0.0000001
 44
0.0000000001
 40
0.0
 40
0.0
 40
0.0
 40
0.0
 40
0.1120491978
 40
0.2288745873
 40
0.3499767379
 40
0.4748840755
 40
0.7336326502
 40
1.0
 40
1.0
 40
1.0
 40
1.0
 10
35.6972045917
 20
59.8537921908
 30
0.0
 10
35.5020035158
 20
59.966489035
 30
0.0
 10
35.0938227882
 20
60.1806025896
 30
0.0
 10
34.4479073799
 20
60.4619679729
 30
0.0
 10
33.7602152902
 20
60.7080976602
 30
0.0
 10
32.7841234372
 20
60.9897878611
 30
0.0
 10
31.4975222844
 20
61.2392557124
 30
0.0
 10
30.4425564981
 20
61.3267763786
 30
0.0
 10
29.9069838987
 20
61.3431558114
 30
0.0
  0
SPLINE
  5
2B3
100
AcDbEntity
  8
0
100
AcDbSpline
 62
7
  6
BYLAYER
 70
0
 71
3
 72
15
 73
11
 74
0
 42
0.0000001
 43
0.0000001
 44
0.0000000001
 40
0.0
 40
0.0
 40
0.0
 40
0.0
 40
0.1098262311
 40
0.2214190366
 40
0.3364083458
 40
0.4561784751
 40
0.5818153032
 40
0.7140742583
 40
0.8534138291
 40
1.0
 40
1.0
 40
1.0
 40
1.0
 10
37.789325951
 20
55.8325802202
 30
0.0
 10
37.7893352929
 20
55.6868582973
 30
0.0
 10
37.7660511771
 20
55.3925665949
 30
0.0
 10
37.6620945553
 20
54.9567988109
 30
0.0
 10
37.4901259957
 20
54.5289230896
 30
0.0
 10
37.2520804167
 20
54.112617171
 30
0.0
 10
36.950129945
 20
53.711220218
 30
0.0
 10
36.5870670651
 20
53.3277345063
 30
0.0
 10
36.1658915248
 20
52.9652280256
 30
0.0
 10
35.8564270063
 20
52.7448019658
 30
0.0
 10
35.6935485282
 20
52.6385028873
 30
0.0
  0
SPLINE
  5
2B4
100
AcDbEntity
  8
0
100
AcDbSpline
 62
7
  6
BYLAYER
 70
0
 71
3
 72
11
 73
7
 74
0
 42
0.0000001
 43
0.0000001
 44
0.0000000001
 40
0.0
 40
0.0
 40
0.0
 40
0.0
 40
0.2895368706
 40
0.5491085983
 40
0.7822509632
 40
1.0
 40
1.0
 40
1.0
 40
1.0
 10
28.3787681978
 20
19.1310697823
 30
0.0
 10
28.3787681978
 20
19.105750449
 30
0.0
 10
28.3826326186
 20
19.0575721991
 30
0.0
 10
28.4021088659
 20
18.9913662763
 30
0.0
 10
28.4349602411
 20
18.9376233108
 30
0.0
 10
28.4658453258
 20
18.9117174923
 30
0.0
 10
28.4823359725
 20
18.9021968254
 30
0.0
  0
SPLINE
  5
2B5
100
AcDbEntity
  8
0
100
AcDbSpline
 62
7
  6
BYLAYER
 70
0
 71
3
 72
15
 73
11
 74
0
 42
0.0000001
 43
0.0000001
 44
0.0000000001
 40
0.0
 40
0.0
 40
0.0
 40
0.0
 40
0.1141216057
 40
0.2373437884
 40
0.3669699918
 40
0.4999994786
 40
0.633029038
 40
0.7626554531
 40
0.8858779697
 40
1.0
 40
1.0
 40
1.0
 40
1.0
 10
30.5000885393
 20
19.1310748828
 30
0.0
 10
30.4274992501
 20
19.0891656872
 30
0.0
 10
30.2687005701
 20
19.0152526462
 30
0.0
 10
30.0101623952
 20
18.9366206127
 30
0.0
 10
29.7302040154
 20
18.8882765633
 30
0.0
 10
29.4394301563
 20
18.8719262401
 30
0.0
 10
29.1486560646
 20
18.8882751832
 30
0.0
 10
28.868696998
 20
18.9366179032
 30
0.0
 10
28.6101577097
 20
19.0152487077
 30
0.0
 10
28.4513580571
 20
19.0891609557
 30
0.0
 10
28.3787681955
 20
19.1310697836
 30
0.0
  0
SPLINE
  5
2B6
100
AcDbEntity
  8
0
100
AcDbSpline
 62
7
  6
BYLAYER
 70
0
 71
3
 72
16
 73
12
 74
0
 42
0.0000001
 43
0.0000001
 44
0.0000000001
 40
0.0
 40
0.0
 40
0.0
 40
0.0
 40
0.1421684387
 40
0.2824777583
 40
0.4190805314
 40
0.5503589978
 40
0.674897081
 40
0.7916384708
 40
0.8469069908
 40
0.9000501572
 40
1.0
 40
1.0
 40
1.0
 40
1.0
 10
29.4393745601
 20
50.4344323759
 30
0.0
 10
29.8788057043
 20
50.4344334322
 30
0.0
 10
30.7523474576
 20
50.4699124601
 30
0.0
 10
32.039368877
 20
50.6287568352
 30
0.0
 10
33.2753644256
 20
50.8901245788
 30
0.0
 10
34.4360021318
 20
51.2488028839
 30
0.0
 10
35.4985780213
 20
51.6979417617
 30
0.0
 10
36.2996049536
 20
52.148577733
 30
0.0
 10
36.8698038728
 20
52.5485473567
 30
0.0
 10
37.3700066076
 20
52.9546553625
 30
0.0
 10
37.7037284637
 20
53.2941121495
 30
0.0
 10
37.8989589831
 20
53.533542807
 30
0.0
  0
SPLINE
  5
2B7
100
AcDbEntity
  8
0
100
AcDbSpline
 62
7
  6
BYLAYER
 70
0
 71
3
 72
12
 73
8
 74
0
 42
0.0000001
 43
0.0000001
 44
0.0000000001
 40
0.0
 40
0.0
 40
0.0
 40
0.0
 40
0.2674077912
 40
0.5203930648
 40
0.7628513876
 40
0.8817805619
 40
1.0
 40
1.0
 40
1.0
 40
1.0
 10
37.8989589831
 20
53.533542807
 30
0.0
 10
38.0404968653
 20
53.7071248285
 30
0.0
 10
38.2935331447
 20
54.0643349866
 30
0.0
 10
38.5777582269
 20
54.6396531614
 30
0.0
 10
38.7226811968
 20
55.1366874197
 30
0.0
 10
38.7798317049
 20
55.534792915
 30
0.0
 10
38.7893173127
 20
55.733563264
 30
0.0
 10
38.7893173119
 20
55.8325802205
 30
0.0
  0
SPLINE
  5
2B8
100
AcDbEntity
  8
0
100
AcDbSpline
 62
7
  6
BYLAYER
 70
0
 71
3
 72
10
 73
6
 74
0
 42
0.0000001
 43
0.0000001
 44
0.0000000001
 40
0.0
 40
0.0
 40
0.0
 40
0.0
 40
0.2411144641
 40
0.4860913638
 40
1.0
 40
1.0
 40
1.0
 40
1.0
 10
10.3187886644
 20
43.829953896
 30
0.0
 10
10.3187877116
 20
43.8673049988
 30
0.0
 10
10.3247142844
 20
43.9427521315
 30
0.0
 10
10.3606101051
 20
44.0939110056
 30
0.0
 10
10.4134415118
 20
44.2011334501
 30
0.0
 10
10.456964395
 20
44.2677927759
 30
0.0
  0
SPLINE
  5
2B9
100
AcDbEntity
  8
0
100
AcDbSpline
 62
7
  6
BYLAYER
 70
0
 71
3
 72
13
 73
9
 74
0
 42
0.0000001
 43
0.0000001
 44
0.0000000001
 40
0.0
 40
0.0
 40
0.0
 40
0.0
 40
0.2893046904
 40
0.5483332376
 40
0.6677587623
 40
0.7817604793
 40
0.8918958913
 40
1.0
 40
1.0
 40
1.0
 40
1.0
 10
7.1654764411
 20
31.3782924192
 30
0.0
 10
7.0996575913
 20
31.4162920902
 30
0.0
 10
6.9802787129
 20
31.4984738609
 30
0.0
 10
6.8581611424
 20
31.6269008623
 30
0.0
 10
6.7894008054
 20
31.7369505578
 30
0.0
 10
6.7530925171
 20
31.8199720117
 30
0.0
 10
6.7310940738
 20
31.9048146861
 30
0.0
 10
6.7261321956
 20
31.9622595925
 30
0.0
 10
6.726132197
 20
31.99065865
 30
0.0
  0
SPLINE
  5
2BA
100
AcDbEntity
  8
0
100
AcDbSpline
 62
7
  6
BYLAYER
 70
0
 71
3
 72
10
 73
6
 74
0
 42
0.0000001
 43
0.0000001
 44
0.0000000001
 40
0.0
 40
0.0
 40
0.0
 40
0.0
 40
0.2411144641
 40
0.4860913638
 40
1.0
 40
1.0
 40
1.0
 40
1.0
 10
27.2894220679
 20
34.0321757875
 30
0.0
 10
27.2894211152
 20
34.0695268903
 30
0.0
 10
27.2953476879
 20
34.144974023
 30
0.0
 10
27.3312435086
 20
34.2961328971
 30
0.0
 10
27.3840749154
 20
34.4033553416
 30
0.0
 10
27.4275977986
 20
34.4700146674
 30
0.0
  0
SPLINE
  5
2BB
100
AcDbEntity
  8
0
100
AcDbSpline
 62
7
  6
BYLAYER
 70
0
 71
3
 72
9
 73
5
 74
0
 42
0.0000001
 43
0.0000001
 44
0.0000000001
 40
0.0
 40
0.0
 40
0.0
 40
0.0
 40
0.2478758841
 40
1.0
 40
1.0
 40
1.0
 40
1.0
 10
7.2690442158
 20
31.1494194623
 30
0.0
 10
7.2652313652
 20
31.1516207635
 30
0.0
 10
7.2502006734
 20
31.1611011237
 30
0.0
 10
7.2367085256
 20
31.172985657
 30
0.0
 10
7.2277277154
 20
31.1828753642
 30
0.0
  0
SPLINE
  5
2BC
100
AcDbEntity
  8
0
100
AcDbSpline
 62
7
  6
BYLAYER
 70
0
 71
3
 72
11
 73
7
 74
0
 42
0.0000001
 43
0.0000001
 44
0.0000000001
 40
0.0
 40
0.0
 40
0.0
 40
0.0
 40
0.2204811653
 40
0.458551267
 40
0.7182988132
 40
1.0
 40
1.0
 40
1.0
 40
1.0
 10
7.2277277154
 20
31.1828753642
 30
0.0
 10
7.2173807851
 20
31.1942694489
 30
0.0
 10
7.1988329446
 20
31.2207753794
 30
0.0
 10
7.1794242234
 20
31.2673420004
 30
0.0
 10
7.1678651557
 20
31.3207665228
 30
0.0
 10
7.1654764411
 20
31.3586278169
 30
0.0
 10
7.1654764411
 20
31.3782924192
 30
0.0
  0
SPLINE
  5
2BD
100
AcDbEntity
  8
0
100
AcDbSpline
 62
7
  6
BYLAYER
 70
0
 71
3
 72
14
 73
10
 74
0
 42
0.0000001
 43
0.0000001
 44
0.0000000001
 40
0.0
 40
0.0
 40
0.0
 40
0.0
 40
0.1439785118
 40
0.2819392741
 40
0.5400504616
 40
0.6611483027
 40
0.7776067703
 40
0.8902294745
 40
1.0
 40
1.0
 40
1.0
 40
1.0
 10
20.0344308649
 20
52.3396904257
 30
0.0
 10
19.8287521881
 20
52.2040618676
 30
0.0
 10
19.4349637385
 20
51.9243081982
 30
0.0
 10
18.7245880917
 20
51.3325043879
 30
0.0
 10
18.1150839168
 20
50.6825962977
 30
0.0
 10
17.63521268
 20
49.9815862999
 30
0.0
 10
17.351833847
 20
49.4521031909
 30
0.0
 10
17.1394215889
 20
48.911147039
 30
0.0
 10
17.0451785122
 20
48.5411850512
 30
0.0
 10
17.0108188994
 20
48.356518656
 30
0.0
  0
SPLINE
  5
2BE
100
AcDbEntity
  8
0
100
AcDbSpline
 62
7
  6
BYLAYER
 70
0
 71
3
 72
19
 73
15
 74
0
 42
0.0000001
 43
0.0000001
 44
0.0000000001
 40
0.0
 40
0.0
 40
0.0
 40
0.0
 40
0.1569560792
 40
0.307245726
 40
0.4484974584
 40
0.5790172768
 40
0.6400229926
 40
0.6981552369
 40
0.7535239208
 40
0.8063348413
 40
0.8569091533
 40
0.9056749315
 40
0.9531674168
 40
1.0
 40
1.0
 40
1.0
 40
1.0
 10
27.4247440237
 20
42.314549735
 30
0.0
 10
26.9178927589
 20
42.3791212874
 30
0.0
 10
25.9311190808
 20
42.5546662188
 30
0.0
 10
24.5262818565
 20
42.963138834
 30
0.0
 10
23.2584223432
 20
43.5015365915
 30
0.0
 10
22.3243044076
 20
44.0591104139
 30
0.0
 10
21.6830296515
 20
44.5598929005
 30
0.0
 10
21.2679946997
 20
44.9490444439
 30
0.0
 10
20.9110078548
 20
45.3573799728
 30
0.0
 10
20.6148386783
 20
45.7822812589
 30
0.0
 10
20.3816648547
 20
46.2207321008
 30
0.0
 10
20.2136080175
 20
46.6697807416
 30
0.0
 10
20.112023132
 20
47.1259200945
 30
0.0
 10
20.0893623587
 20
47.4334490939
 30
0.0
 10
20.0893629345
 20
47.585905801
 30
0.0
  0
SPLINE
  5
2BF
100
AcDbEntity
  8
0
100
AcDbSpline
 62
7
  6
BYLAYER
 70
0
 71
3
 72
11
 73
7
 74
0
 42
0.0000001
 43
0.0000001
 44
0.0000000001
 40
0.0
 40
0.0
 40
0.0
 40
0.0
 40
0.2177498847
 40
0.4508926469
 40
0.7104640923
 40
1.0
 40
1.0
 40
1.0
 40
1.0
 10
30.3965209428
 20
18.9022020287
 30
0.0
 10
30.4130115659
 20
18.9117228394
 30
0.0
 10
30.4438965605
 20
18.9376288279
 30
0.0
 10
30.4767478864
 20
18.9913718185
 30
0.0
 10
30.496224114
 20
19.0575775808
 30
0.0
 10
30.5000885391
 20
19.1057556638
 30
0.0
 10
30.5000885391
 20
19.1310748826
 30
0.0
  0
SPLINE
  5
2C0
100
AcDbEntity
  8
0
100
AcDbSpline
 62
7
  6
BYLAYER
 70
0
 71
3
 72
16
 73
12
 74
0
 42
0.0000001
 43
0.0000001
 44
0.0000000001
 40
0.0
 40
0.0
 40
0.0
 40
0.0
 40
0.1485676571
 40
0.2894810567
 40
0.4226834269
 40
0.548589163
 40
0.6679371918
 40
0.7818631223
 40
0.8919010006
 40
0.9460798465
 40
1.0
 40
1.0
 40
1.0
 40
1.0
 10
39.1620943531
 20
42.7890978499
 30
0.0
 10
39.4721966376
 20
42.9681344186
 30
0.0
 10
40.0623994665
 20
43.3422367532
 30
0.0
 10
40.8692914155
 20
43.9667607449
 30
0.0
 10
41.5672124025
 20
44.6348053028
 30
0.0
 10
42.1491741477
 20
45.3402107034
 30
0.0
 10
42.6092941719
 20
46.0767899307
 30
0.0
 10
42.942370625
 20
46.8376395692
 30
0.0
 10
43.1113694675
 20
47.4897750717
 30
0.0
 10
43.1782217486
 20
48.0117628839
 30
0.0
 10
43.1893205608
 20
48.272450951
 30
0.0
 10
43.1893159632
 20
48.4024082064
 30
0.0
  0
SPLINE
  5
2C1
100
AcDbEntity
  8
0
100
AcDbSpline
 62
7
  6
BYLAYER
 70
0
 71
3
 72
16
 73
12
 74
0
 42
0.0000001
 43
0.0000001
 44
0.0000000001
 40
0.0
 40
0.0
 40
0.0
 40
0.0
 40
0.1464025706
 40
0.2855999243
 40
0.4177715515
 40
0.4813827565
 40
0.5434344512
 40
0.6632357942
 40
0.7783086253
 40
0.8900267606
 40
1.0
 40
1.0
 40
1.0
 40
1.0
 10
38.8442331166
 20
53.1561976476
 30
0.0
 10
39.0849551021
 20
52.9974611282
 30
0.0
 10
39.5422875605
 20
52.668508401
 30
0.0
 10
40.1643807685
 20
52.1281553225
 30
0.0
 10
40.616914088
 20
51.646113995
 30
0.0
 10
40.9316943886
 20
51.2472824966
 30
0.0
 10
41.2082804988
 20
50.8504786854
 30
0.0
 10
41.4978021695
 20
50.340323946
 30
0.0
 10
41.7515412446
 20
49.7041326553
 30
0.0
 10
41.9050097241
 20
49.0563806429
 30
0.0
 10
41.9393107362
 20
48.6190063553
 30
0.0
 10
41.939310912
 20
48.4024082242
 30
0.0
  0
SPLINE
  5
2C2
100
AcDbEntity
  8
0
100
AcDbSpline
 62
7
  6
BYLAYER
 70
0
 71
3
 72
13
 73
9
 74
0
 42
0.0000001
 43
0.0000001
 44
0.0000000001
 40
0.0
 40
0.0
 40
0.0
 40
0.0
 40
0.1081043534
 40
0.2182399707
 40
0.3322418252
 40
0.4516674016
 40
0.7106957836
 40
1.0
 40
1.0
 40
1.0
 40
1.0
 10
52.1525390678
 20
31.9907606305
 30
0.0
 10
52.1525390664
 20
31.9623618753
 30
0.0
 10
52.1475772961
 20
31.9049175947
 30
0.0
 10
52.1255793305
 20
31.8200758121
 30
0.0
 10
52.0892718098
 20
31.7370551917
 30
0.0
 10
52.0205129374
 20
31.6270065553
 30
0.0
 10
51.898397888
 20
31.4985805513
 30
0.0
 10
51.7790212749
 20
31.4163990925
 30
0.0
 10
51.7132036566
 20
31.3783994994
 30
0.0
  0
SPLINE
  5
2C3
100
AcDbEntity
  8
0
100
AcDbSpline
 62
7
  6
BYLAYER
 70
0
 71
3
 72
12
 73
8
 74
0
 42
0.0000001
 43
0.0000001
 44
0.0000000001
 40
0.0
 40
0.0
 40
0.0
 40
0.0
 40
0.1081697852
 40
0.218371964
 40
0.451322281
 40
0.7105133255
 40
1.0
 40
1.0
 40
1.0
 40
1.0
 10
6.7261396818
 20
43.8299436984
 30
0.0
 10
6.726139687
 20
43.801545122
 30
0.0
 10
6.7311086303
 20
43.7440981135
 30
0.0
 10
6.760924604
 20
43.6289375184
 30
0.0
 10
6.8375263672
 20
43.4876849163
 30
0.0
 10
6.9802459057
 20
43.3378653622
 30
0.0
 10
7.0996572913
 20
43.2555773118
 30
0.0
 10
7.1654764411
 20
43.2175774676
 30
0.0
  0
SPLINE
  5
2C4
100
AcDbEntity
  8
0
100
AcDbSpline
 62
7
  6
BYLAYER
 70
0
 71
3
 72
15
 73
11
 74
0
 42
0.0000001
 43
0.0000001
 44
0.0000000001
 40
0.0
 40
0.0
 40
0.0
 40
0.0
 40
0.1141236058
 40
0.2373475862
 40
0.3669728832
 40
0.5000004526
 40
0.6330279586
 40
0.7626530685
 40
0.8858767805
 40
1.0
 40
1.0
 40
1.0
 40
1.0
 10
28.3787681955
 20
30.970354832
 30
0.0
 10
28.4513589801
 20
30.9284454711
 30
0.0
 10
28.6101614095
 20
30.8545341827
 30
0.0
 10
28.8687020301
 20
30.7759041256
 30
0.0
 10
29.1486600094
 20
30.7275639111
 30
0.0
 10
29.4394300099
 20
30.7112159606
 30
0.0
 10
29.7301997974
 20
30.7275652579
 30
0.0
 10
30.010157169
 20
30.7759067816
 30
0.0
 10
30.268696765
 20
30.8545380987
 30
0.0
 10
30.4274983025
 20
30.9284501885
 30
0.0
 10
30.5000885391
 20
30.970359931
 30
0.0
  0
SPLINE
  5
2C5
100
AcDbEntity
  8
0
100
AcDbSpline
 62
7
  6
BYLAYER
 70
0
 71
3
 72
9
 73
5
 74
0
 42
0.0000001
 43
0.0000001
 44
0.0000000001
 40
0.0
 40
0.0
 40
0.0
 40
0.0
 40
0.5108717254
 40
1.0
 40
1.0
 40
1.0
 40
1.0
 10
31.4894718142
 20
34.4061972964
 30
0.0
 10
31.5213714731
 20
34.3478991111
 30
0.0
 10
31.5716857916
 20
34.226423136
 30
0.0
 10
31.5893888843
 20
34.0958023633
 30
0.0
 10
31.5893905073
 20
34.0321757884
 30
0.0
  0
SPLINE
  5
2C6
100
AcDbEntity
  8
0
100
AcDbSpline
 62
7
  6
BYLAYER
 70
0
 71
3
 72
21
 73
17
 74
0
 42
0.0000001
 43
0.0000001
 44
0.0000000001
 40
0.0
 40
0.0
 40
0.0
 40
0.0
 40
0.15292935
 40
0.2276814727
 40
0.3008796695
 40
0.4414986516
 40
0.5085116263
 40
0.5730645277
 40
0.6350343885
 40
0.6943513526
 40
0.7510135044
 40
0.8050903603
 40
0.8567326006
 40
0.9061919958
 40
0.9538153679
 40
1.0
 40
1.0
 40
1.0
 40
1.0
 10
27.434392194
 20
39.7323028837
 30
0.0
 10
26.7077769332
 20
39.7941525106
 30
0.0
 10
25.6292426608
 20
39.9368537236
 30
0.0
 10
24.2244931582
 20
40.2311680649
 30
0.0
 10
22.893655664
 20
40.5826573777
 30
0.0
 10
21.6269065039
 20
41.0276863172
 30
0.0
 10
20.4465519379
 20
41.5691894382
 30
0.0
 10
19.6340271619
 20
42.0083379963
 30
0.0
 10
18.8853964089
 20
42.4840113839
 30
0.0
 10
18.2055454088
 20
42.9933148789
 30
0.0
 10
17.5988907103
 20
43.5329852987
 30
0.0
 10
17.0694578185
 20
44.099675468
 30
0.0
 10
16.6207887771
 20
44.6898381128
 30
0.0
 10
16.2559762393
 20
45.2998942059
 30
0.0
 10
15.9779402809
 20
45.9257722763
 30
0.0
 10
15.8501512555
 20
46.3560898711
 30
0.0
 10
15.8021626339
 20
46.5710290888
 30
0.0
  0
SPLINE
  5
2C7
100
AcDbEntity
  8
0
100
AcDbSpline
 62
7
  6
BYLAYER
 70
0
 71
3
 72
16
 73
12
 74
0
 42
0.0000001
 43
0.0000001
 44
0.0000000001
 40
0.0
 40
0.0
 40
0.0
 40
0.0
 40
0.1099764648
 40
0.2216973585
 40
0.3367721657
 40
0.4565743588
 40
0.518626079
 40
0.5822369446
 40
0.7144069689
 40
0.8536014049
 40
1.0
 40
1.0
 40
1.0
 40
1.0
 10
16.9393603528
 20
48.4024082249
 30
0.0
 10
16.939360177
 20
48.6189739787
 30
0.0
 10
16.9736520074
 20
49.0562815365
 30
0.0
 10
17.1270726323
 20
49.7039380354
 30
0.0
 10
17.3807377861
 20
50.3400382391
 30
0.0
 10
17.6701736218
 20
50.8501271447
 30
0.0
 10
17.9466813582
 20
51.2468814261
 30
0.0
 10
18.2613695442
 20
51.6456649974
 30
0.0
 10
18.7137733649
 20
52.1276523658
 30
0.0
 10
19.3356909663
 20
52.6679571907
 30
0.0
 10
19.7928989379
 20
52.996887118
 30
0.0
 10
20.0335554641
 20
53.1556150267
 30
0.0
  0
SPLINE
  5
2C8
100
AcDbEntity
  8
0
100
AcDbSpline
 62
7
  6
BYLAYER
 70
0
 71
3
 72
14
 73
10
 74
0
 42
0.0000001
 43
0.0000001
 44
0.0000000001
 40
0.0
 40
0.0
 40
0.0
 40
0.0
 40
0.1097734836
 40
0.2223984022
 40
0.3388581445
 40
0.4599564407
 40
0.7180657782
 40
0.8560243079
 40
1.0
 40
1.0
 40
1.0
 40
1.0
 10
41.8678967082
 20
48.3562780966
 30
0.0
 10
41.8335519695
 20
48.5409228194
 30
0.0
 10
41.7393461015
 20
48.9108422382
 30
0.0
 10
41.5270015448
 20
49.4517399442
 30
0.0
 10
41.2437089857
 20
49.9811711745
 30
0.0
 10
40.7639732937
 20
50.6821142288
 30
0.0
 10
40.154630347
 20
51.3319750046
 30
0.0
 10
39.4444316616
 20
51.9237492286
 30
0.0
 10
39.0507380392
 20
52.2034922298
 30
0.0
 10
38.8451085887
 20
52.3391173683
 30
0.0
  0
SPLINE
  5
2C9
100
AcDbEntity
  8
0
100
AcDbSpline
 62
7
  6
BYLAYER
 70
0
 71
3
 72
12
 73
8
 74
0
 42
0.0000001
 43
0.0000001
 44
0.0000000001
 40
0.0
 40
0.0
 40
0.0
 40
0.0
 40
0.1129170734
 40
0.2300724899
 40
0.4755775001
 40
0.7335037165
 40
1.0
 40
1.0
 40
1.0
 40
1.0
 10
39.1620943531
 20
41.9725954328
 30
0.0
 10
38.8981874865
 20
41.8202296418
 30
0.0
 10
38.3493739971
 20
41.5286449114
 30
0.0
 10
37.1792175888
 20
40.9997576758
 30
0.0
 10
35.5931665603
 20
40.4495248106
 30
0.0
 10
33.5661726842
 20
39.9783350168
 30
0.0
 10
32.1604794545
 20
39.793248383
 30
0.0
 10
31.4438673147
 20
39.7322670892
 30
0.0
  0
SPLINE
  5
2CA
100
AcDbEntity
  8
0
100
AcDbSpline
 62
7
  6
BYLAYER
 70
0
 71
3
 72
14
 73
10
 74
0
 42
0.0000001
 43
0.0000001
 44
0.0000000001
 40
0.0
 40
0.0
 40
0.0
 40
0.0
 40
0.1079557862
 40
0.2193178129
 40
0.3350589545
 40
0.4560138352
 40
0.7153510608
 40
0.8545632634
 40
1.0
 40
1.0
 40
1.0
 40
1.0
 10
43.0765232676
 20
46.5710946483
 30
0.0
 10
43.0278529583
 20
46.3530878606
 30
0.0
 10
42.8978008864
 20
45.9166180497
 30
0.0
 10
42.613897939
 20
45.2822253649
 30
0.0
 10
42.2408703613
 20
44.6641784657
 30
0.0
 10
41.6143356528
 20
43.8490609833
 30
0.0
 10
40.8290969646
 20
43.1039881846
 30
0.0
 10
39.9228411557
 20
42.4355067413
 30
0.0
 10
39.4227044818
 20
42.1230578626
 30
0.0
 10
39.1620943531
 20
41.9725954328
 30
0.0
  0
SPLINE
  5
2CB
100
AcDbEntity
  8
0
100
AcDbSpline
 62
7
  6
BYLAYER
 70
0
 71
3
 72
13
 73
9
 74
0
 42
0.0000001
 43
0.0000001
 44
0.0000000001
 40
0.0
 40
0.0
 40
0.0
 40
0.0
 40
0.2893072232
 40
0.5483377861
 40
0.6677621071
 40
0.7817625478
 40
0.8918968242
 40
1.0
 40
1.0
 40
1.0
 40
1.0
 10
51.7132036555
 20
43.2176845471
 30
0.0
 10
51.7790215741
 20
43.2556843134
 30
0.0
 10
51.8983974419
 20
43.3378677709
 30
0.0
 10
52.0205119113
 20
43.4662945322
 30
0.0
 10
52.0892677293
 20
43.5763440455
 30
0.0
 10
52.1255737012
 20
43.659363568
 30
0.0
 10
52.1475702383
 20
43.7442041269
 30
0.0
 10
52.1525315882
 20
43.8016473987
 30
0.0
 10
52.152531583
 20
43.8300456789
 30
0.0
  0
SPLINE
  5
2CC
100
AcDbEntity
  8
0
100
AcDbSpline
 62
7
  6
BYLAYER
 70
0
 71
3
 72
19
 73
15
 74
0
 42
0.0000001
 43
0.0000001
 44
0.0000000001
 40
0.0
 40
0.0
 40
0.0
 40
0.0
 40
0.0468328529
 40
0.0943254501
 40
0.1430912413
 40
0.1936654243
 40
0.2464761034
 40
0.3018444389
 40
0.3599762667
 40
0.4209815123
 40
0.5515004986
 40
0.6927519336
 40
0.8430422332
 40
1.0
 40
1.0
 40
1.0
 40
1.0
 10
38.7893083303
 20
47.5859058139
 30
0.0
 10
38.7893077544
 20
47.4334468516
 30
0.0
 10
38.7666486022
 20
47.1259137563
 30
0.0
 10
38.6650600245
 20
46.6697694098
 30
0.0
 10
38.4970010493
 20
46.2207170031
 30
0.0
 10
38.2638228401
 20
45.7822646825
 30
0.0
 10
37.9676511525
 20
45.3573623435
 30
0.0
 10
37.6106608972
 20
44.9490276064
 30
0.0
 10
37.1956237933
 20
44.5598767836
 30
0.0
 10
36.5543456854
 20
44.0590957295
 30
0.0
 10
35.6202221022
 20
43.5015224978
 30
0.0
 10
34.3523507869
 20
42.9631245932
 30
0.0
 10
32.9474929127
 20
42.5546516905
 30
0.0
 10
31.9607019064
 20
42.3791085006
 30
0.0
 10
31.4538402477
 20
42.3145385418
 30
0.0
  0
SPLINE
  5
2CD
100
AcDbEntity
  8
0
100
AcDbSpline
 62
7
  6
BYLAYER
 70
0
 71
3
 72
9
 73
5
 74
0
 42
0.0000001
 43
0.0000001
 44
0.0000000001
 40
0.0
 40
0.0
 40
0.0
 40
0.0
 40
0.5108717254
 40
1.0
 40
1.0
 40
1.0
 40
1.0
 10
48.4599639073
 20
44.2040569893
 30
0.0
 10
48.4918635662
 20
44.145758804
 30
0.0
 10
48.5421778847
 20
44.024282829
 30
0.0
 10
48.5598809775
 20
43.8936620562
 30
0.0
 10
48.5598826004
 20
43.8300354813
 30
0.0
  0
SPLINE
  5
2CE
100
AcDbEntity
  8
0
100
AcDbSpline
 62
7
  6
BYLAYER
 70
0
 71
3
 72
12
 73
8
 74
0
 42
0.0000001
 43
0.0000001
 44
0.0000000001
 40
0.0
 40
0.0
 40
0.0
 40
0.0
 40
0.1182194125
 40
0.2371485638
 40
0.47960686
 40
0.7325921462
 40
1.0
 40
1.0
 40
1.0
 40
1.0
 10
20.0893539528
 20
55.8325802205
 30
0.0
 10
20.0893539537
 20
55.733563047
 30
0.0
 10
20.0988396069
 20
55.5347922602
 30
0.0
 10
20.1559903544
 20
55.1366858826
 30
0.0
 10
20.3009139864
 20
54.6396505377
 30
0.0
 10
20.5851403019
 20
54.0643311951
 30
0.0
 10
20.8381776436
 20
53.7071204142
 30
0.0
 10
20.9797161113
 20
53.5335381067
 30
0.0
  0
SPLINE
  5
2CF
100
AcDbEntity
  8
0
100
AcDbSpline
 62
7
  6
BYLAYER
 70
0
 71
3
 72
16
 73
12
 74
0
 42
0.0000001
 43
0.0000001
 44
0.0000000001
 40
0.0
 40
0.0
 40
0.0
 40
0.0
 40
0.0999498017
 40
0.1530929663
 40
0.208361496
 40
0.3251029307
 40
0.4496410774
 40
0.5809196014
 40
0.7175224
 40
0.8578316835
 40
1.0
 40
1.0
 40
1.0
 40
1.0
 10
20.9797161113
 20
53.5335381067
 30
0.0
 10
21.1749483523
 20
53.2941059337
 30
0.0
 10
21.5086733103
 20
52.9546471805
 30
0.0
 10
22.0088807305
 20
52.5485371996
 30
0.0
 10
22.5790851927
 20
52.148565803
 30
0.0
 10
23.3801199286
 20
51.6979284252
 30
0.0
 10
24.4427059455
 20
51.2487892362
 30
0.0
 10
25.6033543172
 20
50.8901120425
 30
0.0
 10
26.8393605667
 20
50.6287469063
 30
0.0
 10
28.1263921996
 20
50.4699066447
 30
0.0
 10
28.9999403947
 20
50.4344313196
 30
0.0
 10
29.4393745601
 20
50.4344323759
 30
0.0
  0
SPLINE
  5
2D0
100
AcDbEntity
  8
0
100
AcDbSpline
 62
7
  6
BYLAYER
 70
0
 71
3
 72
23
 73
19
 74
0
 42
0.0000001
 43
0.0000001
 44
0.0000000001
 40
0.0
 40
0.0
 40
0.0
 40
0.0
 40
0.0726147522
 40
0.1414841032
 40
0.2067060898
 40
0.268540101
 40
0.3274198654
 40
0.3839582269
 40
0.4389366024
 40
0.4932584011
 40
0.5478839556
 40
0.6037481449
 40
0.6616834928
 40
0.7223681943
 40
0.7862948351
 40
0.8537982987
 40
0.9250565291
 40
1.0
 40
1.0
 40
1.0
 40
1.0
 10
22.8198719036
 20
59.6322034158
 30
0.0
 10
22.6396387818
 20
59.5149422746
 30
0.0
 10
22.2978856038
 20
59.2714382006
 30
0.0
 10
21.8349786018
 20
58.8694456723
 30
0.0
 10
21.4392930105
 20
58.4434585579
 30
0.0
 10
21.1145007535
 20
57.9970854157
 30
0.0
 10
20.8637833199
 20
57.5340382188
 30
0.0
 10
20.6899040344
 20
57.0583262272
 30
0.0
 10
20.5948491924
 20
56.5743904019
 30
0.0
 10
20.5800512179
 20
56.0870145102
 30
0.0
 10
20.6455241593
 20
55.6012235954
 30
0.0
 10
20.7905533247
 20
55.1219496677
 30
0.0
 10
21.0131882374
 20
54.653730721
 30
0.0
 10
21.3109946671
 20
54.2007713897
 30
0.0
 10
21.6808888683
 20
53.7668478729
 30
0.0
 10
22.1194975825
 20
53.3555136435
 30
0.0
 10
22.6227674034
 20
52.9703940139
 30
0.0
 10
22.9892799038
 20
52.7388272401
 30
0.0
 10
23.181466673
 20
52.6278706673
 30
0.0
  0
SPLINE
  5
2D1
100
AcDbEntity
  8
0
100
AcDbSpline
 62
7
  6
BYLAYER
 70
0
 71
3
 72
22
 73
18
 74
0
 42
0.0000001
 43
0.0000001
 44
0.0000000001
 40
0.0
 40
0.0
 40
0.0
 40
0.0
 40
0.0749902136
 40
0.1462451003
 40
0.2137741814
 40
0.2777350956
 40
0.3384459577
 40
0.3964084141
 40
0.4522969709
 40
0.5069434487
 40
0.5612801226
 40
0.6162654577
 40
0.6728042952
 40
0.7316785203
 40
0.7934973914
 40
0.8586943599
 40
1.0
 40
1.0
 40
1.0
 40
1.0
 10
35.6973539251
 20
52.6279694825
 30
0.0
 10
35.889448508
 20
52.7388716326
 30
0.0
 10
36.2556942159
 20
52.9702057967
 30
0.0
 10
36.7585540556
 20
53.3550449757
 30
0.0
 10
37.1968707233
 20
53.7659533328
 30
0.0
 10
37.5666956011
 20
54.1994445826
 30
0.0
 10
37.8644598116
 20
54.6520181416
 30
0.0
 10
38.0872847721
 20
55.1197649242
 30
0.0
 10
38.2325117979
 20
55.5986186202
 30
0.0
 10
38.2984780874
 20
56.0839718675
 30
0.0
 10
38.2841539788
 20
56.5709489813
 30
0.0
 10
38.1898243744
 20
57.0545313746
 30
0.0
 10
38.0167199566
 20
57.5299436107
 30
0.0
 10
37.7668819281
 20
57.9927187189
 30
0.0
 10
37.4430886048
 20
58.4389613877
 30
0.0
 10
36.9026713207
 20
59.0221318976
 30
0.0
 10
36.4157314915
 20
59.3993824062
 30
0.0
 10
36.0656499152
 20
59.6277117486
 30
0.0
  0
SPLINE
  5
2D2
100
AcDbEntity
  8
0
100
AcDbSpline
 62
7
  6
BYLAYER
 70
0
 71
3
 72
11
 73
7
 74
0
 42
0.0000001
 43
0.0000001
 44
0.0000000001
 40
0.0
 40
0.0
 40
0.0
 40
0.0
 40
0.2895359088
 40
0.5491073527
 40
0.7822501147
 40
1.0
 40
1.0
 40
1.0
 40
1.0
 10
51.7132036604
 20
31.3783995016
 30
0.0
 10
51.7132036604
 20
31.3530802827
 30
0.0
 10
51.7093392355
 20
31.3049021999
 30
0.0
 10
51.6898630077
 20
31.2386964379
 30
0.0
 10
51.6570116823
 20
31.1849534473
 30
0.0
 10
51.6261266876
 20
31.1590474589
 30
0.0
 10
51.6096360648
 20
31.1495266481
 30
0.0
  0
ENDSEC
  0
SECTION
  2
OBJECTS
  0
DICTIONARY
  5
C
100
AcDbDictionary
280
0
281
1
  3
ACAD_GROUP
350
D
  3
ACAD_MLINESTYLE
350
17
  3
ACAD_LAYOUT
350
1A
  3
ACAD_PLOTSETTINGS
350
19
  3
ACAD_PLOTSTYLENAME
350
E
  0
DICTIONARY
  5
D
102
{ACAD_REACTORS
330
C
102
}
100
AcDbDictionary
280
0
281
1
  0
ACDBDICTIONARYWDFLT
  5
E
102
{ACAD_REACTORS
330
C
102
}
100
AcDbDictionary
281
1
  3
Normal
350
F
100
AcDbDictionaryWithDefault
340
F
  0
DICTIONARY
  5
17
102
{ACAD_REACTORS
330
C
102
}
100
AcDbDictionary
280
0
281
1
  3
Standard
350
18
  0
DICTIONARY
  5
19
102
{ACAD_REACTORS
330
C
102
}
100
AcDbDictionary
281
1
  0
DICTIONARY
  5
1A
102
{ACAD_REACTORS
330
C
102
}
100
AcDbDictionary
281
1
  3
Model
350
2D3
  3
Layout1
350
2D4
  0
ACDBPLACEHOLDER
  5
F
102
{ACAD_REACTORS
330
E
102
}
  0
MLINESTYLE
  5
18
102
{ACAD_REACTORS
330
17
102
}
100
AcDbMlineStyle
  2
STANDARD
 70
0
  3

 62
256
 51
90.0
 52
90.0
 71
2
 49
0.5
 62
256
  6
BYLAYER
 49
-0.5
 62
256
  6
BYLAYER
  0
LAYOUT
  5
2D3
102
{ACAD_REACTORS
330
1A
102
}
100
AcDbPlotSettings
  1

  2
none_device
  4

  6

 40
0.0
 41
0.0
 42
0.0
 43
0.0
 44
210.0
 45
297.0
 46
0.0
 47
0.0
 48
0.0
 49
0.0
140
0.0
141
0.0
142
1.0
143
1.0
 70
1024
 72
1
 73
0
 74
0
  7

 75
0
147
1.0
148
0.0
149
0.0
100
AcDbLayout
  1
Model
 70
0
 71
0
 10
0.0
 20
0.0
 11
210.0
 21
297.0
 12
0.0
 22
0.0
 32
0.0
 14
0.0
 24
0.0
 34
0.0
 15
0.0
 25
0.0
 35
0.0
146
0.0
 13
0.0
 23
0.0
 33
0.0
 16
1.0
 26
0.0
 36
0.0
 17
0.0
 27
1.0
 37
0.0
 76
0
330
210
345
0
346
0
  0
LAYOUT
  5
2D4
102
{ACAD_REACTORS
330
1A
102
}
100
AcDbPlotSettings
  1

  2
none_device
  4

  6

 40
0.0
 41
0.0
 42
0.0
 43
0.0
 44
210.0
 45
297.0
 46
0.0
 47
0.0
 48
0.0
 49
0.0
140
0.0
141
0.0
142
1.0
143
1.0
 70
0
 72
1
 73
0
 74
0
  7

 75
0
147
1.0
148
0.0
149
0.0
100
AcDbLayout
  1
Layout1
 70
0
 71
1
 10
0.0
 20
0.0
 11
210.0
 21
297.0
 12
0.0
 22
0.0
 32
0.0
 14
0.0
 24
0.0
 34
0.0
 15
0.0
 25
0.0
 35
0.0
146
0.0
 13
0.0
 23
0.0
 33
0.0
 16
1.0
 26
0.0
 36
0.0
 17
0.0
 27
1.0
 37
0.0
 76
0
330
211
345
0
346
0
  0
ENDSEC
  0
EOF
