999
DXF file: C:\Users\sesa63760\Dev\_Creo\CAD\MCADID0004740_3D-CAD\drw0001_6.dxf
999
Pro/ENGINEER 2019471 by Parametric Technology Corporation
  0
SECTION
  2
HEADER
  9
$ACADVER
  1
AC1024
  9
$DWGCODEPAGE
  3
ANSI_1252
  9
$EXTMAX
 10
118.3729153707
 20
167.4131231672
 30
0.0
  9
$EXTMIN
 10
0.0
 20
0.0
 30
0.0
  9
$LIMMIN
 10
0.0
 20
0.0
  9
$LIMMAX
 10
118.3729153707
 20
167.4131231672
  9
$VIEWCTR
 10
59.1864576854
 20
83.7065615836
  9
$VIEWSIZE
 40
167.4131231672
  9
$CLAYER
  8
0
  9
$LTSCALE
 40
10.9128554361
  9
$CELTYPE
  6
BYLAYER
  9
$DIMSCALE
 40
1.0
  9
$DIMASZ
 40
1.4092013735
  9
$DIMEXO
 40
1.0
  9
$DIMDLI
 40
7.5397910286
  9
$DIMEXE
 40
1.0
  9
$DIMCEN
 40
1.7857399804
  9
$DIMLFAC
 40
1.0
  9
$DIMBLK
  1
_FILLED
  9
$DIMALT
 70
0
  9
$DIMALTF
 40
0.0393700787
  9
$DIMTXT
 40
1.9728819228
  9
$DIMTOL
 70
1
  9
$DIMLIM
 70
0
  9
$DIMTFAC
 40
1.0
  9
$DIMTP
 40
0.01
  9
$DIMTM
 40
0.01
  9
$DIMGAP
 40
0.625
  9
$DIMDSEP
 70
46
  9
$AUNITS
 70
0
  9
$PDMODE
 70
3
  9
$PDSIZE
 40
0.3125
  9
$HANDSEED
  5
365
  9
$TILEMODE
 70
1
  9
$MEASUREMENT
 70
1
  9
$INSUNITS
 70
4
  0
ENDSEC
  0
SECTION
  2
CLASSES
  0
CLASS
  1
ACDBDICTIONARYWDFLT
  2
AcDbDictionaryWithDefault
  3
AutoCAD 2000
 90
0
 91
1
280
0
281
0
  0
CLASS
  1
ACDBPLACEHOLDER
  2
AcDbPlaceHolder
  3
AutoCAD 2000
 90
0
 91
1
280
0
281
0
  0
CLASS
  1
LAYOUT
  2
AcDbLayout
  3
AutoCAD 2000
 90
0
 91
0
280
0
281
0
  0
ENDSEC
  0
SECTION
  2
TABLES
  0
TABLE
  2
VPORT
  5
8
100
AcDbSymbolTable
 70
2
  0
VPORT
  5
1F4
100
AcDbSymbolTableRecord
100
AcDbViewportTableRecord
  2
*ACTIVE
 70
0
 10
0.0
 20
0.0
 11
1.0
 21
1.0
 12
59.1864576854
 22
83.7065615836
 13
0.0
 23
0.0
 14
1.0
 24
1.0
 15
0.0
 25
0.0
 16
0.0
 26
0.0
 36
1.0
 17
0.0
 27
0.0
 37
0.0
 40
167.4131231672
 41
0.7070707071
 42
50.0
 43
0.0
 44
0.0
 50
0.0
 51
0.0
 71
0
 72
100
 73
1
 74
1
 75
0
 76
0
 77
0
 78
0
  0
ENDTAB
  0
TABLE
  2
LTYPE
  5
5
100
AcDbSymbolTable
 70
6
  0
LTYPE
  5
14
100
AcDbSymbolTableRecord
100
AcDbLinetypeTableRecord
  2
BYBLOCK
 70
0
  3

 72
65
 73
0
 40
0.0
  0
LTYPE
  5
15
100
AcDbSymbolTableRecord
100
AcDbLinetypeTableRecord
  2
BYLAYER
 70
0
  3

 72
65
 73
0
 40
0.0
  0
LTYPE
  5
16
100
AcDbSymbolTableRecord
100
AcDbLinetypeTableRecord
  2
CONTINUOUS
 70
64
  3
Solid line
 72
65
 73
0
 40
0.0
  0
LTYPE
  5
1F5
100
AcDbSymbolTableRecord
100
AcDbLinetypeTableRecord
  2
CENTER
 70
64
  3
____ _ ____ _ ____ _ ____ _ ____ _ ____ _ ____
 72
65
 73
4
 40
0.6
 49
0.375
 74
0
 49
-0.075
 74
0
 49
0.075
 74
0
 49
-0.075
 74
0
  0
LTYPE
  5
1F6
100
AcDbSymbolTableRecord
100
AcDbLinetypeTableRecord
  2
HIDDEN
 70
64
  3
- - - - - - - - - - - - - - - - - - - -
 72
65
 73
2
 40
0.2
 49
0.1
 74
0
 49
-0.1
 74
0
  0
LTYPE
  5
1F7
100
AcDbSymbolTableRecord
100
AcDbLinetypeTableRecord
  2
PHANTOM
 70
64
  3
_____ _ _ _____ _ _ _____ _ _ _____
 72
65
 73
6
 40
0.8
 49
0.45
 74
0
 49
-0.05
 74
0
 49
0.1
 74
0
 49
-0.05
 74
0
 49
0.1
 74
0
 49
-0.05
 74
0
  0
LTYPE
  5
1F8
100
AcDbSymbolTableRecord
100
AcDbLinetypeTableRecord
  2
DOT
 70
64
  3
. . . . . . . . . . . . . . . . . . . .
 72
65
 73
2
 40
0.2
 49
0.1
 74
0
 49
-0.1
 74
0
  0
LTYPE
  5
1F9
100
AcDbSymbolTableRecord
100
AcDbLinetypeTableRecord
  2
DASHED
 70
64
  3
- - - - - - - - - - - - - - - - - - - -
 72
65
 73
2
 40
0.2
 49
0.1
 74
0
 49
-0.1
 74
0
  0
ENDTAB
  0
TABLE
  2
LAYER
  5
2
100
AcDbSymbolTable
 70
36
  0
LAYER
  5
10
100
AcDbSymbolTableRecord
100
AcDbLayerTableRecord
  2
0
 70
0
 62
7
  6
CONTINUOUS
370
-3
390
F
  0
LAYER
  5
1FA
100
AcDbSymbolTableRecord
100
AcDbLayerTableRecord
  2
DEFAULT_1
 70
0
 62
7
  6
CENTER
370
-3
390
F
  0
LAYER
  5
1FB
100
AcDbSymbolTableRecord
100
AcDbLayerTableRecord
  2
DEFAULT_2
 70
0
 62
7
  6
HIDDEN
370
-3
390
F
  0
LAYER
  5
1FC
100
AcDbSymbolTableRecord
100
AcDbLayerTableRecord
  2
DEFAULT_3
 70
0
 62
7
  6
PHANTOM
370
-3
390
F
  0
LAYER
  5
1FD
100
AcDbSymbolTableRecord
100
AcDbLayerTableRecord
  2
00_COMPONENTS
 70
0
 62
7
  6
CONTINUOUS
370
-3
390
F
  0
LAYER
  5
1FE
100
AcDbSymbolTableRecord
100
AcDbLayerTableRecord
  2
01_1_DEFAULT_DATUMS
 70
0
 62
7
  6
CONTINUOUS
370
-3
390
F
  0
LAYER
  5
1FF
100
AcDbSymbolTableRecord
100
AcDbLayerTableRecord
  2
01_PLANES
 70
0
 62
7
  6
CONTINUOUS
370
-3
390
F
  0
LAYER
  5
200
100
AcDbSymbolTableRecord
100
AcDbLayerTableRecord
  2
02_COORD_SYS
 70
0
 62
7
  6
CONTINUOUS
370
-3
390
F
  0
LAYER
  5
201
100
AcDbSymbolTableRecord
100
AcDbLayerTableRecord
  2
03_AXES
 70
0
 62
7
  6
CONTINUOUS
370
-3
390
F
  0
LAYER
  5
202
100
AcDbSymbolTableRecord
100
AcDbLayerTableRecord
  2
04_POINTS
 70
0
 62
7
  6
CONTINUOUS
370
-3
390
F
  0
LAYER
  5
203
100
AcDbSymbolTableRecord
100
AcDbLayerTableRecord
  2
05_CURVES
 70
0
 62
7
  6
CONTINUOUS
370
-3
390
F
  0
LAYER
  5
204
100
AcDbSymbolTableRecord
100
AcDbLayerTableRecord
  2
06_SURFS
 70
0
 62
7
  6
CONTINUOUS
370
-3
390
F
  0
LAYER
  5
205
100
AcDbSymbolTableRecord
100
AcDbLayerTableRecord
  2
07_COSMETICS
 70
0
 62
7
  6
CONTINUOUS
370
-3
390
F
  0
LAYER
  5
206
100
AcDbSymbolTableRecord
100
AcDbLayerTableRecord
  2
10_NOTES
 70
0
 62
7
  6
CONTINUOUS
370
-3
390
F
  0
LAYER
  5
207
100
AcDbSymbolTableRecord
100
AcDbLayerTableRecord
  2
11_NOTES_PUB
 70
0
 62
7
  6
CONTINUOUS
370
-3
390
F
  0
LAYER
  5
208
100
AcDbSymbolTableRecord
100
AcDbLayerTableRecord
  2
13_REF_GTOL
 70
0
 62
7
  6
CONTINUOUS
370
-3
390
F
  0
LAYER
  5
209
100
AcDbSymbolTableRecord
100
AcDbLayerTableRecord
  2
16_MISC
 70
0
 62
7
  6
CONTINUOUS
370
-3
390
F
  0
LAYER
  5
20A
100
AcDbSymbolTableRecord
100
AcDbLayerTableRecord
  2
17_NO_PRINT
 70
0
 62
7
  6
CONTINUOUS
370
-3
390
F
  0
LAYER
  5
20B
100
AcDbSymbolTableRecord
100
AcDbLayerTableRecord
  2
18_DATUM_CAMS_JOINTS
 70
0
 62
7
  6
CONTINUOUS
370
-3
390
F
  0
LAYER
  5
20C
100
AcDbSymbolTableRecord
100
AcDbLayerTableRecord
  2
19_DATUM_FUNCTIONAL
 70
0
 62
7
  6
CONTINUOUS
370
-3
390
F
  0
LAYER
  5
20D
100
AcDbSymbolTableRecord
100
AcDbLayerTableRecord
  2
20_DATUM_KINEMATIC_SCHEME
 70
0
 62
7
  6
CONTINUOUS
370
-3
390
F
  0
ENDTAB
  0
TABLE
  2
STYLE
  5
3
100
AcDbSymbolTable
 70
1
  0
STYLE
  5
11
100
AcDbSymbolTableRecord
100
AcDbTextStyleTableRecord
  2
STANDARD
 70
0
 40
0.0
 41
1.0
 50
0.0
 71
0
 42
0.2
  3
ARIAL.TTF
  4

  0
STYLE
  5
20E
100
AcDbSymbolTableRecord
100
AcDbTextStyleTableRecord
  2
TEXTSTYLE_1
 70
0
 40
0.0
 41
0.8
 50
0.0
 71
0
 42
0.2
  3
gdt
  4

  0
ENDTAB
  0
TABLE
  2
VIEW
  5
6
100
AcDbSymbolTable
 70
0
  0
ENDTAB
  0
TABLE
  2
UCS
  5
7
100
AcDbSymbolTable
 70
0
  0
ENDTAB
  0
TABLE
  2
APPID
  5
9
100
AcDbSymbolTable
 70
1
  0
APPID
  5
20F
100
AcDbSymbolTableRecord
100
AcDbRegAppTableRecord
  2
ACAD
 70
0
  0
ENDTAB
  0
TABLE
  2
BLOCK_RECORD
  5
1
100
AcDbSymbolTable
 70
0
  0
BLOCK_RECORD
  5
210
100
AcDbSymbolTableRecord
100
AcDbBlockTableRecord
  2
*Model_Space
  0
BLOCK_RECORD
  5
211
100
AcDbSymbolTableRecord
100
AcDbBlockTableRecord
  2
*Paper_Space
  0
BLOCK_RECORD
  5
212
100
AcDbSymbolTableRecord
100
AcDbBlockTableRecord
  2
_FILLED
  0
ENDTAB
  0
TABLE
  2
DIMSTYLE
  5
A
100
AcDbSymbolTable
 70
1
100
AcDbDimStyleTable
 71
0
  0
DIMSTYLE
105
213
100
AcDbSymbolTableRecord
100
AcDbDimStyleTableRecord
  2
STANDARD
 70
0
  3

  4

 40
1.0
 41
1.4092013735
 42
1.0
 43
0.38
 44
1.0
 45
0.0
 46
0.0
 47
0.01
 48
0.01
140
1.9728819228
141
0.09
142
0.0
143
25.4
144
1.0
145
0.0
146
1.0
147
0.625
 71
1
 72
0
 73
0
 74
0
 75
0
 76
0
 77
1
 78
8
 79
2
170
0
171
1
172
0
173
0
174
0
175
0
176
0
177
0
178
0
270
2
179
2
271
2
272
2
273
2
274
2
275
0
280
0
281
0
282
0
283
1
284
8
285
0
286
0
287
3
288
0
340
11
278
46
341
212
342
212
343
212
344
212
  0
ENDTAB
  0
ENDSEC
  0
SECTION
  2
BLOCKS
  0
BLOCK
  5
20
100
AcDbEntity
  8
0
100
AcDbBlockBegin
  2
*Model_Space
 70
0
 10
0.0
 20
0.0
 30
0.0
  3
*Model_Space
  1

  0
ENDBLK
  5
21
100
AcDbEntity
  8
0
100
AcDbBlockEnd
  0
BLOCK
  5
1C
100
AcDbEntity
  8
0
100
AcDbBlockBegin
  2
*Paper_Space
 70
0
 10
0.0
 20
0.0
 30
0.0
  3
*Paper_Space
  1

  0
ENDBLK
  5
1D
100
AcDbEntity
  8
0
100
AcDbBlockEnd
  0
BLOCK
  5
214
100
AcDbEntity
  8
0
100
AcDbBlockBegin
  2
_FILLED
 70
64
 10
0.0
 20
0.0
  3
_FILLED
  1

  0
SOLID
  5
215
100
AcDbEntity
  8
0
  6
BYBLOCK
 62
0
100
AcDbTrace
 10
0.0
 20
0.0
 11
-1.0
 21
0.25
 12
-1.0
 22
-0.25
 13
-1.0
 23
-0.25
  0
ENDBLK
  5
216
100
AcDbEntity
  8
0
  6
BYBLOCK
 62
0
100
AcDbBlockEnd
  0
ENDSEC
  0
SECTION
  2
ENTITIES
  0
LINE
  5
217
100
AcDbEntity
  8
0
100
AcDbLine
 62
7
  6
BYLAYER
 10
61.9610154863
 20
13.8315615836
 11
58.461020119
 21
13.8315615836
  0
LINE
  5
218
100
AcDbEntity
  8
0
100
AcDbLine
 62
7
  6
BYLAYER
 10
66.2609393466
 20
13.9815615836
 11
54.1610962587
 21
13.9815615836
  0
LINE
  5
219
100
AcDbEntity
  8
0
100
AcDbLine
 62
7
  6
BYLAYER
 10
66.5610178027
 20
14.9815615836
 11
53.8610178027
 21
14.9815615836
  0
LINE
  5
21A
100
AcDbEntity
  8
0
100
AcDbLine
 62
7
  6
BYLAYER
 10
53.8610991255
 20
15.7815615836
 11
66.5609364798
 21
15.7815615836
  0
LINE
  5
21B
100
AcDbEntity
  8
0
100
AcDbLine
 62
7
  6
BYLAYER
 10
66.5609364798
 20
16.9815615836
 11
53.8610991255
 21
16.9815615836
  0
LINE
  5
21C
100
AcDbEntity
  8
0
100
AcDbLine
 62
7
  6
BYLAYER
 10
53.8610991255
 20
18.1315615836
 11
66.5609364798
 21
18.1315615836
  0
LINE
  5
21D
100
AcDbEntity
  8
0
100
AcDbLine
 62
7
  6
BYLAYER
 10
67.5618709468
 20
19.4715615836
 11
52.8601646585
 21
19.4715615836
  0
LINE
  5
21E
100
AcDbEntity
  8
0
100
AcDbLine
 62
7
  6
BYLAYER
 10
68.2110140576
 20
21.5815615836
 11
52.2110215477
 21
21.5815615836
  0
LINE
  5
21F
100
AcDbEntity
  8
0
100
AcDbLine
 62
7
  6
BYLAYER
 10
52.2110178027
 20
22.5815615836
 11
68.2110178027
 21
22.5815615836
  0
LINE
  5
220
100
AcDbEntity
  8
0
100
AcDbLine
 62
7
  6
BYLAYER
 10
67.7110136604
 20
23.0815615836
 11
52.7110219449
 21
23.0815615836
  0
LINE
  5
221
100
AcDbEntity
  8
0
100
AcDbLine
 62
7
  6
BYLAYER
 10
52.7110178027
 20
23.5815615836
 11
67.7110178027
 21
23.5815615836
  0
LINE
  5
222
100
AcDbEntity
  8
0
100
AcDbLine
 62
7
  6
BYLAYER
 10
52.9110221542
 20
23.7815615836
 11
67.5110134511
 21
23.7815615836
  0
LINE
  5
223
100
AcDbEntity
  8
0
100
AcDbLine
 62
7
  6
BYLAYER
 10
52.9110218896
 20
24.9815615836
 11
67.5110137157
 21
24.9815615836
  0
LINE
  5
224
100
AcDbEntity
  8
0
100
AcDbLine
 62
7
  6
BYLAYER
 10
67.7110178027
 20
25.1815615836
 11
52.7110178027
 21
25.1815615836
  0
LINE
  5
225
100
AcDbEntity
  8
0
100
AcDbLine
 62
7
  6
BYLAYER
 10
52.7110178027
 20
27.3815615836
 11
67.7110178027
 21
27.3815615836
  0
LINE
  5
226
100
AcDbEntity
  8
0
100
AcDbLine
 62
7
  6
BYLAYER
 10
66.6110178027
 20
28.4815615836
 11
53.8110178027
 21
28.4815615836
  0
LINE
  5
227
100
AcDbEntity
  8
0
100
AcDbLine
 62
7
  6
BYLAYER
 10
55.4610177852
 20
30.0009363206
 11
64.9610178201
 21
30.0009363206
  0
LWPOLYLINE
  5
228
100
AcDbEntity
  8
0
100
AcDbPolyline
 62
7
  6
BYLAYER
 90
10
 70
0
 10
58.0389788418
 20
38.6017695688
 10
58.1805266813
 20
38.6307583287
 10
58.4468551954
 20
38.6696783084
 10
58.8240257287
 20
38.7128433827
 10
59.3006473302
 20
38.7591856729
 10
59.8627837915
 20
38.8087845978
 10
60.48795003
 20
38.8618424728
 10
61.1303657837
 20
38.9177060318
 10
61.7327505965
 20
38.9757973441
 10
62.2294343714
 20
39.0350238245
  0
LWPOLYLINE
  5
229
100
AcDbEntity
  8
0
100
AcDbPolyline
 62
7
  6
BYLAYER
 90
5
 70
0
 10
58.1473039626
 20
39.8353956689
 10
57.8038893122
 20
39.7743923244
 10
57.5220978833
 20
39.6793969056
 10
57.2319000808
 20
39.398718709
 10
57.1610435581
 20
39.1135218308
  0
LWPOLYLINE
  5
22A
100
AcDbEntity
  8
0
100
AcDbPolyline
 62
7
  6
BYLAYER
 90
5
 70
0
 10
62.2294343714
 20
39.0350238245
 10
62.5905937199
 20
39.0961625975
 10
62.8753186735
 20
39.1851300128
 10
63.1775601221
 20
39.455266701
 10
63.2605355582
 20
39.7628242621
  0
LWPOLYLINE
  5
22B
100
AcDbEntity
  8
0
100
AcDbPolyline
 62
7
  6
BYLAYER
 90
5
 70
0
 10
62.2353455685
 20
40.3358775276
 10
62.5952670204
 20
40.3967856501
 10
62.8834966156
 20
40.4893670622
 10
63.17930762
 20
40.7623579705
 10
63.2582507121
 20
41.0630275019
  0
LINE
  5
22C
100
AcDbEntity
  8
0
100
AcDbLine
 62
7
  6
BYLAYER
 10
58.391380632
 20
41.1674543192
 11
57.965823349
 21
41.1069217517
  0
LINE
  5
22D
100
AcDbEntity
  8
0
100
AcDbLine
 62
7
  6
BYLAYER
 10
61.9536231936
 20
41.6002719897
 11
62.4046522165
 21
41.6610423778
  0
LWPOLYLINE
  5
22E
100
AcDbEntity
  8
0
100
AcDbPolyline
 62
7
  6
BYLAYER
 90
5
 70
0
 10
60.6871125604
 20
40.078993854
 10
59.8009868267
 20
40.003592981
 10
59.1908331136
 20
39.9498471986
 10
58.6193905166
 20
39.8934999555
 10
58.1473039626
 20
39.8353956689
  0
LWPOLYLINE
  5
22F
100
AcDbEntity
  8
0
100
AcDbPolyline
 62
7
  6
BYLAYER
 90
4
 70
0
 10
60.6697304579
 20
41.3774394171
 10
59.6647504515
 20
41.2919707524
 10
58.9771947322
 20
41.2297240687
 10
58.391380632
 20
41.1674543192
  0
LWPOLYLINE
  5
230
100
AcDbEntity
  8
0
100
AcDbPolyline
 62
7
  6
BYLAYER
 90
4
 70
0
 10
59.7176054454
 20
41.3963422808
 10
60.7051147025
 20
41.4802838027
 10
61.3696190861
 20
41.5398298881
 10
61.9536231936
 20
41.6002719897
  0
LINE
  5
231
100
AcDbEntity
  8
0
100
AcDbLine
 62
7
  6
BYLAYER
 10
56.8508511972
 20
37.5815615836
 11
63.5711844081
 21
37.5815615836
  0
LINE
  5
232
100
AcDbEntity
  8
0
100
AcDbLine
 62
7
  6
BYLAYER
 10
63.1510178007
 20
37.6615615861
 11
57.2710178046
 21
37.6615615861
  0
LINE
  5
233
100
AcDbEntity
  8
0
100
AcDbLine
 62
7
  6
BYLAYER
 10
57.9610221775
 20
38.5815615836
 11
62.4610134278
 21
38.5815615836
  0
LINE
  5
234
100
AcDbEntity
  8
0
100
AcDbLine
 62
7
  6
BYLAYER
 10
57.801933347
 20
38.4528401446
 11
57.8570741218
 21
38.442970009
  0
LINE
  5
235
100
AcDbEntity
  8
0
100
AcDbLine
 62
7
  6
BYLAYER
 10
58.037743969
 20
38.6021783075
 11
58.0389788418
 21
38.6017695688
  0
LWPOLYLINE
  5
236
100
AcDbEntity
  8
0
100
AcDbPolyline
 62
7
  6
BYLAYER
 90
5
 70
0
 10
57.9179481695
 20
43.6979635873
 10
57.656066111
 20
43.6344820844
 10
57.3701189327
 20
43.4768904489
 10
57.1647691176
 20
43.0710988619
 10
57.1620041402
 20
43.0141213676
  0
LWPOLYLINE
  5
237
100
AcDbEntity
  8
0
100
AcDbPolyline
 62
7
  6
BYLAYER
 90
8
 70
0
 10
62.3839205513
 20
44.1744626122
 10
62.3653572168
 20
44.170083166
 10
62.1603699953
 20
44.1327835317
 10
61.9957972778
 20
44.1098956982
 10
61.5625676261
 20
44.0603563999
 10
61.0065062059
 20
44.0070256592
 10
60.3579246138
 20
43.9507484879
 10
59.6806465591
 20
43.8933173566
  0
LWPOLYLINE
  5
238
100
AcDbEntity
  8
0
100
AcDbPolyline
 62
7
  6
BYLAYER
 90
5
 70
0
 10
57.965823349
 20
41.1069217517
 10
57.6650299591
 20
41.0367591583
 10
57.3674411463
 20
40.8725254909
 10
57.1658057667
 20
40.4726018811
 10
57.1627415576
 20
40.4125180818
  0
LWPOLYLINE
  5
239
100
AcDbEntity
  8
0
100
AcDbPolyline
 62
7
  6
BYLAYER
 90
6
 70
0
 10
58.0328962033
 20
43.8008199618
 10
58.0413882383
 20
43.8027746458
 10
58.1853044014
 20
43.8315505632
 10
58.4555528353
 20
43.8706138589
 10
58.8370435436
 20
43.9142319844
 10
59.3224579815
 20
43.9612615124
  0
LWPOLYLINE
  5
23A
100
AcDbEntity
  8
0
100
AcDbPolyline
 62
7
  6
BYLAYER
 90
5
 70
0
 10
57.993397639
 20
42.4116235494
 10
57.6801255368
 20
42.3421264767
 10
57.378508521
 20
42.1823896096
 10
57.1675091252
 20
41.7776741659
 10
57.1640116724
 20
41.7135008922
  0
LWPOLYLINE
  5
23B
100
AcDbEntity
  8
0
100
AcDbPolyline
 62
7
  6
BYLAYER
 90
5
 70
0
 10
62.4046522165
 20
41.6610423778
 10
62.7259207356
 20
41.7302580505
 10
63.0290912071
 20
41.8824229947
 10
63.2528862737
 20
42.2810452195
 10
63.2587361379
 20
42.3641146508
  0
LWPOLYLINE
  5
23C
100
AcDbEntity
  8
0
100
AcDbPolyline
 62
7
  6
BYLAYER
 90
5
 70
0
 10
58.0094319124
 20
45.0140938486
 10
57.6925691091
 20
44.9460076145
 10
57.3787460468
 20
44.7839213527
 10
57.1664734976
 20
44.3790410429
 10
57.1628882592
 20
44.3141046009
  0
LWPOLYLINE
  5
23D
100
AcDbEntity
  8
0
100
AcDbPolyline
 62
7
  6
BYLAYER
 90
5
 70
0
 10
62.2601368602
 20
44.2391242922
 10
62.6090668411
 20
44.3003015263
 10
62.8788857733
 20
44.3876572726
 10
63.1762163581
 20
44.6543945912
 10
63.2604110232
 20
44.9641299307
  0
LWPOLYLINE
  5
23E
100
AcDbEntity
  8
0
100
AcDbPolyline
 62
7
  6
BYLAYER
 90
5
 70
0
 10
62.2661070158
 20
42.9400493852
 10
62.6107457249
 20
43.0002666276
 10
62.8969762788
 20
43.0966923355
 10
63.1849902747
 20
43.3736684487
 10
63.2582173748
 20
43.6637839496
  0
LWPOLYLINE
  5
23F
100
AcDbEntity
  8
0
100
AcDbPolyline
 62
7
  6
BYLAYER
 90
5
 70
0
 10
62.2344628847
 20
45.5357472961
 10
62.5970807656
 20
45.5975313618
 10
62.8792554553
 20
45.6869025965
 10
63.1793853322
 20
45.9588159871
 10
63.2602751476
 20
46.2627314968
  0
LINE
  5
240
100
AcDbEntity
  8
0
100
AcDbLine
 62
7
  6
BYLAYER
 10
58.0826521827
 20
43.7256668728
 11
57.9179481695
 21
43.6979635873
  0
LWPOLYLINE
  5
241
100
AcDbEntity
  8
0
100
AcDbPolyline
 62
7
  6
BYLAYER
 90
5
 70
0
 10
62.3036267143
 20
42.8569677888
 10
62.0516272295
 20
42.8171938781
 10
61.6718533582
 20
42.7718888126
 10
61.1845213707
 20
42.7233760467
 10
60.6032454094
 20
42.6716700233
  0
LINE
  5
242
100
AcDbEntity
  8
0
100
AcDbLine
 62
7
  6
BYLAYER
 10
58.4242225659
 20
42.4712384209
 11
57.993397639
 21
42.4116235494
  0
LINE
  5
243
100
AcDbEntity
  8
0
100
AcDbLine
 62
7
  6
BYLAYER
 10
58.446801398
 20
45.0739637421
 11
58.0094319124
 21
45.0140938486
  0
LINE
  5
244
100
AcDbEntity
  8
0
100
AcDbLine
 62
7
  6
BYLAYER
 10
61.7863763534
 20
42.8817033637
 11
62.2661070158
 21
42.9400493852
  0
LWPOLYLINE
  5
245
100
AcDbEntity
  8
0
100
AcDbPolyline
 62
7
  6
BYLAYER
 90
3
 70
0
 10
59.6265460166
 20
42.5886721305
 10
58.9846105569
 20
42.5305419606
 10
58.4242225659
 20
42.4712384209
  0
LWPOLYLINE
  5
246
100
AcDbEntity
  8
0
100
AcDbPolyline
 62
7
  6
BYLAYER
 90
4
 70
0
 10
59.6806465591
 20
43.8933173566
 10
59.0438882082
 20
43.8362452415
 10
58.5049957329
 20
43.7807632825
 10
58.0826521827
 20
43.7256668728
  0
LINE
  5
247
100
AcDbEntity
  8
0
100
AcDbLine
 62
7
  6
BYLAYER
 10
59.3224579815
 20
43.9612615124
 11
59.8941227145
 21
44.011452613
  0
LINE
  5
248
100
AcDbEntity
  8
0
100
AcDbLine
 62
7
  6
BYLAYER
 10
60.6032454094
 20
42.6716700233
 11
59.6265460166
 21
42.5886721305
  0
LWPOLYLINE
  5
249
100
AcDbEntity
  8
0
100
AcDbPolyline
 62
7
  6
BYLAYER
 90
4
 70
0
 10
60.6076786472
 20
45.2720837426
 10
59.6436913224
 20
45.1900972845
 10
59.0091175141
 20
45.1329317661
 10
58.446801398
 20
45.0739637421
  0
LWPOLYLINE
  5
24A
100
AcDbEntity
  8
0
100
AcDbPolyline
 62
7
  6
BYLAYER
 90
5
 70
0
 10
60.6395521955
 20
46.5748892601
 10
59.784668366
 20
46.5022056055
 10
59.202353012
 20
46.450896499
 10
58.6507029823
 20
46.3968473286
 10
58.1718151532
 20
46.3389315683
  0
LWPOLYLINE
  5
24B
100
AcDbEntity
  8
0
100
AcDbPolyline
 62
7
  6
BYLAYER
 90
4
 70
0
 10
59.825138103
 20
46.605635111
 10
60.7837647151
 20
46.6870840599
 10
61.4251578444
 20
46.7450237825
 10
61.9909355623
 20
46.8047078237
  0
LWPOLYLINE
  5
24C
100
AcDbEntity
  8
0
100
AcDbPolyline
 62
7
  6
BYLAYER
 90
4
 70
0
 10
59.8371596498
 20
42.7066047672
 10
60.4473148692
 20
42.7582941618
 10
61.1715524127
 20
42.8213889565
 10
61.7863763534
 20
42.8817033637
  0
LWPOLYLINE
  5
24D
100
AcDbEntity
  8
0
100
AcDbPolyline
 62
7
  6
BYLAYER
 90
5
 70
0
 10
59.8941227145
 20
44.011452613
 10
60.5249209571
 20
44.0649174553
 10
61.1750927853
 20
44.1217982604
 10
61.7763159138
 20
44.1805044864
 10
62.2601368602
 20
44.2391242922
  0
LWPOLYLINE
  5
24E
100
AcDbEntity
  8
0
100
AcDbPolyline
 62
7
  6
BYLAYER
 90
5
 70
0
 10
59.7479197416
 20
45.2989046661
 10
60.5978544045
 20
45.3711995104
 10
61.181549264
 20
45.4223315021
 10
61.743871083
 20
45.4769711107
 10
62.2344628847
 20
45.5357472961
  0
LINE
  5
24F
100
AcDbEntity
  8
0
100
AcDbLine
 62
7
  6
BYLAYER
 10
60.4683745345
 20
46.5595146455
 11
59.9514458724
 21
46.6175584038
  0
LWPOLYLINE
  5
250
100
AcDbEntity
  8
0
100
AcDbPolyline
 62
7
  6
BYLAYER
 90
7
 70
0
 10
58.0371660223
 20
45.1018704268
 10
58.038637143
 20
45.1016504071
 10
58.1705803944
 20
45.129060687
 10
58.4271291036
 20
45.1671515219
 10
58.7882117703
 20
45.2090648212
 10
59.2345883245
 20
45.2530758204
 10
59.7479197416
 20
45.2989046661
  0
LINE
  5
251
100
AcDbEntity
  8
0
100
AcDbLine
 62
7
  6
BYLAYER
 10
67.7110178027
 20
23.0815615836
 11
68.2110178027
 21
22.5815615836
  0
LWPOLYLINE
  5
252
100
AcDbEntity
  8
0
100
AcDbPolyline
 62
7
  6
BYLAYER
 90
7
 70
0
 10
62.3850508482
 20
50.6749790824
 10
62.3717704378
 20
50.6717163782
 10
62.1966088868
 20
50.6383531594
 10
61.8634428768
 20
50.59350867
 10
61.3975591771
 20
50.5437216294
 10
60.8159629672
 20
50.4901097912
 10
59.4003737994
 20
50.3688713713
  0
LWPOLYLINE
  5
253
100
AcDbEntity
  8
0
100
AcDbPolyline
 62
7
  6
BYLAYER
 90
7
 70
0
 10
62.3897054326
 20
46.7763618154
 10
62.3798390524
 20
46.7739811697
 10
62.2359600573
 20
46.7451083884
 10
61.9726867384
 20
46.7068517952
 10
61.6070161651
 20
46.6648203711
 10
61.156330072
 20
46.6207518367
 10
60.6395521955
 20
46.5748892601
  0
LWPOLYLINE
  5
254
100
AcDbEntity
  8
0
100
AcDbPolyline
 62
7
  6
BYLAYER
 90
7
 70
0
 10
58.0334444789
 20
47.7002772386
 10
58.1137975242
 20
47.7187450525
 10
58.3441812255
 20
47.7560429822
 10
58.6975862398
 20
47.7991866425
 10
59.1544291922
 20
47.8455321963
 10
59.7002875548
 20
47.8948336837
 10
60.9905190016
 20
48.0051547305
  0
LWPOLYLINE
  5
255
100
AcDbEntity
  8
0
100
AcDbPolyline
 62
7
  6
BYLAYER
 90
5
 70
0
 10
62.4525142493
 20
49.4691075202
 10
62.7491868208
 20
49.5372941375
 10
63.0384354793
 20
49.6903533233
 10
63.2527299219
 20
50.0825870198
 10
63.2583391332
 20
50.1639309853
  0
LWPOLYLINE
  5
256
100
AcDbEntity
  8
0
100
AcDbPolyline
 62
7
  6
BYLAYER
 90
11
 70
0
 10
62.3875984916
 20
49.3753488965
 10
62.3760888784
 20
49.3727307296
 10
62.1964537456
 20
49.338570209
 10
61.8683796941
 20
49.2940838167
 10
61.4163537679
 20
49.2454567585
 10
60.8615319822
 20
49.19415681
 10
60.5518328266
 20
49.1673365052
 10
59.8762404073
 20
49.1100800223
 10
59.1654417777
 20
49.0474847606
 10
58.530266978
 20
48.9835963936
 10
58.0577904021
 20
48.9221348439
  0
LWPOLYLINE
  5
257
100
AcDbEntity
  8
0
100
AcDbPolyline
 62
7
  6
BYLAYER
 90
5
 70
0
 10
57.9952504641
 20
47.6120222898
 10
57.6827622383
 20
47.542404937
 10
57.3823607283
 20
47.3855587216
 10
57.1668780848
 20
46.9798898671
 10
57.1630331813
 20
46.9125557801
  0
LWPOLYLINE
  5
258
100
AcDbEntity
  8
0
100
AcDbPolyline
 62
7
  6
BYLAYER
 90
5
 70
0
 10
62.423498477
 20
46.864313662
 10
62.7329063929
 20
46.9318183494
 10
63.0272151129
 20
47.0803877777
 10
63.2524188706
 20
47.4812172644
 10
63.2581102798
 20
47.563168854
  0
LWPOLYLINE
  5
259
100
AcDbEntity
  8
0
100
AcDbPolyline
 62
7
  6
BYLAYER
 90
3
 70
0
 10
58.0577904021
 20
48.9221348439
 10
57.7363873474
 20
48.8577318109
 10
57.4482706196
 20
48.7356955468
  0
LWPOLYLINE
  5
25A
100
AcDbEntity
  8
0
100
AcDbPolyline
 62
7
  6
BYLAYER
 90
5
 70
0
 10
62.3251900566
 20
50.7486979516
 10
62.6396158509
 20
50.8074308625
 10
62.8919126035
 20
50.8938454012
 10
63.1797543535
 20
51.1601171405
 10
63.2606520048
 20
51.4640138633
  0
LWPOLYLINE
  5
25B
100
AcDbEntity
  8
0
100
AcDbPolyline
 62
7
  6
BYLAYER
 90
5
 70
0
 10
58.1718151532
 20
46.3389315683
 10
57.8128215465
 20
46.2763997774
 10
57.5284128731
 20
46.1824274571
 10
57.2345369659
 20
45.9035517905
 10
57.1610209329
 20
45.6132714621
  0
LWPOLYLINE
  5
25C
100
AcDbEntity
  8
0
100
AcDbPolyline
 62
7
  6
BYLAYER
 90
5
 70
0
 10
58.1909280551
 20
50.2415552203
 10
57.8243032532
 20
50.1794614867
 10
57.5337259045
 20
50.0845644162
 10
57.2378038765
 20
49.8043855419
 10
57.1640363003
 20
49.5132283315
  0
LWPOLYLINE
  5
25D
100
AcDbEntity
  8
0
100
AcDbPolyline
 62
7
  6
BYLAYER
 90
5
 70
0
 10
62.1870567552
 20
48.1293182349
 10
62.5730097841
 20
48.1921264941
 10
62.8710008516
 20
48.2832364593
 10
63.175355467
 20
48.5545438113
 10
63.2586112788
 20
48.86284469
  0
LINE
  5
25E
100
AcDbEntity
  8
0
100
AcDbLine
 62
7
  6
BYLAYER
 10
62.0473409326
 20
49.4114063485
 11
62.4525142493
 21
49.4691075202
  0
LINE
  5
25F
100
AcDbEntity
  8
0
100
AcDbLine
 62
7
  6
BYLAYER
 10
58.4298931922
 20
47.6720169706
 11
57.9952504641
 21
47.6120222898
  0
LINE
  5
260
100
AcDbEntity
  8
0
100
AcDbLine
 62
7
  6
BYLAYER
 10
61.9909355623
 20
46.8047078237
 11
62.423498477
 21
46.864313662
  0
LWPOLYLINE
  5
261
100
AcDbEntity
  8
0
100
AcDbPolyline
 62
7
  6
BYLAYER
 90
7
 70
0
 10
58.0347832493
 20
50.3015013355
 10
58.0379215821
 20
50.3018149268
 10
58.175892722
 20
50.3299299976
 10
58.4380496245
 20
50.3683883521
 10
58.802667199
 20
50.4106337391
 10
59.2598638912
 20
50.4555013587
 10
59.7931593884
 20
50.5027984891
  0
LWPOLYLINE
  5
262
100
AcDbEntity
  8
0
100
AcDbPolyline
 62
7
  6
BYLAYER
 90
3
 70
0
 10
59.4003737994
 20
50.3688713713
 10
58.7189142518
 20
50.3038999524
 10
58.1909280551
 20
50.2415552203
  0
LWPOLYLINE
  5
263
100
AcDbEntity
  8
0
100
AcDbPolyline
 62
7
  6
BYLAYER
 90
3
 70
0
 10
60.9905190016
 20
48.0051547305
 10
61.6465655423
 20
48.0669146766
 10
62.1870567552
 20
48.1293182349
  0
LWPOLYLINE
  5
264
100
AcDbEntity
  8
0
100
AcDbPolyline
 62
7
  6
BYLAYER
 90
3
 70
0
 10
60.8330583829
 20
49.2913302248
 10
61.5024881088
 20
49.3526168687
 10
62.0473409326
 20
49.4114063485
  0
LWPOLYLINE
  5
265
100
AcDbEntity
  8
0
100
AcDbPolyline
 62
7
  6
BYLAYER
 90
4
 70
0
 10
60.6454622154
 20
47.8753403969
 10
59.6515296885
 20
47.7908371663
 10
58.9982005241
 20
47.7317503862
 10
58.4298931922
 20
47.6720169706
  0
LWPOLYLINE
  5
266
100
AcDbEntity
  8
0
100
AcDbPolyline
 62
7
  6
BYLAYER
 90
5
 70
0
 10
59.7931593884
 20
50.5027984891
 10
60.694721371
 20
50.5794480019
 10
61.3183752291
 20
50.6350192873
 10
61.8821782104
 20
50.6920325785
 10
62.3251900566
 20
50.7486979516
  0
LINE
  5
267
100
AcDbEntity
  8
0
100
AcDbLine
 62
7
  6
BYLAYER
 10
60.4637282255
 20
49.1600590704
 11
59.9544387839
 21
49.2171700385
  0
LINE
  5
268
100
AcDbEntity
  8
0
100
AcDbLine
 62
7
  6
BYLAYER
 10
60.470460238
 20
50.4592376496
 11
59.9514899242
 21
50.5174725695
  0
LINE
  5
269
100
AcDbEntity
  8
0
100
AcDbLine
 62
7
  6
BYLAYER
 10
60.4590122318
 20
50.459623799
 11
59.9574043604
 21
50.5168003725
  0
LINE
  5
26A
100
AcDbEntity
  8
0
100
AcDbLine
 62
7
  6
BYLAYER
 10
60.4649195596
 20
46.5599775785
 11
59.9628053512
 21
46.6173454465
  0
LWPOLYLINE
  5
26B
100
AcDbEntity
  8
0
100
AcDbPolyline
 62
7
  6
BYLAYER
 90
3
 70
0
 10
60.4614747079
 20
49.1596786512
 10
60.4072786934
 20
49.1663751299
 10
59.9651281401
 20
49.2174987415
  0
LWPOLYLINE
  5
26C
100
AcDbEntity
  8
0
100
AcDbPolyline
 62
7
  6
BYLAYER
 90
3
 70
0
 10
57.3940843855
 20
49.0312517929
 10
57.7120944766
 20
48.8751800893
 10
57.7671406603
 20
48.8638941874
  0
LWPOLYLINE
  5
26D
100
AcDbEntity
  8
0
100
AcDbPolyline
 62
7
  6
BYLAYER
 90
11
 70
0
 10
62.3900132837
 20
54.5766155908
 10
62.3766938929
 20
54.5732570609
 10
62.2241147079
 20
54.5430954099
 10
61.9483517794
 20
54.5037159254
 10
61.5608965199
 20
54.4600399122
 10
61.0756277047
 20
54.4133745621
 10
60.5099106925
 20
54.3637657205
 10
59.8914199763
 20
54.3113009146
 10
59.2637863379
 20
54.2565097489
 10
58.6777375369
 20
54.1997318411
 10
58.1845947394
 20
54.140675597
  0
LWPOLYLINE
  5
26E
100
AcDbEntity
  8
0
100
AcDbPolyline
 62
7
  6
BYLAYER
 90
7
 70
0
 10
62.3900631682
 20
53.2764254416
 10
62.3798926315
 20
53.2739445659
 10
62.2361792963
 20
53.2451477389
 10
61.9726862971
 20
53.2068782026
 10
61.6076056891
 20
53.1648804113
 10
61.156826862
 20
53.1207859698
 10
60.6376564604
 20
53.0747247918
  0
LWPOLYLINE
  5
26F
100
AcDbEntity
  8
0
100
AcDbPolyline
 62
7
  6
BYLAYER
 90
7
 70
0
 10
58.0348613373
 20
51.6009108746
 10
58.0461654839
 20
51.6036176806
 10
58.2169594132
 20
51.6369096704
 10
58.5439650665
 20
51.6816901003
 10
59.0084055578
 20
51.7314680175
 10
59.5879080184
 20
51.7849605819
 10
61.020345559
 20
51.9078467051
  0
LWPOLYLINE
  5
270
100
AcDbEntity
  8
0
100
AcDbPolyline
 62
7
  6
BYLAYER
 90
5
 70
0
 10
62.4542973298
 20
55.9694268716
 10
62.7508582495
 20
56.0378954397
 10
63.0426304472
 20
56.193932016
 10
63.2541918437
 20
56.5923853102
 10
63.2585468672
 20
56.6640250349
  0
LWPOLYLINE
  5
271
100
AcDbEntity
  8
0
100
AcDbPolyline
 62
7
  6
BYLAYER
 90
5
 70
0
 10
62.4379359501
 20
54.6668081523
 10
62.7427582851
 20
54.7347472562
 10
63.0409346834
 20
54.8915302372
 10
63.2535389856
 20
55.2872867438
 10
63.2583930684
 20
55.3629364502
  0
LWPOLYLINE
  5
272
100
AcDbEntity
  8
0
100
AcDbPolyline
 62
7
  6
BYLAYER
 90
11
 70
0
 10
62.3853025048
 20
51.9752289731
 10
62.3794533433
 20
51.9740742757
 10
62.2331282161
 20
51.9444449588
 10
61.9610381136
 20
51.9052624798
 10
61.5804693957
 20
51.8621496931
 10
61.1058343638
 20
51.816156978
 10
60.5507208365
 20
51.7672051154
 10
59.9352523702
 20
51.7150103489
 10
59.2980349902
 20
51.6596699937
 10
58.6981421434
 20
51.6018700787
 10
58.1948806267
 20
51.5419896055
  0
LWPOLYLINE
  5
273
100
AcDbEntity
  8
0
100
AcDbPolyline
 62
7
  6
BYLAYER
 90
5
 70
0
 10
62.2878991635
 20
53.3433307786
 10
62.6220420837
 20
53.4031930671
 10
62.8932137279
 20
53.4937740051
 10
63.1863484526
 20
53.7709679038
 10
63.2607110546
 20
54.0628987981
  0
LWPOLYLINE
  5
274
100
AcDbEntity
  8
0
100
AcDbPolyline
 62
7
  6
BYLAYER
 90
5
 70
0
 10
58.1501733948
 20
52.8358761604
 10
57.8024996991
 20
52.7740460565
 10
57.5254939839
 20
52.6808420569
 10
57.2340861603
 20
52.4023910399
 10
57.1610876658
 20
52.113037826
  0
LWPOLYLINE
  5
275
100
AcDbEntity
  8
0
100
AcDbPolyline
 62
7
  6
BYLAYER
 90
5
 70
0
 10
58.1845947394
 20
54.140675597
 10
57.8215169204
 20
54.0783784548
 10
57.5348836027
 20
53.9858330877
 10
57.2369094144
 20
53.7081984247
 10
57.1611374931
 20
53.4136923865
  0
LWPOLYLINE
  5
276
100
AcDbEntity
  8
0
100
AcDbPolyline
 62
7
  6
BYLAYER
 90
5
 70
0
 10
58.1948806267
 20
51.5419896055
 10
57.8259832405
 20
51.4795878076
 10
57.5392784847
 20
51.3882225292
 10
57.2406671466
 20
51.1130667079
 10
57.1625888982
 20
50.814147252
  0
LWPOLYLINE
  5
277
100
AcDbEntity
  8
0
100
AcDbPolyline
 62
7
  6
BYLAYER
 90
5
 70
0
 10
62.2068358524
 20
52.0319586256
 10
62.5741054196
 20
52.0925842502
 10
62.8673618401
 20
52.1813620252
 10
63.1757259811
 20
52.4527853052
 10
63.2600025572
 20
52.7626956087
  0
LINE
  5
278
100
AcDbEntity
  8
0
100
AcDbLine
 62
7
  6
BYLAYER
 10
62.0475697898
 20
55.911413583
 11
62.4542973298
 21
55.9694268716
  0
LINE
  5
279
100
AcDbEntity
  8
0
100
AcDbLine
 62
7
  6
BYLAYER
 10
58.4064285392
 20
55.4692734133
 11
57.9761713425
 21
55.4086981993
  0
LINE
  5
27A
100
AcDbEntity
  8
0
100
AcDbLine
 62
7
  6
BYLAYER
 10
62.0243395332
 20
54.6086872055
 11
62.4379359501
 21
54.6668081523
  0
LWPOLYLINE
  5
27B
100
AcDbEntity
  8
0
100
AcDbPolyline
 62
7
  6
BYLAYER
 90
3
 70
0
 10
61.020345559
 20
51.9078467051
 10
61.6917804952
 20
51.9715211589
 10
62.2068358524
 20
52.0319586256
  0
LWPOLYLINE
  5
27C
100
AcDbEntity
  8
0
100
AcDbPolyline
 62
7
  6
BYLAYER
 90
3
 70
0
 10
60.8303113815
 20
55.7910966973
 10
61.5008726256
 20
55.8524688155
 10
62.0475697898
 20
55.911413583
  0
LWPOLYLINE
  5
27D
100
AcDbEntity
  8
0
100
AcDbPolyline
 62
7
  6
BYLAYER
 90
3
 70
0
 10
59.5759585013
 20
55.5842593662
 10
58.9536266224
 20
55.5274439733
 10
58.4064285392
 20
55.4692734133
  0
LWPOLYLINE
  5
27E
100
AcDbEntity
  8
0
100
AcDbPolyline
 62
7
  6
BYLAYER
 90
5
 70
0
 10
60.6376564604
 20
53.0747247918
 10
59.7757398911
 20
53.0014508173
 10
59.1867861736
 20
52.9494609625
 10
58.6276551817
 20
52.8943679088
 10
58.1501733948
 20
52.8358761604
  0
LWPOLYLINE
  5
27F
100
AcDbEntity
  8
0
100
AcDbPolyline
 62
7
  6
BYLAYER
 90
4
 70
0
 10
59.780967783
 20
54.4018254886
 10
60.8030516013
 20
54.4887662532
 10
61.4713815565
 20
54.5494668408
 10
62.0243395332
 20
54.6086872055
  0
LINE
  5
280
100
AcDbEntity
  8
0
100
AcDbLine
 62
7
  6
BYLAYER
 10
60.4647854149
 20
53.059933736
 11
59.956736274
 21
53.11699168
  0
LINE
  5
281
100
AcDbEntity
  8
0
100
AcDbLine
 62
7
  6
BYLAYER
 10
60.4725205014
 20
51.7589777994
 11
59.9507963106
 21
51.8176276886
  0
LINE
  5
282
100
AcDbEntity
  8
0
100
AcDbLine
 62
7
  6
BYLAYER
 10
60.455225061
 20
53.0591540138
 11
60.1591737933
 21
53.0941825249
  0
LWPOLYLINE
  5
283
100
AcDbEntity
  8
0
100
AcDbPolyline
 62
7
  6
BYLAYER
 90
11
 70
0
 10
58.0363811606
 20
52.9017202536
 10
58.0378384252
 20
52.9015015395
 10
58.168048631
 20
52.9285788893
 10
58.4250859291
 20
52.9668489696
 10
58.8004560529
 20
53.0103811085
 10
59.2899685133
 20
53.058209901
 10
59.882552014
 20
53.1104716158
 10
60.5536298498
 20
53.1674241689
 10
61.2319336728
 20
53.2269561737
 10
61.8273548647
 20
53.2859333444
 10
62.2878991635
 20
53.3433307786
  0
LWPOLYLINE
  5
284
100
AcDbEntity
  8
0
100
AcDbPolyline
 62
7
  6
BYLAYER
 90
13
 70
0
 10
62.2768227293
 20
60.0196034665
 10
62.0409174431
 20
59.9615015003
 10
61.6134124844
 20
59.8868982909
 10
61.0315676017
 20
59.8056363951
 10
60.3439328566
 20
59.7212349396
 10
59.9800468318
 20
59.6785289702
 10
59.258368571
 20
59.5929454311
 10
58.6055427668
 20
59.5074537623
 10
58.0909082829
 20
59.4236963849
 10
57.7187597714
 20
59.3341735723
 10
57.385601224
 20
59.1586711796
 10
57.167457897
 20
58.7480807893
 10
57.1633714385
 20
58.6782306628
  0
LWPOLYLINE
  5
285
100
AcDbEntity
  8
0
100
AcDbPolyline
 62
7
  6
BYLAYER
 90
7
 70
0
 10
62.3870756675
 20
58.4758988964
 10
62.3738129019
 20
58.4726450128
 10
62.1946938278
 20
58.4381554064
 10
61.8605220095
 20
58.3929909793
 10
61.3927166905
 20
58.3432492413
 10
60.8106889813
 20
58.2897347243
 10
59.4098601917
 20
58.1696473251
  0
LWPOLYLINE
  5
286
100
AcDbEntity
  8
0
100
AcDbPolyline
 62
7
  6
BYLAYER
 90
5
 70
0
 10
57.9761713425
 20
55.4086981993
 10
57.6687653431
 20
55.3379453293
 10
57.3702225733
 20
55.1751983821
 10
57.1657177393
 20
54.7740345637
 10
57.1625034745
 20
54.7125136691
  0
LWPOLYLINE
  5
287
100
AcDbEntity
  8
0
100
AcDbPolyline
 62
7
  6
BYLAYER
 90
5
 70
0
 10
58.0087960052
 20
56.7142091874
 10
57.6839735498
 20
56.643255602
 10
57.3777417443
 20
56.4815906323
 10
57.1675390211
 20
56.0775435464
 10
57.1640439533
 20
56.0133714794
  0
LWPOLYLINE
  5
288
100
AcDbEntity
  8
0
100
AcDbPolyline
 62
7
  6
BYLAYER
 90
3
 70
0
 10
62.0198600427
 20
58.7464857189
 10
62.5001952609
 20
58.8462449317
 10
62.8562853061
 20
58.9731843065
  0
LWPOLYLINE
  5
289
100
AcDbEntity
  8
0
100
AcDbPolyline
 62
7
  6
BYLAYER
 90
5
 70
0
 10
62.2799055289
 20
57.2420266565
 10
62.6182003289
 20
57.3024347561
 10
62.8903666501
 20
57.3930202636
 10
63.1818317949
 20
57.6635278126
 10
63.2607930312
 20
57.9639246087
  0
LWPOLYLINE
  5
28A
100
AcDbEntity
  8
0
100
AcDbPolyline
 62
7
  6
BYLAYER
 90
5
 70
0
 10
58.2128886166
 20
58.0444752801
 10
57.8362666492
 20
57.9817515983
 10
57.5425508497
 20
57.8898027427
 10
57.2385917922
 20
57.6097993562
 10
57.1622821775
 20
57.3141574121
  0
LINE
  5
28B
100
AcDbEntity
  8
0
100
AcDbLine
 62
7
  6
BYLAYER
 10
58.4601801678
 20
56.7754651417
 11
58.0087960052
 21
56.7142091874
  0
LWPOLYLINE
  5
28C
100
AcDbEntity
  8
0
100
AcDbPolyline
 62
7
  6
BYLAYER
 90
3
 70
0
 10
60.7625078029
 20
58.5712549288
 10
61.4231229109
 20
58.6559514246
 10
62.0198600427
 20
58.7464857189
  0
LWPOLYLINE
  5
28D
100
AcDbEntity
  8
0
100
AcDbPolyline
 62
7
  6
BYLAYER
 90
3
 70
0
 10
59.4098601917
 20
58.1696473251
 10
58.7444580935
 20
58.1067062661
 10
58.2128886166
 20
58.0444752801
  0
LWPOLYLINE
  5
28E
100
AcDbEntity
  8
0
100
AcDbPolyline
 62
7
  6
BYLAYER
 90
4
 70
0
 10
60.6428096567
 20
56.9750723015
 10
59.6708184786
 20
56.8924978095
 10
59.0281076685
 20
56.834701433
 10
58.4601801678
 20
56.7754651417
  0
LWPOLYLINE
  5
28F
100
AcDbEntity
  8
0
100
AcDbPolyline
 62
7
  6
BYLAYER
 90
11
 70
0
 10
58.0359672784
 20
56.8019121011
 10
58.0380906837
 20
56.8018032352
 10
58.1864038653
 20
56.8317110882
 10
58.4662976088
 20
56.8720225547
 10
58.8585811801
 20
56.9164787304
 10
59.3496761521
 20
56.9637206563
 10
59.9268110694
 20
57.0142383155
 10
60.5708394123
 20
57.068851246
 10
61.2232039871
 20
57.126194795
 10
61.8112565253
 20
57.1842219782
 10
62.2799055289
 20
57.2420266565
  0
LINE
  5
290
100
AcDbEntity
  8
0
100
AcDbLine
 62
7
  6
BYLAYER
 10
60.469970359
 20
56.9592855015
 11
59.9546808068
 21
57.0171178617
  0
LINE
  5
291
100
AcDbEntity
  8
0
100
AcDbLine
 62
7
  6
BYLAYER
 10
60.4588137105
 20
56.959390368
 11
59.9570267401
 21
57.0168005728
  0
LWPOLYLINE
  5
292
100
AcDbEntity
  8
0
100
AcDbPolyline
 62
7
  6
BYLAYER
 90
3
 70
0
 10
62.3337302601
 20
58.676854996
 10
62.0033188951
 20
58.7210330846
 10
61.9155300037
 20
58.730657231
  0
LINE
  5
293
100
AcDbEntity
  8
0
100
AcDbLine
 62
7
  6
BYLAYER
 10
62.3324963819
 20
58.677040491
 11
62.3337302601
 21
58.676854996
  0
LINE
  5
294
100
AcDbEntity
  8
0
100
AcDbLine
 62
7
  6
BYLAYER
 10
62.9491120313
 20
37.9307692788
 11
63.1510178007
 21
37.6615615861
  0
LINE
  5
295
100
AcDbEntity
  8
0
100
AcDbLine
 62
7
  6
BYLAYER
 10
54.1610178027
 20
13.9815615836
 11
53.8610178027
 21
14.9815615836
  0
LINE
  5
296
100
AcDbEntity
  8
0
100
AcDbLine
 62
7
  6
BYLAYER
 10
60.8110178027
 20
62.5815610856
 11
60.3256185292
 21
62.5815615939
  0
LWPOLYLINE
  5
297
100
AcDbEntity
  8
0
100
AcDbPolyline
 62
7
  6
BYLAYER
 90
4
 70
0
 10
57.1620042703
 20
43.0142107223
 10
57.2455053614
 20
42.7056276409
 10
57.5436371819
 20
42.4375370148
 10
57.7750414904
 20
42.3631828711
  0
LWPOLYLINE
  5
298
100
AcDbEntity
  8
0
100
AcDbPolyline
 62
7
  6
BYLAYER
 90
4
 70
0
 10
57.1640117603
 20
41.7136144502
 10
57.2466985252
 20
41.4062412459
 10
57.544921157
 20
41.1368286889
 10
57.7764443463
 20
41.0627475032
  0
LWPOLYLINE
  5
299
100
AcDbEntity
  8
0
100
AcDbPolyline
 62
7
  6
BYLAYER
 90
4
 70
0
 10
57.1610436377
 20
39.1136195341
 10
57.2413213669
 20
38.8109122689
 10
57.5339949067
 20
38.5416577381
 10
57.801933347
 20
38.4528401446
  0
LWPOLYLINE
  5
29A
100
AcDbEntity
  8
0
100
AcDbPolyline
 62
7
  6
BYLAYER
 90
6
 70
0
 10
63.171857761
 20
59.8962711572
 10
62.9167527104
 20
60.2240071072
 10
62.330074412
 20
60.7641609713
 10
61.6478470213
 20
61.3198877961
 10
61.0563682604
 20
61.9407991511
 10
60.8106485268
 20
62.5815666348
  0
LINE
  5
29B
100
AcDbEntity
  8
0
100
AcDbLine
 62
7
  6
BYLAYER
 10
63.1712628808
 20
59.8958887309
 11
63.1712168544
 21
59.8959638345
  0
LINE
  5
29C
100
AcDbEntity
  8
0
100
AcDbLine
 62
7
  6
BYLAYER
 10
61.3100174729
 20
45.4348144832
 11
61.3447686281
 21
45.339336469
  0
LINE
  5
29D
100
AcDbEntity
  8
0
100
AcDbLine
 62
7
  6
BYLAYER
 10
61.7668841778
 20
44.1795835278
 11
61.8003815895
 21
44.0875501454
  0
LWPOLYLINE
  5
29E
100
AcDbEntity
  8
0
100
AcDbPolyline
 62
7
  6
BYLAYER
 90
4
 70
0
 10
57.1610877737
 20
52.1131729237
 10
57.2443869921
 20
51.8051404175
 10
57.5430426104
 20
51.5370824017
 10
57.775075674
 20
51.4633649027
  0
LWPOLYLINE
  5
29F
100
AcDbEntity
  8
0
100
AcDbPolyline
 62
7
  6
BYLAYER
 90
4
 70
0
 10
57.1622822643
 20
57.3142423074
 10
57.2452162583
 20
57.0066174824
 10
57.5450740703
 20
56.7369349054
 10
57.7767792425
 20
56.663527897
  0
LWPOLYLINE
  5
2A0
100
AcDbEntity
  8
0
100
AcDbPolyline
 62
7
  6
BYLAYER
 90
4
 70
0
 10
57.1640440442
 20
56.0135056289
 10
57.2466828938
 20
55.7062138938
 10
57.5501679004
 20
55.4342754195
 10
57.7797162796
 20
55.363481907
  0
LWPOLYLINE
  5
2A1
100
AcDbEntity
  8
0
100
AcDbPolyline
 62
7
  6
BYLAYER
 90
4
 70
0
 10
57.1611375527
 20
53.4138127371
 10
57.2422855764
 20
53.1095278426
 10
57.5371650528
 20
52.8402702959
 10
57.7711887631
 20
52.7635108787
  0
LWPOLYLINE
  5
2A2
100
AcDbEntity
  8
0
100
AcDbPolyline
 62
7
  6
BYLAYER
 90
4
 70
0
 10
57.1610210333
 20
45.6133909431
 10
57.2415760339
 20
45.3102118888
 10
57.5375514118
 20
45.0398123709
 10
57.7743035475
 20
44.9635703895
  0
LWPOLYLINE
  5
2A3
100
AcDbEntity
  8
0
100
AcDbPolyline
 62
7
  6
BYLAYER
 90
4
 70
0
 10
57.1630332124
 20
46.9127254229
 10
57.2437076098
 20
46.6090314221
 10
57.5408838884
 20
46.3378672925
 10
57.7732926482
 20
46.2633389159
  0
LWPOLYLINE
  5
2A4
100
AcDbEntity
  8
0
100
AcDbPolyline
 62
7
  6
BYLAYER
 90
4
 70
0
 10
57.1625035519
 20
54.7126592043
 10
57.2429118876
 20
54.4095023427
 10
57.5446045647
 20
54.1359989338
 10
57.776088586
 20
54.0637109977
  0
LWPOLYLINE
  5
2A5
100
AcDbEntity
  8
0
100
AcDbPolyline
 62
7
  6
BYLAYER
 90
4
 70
0
 10
57.1636772682
 20
48.2137488014
 10
57.2435789863
 20
47.9113512097
 10
57.5461234891
 20
47.6362771829
 10
57.7784840069
 20
47.5637302081
  0
LWPOLYLINE
  5
2A6
100
AcDbEntity
  8
0
100
AcDbPolyline
 62
7
  6
BYLAYER
 90
4
 70
0
 10
57.1625889332
 20
50.814228074
 10
57.2413649778
 20
50.5139750244
 10
57.5321123875
 20
50.2432435327
 10
57.7724066419
 20
50.1625130342
  0
LWPOLYLINE
  5
2A7
100
AcDbEntity
  8
0
100
AcDbPolyline
 62
7
  6
BYLAYER
 90
4
 70
0
 10
57.1628882992
 20
44.3141935321
 10
57.2412934271
 20
44.0145797773
 10
57.532599991
 20
43.7430389793
 10
57.7736490923
 20
43.6629847791
  0
LWPOLYLINE
  5
2A8
100
AcDbEntity
  8
0
100
AcDbPolyline
 62
7
  6
BYLAYER
 90
5
 70
0
 10
57.1633529008
 20
58.678379964
 10
57.2390089845
 20
58.3816032438
 10
57.53968529
 20
58.0953527952
 10
57.842656807
 20
57.9893375424
 10
57.8609171652
 20
57.9858569646
  0
LWPOLYLINE
  5
2A9
100
AcDbEntity
  8
0
100
AcDbPolyline
 62
7
  6
BYLAYER
 90
3
 70
0
 10
57.1640364325
 20
49.5133705242
 10
57.1700346005
 20
49.4292322335
 10
57.3940843855
 20
49.0312517929
  0
LWPOLYLINE
  5
2AA
100
AcDbEntity
  8
0
100
AcDbPolyline
 62
7
  6
BYLAYER
 90
5
 70
0
 10
57.1627416316
 20
40.4126751568
 10
57.1676285507
 20
40.3367927962
 10
57.3822093668
 20
39.9397360447
 10
57.6778159905
 20
39.7852255178
 10
57.7728003975
 20
39.763911862
  0
LINE
  5
2AB
100
AcDbEntity
  8
0
100
AcDbLine
 62
7
  6
BYLAYER
 10
52.2110178027
 20
22.5815615836
 11
52.2110178027
 21
21.5815615836
  0
LINE
  5
2AC
100
AcDbEntity
  8
0
100
AcDbLine
 62
7
  6
BYLAYER
 10
52.7110178027
 20
23.0815615836
 11
52.7110178027
 21
23.5815615836
  0
LINE
  5
2AD
100
AcDbEntity
  8
0
100
AcDbLine
 62
7
  6
BYLAYER
 10
52.7110178027
 20
25.1815615836
 11
52.7110178027
 21
27.3815615836
  0
LINE
  5
2AE
100
AcDbEntity
  8
0
100
AcDbLine
 62
7
  6
BYLAYER
 10
52.8601047886
 20
21.5815615836
 11
52.8601047886
 21
19.4715615836
  0
LINE
  5
2AF
100
AcDbEntity
  8
0
100
AcDbLine
 62
7
  6
BYLAYER
 10
52.861468316
 20
21.5815615836
 11
52.861468316
 21
19.4715615836
  0
LINE
  5
2B0
100
AcDbEntity
  8
0
100
AcDbLine
 62
7
  6
BYLAYER
 10
52.8886342952
 20
21.5815615836
 11
52.8886342952
 21
19.4715615836
  0
LINE
  5
2B1
100
AcDbEntity
  8
0
100
AcDbLine
 62
7
  6
BYLAYER
 10
53.0263953923
 20
19.4715615836
 11
53.0263953923
 21
21.5815615836
  0
LINE
  5
2B2
100
AcDbEntity
  8
0
100
AcDbLine
 62
7
  6
BYLAYER
 10
53.3209959296
 20
21.5815615836
 11
53.3209959296
 21
19.4715615836
  0
LINE
  5
2B3
100
AcDbEntity
  8
0
100
AcDbLine
 62
7
  6
BYLAYER
 10
53.3351619886
 20
21.5815615836
 11
53.3351619886
 21
19.4715615836
  0
LINE
  5
2B4
100
AcDbEntity
  8
0
100
AcDbLine
 62
7
  6
BYLAYER
 10
53.4148086096
 20
21.5815615836
 11
53.4148086096
 21
19.4715615836
  0
LINE
  5
2B5
100
AcDbEntity
  8
0
100
AcDbLine
 62
7
  6
BYLAYER
 10
53.5897660617
 20
19.4715615836
 11
53.5897660617
 21
21.5815615836
  0
LINE
  5
2B6
100
AcDbEntity
  8
0
100
AcDbLine
 62
7
  6
BYLAYER
 10
53.8610178027
 20
14.9815615836
 11
53.8610178027
 21
15.7815615836
  0
LINE
  5
2B7
100
AcDbEntity
  8
0
100
AcDbLine
 62
7
  6
BYLAYER
 10
53.8610178027
 20
16.9815615836
 11
53.8610178027
 21
18.1315615836
  0
LINE
  5
2B8
100
AcDbEntity
  8
0
100
AcDbLine
 62
7
  6
BYLAYER
 10
54.1451210387
 20
21.5815615836
 11
54.1451210387
 21
19.4715615836
  0
LINE
  5
2B9
100
AcDbEntity
  8
0
100
AcDbLine
 62
7
  6
BYLAYER
 10
54.3124545099
 20
19.4715615836
 11
54.3124545099
 21
21.5815615836
  0
LINE
  5
2BA
100
AcDbEntity
  8
0
100
AcDbLine
 62
7
  6
BYLAYER
 10
54.6110178027
 20
15.7815615836
 11
54.6110178027
 21
16.9815615836
  0
LINE
  5
2BB
100
AcDbEntity
  8
0
100
AcDbLine
 62
7
  6
BYLAYER
 10
54.7110178027
 20
18.1315615836
 11
54.7110178027
 21
19.4715615836
  0
LINE
  5
2BC
100
AcDbEntity
  8
0
100
AcDbLine
 62
7
  6
BYLAYER
 10
59.6110178027
 20
62.5815620488
 11
59.6110254246
 21
62.5815390201
  0
LWPOLYLINE
  5
2BD
100
AcDbEntity
  8
0
100
AcDbPolyline
 62
7
  6
BYLAYER
 90
5
 70
0
 10
59.6113871419
 20
62.5815382653
 10
59.8868367281
 20
61.5517301777
 10
60.8112553548
 20
60.458530292
 10
61.3175596473
 20
60.0382542876
 10
61.5098164517
 20
59.8724298127
  0
LWPOLYLINE
  5
2BE
100
AcDbEntity
  8
0
100
AcDbPolyline
 62
7
  6
BYLAYER
 90
4
 70
0
 10
63.2581103805
 20
47.5630165544
 10
63.1809925569
 20
47.8603932063
 10
62.8762864354
 20
48.1402329189
 10
62.6419891879
 20
48.2132167608
  0
LWPOLYLINE
  5
2BF
100
AcDbEntity
  8
0
100
AcDbPolyline
 62
7
  6
BYLAYER
 90
4
 70
0
 10
63.2605356277
 20
39.7626761246
 10
63.1841201121
 20
40.0584970859
 10
62.8793563069
 20
40.3389293167
 10
62.6444357519
 20
40.4125789991
  0
LWPOLYLINE
  5
2C0
100
AcDbEntity
  8
0
100
AcDbPolyline
 62
7
  6
BYLAYER
 90
4
 70
0
 10
63.2602755089
 20
38.4640239684
 10
63.1842039353
 20
38.7591792294
 10
62.8806408718
 20
39.0392142333
 10
62.6456337824
 20
39.1133608516
  0
LWPOLYLINE
  5
2C1
100
AcDbEntity
  8
0
100
AcDbPolyline
 62
7
  6
BYLAYER
 90
4
 70
0
 10
63.2587362639
 20
42.3640203364
 10
63.1839643123
 20
42.6569309951
 10
62.8818323126
 20
42.9384732034
 10
62.6466147931
 20
43.0123502443
  0
LWPOLYLINE
  5
2C2
100
AcDbEntity
  8
0
100
AcDbPolyline
 62
7
  6
BYLAYER
 90
4
 70
0
 10
63.2604111443
 20
44.9640370453
 10
63.1872464323
 20
45.253734112
 10
62.8900958633
 20
45.5346217189
 10
62.6481641094
 20
45.6137106354
  0
LWPOLYLINE
  5
2C3
100
AcDbEntity
  8
0
100
AcDbPolyline
 62
7
  6
BYLAYER
 90
4
 70
0
 10
63.2606520772
 20
51.4639289326
 10
63.1875671998
 20
51.7534381076
 10
62.8899734787
 20
52.0346030561
 10
62.6455381281
 20
52.1142091371
  0
LWPOLYLINE
  5
2C4
100
AcDbEntity
  8
0
100
AcDbPolyline
 62
7
  6
BYLAYER
 90
4
 70
0
 10
63.2607110621
 20
54.0627857918
 10
63.1880346508
 20
54.3515819432
 10
62.8958396
 20
54.6309961436
 10
62.6482476828
 20
54.7136826395
  0
LWPOLYLINE
  5
2C5
100
AcDbEntity
  8
0
100
AcDbPolyline
 62
7
  6
BYLAYER
 90
4
 70
0
 10
63.2582173888
 20
43.6636909264
 10
63.18551224
 20
43.9527948175
 10
62.8834197533
 20
44.2373727767
 10
62.6456177647
 20
44.3121351407
  0
LWPOLYLINE
  5
2C6
100
AcDbEntity
  8
0
100
AcDbPolyline
 62
7
  6
BYLAYER
 90
4
 70
0
 10
63.2583392474
 20
50.1638282865
 10
63.1866428915
 20
50.4509866008
 10
62.8943724173
 20
50.7320975162
 10
62.6534366765
 20
50.8121646542
  0
LWPOLYLINE
  5
2C7
100
AcDbEntity
  8
0
100
AcDbPolyline
 62
7
  6
BYLAYER
 90
4
 70
0
 10
63.2586113976
 20
48.8626946099
 10
63.1870298334
 20
49.1496632371
 10
62.8993757365
 20
49.428716276
 10
62.6507712374
 20
49.514674501
  0
LWPOLYLINE
  5
2C8
100
AcDbEntity
  8
0
100
AcDbPolyline
 62
7
  6
BYLAYER
 90
4
 70
0
 10
63.2600027126
 20
52.7625420988
 10
63.1937509888
 20
53.0389390713
 10
62.9150387818
 20
53.3207392977
 10
62.656709989
 20
53.4147733759
  0
LWPOLYLINE
  5
2C9
100
AcDbEntity
  8
0
100
AcDbPolyline
 62
7
  6
BYLAYER
 90
5
 70
0
 10
63.258250738
 20
41.0628747011
 10
63.2543925223
 20
41.130327832
 10
63.0408820639
 20
41.5342971823
 10
62.726399859
 20
41.6965135526
 10
62.6476327543
 20
41.7133913021
  0
LINE
  5
2CA
100
AcDbEntity
  8
0
100
AcDbLine
 62
7
  6
BYLAYER
 10
57.1633714385
 20
58.6782306628
 11
57.1633714175
 21
58.6784128264
  0
LINE
  5
2CB
100
AcDbEntity
  8
0
100
AcDbLine
 62
7
  6
BYLAYER
 10
58.2110178027
 20
38.5815615836
 11
58.2110178027
 21
38.6352141559
  0
LINE
  5
2CC
100
AcDbEntity
  8
0
100
AcDbLine
 62
7
  6
BYLAYER
 10
58.2110178027
 20
39.8432375512
 11
58.2110178027
 21
39.9353266543
  0
LINE
  5
2CD
100
AcDbEntity
  8
0
100
AcDbLine
 62
7
  6
BYLAYER
 10
58.2110178027
 20
41.1417989595
 11
58.2110178027
 21
41.2343567793
  0
LINE
  5
2CE
100
AcDbEntity
  8
0
100
AcDbLine
 62
7
  6
BYLAYER
 10
58.2110178027
 20
42.441736473
 11
58.2110178027
 21
42.5345888597
  0
LINE
  5
2CF
100
AcDbEntity
  8
0
100
AcDbLine
 62
7
  6
BYLAYER
 10
58.4610178027
 20
13.9815615836
 11
58.4610178027
 21
13.8315615836
  0
LINE
  5
2D0
100
AcDbEntity
  8
0
100
AcDbLine
 62
7
  6
BYLAYER
 10
59.6110178027
 20
62.5815620512
 11
59.6110178027
 21
153.5815615836
  0
LINE
  5
2D1
100
AcDbEntity
  8
0
100
AcDbLine
 62
7
  6
BYLAYER
 10
60.8110178027
 20
62.5815610856
 11
60.8110178027
 21
153.5815615836
  0
LINE
  5
2D2
100
AcDbEntity
  8
0
100
AcDbLine
 62
7
  6
BYLAYER
 10
57.1625888982
 20
50.814147252
 11
57.1625889337
 21
50.8142676941
  0
LINE
  5
2D3
100
AcDbEntity
  8
0
100
AcDbLine
 62
7
  6
BYLAYER
 10
57.1630331813
 20
46.9125557801
 11
57.1630332147
 21
46.9126856241
  0
LINE
  5
2D4
100
AcDbEntity
  8
0
100
AcDbLine
 62
7
  6
BYLAYER
 10
57.1636772315
 20
48.2135797848
 11
57.1636772706
 21
48.213710839
  0
LINE
  5
2D5
100
AcDbEntity
  8
0
100
AcDbLine
 62
7
  6
BYLAYER
 10
57.1628882592
 20
44.3141046009
 11
57.1628882994
 21
44.3142231253
  0
LINE
  5
2D6
100
AcDbEntity
  8
0
100
AcDbLine
 62
7
  6
BYLAYER
 10
57.1611374931
 20
53.4136923865
 11
57.1611375527
 21
53.4138133332
  0
LINE
  5
2D7
100
AcDbEntity
  8
0
100
AcDbLine
 62
7
  6
BYLAYER
 10
57.1622821775
 20
57.3141574121
 11
57.1622822649
 21
57.3142858332
  0
LINE
  5
2D8
100
AcDbEntity
  8
0
100
AcDbLine
 62
7
  6
BYLAYER
 10
57.1625034745
 20
54.7125136691
 11
57.1625035532
 21
54.712631101
  0
LINE
  5
2D9
100
AcDbEntity
  8
0
100
AcDbLine
 62
7
  6
BYLAYER
 10
57.1640439533
 20
56.0133714794
 11
57.1640440443
 21
56.0135015881
  0
LINE
  5
2DA
100
AcDbEntity
  8
0
100
AcDbLine
 62
7
  6
BYLAYER
 10
57.1627415576
 20
40.4125180818
 11
57.1627416342
 21
40.4126315465
  0
LINE
  5
2DB
100
AcDbEntity
  8
0
100
AcDbLine
 62
7
  6
BYLAYER
 10
57.1640116724
 20
41.7135008922
 11
57.1640117602
 21
41.7136302961
  0
LINE
  5
2DC
100
AcDbEntity
  8
0
100
AcDbLine
 62
7
  6
BYLAYER
 10
57.1610435581
 20
39.1135218308
 11
57.1610436376
 21
39.1136327237
  0
LINE
  5
2DD
100
AcDbEntity
  8
0
100
AcDbLine
 62
7
  6
BYLAYER
 10
57.1610876658
 20
52.113037826
 11
57.1610877743
 21
52.1131585358
  0
LINE
  5
2DE
100
AcDbEntity
  8
0
100
AcDbLine
 62
7
  6
BYLAYER
 10
57.1610209329
 20
45.6132714621
 11
57.1610210332
 21
45.6133958452
  0
LINE
  5
2DF
100
AcDbEntity
  8
0
100
AcDbLine
 62
7
  6
BYLAYER
 10
57.1640363003
 20
49.5132283315
 11
57.1640364328
 21
49.5133624495
  0
LINE
  5
2E0
100
AcDbEntity
  8
0
100
AcDbLine
 62
7
  6
BYLAYER
 10
57.1620041402
 20
43.0141213676
 11
57.1620042703
 21
43.0142393953
  0
LWPOLYLINE
  5
2E1
100
AcDbEntity
  8
0
100
AcDbPolyline
 62
7
  6
BYLAYER
 90
6
 70
0
 10
63.260793166
 20
57.9638573555
 10
63.206421141
 20
58.2149190388
 10
62.949780356
 20
58.5020793097
 10
62.8140501525
 20
58.5673165387
 10
62.554316813
 20
58.638230838
 10
62.3324692598
 20
58.6768646312
  0
LWPOLYLINE
  5
2E2
100
AcDbEntity
  8
0
100
AcDbPolyline
 62
7
  6
BYLAYER
 90
5
 70
0
 10
63.2585468908
 20
56.6639419559
 10
63.2549602368
 20
56.7289019034
 10
63.0425151506
 20
57.1340355258
 10
62.7317356542
 20
57.2953766163
 10
62.6497336742
 20
57.3129300447
  0
LWPOLYLINE
  5
2E3
100
AcDbEntity
  8
0
100
AcDbPolyline
 62
7
  6
BYLAYER
 90
5
 70
0
 10
63.258393111
 20
55.3627836463
 10
63.2548887454
 20
55.4270610914
 10
63.0450947562
 20
55.8306362738
 10
62.7418385301
 20
55.9917547028
 10
62.6446176647
 20
56.0133671211
  0
LWPOLYLINE
  5
2E4
100
AcDbEntity
  8
0
100
AcDbPolyline
 62
7
  6
BYLAYER
 90
5
 70
0
 10
63.2602752112
 20
46.2625753231
 10
63.2568945853
 20
46.3256635575
 10
63.0482453005
 20
46.7289540435
 10
62.7598552156
 20
46.8858263453
 10
62.6458965297
 20
46.9128350807
  0
LINE
  5
2E5
100
AcDbEntity
  8
0
100
AcDbLine
 62
7
  6
BYLAYER
 10
63.260793166
 20
57.9638573555
 11
63.2607930313
 21
57.9639382858
  0
LINE
  5
2E6
100
AcDbEntity
  8
0
100
AcDbLine
 62
7
  6
BYLAYER
 10
63.2600027126
 20
52.7625420988
 11
63.2600025547
 21
52.7626556148
  0
LINE
  5
2E7
100
AcDbEntity
  8
0
100
AcDbLine
 62
7
  6
BYLAYER
 10
63.2587362639
 20
42.3640203364
 11
63.2587361375
 21
42.3641539194
  0
LINE
  5
2E8
100
AcDbEntity
  8
0
100
AcDbLine
 62
7
  6
BYLAYER
 10
63.2604111443
 20
44.9640370453
 11
63.2604110231
 21
44.9641597186
  0
LINE
  5
2E9
100
AcDbEntity
  8
0
100
AcDbLine
 62
7
  6
BYLAYER
 10
63.2586113976
 20
48.8626946099
 11
63.2586112775
 21
48.862817942
  0
LINE
  5
2EA
100
AcDbEntity
  8
0
100
AcDbLine
 62
7
  6
BYLAYER
 10
63.2583392474
 20
50.1638282865
 11
63.2583391334
 21
50.163949527
  0
LINE
  5
2EB
100
AcDbEntity
  8
0
100
AcDbLine
 62
7
  6
BYLAYER
 10
63.2581103805
 20
47.5630165544
 11
63.2581102794
 21
47.563158146
  0
LINE
  5
2EC
100
AcDbEntity
  8
0
100
AcDbLine
 62
7
  6
BYLAYER
 10
63.2605356277
 20
39.7626761246
 11
63.2605355575
 21
39.7628056703
  0
LINE
  5
2ED
100
AcDbEntity
  8
0
100
AcDbLine
 62
7
  6
BYLAYER
 10
63.2602752112
 20
46.2625753231
 11
63.2602751457
 21
46.2626953709
  0
LINE
  5
2EE
100
AcDbEntity
  8
0
100
AcDbLine
 62
7
  6
BYLAYER
 10
63.2606520772
 20
51.4639289326
 11
63.2606520047
 21
51.4640429721
  0
LINE
  5
2EF
100
AcDbEntity
  8
0
100
AcDbLine
 62
7
  6
BYLAYER
 10
63.258393111
 20
55.3627836463
 11
63.2583930669
 21
55.3629049894
  0
LINE
  5
2F0
100
AcDbEntity
  8
0
100
AcDbLine
 62
7
  6
BYLAYER
 10
63.258250738
 20
41.0628747011
 11
63.2582507109
 21
41.0630008217
  0
LINE
  5
2F1
100
AcDbEntity
  8
0
100
AcDbLine
 62
7
  6
BYLAYER
 10
63.2585468908
 20
56.6639419559
 11
63.2585468669
 21
56.6640582862
  0
LINE
  5
2F2
100
AcDbEntity
  8
0
100
AcDbLine
 62
7
  6
BYLAYER
 10
63.2582173888
 20
43.6636909264
 11
63.2582173749
 21
43.6637972158
  0
LINE
  5
2F3
100
AcDbEntity
  8
0
100
AcDbLine
 62
7
  6
BYLAYER
 10
61.9610178027
 20
13.9815615836
 11
61.9610178027
 21
13.8315615836
  0
LINE
  5
2F4
100
AcDbEntity
  8
0
100
AcDbLine
 62
7
  6
BYLAYER
 10
62.2110178027
 20
38.8825839695
 11
62.2110178027
 21
39.0328277621
  0
LINE
  5
2F5
100
AcDbEntity
  8
0
100
AcDbLine
 62
7
  6
BYLAYER
 10
62.2110178027
 20
40.2417975358
 11
62.2110178027
 21
40.3329677915
  0
LINE
  5
2F6
100
AcDbEntity
  8
0
100
AcDbLine
 62
7
  6
BYLAYER
 10
62.2110178027
 20
41.542475817
 11
62.2110178027
 21
41.6349526189
  0
LINE
  5
2F7
100
AcDbEntity
  8
0
100
AcDbLine
 62
7
  6
BYLAYER
 10
62.2110178027
 20
42.8423510185
 11
62.2110178027
 21
42.9333492998
  0
LINE
  5
2F8
100
AcDbEntity
  8
0
100
AcDbLine
 62
7
  6
BYLAYER
 10
63.2607110621
 20
54.0627857918
 11
63.2607110542
 21
54.0628845749
  0
LINE
  5
2F9
100
AcDbEntity
  8
0
100
AcDbLine
 62
7
  6
BYLAYER
 10
63.2602755089
 20
38.4640239684
 11
63.2602755122
 21
38.4641311888
  0
LINE
  5
2FA
100
AcDbEntity
  8
0
100
AcDbLine
 62
7
  6
BYLAYER
 10
65.7110178027
 20
18.1315615836
 11
65.7110178027
 21
19.4715615836
  0
LINE
  5
2FB
100
AcDbEntity
  8
0
100
AcDbLine
 62
7
  6
BYLAYER
 10
65.8110178027
 20
15.7815615836
 11
65.8110178027
 21
16.9815615836
  0
LINE
  5
2FC
100
AcDbEntity
  8
0
100
AcDbLine
 62
7
  6
BYLAYER
 10
66.1095810053
 20
21.5815615836
 11
66.1095810053
 21
19.4715615836
  0
LINE
  5
2FD
100
AcDbEntity
  8
0
100
AcDbLine
 62
7
  6
BYLAYER
 10
66.2769145667
 20
19.4715615836
 11
66.2769145667
 21
21.5815615836
  0
LINE
  5
2FE
100
AcDbEntity
  8
0
100
AcDbLine
 62
7
  6
BYLAYER
 10
66.5610178027
 20
14.9815615836
 11
66.5610178027
 21
15.7815615836
  0
LINE
  5
2FF
100
AcDbEntity
  8
0
100
AcDbLine
 62
7
  6
BYLAYER
 10
66.5610178027
 20
16.9815615836
 11
66.5610178027
 21
18.1315615836
  0
LINE
  5
300
100
AcDbEntity
  8
0
100
AcDbLine
 62
7
  6
BYLAYER
 10
66.8322695436
 20
21.5815615836
 11
66.8322695436
 21
19.4715615836
  0
LINE
  5
301
100
AcDbEntity
  8
0
100
AcDbLine
 62
7
  6
BYLAYER
 10
67.0072269957
 20
21.5815615836
 11
67.0072269957
 21
19.4715615836
  0
LINE
  5
302
100
AcDbEntity
  8
0
100
AcDbLine
 62
7
  6
BYLAYER
 10
67.0868736167
 20
21.5815615836
 11
67.0868736167
 21
19.4715615836
  0
LINE
  5
303
100
AcDbEntity
  8
0
100
AcDbLine
 62
7
  6
BYLAYER
 10
67.1010396758
 20
21.5815615836
 11
67.1010396758
 21
19.4715615836
  0
LINE
  5
304
100
AcDbEntity
  8
0
100
AcDbLine
 62
7
  6
BYLAYER
 10
67.395640213
 20
21.5815615836
 11
67.395640213
 21
19.4715615836
  0
LINE
  5
305
100
AcDbEntity
  8
0
100
AcDbLine
 62
7
  6
BYLAYER
 10
67.5334013101
 20
21.5815615836
 11
67.5334013101
 21
19.4715615836
  0
LINE
  5
306
100
AcDbEntity
  8
0
100
AcDbLine
 62
7
  6
BYLAYER
 10
67.5605672893
 20
21.5815615836
 11
67.5605672893
 21
19.4715615836
  0
LINE
  5
307
100
AcDbEntity
  8
0
100
AcDbLine
 62
7
  6
BYLAYER
 10
67.5619308167
 20
21.5815615836
 11
67.5619308167
 21
19.4715615836
  0
LINE
  5
308
100
AcDbEntity
  8
0
100
AcDbLine
 62
7
  6
BYLAYER
 10
67.7110178027
 20
23.0815615836
 11
67.7110178027
 21
23.5815615836
  0
LINE
  5
309
100
AcDbEntity
  8
0
100
AcDbLine
 62
7
  6
BYLAYER
 10
67.7110178027
 20
25.1815615836
 11
67.7110178027
 21
27.3815615836
  0
LINE
  5
30A
100
AcDbEntity
  8
0
100
AcDbLine
 62
7
  6
BYLAYER
 10
68.2110178027
 20
22.5815615836
 11
68.2110178027
 21
21.5815615836
  0
LINE
  5
30B
100
AcDbEntity
  8
0
100
AcDbLine
 62
7
  6
BYLAYER
 10
59.0388462582
 20
45.2337764109
 11
59.0018649934
 21
45.1321712209
  0
LINE
  5
30C
100
AcDbEntity
  8
0
100
AcDbLine
 62
7
  6
BYLAYER
 10
58.5464795723
 20
43.8810100593
 11
58.5101872706
 21
43.7812977801
  0
LWPOLYLINE
  5
30D
100
AcDbEntity
  8
0
100
AcDbPolyline
 62
7
  6
BYLAYER
 90
7
 70
0
 10
62.3847688489
 20
40.2745332858
 10
62.3850941776
 20
40.2754182674
 10
62.2542573491
 20
40.2482568761
 10
62.0046907469
 20
40.2109753659
 10
61.6517077394
 20
40.1695534769
 10
61.2078060503
 20
40.1255409525
 10
60.6871125604
 20
40.078993854
  0
LINE
  5
30E
100
AcDbEntity
  8
0
100
AcDbLine
 62
7
  6
BYLAYER
 10
57.1636772706
 20
48.213710839
 11
57.1748336044
 21
48.2315615699
  0
LWPOLYLINE
  5
30F
100
AcDbEntity
  8
0
100
AcDbPolyline
 62
7
  6
BYLAYER
 90
3
 70
0
 10
57.3823961021
 20
48.6861455959
 10
57.24180421
 20
48.5128078922
 10
57.1636772315
 20
48.2135797848
  0
LWPOLYLINE
  5
310
100
AcDbEntity
  8
0
100
AcDbPolyline
 62
7
  6
BYLAYER
 90
3
 70
0
 10
62.8562853061
 20
58.9731843065
 10
63.1810544683
 20
59.2752690476
 10
63.2605731079
 20
59.5671340582
  0
LINE
  5
311
100
AcDbEntity
  8
0
100
AcDbLine
 62
7
  6
BYLAYER
 10
62.3116152818
 20
60.0319254613
 11
62.2768227293
 21
60.0196034665
  0
LWPOLYLINE
  5
312
100
AcDbEntity
  8
0
100
AcDbPolyline
 62
7
  6
BYLAYER
 90
7
 70
0
 10
58.0737205108
 20
58.1955310322
 10
58.1075659824
 20
58.2059978741
 10
58.3217709801
 20
58.2537620021
 10
58.6853977008
 20
58.3141326228
 10
59.1746216745
 20
58.3810197544
 10
59.7664841741
 20
58.4532831224
 10
60.7625078029
 20
58.5712549288
  0
LINE
  5
313
100
AcDbEntity
  8
0
100
AcDbLine
 62
7
  6
BYLAYER
 10
66.2610178027
 20
13.9815615836
 11
66.5610178027
 21
14.9815615836
  0
LINE
  5
314
100
AcDbEntity
  8
0
100
AcDbLine
 62
7
  6
BYLAYER
 10
57.9610178027
 20
38.5815615836
 11
57.2710178046
 21
37.6615615861
  0
LINE
  5
315
100
AcDbEntity
  8
0
100
AcDbLine
 62
7
  6
BYLAYER
 10
57.3963034685
 20
48.6977116881
 11
57.3824082716
 21
48.6861381768
  0
LINE
  5
316
100
AcDbEntity
  8
0
100
AcDbLine
 62
7
  6
BYLAYER
 10
57.4482706196
 20
48.7356955468
 11
57.3963034685
 21
48.6977116881
  0
LWPOLYLINE
  5
317
100
AcDbEntity
  8
0
100
AcDbPolyline
 62
7
  6
BYLAYER
 90
7
 70
0
 10
58.0410006884
 20
54.2031333842
 10
58.0363488616
 20
54.2013270115
 10
58.1008574327
 20
54.216177916
 10
58.3382128452
 20
54.2552024097
 10
58.712216598
 20
54.3007784167
 10
59.1970252811
 20
54.3495619132
 10
59.780967783
 20
54.4018254886
  0
LWPOLYLINE
  5
318
100
AcDbEntity
  8
0
100
AcDbPolyline
 62
7
  6
BYLAYER
 90
8
 70
0
 10
58.038095909
 20
55.5025289881
 10
58.0341238679
 20
55.5010485463
 10
58.1020893244
 20
55.5165778782
 10
58.3361136671
 20
55.554710732
 10
58.701265785
 20
55.5995467306
 10
59.1859867405
 20
55.6486311349
 10
59.7835743426
 20
55.7020387433
 10
60.8303113815
 20
55.7910966973
  0
LWPOLYLINE
  5
319
100
AcDbEntity
  8
0
100
AcDbPolyline
 62
7
  6
BYLAYER
 90
7
 70
0
 10
62.3857215374
 20
57.1752983312
 10
62.388652604
 20
57.1763518685
 10
62.3055292948
 20
57.1573182527
 10
62.0632850901
 20
57.1187977702
 10
61.6940727921
 20
57.0742998988
 10
61.2157017899
 20
57.0262827388
 10
60.6428096567
 20
56.9750723015
  0
LWPOLYLINE
  5
31A
100
AcDbEntity
  8
0
100
AcDbPolyline
 62
7
  6
BYLAYER
 90
8
 70
0
 10
62.3884317169
 20
55.8756868696
 10
62.3916550523
 20
55.8768354155
 10
62.2998433086
 20
55.8563909471
 10
62.0349650874
 20
55.8151192958
 10
61.6408881454
 20
55.7684771102
 10
61.1355789569
 20
55.7187718809
 10
60.5428752357
 20
55.6665623306
 10
59.5759585013
 20
55.5842593662
  0
LWPOLYLINE
  5
31B
100
AcDbEntity
  8
0
100
AcDbPolyline
 62
7
  6
BYLAYER
 90
8
 70
0
 10
58.0390792906
 20
49.0028216067
 10
58.0349249965
 20
49.0012578563
 10
58.1003404994
 20
49.0162465081
 10
58.3335720305
 20
49.0543769219
 10
58.7002631224
 20
49.0994259179
 10
59.1870955545
 20
49.1487233614
 10
59.7865868654
 20
49.2023043144
 10
60.8330583829
 20
49.2913302248
  0
LINE
  5
31C
100
AcDbEntity
  8
0
100
AcDbLine
 62
7
  6
BYLAYER
 10
52.7110178027
 20
23.0815615836
 11
52.2110178027
 21
22.5815615836
  0
LWPOLYLINE
  5
31D
100
AcDbEntity
  8
0
100
AcDbPolyline
 62
7
  6
BYLAYER
 90
11
 70
0
 10
58.0429184988
 20
39.9039202647
 10
58.0395127958
 20
39.9019975119
 10
58.1742820106
 20
39.9299651422
 10
58.4405352073
 20
39.9688242395
 10
58.8174624514
 20
40.0120373113
 10
59.2936865006
 20
40.0585671471
 10
59.8596663435
 20
40.1085922271
 10
60.493342103
 20
40.1622772758
 10
61.1429422418
 20
40.2187600508
 10
61.7435832696
 20
40.2770600204
 10
62.2353455685
 20
40.3358775276
  0
LWPOLYLINE
  5
31E
100
AcDbEntity
  8
0
100
AcDbPolyline
 62
7
  6
BYLAYER
 90
7
 70
0
 10
58.0372222534
 20
46.4017094116
 10
58.0339017324
 20
46.4004915247
 10
58.117000553
 20
46.419486556
 10
58.3713303029
 20
46.459715353
 10
58.756070146
 20
46.5055134106
 10
59.2479308532
 20
46.5543427284
 10
59.825138103
 20
46.605635111
  0
LWPOLYLINE
  5
31F
100
AcDbEntity
  8
0
100
AcDbPolyline
 62
7
  6
BYLAYER
 90
7
 70
0
 10
62.3870746855
 20
45.4759366125
 10
62.390116048
 20
45.4770375542
 10
62.3057262312
 20
45.4576096724
 10
62.055752031
 20
45.4176667974
 10
61.6755290908
 20
45.3722089962
 10
61.1864026129
 20
45.3235973111
 10
60.6076786472
 20
45.2720837426
  0
LWPOLYLINE
  5
320
100
AcDbEntity
  8
0
100
AcDbPolyline
 62
7
  6
BYLAYER
 90
7
 70
0
 10
62.3889539256
 20
48.0759645371
 10
62.3912680428
 20
48.0767673245
 10
62.3027554172
 20
48.0568778895
 10
62.0632856091
 20
48.0189471361
 10
61.7021969863
 20
47.9751460672
 10
61.2281803537
 20
47.9273782515
 10
60.6454622154
 20
47.8753403969
  0
LWPOLYLINE
  5
321
100
AcDbEntity
  8
0
100
AcDbPolyline
 62
7
  6
BYLAYER
 90
4
 70
0
 10
62.9491120313
 20
37.9307692788
 10
63.0537449604
 20
38.0026374837
 10
63.2561962018
 20
38.3948133116
 10
63.2602755127
 20
38.4640932291
  0
LWPOLYLINE
  5
322
100
AcDbEntity
  8
0
100
AcDbPolyline
 62
7
  6
BYLAYER
 90
7
 70
0
 10
58.0370688548
 20
41.2022010194
 10
58.0333967837
 20
41.200845903
 10
58.1060496981
 20
41.2173439615
 10
58.3389342755
 20
41.2550889786
 10
58.6909875565
 20
41.2984176747
 10
59.1529464399
 20
41.3455142749
 10
59.7176054454
 20
41.3963422808
  0
LWPOLYLINE
  5
323
100
AcDbEntity
  8
0
100
AcDbPolyline
 62
7
  6
BYLAYER
 90
7
 70
0
 10
62.386384917
 20
41.5749608807
 10
62.3901331456
 20
41.5763309152
 10
62.3169459408
 20
41.5596789763
 10
62.0831077116
 20
41.5217026993
 10
61.7213809916
 20
41.4772406737
 10
61.2451774679
 20
41.4289745005
 10
60.6697304579
 20
41.3774394171
  0
LWPOLYLINE
  5
324
100
AcDbEntity
  8
0
100
AcDbPolyline
 62
7
  6
BYLAYER
 90
3
 70
0
 10
62.3857363298
 20
42.8753503591
 10
62.3886729634
 20
42.87640722
 10
62.3036267143
 20
42.8569677888
  0
LWPOLYLINE
  5
325
100
AcDbEntity
  8
0
100
AcDbPolyline
 62
7
  6
BYLAYER
 90
8
 70
0
 10
58.0278918331
 20
42.4988592503
 10
58.0316260468
 20
42.4999616556
 10
58.1409873678
 20
42.5236775281
 10
58.3706202527
 20
42.5594562657
 10
58.6990140314
 20
42.5994584212
 10
59.1055285228
 20
42.6410038215
 10
59.5583986181
 20
42.682423298
 10
59.8371343124
 20
42.7066201769
  0
LINE
  5
326
100
AcDbEntity
  8
0
100
AcDbLine
 62
7
  6
BYLAYER
 10
63.0237365329
 20
38.3815615899
 11
63.2602755089
 21
38.4640239684
  0
LINE
  5
327
100
AcDbEntity
  8
0
100
AcDbLine
 62
7
  6
BYLAYER
 10
59.6110178027
 20
153.5815615836
 11
60.8110178027
 21
153.5815615836
  0
ARC
  5
328
100
AcDbEntity
  8
0
100
AcDbCircle
 62
7
  6
BYLAYER
 10
36.0152645327
 20
403.4749138087
 40
358.3542806192
100
AcDbArc
 50
273.8720005275
 51
274.0200823759
  0
ARC
  5
329
100
AcDbEntity
  8
0
100
AcDbCircle
 62
7
  6
BYLAYER
 10
76.5888487026
 20
-197.9921878454
 40
244.4797900129
100
AcDbArc
 50
93.8404236118
 51
94.0581240446
  0
ARC
  5
32A
100
AcDbEntity
  8
0
100
AcDbCircle
 62
7
  6
BYLAYER
 10
59.560313381
 20
79.6041947073
 40
20.4602012117
100
AcDbArc
 50
277.2852757889
 51
277.4293067823
  0
ARC
  5
32B
100
AcDbEntity
  8
0
100
AcDbCircle
 62
7
  6
BYLAYER
 10
63.2110178027
 20
33.5978099546
 40
4.0
100
AcDbArc
 50
295.9444797724
 51
84.8339373421
  0
ARC
  5
32C
100
AcDbEntity
  8
0
100
AcDbCircle
 62
7
  6
BYLAYER
 10
57.2110178027
 20
33.5978099546
 40
4.0
100
AcDbArc
 50
95.1660626579
 51
244.0555202276
  0
ARC
  5
32D
100
AcDbEntity
  8
0
100
AcDbCircle
 62
7
  6
BYLAYER
 10
57.875040086
 20
53.1538755119
 40
1.7376235456
100
AcDbArc
 50
353.9754573146
 51
357.6516817062
  0
ARC
  5
32E
100
AcDbEntity
  8
0
100
AcDbCircle
 62
7
  6
BYLAYER
 10
66.6110178027
 20
27.3815615836
 40
1.1
100
AcDbArc
 50
0.0
 51
90.0
  0
ARC
  5
32F
100
AcDbEntity
  8
0
100
AcDbCircle
 62
7
  6
BYLAYER
 10
53.8110178027
 20
27.3815615836
 40
1.1
100
AcDbArc
 50
90.0
 51
180.0
  0
ARC
  5
330
100
AcDbEntity
  8
0
100
AcDbCircle
 62
7
  6
BYLAYER
 10
55.1110178027
 20
29.2815615836
 40
0.8
100
AcDbArc
 50
270.0
 51
64.0555202276
  0
ARC
  5
331
100
AcDbEntity
  8
0
100
AcDbCircle
 62
7
  6
BYLAYER
 10
65.3110178027
 20
29.2815615836
 40
0.8
100
AcDbArc
 50
115.9444797724
 51
270.0
  0
ARC
  5
332
100
AcDbEntity
  8
0
100
AcDbCircle
 62
7
  6
BYLAYER
 10
62.6772932367
 20
59.5665109231
 40
0.6215100392
100
AcDbArc
 50
122.4126870804
 51
132.7962124181
  0
ARC
  5
333
100
AcDbEntity
  8
0
100
AcDbCircle
 62
7
  6
BYLAYER
 10
53.2110178027
 20
24.3815615836
 40
0.6
100
AcDbArc
 50
270.0
 51
90.0
  0
ARC
  5
334
100
AcDbEntity
  8
0
100
AcDbCircle
 62
7
  6
BYLAYER
 10
67.2110178027
 20
24.3815615836
 40
0.6
100
AcDbArc
 50
90.0
 51
270.0
  0
ARC
  5
335
100
AcDbEntity
  8
0
100
AcDbCircle
 62
7
  6
BYLAYER
 10
57.7558709807
 20
48.2514965208
 40
0.5730648336
100
AcDbArc
 50
130.6710021652
 51
135.8946090695
  0
ARC
  5
336
100
AcDbEntity
  8
0
100
AcDbCircle
 62
7
  6
BYLAYER
 10
62.6907258369
 20
59.5815685466
 40
0.5700300442
100
AcDbArc
 50
358.6177131356
 51
359.9970709083
  0
ARC
  5
337
100
AcDbEntity
  8
0
100
AcDbCircle
 62
7
  6
BYLAYER
 10
62.2716076176
 20
58.2694613197
 40
0.412102217
100
AcDbArc
 50
81.50468761
 51
89.9632063129
  0
ARC
  5
338
100
AcDbEntity
  8
0
100
AcDbCircle
 62
7
  6
BYLAYER
 10
57.1110178027
 20
37.7815615836
 40
0.2
100
AcDbArc
 50
270.0000016725
 51
323.1301023542
  0
ARC
  5
339
100
AcDbEntity
  8
0
100
AcDbCircle
 62
7
  6
BYLAYER
 10
67.5110178027
 20
23.5815615836
 40
0.2
100
AcDbArc
 50
0.0
 51
90.0
  0
ARC
  5
33A
100
AcDbEntity
  8
0
100
AcDbCircle
 62
7
  6
BYLAYER
 10
52.9110178027
 20
23.5815615836
 40
0.2
100
AcDbArc
 50
90.0
 51
180.0
  0
ARC
  5
33B
100
AcDbEntity
  8
0
100
AcDbCircle
 62
7
  6
BYLAYER
 10
67.5110178027
 20
25.1815615836
 40
0.2
100
AcDbArc
 50
270.0
 51
360.0
  0
ARC
  5
33C
100
AcDbEntity
  8
0
100
AcDbCircle
 62
7
  6
BYLAYER
 10
52.9110178027
 20
25.1815615836
 40
0.2
100
AcDbArc
 50
180.0
 51
270.0
  0
ARC
  5
33D
100
AcDbEntity
  8
0
100
AcDbCircle
 62
7
  6
BYLAYER
 10
63.3110178027
 20
37.7815615836
 40
0.2
100
AcDbArc
 50
216.8698976458
 51
269.9999983275
  0
ARC
  5
33E
100
AcDbEntity
  8
0
100
AcDbCircle
 62
7
  6
BYLAYER
 10
63.228067724
 20
59.5823112274
 40
0.0326665039
100
AcDbArc
 50
355.0719193392
 51
358.6775477476
  0
SPLINE
  5
33F
100
AcDbEntity
  8
0
100
AcDbSpline
 62
7
  6
BYLAYER
 70
0
 71
3
 72
10
 73
6
 74
0
 42
0.0000001
 43
0.0000001
 44
0.0000000001
 40
0.0
 40
0.0
 40
0.0
 40
0.0
 40
0.2508828705
 40
0.5018340766
 40
1.0
 40
1.0
 40
1.0
 40
1.0
 10
62.9776807869
 20
59.0723487674
 30
0.0
 10
63.0197108888
 20
59.0983101872
 30
0.0
 10
63.097653769
 20
59.1612200086
 30
0.0
 10
63.2159754326
 20
59.3202722287
 30
0.0
 10
63.2582252688
 20
59.4697516613
 30
0.0
 10
63.26059
 20
59.5678176453
 30
0.0
  0
SPLINE
  5
340
100
AcDbEntity
  8
0
100
AcDbSpline
 62
7
  6
BYLAYER
 70
0
 71
3
 72
9
 73
5
 74
0
 42
0.0000001
 43
0.0000001
 44
0.0000000001
 40
0.0
 40
0.0
 40
0.0
 40
0.0
 40
0.4906552842
 40
1.0
 40
1.0
 40
1.0
 40
1.0
 10
62.3574662521
 20
38.968500666
 30
0.0
 10
62.2675339935
 20
38.9477087738
 30
0.0
 10
62.0924505794
 20
38.8551840615
 30
0.0
 10
61.9876131815
 20
38.6887679983
 30
0.0
 10
61.9552374847
 20
38.5985828264
 30
0.0
  0
SPLINE
  5
341
100
AcDbEntity
  8
0
100
AcDbSpline
 62
7
  6
BYLAYER
 70
0
 71
3
 72
9
 73
5
 74
0
 42
0.0000001
 43
0.0000001
 44
0.0000000001
 40
0.0
 40
0.0
 40
0.0
 40
0.0
 40
0.499198357
 40
1.0
 40
1.0
 40
1.0
 40
1.0
 10
63.2607255311
 20
59.5815394063
 30
0.0
 10
63.2607588306
 20
59.6364415243
 30
0.0
 10
63.2453506225
 20
59.7469967243
 30
0.0
 10
63.2000299907
 20
59.8488841352
 30
0.0
 10
63.1712602948
 20
59.8958515833
 30
0.0
  0
SPLINE
  5
342
100
AcDbEntity
  8
0
100
AcDbSpline
 62
7
  6
BYLAYER
 70
0
 71
3
 72
13
 73
9
 74
0
 42
0.0000001
 43
0.0000001
 44
0.0000000001
 40
0.0
 40
0.0
 40
0.0
 40
0.0
 40
0.1251469433
 40
0.2503071034
 40
0.3756710856
 40
0.5009929569
 40
0.7504468053
 40
1.0
 40
1.0
 40
1.0
 40
1.0
 10
63.1712142659
 20
59.8959267149
 30
0.0
 10
63.1507179558
 20
59.9293768429
 30
0.0
 10
63.1031738661
 20
59.9925807677
 30
0.0
 10
63.0140086884
 20
60.0706781824
 30
0.0
 10
62.9114697023
 20
60.130158032
 30
0.0
 10
62.762641499
 20
60.1822156715
 30
0.0
 10
62.5614795366
 20
60.1885235621
 30
0.0
 10
62.4109913183
 20
60.1318477164
 30
0.0
 10
62.3441553146
 20
60.0911954508
 30
0.0
  0
SPLINE
  5
343
100
AcDbEntity
  8
0
100
AcDbSpline
 62
7
  6
BYLAYER
 70
0
 71
3
 72
24
 73
20
 74
0
 42
0.0000001
 43
0.0000001
 44
0.0000000001
 40
0.0
 40
0.0
 40
0.0
 40
0.0
 40
0.0032931562
 40
0.00572076
 40
0.0088148553
 40
0.0171670333
 40
0.028455425
 40
0.0426268052
 40
0.0595947958
 40
0.1015147593
 40
0.1533630357
 40
0.2142479108
 40
0.2832281982
 40
0.3589007689
 40
0.439546378
 40
0.5234374352
 40
0.6940415272
 40
0.8571738645
 40
1.0
 40
1.0
 40
1.0
 40
1.0
 10
57.1622822643
 20
57.3142423215
 30
0.0
 10
57.1623118986
 20
57.3198578606
 30
0.0
 10
57.1688104881
 20
57.3289009946
 30
0.0
 10
57.1809840361
 20
57.3373120648
 30
0.0
 10
57.202141028
 20
57.3482742211
 30
0.0
 10
57.238885422
 20
57.3608256601
 30
0.0
 10
57.294742395
 20
57.3752569255
 30
0.0
 10
57.365648259
 20
57.3897404094
 30
0.0
 10
57.4884625104
 20
57.4107403698
 30
0.0
 10
57.6756470257
 20
57.4359743116
 30
0.0
 10
57.937776145
 20
57.4649718804
 30
0.0
 10
58.2462769096
 20
57.4941358353
 30
0.0
 10
58.5955521689
 20
57.5233444779
 30
0.0
 10
58.9786267984
 20
57.5525979445
 30
0.0
 10
59.3871904188
 20
57.5819251971
 30
0.0
 10
59.9573278505
 20
57.6212953772
 30
0.0
 10
60.667878675
 20
57.6690842114
 30
0.0
 10
61.4785306199
 20
57.7260321193
 30
0.0
 10
61.9986711481
 20
57.7670923122
 30
0.0
 10
62.2412279702
 20
57.789094133
 30
0.0
  0
SPLINE
  5
344
100
AcDbEntity
  8
0
100
AcDbSpline
 62
7
  6
BYLAYER
 70
0
 71
3
 72
16
 73
12
 74
0
 42
0.0000001
 43
0.0000001
 44
0.0000000001
 40
0.0
 40
0.0
 40
0.0
 40
0.0
 40
0.4151302208
 40
0.5837077151
 40
0.7246591184
 40
0.8370040588
 40
0.8821905235
 40
0.9199522545
 40
0.9502812553
 40
0.9733055201
 40
1.0
 40
1.0
 40
1.0
 40
1.0
 10
62.2412279702
 20
57.789094133
 30
0.0
 10
62.3852056009
 20
57.802154042
 30
0.0
 10
62.5875559953
 20
57.8218606656
 30
0.0
 10
62.8380360481
 20
57.8527001259
 30
0.0
 10
62.9834175902
 20
57.874097263
 30
0.0
 10
63.0856805927
 20
57.8927398504
 30
0.0
 10
63.1519819834
 20
57.9082966651
 30
0.0
 10
63.189819549
 20
57.9189137786
 30
0.0
 10
63.2201466409
 20
57.9298284853
 30
0.0
 10
63.2442079712
 20
57.9411565316
 30
0.0
 10
63.2607810335
 20
57.9545472958
 30
0.0
 10
63.2607931662
 20
57.9638436172
 30
0.0
  0
SPLINE
  5
345
100
AcDbEntity
  8
0
100
AcDbSpline
 62
7
  6
BYLAYER
 70
0
 71
3
 72
14
 73
10
 74
0
 42
0.0000001
 43
0.0000001
 44
0.0000000001
 40
0.0
 40
0.0
 40
0.0
 40
0.0
 40
0.2591025147
 40
0.3872492087
 40
0.5129560582
 40
0.6366466626
 40
0.7586805222
 40
0.8794000384
 40
1.0
 40
1.0
 40
1.0
 40
1.0
 10
63.0237340079
 20
38.3815615522
 30
0.0
 10
63.0237326392
 20
38.4693143173
 30
0.0
 10
62.9953178781
 20
38.6023200214
 30
0.0
 10
62.9095903698
 20
38.7544315999
 30
0.0
 10
62.8231395467
 20
38.8502776389
 30
0.0
 10
62.7187315097
 20
38.9223720703
 30
0.0
 10
62.6024505881
 20
38.9687244059
 30
0.0
 10
62.4794969871
 20
38.9867062877
 30
0.0
 10
62.3972613109
 20
38.9777010863
 30
0.0
 10
62.3574662521
 20
38.968500666
 30
0.0
  0
SPLINE
  5
346
100
AcDbEntity
  8
0
100
AcDbSpline
 62
7
  6
BYLAYER
 70
0
 71
3
 72
11
 73
7
 74
0
 42
0.0000001
 43
0.0000001
 44
0.0000000001
 40
0.0
 40
0.0
 40
0.0
 40
0.0
 40
0.2641723723
 40
0.517428259
 40
0.7617462285
 40
1.0
 40
1.0
 40
1.0
 40
1.0
 10
61.8520502616
 20
58.4138327633
 30
0.0
 10
61.8742853742
 20
58.4539227965
 30
0.0
 10
61.9268183823
 20
58.5280331114
 30
0.0
 10
62.0293394969
 20
58.6137757091
 30
0.0
 10
62.1463584808
 20
58.6684055409
 30
0.0
 10
62.2305267288
 20
58.6815598108
 30
0.0
 10
62.2718722577
 20
58.6815634517
 30
0.0
  0
SPLINE
  5
347
100
AcDbEntity
  8
0
100
AcDbSpline
 62
7
  6
BYLAYER
 70
0
 71
3
 72
31
 73
27
 74
0
 42
0.0000001
 43
0.0000001
 44
0.0000000001
 40
0.0
 40
0.0
 40
0.0
 40
0.0
 40
0.0040501958
 40
0.0074055104
 40
0.0118134761
 40
0.0239459434
 40
0.0406204889
 40
0.0617957627
 40
0.087196475
 40
0.1494144739
 40
0.2247150146
 40
0.310499223
 40
0.4037690133
 40
0.5007804123
 40
0.5977036927
 40
0.690718224
 40
0.7763697663
 40
0.8516895467
 40
0.913754007
 40
0.9389115091
 40
0.9597418288
 40
0.9761728439
 40
0.9882040172
 40
0.9925958983
 40
0.99594792
 40
1.0
 40
1.0
 40
1.0
 40
1.0
 10
57.1640440442
 20
56.0135056428
 30
0.0
 10
57.1640873454
 20
56.0218180248
 30
0.0
 10
57.1773153707
 20
56.0343894552
 30
0.0
 10
57.1980772254
 20
56.0451730412
 30
0.0
 10
57.2365042765
 20
56.0603314844
 30
0.0
 10
57.3023611134
 20
56.0774266958
 30
0.0
 10
57.4031516873
 20
56.0972041985
 30
0.0
 10
57.531447388
 20
56.1169168856
 30
0.0
 10
57.7529206312
 20
56.1455252214
 30
0.0
 10
58.085563341
 20
56.179791464
 30
0.0
 10
58.5421601739
 20
56.2193532253
 30
0.0
 10
59.0626827015
 20
56.2590744469
 30
0.0
 10
59.6278747308
 20
56.2988366223
 30
0.0
 10
60.2159753977
 20
56.3386910043
 30
0.0
 10
60.8035518722
 20
56.378533395
 30
0.0
 10
61.3677595611
 20
56.4183657539
 30
0.0
 10
61.8875216101
 20
56.4581052833
 30
0.0
 10
62.3435751066
 20
56.4975826706
 30
0.0
 10
62.6754475737
 20
56.531781114
 30
0.0
 10
62.895384644
 20
56.5604161994
 30
0.0
 10
63.021939481
 20
56.5802248532
 30
0.0
 10
63.1212776881
 20
56.6000474451
 30
0.0
 10
63.1863685932
 20
56.6171270827
 30
0.0
 10
63.2245422593
 20
56.6322538997
 30
0.0
 10
63.2452537356
 20
56.6430377754
 30
0.0
 10
63.2585148665
 20
56.6555924462
 30
0.0
 10
63.2585468924
 20
56.6639087465
 30
0.0
  0
SPLINE
  5
348
100
AcDbEntity
  8
0
100
AcDbSpline
 62
7
  6
BYLAYER
 70
0
 71
3
 72
9
 73
5
 74
0
 42
0.0000001
 43
0.0000001
 44
0.0000000001
 40
0.0
 40
0.0
 40
0.0
 40
0.0
 40
0.2561705777
 40
1.0
 40
1.0
 40
1.0
 40
1.0
 10
60.4989856341
 20
58.2630063758
 30
0.0
 10
60.4028667159
 20
58.2747531354
 30
0.0
 10
60.0276335933
 20
58.3204029621
 30
0.0
 10
59.6524345723
 20
58.3667456989
 30
0.0
 10
59.3741003054
 20
58.4065925745
 30
0.0
  0
SPLINE
  5
349
100
AcDbEntity
  8
0
100
AcDbSpline
 62
7
  6
BYLAYER
 70
0
 71
3
 72
14
 73
10
 74
0
 42
0.0000001
 43
0.0000001
 44
0.0000000001
 40
0.0
 40
0.0
 40
0.0
 40
0.0
 40
0.2491911737
 40
0.3745134158
 40
0.499625955
 40
0.6249015812
 40
0.7499046551
 40
0.8747703644
 40
1.0
 40
1.0
 40
1.0
 40
1.0
 10
57.1748341637
 20
48.2315615972
 30
0.0
 10
57.1748358576
 20
48.1310609796
 30
0.0
 10
57.2158989348
 20
47.9771086675
 30
0.0
 10
57.3351147018
 20
47.8127489719
 30
0.0
 10
57.4545091739
 20
47.7164363963
 30
0.0
 10
57.5936212626
 20
47.6530805768
 30
0.0
 10
57.7441230677
 20
47.6254711853
 30
0.0
 10
57.8965349243
 20
47.6385608008
 30
0.0
 10
57.9927971893
 20
47.6725327388
 30
0.0
 10
58.0380154681
 20
47.6950308688
 30
0.0
  0
SPLINE
  5
34A
100
AcDbEntity
  8
0
100
AcDbSpline
 62
7
  6
BYLAYER
 70
0
 71
3
 72
32
 73
28
 74
0
 42
0.0000001
 43
0.0000001
 44
0.0000000001
 40
0.0
 40
0.0
 40
0.0
 40
0.0
 40
0.0040685919
 40
0.0074448734
 40
0.0118641931
 40
0.0239369652
 40
0.0403551489
 40
0.0610754192
 40
0.0860256611
 40
0.147868802
 40
0.2231815433
 40
0.3088387235
 40
0.401701802
 40
0.4984665706
 40
0.5954110342
 40
0.6887466549
 40
0.7746926687
 40
0.8499584936
 40
0.9121227994
 40
0.9375710085
 40
0.9588861673
 40
0.9757993824
 40
0.9825326277
 40
0.988111448
 40
0.992564547
 40
0.9959436369
 40
1.0
 40
1.0
 40
1.0
 40
1.0
 10
57.1625035519
 20
54.7126592184
 30
0.0
 10
57.162543917
 20
54.7210108708
 30
0.0
 10
57.1760317223
 20
54.7335361112
 30
0.0
 10
57.1968825836
 20
54.7442959518
 30
0.0
 10
57.2352936724
 20
54.7593974714
 30
0.0
 10
57.3005075818
 20
54.7764561286
 30
0.0
 10
57.3997007336
 20
54.7962656873
 30
0.0
 10
57.525588888
 20
54.816081954
 30
0.0
 10
57.7444362702
 20
54.8448399315
 30
0.0
 10
58.0754795898
 20
54.8789731716
 30
0.0
 10
58.5311612457
 20
54.9183877967
 30
0.0
 10
59.0507072321
 20
54.9580675989
 30
0.0
 10
59.6143881756
 20
54.997929966
 30
0.0
 10
60.2012952292
 20
55.0377727095
 30
0.0
 10
60.7891742358
 20
55.0776189789
 30
0.0
 10
61.3547990313
 20
55.1173731533
 30
0.0
 10
61.8758214052
 20
55.1569938907
 30
0.0
 10
62.3326488212
 20
55.1965658941
 30
0.0
 10
62.6652672492
 20
55.2309104942
 30
0.0
 10
62.8870500297
 20
55.2594567237
 30
0.0
 10
63.0162672093
 20
55.2793101641
 30
0.0
 10
63.1069489787
 20
55.2965939837
 30
0.0
 10
63.1652311129
 20
55.3111041481
 30
0.0
 10
63.1980939873
 20
55.3209965998
 30
0.0
 10
63.2240648032
 20
55.3311564217
 30
0.0
 10
63.2449963127
 20
55.3418963124
 30
0.0
 10
63.2583608512
 20
55.3544887095
 30
0.0
 10
63.2583931114
 20
55.3628152945
 30
0.0
  0
SPLINE
  5
34B
100
AcDbEntity
  8
0
100
AcDbSpline
 62
7
  6
BYLAYER
 70
0
 71
3
 72
11
 73
7
 74
0
 42
0.0000001
 43
0.0000001
 44
0.0000000001
 40
0.0
 40
0.0
 40
0.0
 40
0.0
 40
0.2413398505
 40
0.4881196728
 40
0.742101626
 40
1.0
 40
1.0
 40
1.0
 40
1.0
 10
62.5730157815
 20
37.7923227296
 30
0.0
 10
62.6358783883
 20
37.8055095361
 30
0.0
 10
62.7590914773
 20
37.8561749153
 30
0.0
 10
62.906941746
 20
37.9932123355
 30
0.0
 10
63.0008301592
 20
38.175938243
 30
0.0
 10
63.0237426827
 20
38.3129237999
 30
0.0
 10
63.0237417651
 20
38.3815615568
 30
0.0
  0
LINE
  5
34C
100
AcDbEntity
  8
0
100
AcDbLine
 62
7
  6
BYLAYER
 10
60.4713683562
 20
54.3591565031
 11
59.9500042678
 21
54.4177282661
  0
SPLINE
  5
34D
100
AcDbEntity
  8
0
100
AcDbSpline
 62
7
  6
BYLAYER
 70
0
 71
3
 72
14
 73
10
 74
0
 42
0.0000001
 43
0.0000001
 44
0.0000000001
 40
0.0
 40
0.0
 40
0.0
 40
0.0
 40
0.0357527387
 40
0.0637655313
 40
0.0993291884
 40
0.1929699123
 40
0.3153006378
 40
0.6311314897
 40
1.0
 40
1.0
 40
1.0
 40
1.0
 10
59.8348384337
 20
43.9065212411
 30
0.0
 10
59.8275074319
 20
43.905895401
 30
0.0
 10
59.8169972649
 20
43.8947347654
 30
0.0
 10
59.807537208
 20
43.8772631476
 30
0.0
 10
59.7953091485
 20
43.8469634743
 30
0.0
 10
59.7822330943
 20
43.7969054528
 30
0.0
 10
59.7630236632
 20
43.6890211705
 30
0.0
 10
59.748431761
 20
43.523380478
 30
0.0
 10
59.7441292243
 20
43.3824721915
 30
0.0
 10
59.7441293932
 20
43.3065615972
 30
0.0
  0
SPLINE
  5
34E
100
AcDbEntity
  8
0
100
AcDbSpline
 62
7
  6
BYLAYER
 70
0
 71
3
 72
18
 73
14
 74
0
 42
0.0000001
 43
0.0000001
 44
0.0000000001
 40
0.0
 40
0.0
 40
0.0
 40
0.0
 40
0.0087405988
 40
0.0155955129
 40
0.0244263966
 40
0.0482346013
 40
0.0802684744
 40
0.1682683235
 40
0.2864877495
 40
0.4326639413
 40
0.6037491996
 40
0.7946730699
 40
1.0
 40
1.0
 40
1.0
 40
1.0
 10
57.1611375527
 20
53.4138127515
 30
0.0
 10
57.1611704954
 20
53.4204499451
 30
0.0
 10
57.1704226683
 20
53.4308182075
 30
0.0
 10
57.1859775768
 20
53.4400067738
 30
0.0
 10
57.2135723926
 20
53.4524496994
 30
0.0
 10
57.2605627207
 20
53.4666530207
 30
0.0
 10
57.3671026091
 20
53.4911790774
 30
0.0
 10
57.5459138558
 20
53.5194462846
 30
0.0
 10
57.8115195056
 20
53.5520813781
 30
0.0
 10
58.1406078089
 20
53.5848409477
 30
0.0
 10
58.5251008538
 20
53.6177615832
 30
0.0
 10
58.9546460303
 20
53.6508470416
 30
0.0
 10
59.2547719589
 20
53.67239123
 30
0.0
 10
59.4103048681
 20
53.6833341675
 30
0.0
  0
SPLINE
  5
34F
100
AcDbEntity
  8
0
100
AcDbSpline
 62
7
  6
BYLAYER
 70
0
 71
3
 72
21
 73
17
 74
0
 42
0.0000001
 43
0.0000001
 44
0.0000000001
 40
0.0
 40
0.0
 40
0.0
 40
0.0
 40
0.1777978497
 40
0.3570804161
 40
0.5288375718
 40
0.6840412141
 40
0.7526204201
 40
0.8138563231
 40
0.8671836968
 40
0.9120987564
 40
0.948115147
 40
0.9626469504
 40
0.9747968393
 40
0.9845348986
 40
0.9918691954
 40
1.0
 40
1.0
 40
1.0
 40
1.0
 10
59.4103048681
 20
53.6833341675
 30
0.0
 10
59.6398358327
 20
53.6994834378
 30
0.0
 10
60.1008812543
 20
53.730959915
 30
0.0
 10
60.7837161452
 20
53.7772083779
 30
0.0
 10
61.4372495992
 20
53.8233280656
 30
0.0
 10
61.9476240637
 20
53.8628593868
 30
0.0
 10
62.3150444814
 20
53.8954495039
 30
0.0
 10
62.550905752
 20
53.9188902006
 30
0.0
 10
62.7559761325
 20
53.9422147277
 30
0.0
 10
62.9282089111
 20
53.9654302566
 30
0.0
 10
63.0500680411
 20
53.9856309996
 30
0.0
 10
63.1295648405
 20
54.0024965807
 30
0.0
 10
63.1750398153
 20
54.0140007237
 30
0.0
 10
63.2116910242
 20
54.0258487259
 30
0.0
 10
63.2400483936
 20
54.0378895368
 30
0.0
 10
63.2606738001
 20
54.052277379
 30
0.0
 10
63.260711062
 20
54.0627998528
 30
0.0
  0
SPLINE
  5
350
100
AcDbEntity
  8
0
100
AcDbSpline
 62
7
  6
BYLAYER
 70
0
 71
3
 72
29
 73
25
 74
0
 42
0.0000001
 43
0.0000001
 44
0.0000000001
 40
0.0
 40
0.0
 40
0.0
 40
0.0
 40
0.0072590996
 40
0.0185710507
 40
0.0339913122
 40
0.0534745474
 40
0.0769455265
 40
0.1043103321
 40
0.169665183
 40
0.2467804046
 40
0.3327339574
 40
0.424592993
 40
0.5192404449
 40
0.6132427897
 40
0.7031351779
 40
0.7854621234
 40
0.8572614454
 40
0.9163872947
 40
0.9607992864
 40
0.9768794751
 40
0.9886058733
 40
0.9928529068
 40
0.9960824239
 40
1.0
 40
1.0
 40
1.0
 40
1.0
 10
57.1748326646
 20
48.2315524578
 30
0.0
 10
57.1867306808
 20
48.2404337699
 30
0.0
 10
57.2224551439
 20
48.2551829055
 30
0.0
 10
57.2891653394
 20
48.2739412474
 30
0.0
 10
57.3819438955
 20
48.292942764
 30
0.0
 10
57.4997329524
 20
48.3122503557
 30
0.0
 10
57.6422731293
 20
48.3316669156
 30
0.0
 10
57.8783156857
 20
48.3592556953
 30
0.0
 10
58.2241257508
 20
48.3924631353
 30
0.0
 10
58.6897458109
 20
48.4308866752
 30
0.0
 10
59.2097285013
 20
48.4695240571
 30
0.0
 10
59.7656499987
 20
48.5082733147
 30
0.0
 10
60.3380740418
 20
48.5470027179
 30
0.0
 10
60.9064665462
 20
48.5857257017
 30
0.0
 10
61.4496090767
 20
48.6243313893
 30
0.0
 10
61.9472215448
 20
48.6628618485
 30
0.0
 10
62.3817238381
 20
48.7011752495
 30
0.0
 10
62.7383388691
 20
48.7392541105
 30
0.0
 10
62.9808572721
 20
48.7720615932
 30
0.0
 10
63.1259256069
 20
48.8007134221
 30
0.0
 10
63.1892566303
 20
48.8172519128
 30
0.0
 10
63.2261431264
 20
48.8319836634
 30
0.0
 10
63.2460721116
 20
48.8424779244
 30
0.0
 10
63.2585845815
 20
48.8547088252
 30
0.0
 10
63.2586113978
 20
48.862721508
 30
0.0
  0
SPLINE
  5
351
100
AcDbEntity
  8
0
100
AcDbSpline
 62
7
  6
BYLAYER
 70
0
 71
3
 72
32
 73
28
 74
0
 42
0.0000001
 43
0.0000001
 44
0.0000000001
 40
0.0
 40
0.0
 40
0.0
 40
0.0
 40
0.0040642516
 40
0.0074336282
 40
0.0118445188
 40
0.0239009055
 40
0.0403114269
 40
0.0610421537
 40
0.0860297181
 40
0.1479279161
 40
0.2232439971
 40
0.3088948927
 40
0.4017828791
 40
0.4985863104
 40
0.5955542029
 40
0.6888860613
 40
0.7747969118
 40
0.8500692219
 40
0.9122560943
 40
0.9377030616
 40
0.9589988504
 40
0.9758675235
 40
0.9825737608
 40
0.9881332458
 40
0.9925737542
 40
0.9959458455
 40
1.0
 40
1.0
 40
1.0
 40
1.0
 10
57.1627416316
 20
40.412675171
 30
0.0
 10
57.1627806264
 20
40.4210175225
 30
0.0
 10
57.1762069582
 20
40.4335494274
 30
0.0
 10
57.1970171687
 20
40.4443164688
 30
0.0
 10
57.2353500772
 20
40.459423469
 30
0.0
 10
57.3004941806
 20
40.4764876213
 30
0.0
 10
57.3996521835
 20
40.4963002082
 30
0.0
 10
57.5256177897
 20
40.5161197866
 30
0.0
 10
57.7446703181
 20
40.5448544744
 30
0.0
 10
58.0758942388
 20
40.578991916
 30
0.0
 10
58.5316599099
 20
40.6184243856
 30
0.0
 10
59.0512251265
 20
40.6581180526
 30
0.0
 10
59.6149970582
 20
40.6979791749
 30
0.0
 10
60.2020550983
 20
40.7378201492
 30
0.0
 10
60.7900257247
 20
40.7776695602
 30
0.0
 10
61.3555916488
 20
40.8174226908
 30
0.0
 10
61.8765202937
 20
40.8570692015
 30
0.0
 10
62.3333129994
 20
40.8966415459
 30
0.0
 10
62.665973733
 20
40.9309764058
 30
0.0
 10
62.8877499296
 20
40.95952384
 30
0.0
 10
63.0168261572
 20
40.9793714897
 30
0.0
 10
63.1073144557
 20
40.9966583183
 30
0.0
 10
63.1653961992
 20
41.0111876905
 30
0.0
 10
63.1981315632
 20
41.0210817691
 30
0.0
 10
63.224012214
 20
41.0312417115
 30
0.0
 10
63.2448945083
 20
41.041991151
 30
0.0
 10
63.2582159241
 20
41.0545798277
 30
0.0
 10
63.2582507381
 20
41.0629014718
 30
0.0
  0
SPLINE
  5
352
100
AcDbEntity
  8
0
100
AcDbSpline
 62
7
  6
BYLAYER
 70
0
 71
3
 72
32
 73
28
 74
0
 42
0.0000001
 43
0.0000001
 44
0.0000000001
 40
0.0
 40
0.0
 40
0.0
 40
0.0
 40
0.0040729694
 40
0.0074905468
 40
0.0120081105
 40
0.0176771029
 40
0.0244987071
 40
0.0415136994
 40
0.0628463905
 40
0.0882562164
 40
0.1502927644
 40
0.225558972
 40
0.3116009129
 40
0.4048940336
 40
0.5017122551
 40
0.5983282215
 40
0.6911470551
 40
0.7768440356
 40
0.8521322819
 40
0.9137573428
 40
0.9386431861
 40
0.9593866322
 40
0.9758805307
 40
0.9880460719
 40
0.9925067023
 40
0.995914583
 40
1.0
 40
1.0
 40
1.0
 40
1.0
 10
57.1628882992
 20
44.3141935462
 30
0.0
 10
57.1629262021
 20
44.32255585
 30
0.0
 10
57.1765454922
 20
44.3351487021
 30
0.0
 10
57.1977402508
 20
44.3458460314
 30
0.0
 10
57.2241592887
 20
44.3560005654
 30
0.0
 10
57.2575539223
 20
44.3658587101
 30
0.0
 10
57.3164542041
 20
44.3803182158
 30
0.0
 10
57.4075819309
 20
44.3976116752
 30
0.0
 10
57.5369928389
 20
44.417475202
 30
0.0
 10
57.758511356
 20
44.4460236994
 30
0.0
 10
58.0908511521
 20
44.4804049363
 30
0.0
 10
58.5477094604
 20
44.5199277921
 30
0.0
 10
59.0689523073
 20
44.5594673109
 30
0.0
 10
59.6345392373
 20
44.5992259461
 30
0.0
 10
60.2218826515
 20
44.6390573414
 30
0.0
 10
60.8082485114
 20
44.6789107165
 30
0.0
 10
61.3717279463
 20
44.7187472253
 30
0.0
 10
61.8913208322
 20
44.7583807753
 30
0.0
 10
62.3466844555
 20
44.7977016983
 30
0.0
 10
62.6771534761
 20
44.831903389
 30
0.0
 10
62.895506328
 20
44.8606774693
 30
0.0
 10
63.0214906603
 20
44.8804788118
 30
0.0
 10
63.1211140293
 20
44.9002746434
 30
0.0
 10
63.1867755887
 20
44.9173072874
 30
0.0
 10
63.2255877105
 20
44.9323905663
 30
0.0
 10
63.2466239003
 20
44.943110756
 30
0.0
 10
63.260382198
 20
44.9556191834
 30
0.0
 10
63.2604111456
 20
44.9640070799
 30
0.0
  0
SPLINE
  5
353
100
AcDbEntity
  8
0
100
AcDbSpline
 62
7
  6
BYLAYER
 70
0
 71
3
 72
25
 73
21
 74
0
 42
0.0000001
 43
0.0000001
 44
0.0000000001
 40
0.0
 40
0.0
 40
0.0
 40
0.0
 40
0.0792441088
 40
0.1584512091
 40
0.2374945195
 40
0.3160911928
 40
0.4713395697
 40
0.5475137622
 40
0.6221591027
 40
0.6946220958
 40
0.7638809727
 40
0.8278308775
 40
0.8843053045
 40
0.9314286074
 40
0.9509483562
 40
0.9675394243
 40
0.981023638
 40
0.9911862258
 40
0.9976562605
 40
1.0
 40
1.0
 40
1.0
 40
1.0
 10
60.3256185282
 20
62.5815615939
 30
0.0
 10
60.3257596082
 20
62.4944969263
 30
0.0
 10
60.3457571435
 20
62.3198947884
 30
0.0
 10
60.4289088856
 20
62.0709571661
 30
0.0
 10
60.5530196804
 20
61.841116267
 30
0.0
 10
60.7537808461
 20
61.5612659253
 30
0.0
 10
60.990506805
 20
61.3143429381
 30
0.0
 10
61.2407003546
 20
61.089728004
 30
0.0
 10
61.428841984
 20
60.9322096377
 30
0.0
 10
61.6143311249
 20
60.7835278993
 30
0.0
 10
61.7918287524
 20
60.643692763
 30
0.0
 10
61.953100489
 20
60.5116120806
 30
0.0
 10
62.089376366
 20
60.3877284942
 30
0.0
 10
62.1842808974
 20
60.2911914148
 30
0.0
 10
62.2446043853
 20
60.2224333687
 30
0.0
 10
62.2791280714
 20
60.1802672401
 30
0.0
 10
62.3062214808
 20
60.1453224225
 30
0.0
 10
62.3253942705
 20
60.1183405662
 30
0.0
 10
62.3377627869
 20
60.1015735001
 30
0.0
 10
62.3425404659
 20
60.0930717072
 30
0.0
 10
62.3442081745
 20
60.0911096658
 30
0.0
  0
SPLINE
  5
354
100
AcDbEntity
  8
0
100
AcDbSpline
 62
7
  6
BYLAYER
 70
0
 71
3
 72
19
 73
15
 74
0
 42
0.0000001
 43
0.0000001
 44
0.0000000001
 40
0.0
 40
0.0
 40
0.0
 40
0.0
 40
0.0088679712
 40
0.0156968918
 40
0.0244493916
 40
0.0479782922
 40
0.0796184917
 40
0.1192534987
 40
0.1666914419
 40
0.2840680924
 40
0.4298307342
 40
0.6010348125
 40
0.7928009494
 40
1.0
 40
1.0
 40
1.0
 40
1.0
 10
57.1610210333
 20
45.613390957
 30
0.0
 10
57.161055747
 20
45.6197616493
 30
0.0
 10
57.1695771916
 20
45.629767494
 30
0.0
 10
57.1841724397
 20
45.6387715595
 30
0.0
 10
57.209831482
 20
45.6508160035
 30
0.0
 10
57.2536341629
 20
45.6646046814
 30
0.0
 10
57.3199199413
 20
45.6805141865
 30
0.0
 10
57.4037110215
 20
45.6964599909
 30
0.0
 10
57.5487735223
 20
45.7195935539
 30
0.0
 10
57.7701991688
 20
45.7474053694
 30
0.0
 10
58.0806141415
 20
45.7792476484
 30
0.0
 10
58.4447072655
 20
45.8111274138
 30
0.0
 10
58.8530619369
 20
45.843224794
 30
0.0
 10
59.1389233681
 20
45.8640569741
 30
0.0
 10
59.2873996385
 20
45.8746356158
 30
0.0
  0
SPLINE
  5
355
100
AcDbEntity
  8
0
100
AcDbSpline
 62
7
  6
BYLAYER
 70
0
 71
3
 72
19
 73
15
 74
0
 42
0.0000001
 43
0.0000001
 44
0.0000000001
 40
0.0
 40
0.0
 40
0.0
 40
0.0
 40
0.2069997931
 40
0.3983113448
 40
0.5686682884
 40
0.7141400094
 40
0.8320790779
 40
0.8799350742
 40
0.9199804384
 40
0.9519492639
 40
0.9756526986
 40
0.9844149091
 40
0.9912011601
 40
1.0
 40
1.0
 40
1.0
 40
1.0
 10
61.1380924543
 20
46.002349889
 30
0.0
 10
61.2861320952
 20
46.0128854259
 30
0.0
 10
61.5709592805
 20
46.0336246703
 30
0.0
 10
61.9774307825
 20
46.0655655461
 30
0.0
 10
62.3396510941
 20
46.0974219198
 30
0.0
 10
62.6490319877
 20
46.1292145395
 30
0.0
 10
62.8705271243
 20
46.15686438
 30
0.0
 10
63.0163227594
 20
46.1798684672
 30
0.0
 10
63.1008009411
 20
46.1957415449
 30
0.0
 10
63.1676328176
 20
46.2115757015
 30
0.0
 10
63.2117611342
 20
46.2252862914
 30
0.0
 10
63.237474502
 20
46.237297322
 30
0.0
 10
63.2520004894
 20
46.2462757784
 30
0.0
 10
63.2602512478
 20
46.2563028992
 30
0.0
 10
63.2602752117
 20
46.2626114182
 30
0.0
  0
SPLINE
  5
356
100
AcDbEntity
  8
0
100
AcDbSpline
 62
7
  6
BYLAYER
 70
0
 71
3
 72
22
 73
18
 74
0
 42
0.0000001
 43
0.0000001
 44
0.0000000001
 40
0.0
 40
0.0
 40
0.0
 40
0.0
 40
0.0015404125
 40
0.0055825016
 40
0.0121240368
 40
0.0211465618
 40
0.0326295173
 40
0.0465517535
 40
0.0815575901
 40
0.1256836956
 40
0.1783994829
 40
0.2391347241
 40
0.3071106104
 40
0.4613927936
 40
0.6339657132
 40
0.8166777921
 40
1.0
 40
1.0
 40
1.0
 40
1.0
 10
59.611025554
 20
62.5815389547
 30
0.0
 10
59.6112309145
 20
62.5812348594
 30
0.0
 10
59.6128698857
 20
62.581422508
 30
0.0
 10
59.615472262
 20
62.580959602
 30
0.0
 10
59.6202952713
 20
62.5809998908
 30
0.0
 10
59.6266711357
 20
62.5808475729
 30
0.0
 10
59.6348976954
 20
62.5808529308
 30
0.0
 10
59.6492762385
 20
62.5809065149
 30
0.0
 10
59.6714488521
 20
62.5811917942
 30
0.0
 10
59.7028507313
 20
62.5815688218
 30
0.0
 10
59.7403876357
 20
62.5818564351
 30
0.0
 10
59.7836053417
 20
62.5818627846
 30
0.0
 10
59.8510170911
 20
62.5816437296
 30
0.0
 10
59.9450697367
 20
62.5813766376
 30
0.0
 10
60.0664541042
 20
62.581558805
 30
0.0
 10
60.1947559958
 20
62.5816101549
 30
0.0
 10
60.2819492412
 20
62.5815711356
 30
0.0
 10
60.3256185292
 20
62.5815615939
 30
0.0
  0
SPLINE
  5
357
100
AcDbEntity
  8
0
100
AcDbSpline
 62
7
  6
BYLAYER
 70
0
 71
3
 72
31
 73
27
 74
0
 42
0.0000001
 43
0.0000001
 44
0.0000000001
 40
0.0
 40
0.0
 40
0.0
 40
0.0
 40
0.0040511999
 40
0.0074103741
 40
0.0118260562
 40
0.0239902561
 40
0.0407221856
 40
0.0619404948
 40
0.0873617183
 40
0.1495804675
 40
0.2248743429
 40
0.3106940848
 40
0.403989809
 40
0.5009960888
 40
0.5978893432
 40
0.6908629852
 40
0.7765097397
 40
0.8518288765
 40
0.9138499707
 40
0.9389562495
 40
0.9597472311
 40
0.9761636587
 40
0.9881955384
 40
0.9925904848
 40
0.9959457307
 40
1.0
 40
1.0
 40
1.0
 40
1.0
 10
57.1640117603
 20
41.7136144644
 30
0.0
 10
57.1640547656
 20
41.7219291462
 30
0.0
 10
57.1773025691
 20
41.73450373
 30
0.0
 10
57.1980939025
 20
41.7452824072
 30
0.0
 10
57.2366177545
 20
41.7604460013
 30
0.0
 10
57.3026813853
 20
41.7775398138
 30
0.0
 10
57.4037568543
 20
41.7972902938
 30
0.0
 10
57.5323056091
 20
41.8170092315
 30
0.0
 10
57.7539189423
 20
41.8456138145
 30
0.0
 10
58.0865997998
 20
41.8798911879
 30
0.0
 10
58.5432702228
 20
41.9194625764
 30
0.0
 10
59.0639219223
 20
41.9591650244
 30
0.0
 10
59.6292463929
 20
41.9989227857
 30
0.0
 10
60.2173450024
 20
42.0387767999
 30
0.0
 10
60.8047820401
 20
42.0786177763
 30
0.0
 10
61.3688493153
 20
42.1184615029
 30
0.0
 10
61.8885318411
 20
42.1581898796
 30
0.0
 10
62.3444986994
 20
42.1976557549
 30
0.0
 10
62.6761868641
 20
42.2318346793
 30
0.0
 10
62.8958502285
 20
42.260495002
 30
0.0
 10
63.0221885159
 20
42.2803125345
 30
0.0
 10
63.121419363
 20
42.3001323628
 30
0.0
 10
63.1864880107
 20
42.3172080207
 30
0.0
 10
63.2246825103
 20
42.3323297079
 30
0.0
 10
63.2454106058
 20
42.3431094939
 30
0.0
 10
63.2587053099
 20
42.3556601805
 30
0.0
 10
63.2587362659
 20
42.3639812157
 30
0.0
  0
SPLINE
  5
358
100
AcDbEntity
  8
0
100
AcDbSpline
 62
7
  6
BYLAYER
 70
0
 71
3
 72
32
 73
28
 74
0
 42
0.0000001
 43
0.0000001
 44
0.0000000001
 40
0.0
 40
0.0
 40
0.0
 40
0.0
 40
0.0040600265
 40
0.0074224034
 40
0.0118250442
 40
0.0238675406
 40
0.0402779402
 40
0.0610343161
 40
0.0860801986
 40
0.148045916
 40
0.2233663936
 40
0.309014176
 40
0.4019422877
 40
0.4987928015
 40
0.5957833126
 40
0.6891004451
 40
0.7749632446
 40
0.8502436858
 40
0.9124488198
 40
0.9378855374
 40
0.9591459611
 40
0.9759469516
 40
0.9826214277
 40
0.9881585373
 40
0.9925845856
 40
0.9959486624
 40
1.0
 40
1.0
 40
1.0
 40
1.0
 10
57.1630332124
 20
46.9127254369
 30
0.0
 10
57.1630733549
 20
46.9210586543
 30
0.0
 10
57.1764352036
 20
46.9335966214
 30
0.0
 10
57.1972055093
 20
46.9443720715
 30
0.0
 10
57.2354648164
 20
46.9594856283
 30
0.0
 10
57.3005604163
 20
46.9765564104
 30
0.0
 10
57.3997351974
 20
46.9963725124
 30
0.0
 10
57.525868521
 20
47.0161939026
 30
0.0
 10
57.7452270259
 20
47.0448913164
 30
0.0
 10
58.0766987113
 20
47.0790460299
 30
0.0
 10
58.5325796978
 20
47.1184966811
 30
0.0
 10
59.0522001347
 20
47.1582082974
 30
0.0
 10
59.6161146311
 20
47.1980628683
 30
0.0
 10
60.2033663914
 20
47.2379028946
 30
0.0
 10
60.7914175969
 20
47.2777552659
 30
0.0
 10
61.3568698317
 20
47.3175086768
 30
0.0
 10
61.8776549422
 20
47.3571867552
 30
0.0
 10
62.3343779588
 20
47.3967546443
 30
0.0
 10
62.6670552661
 20
47.4310755042
 30
0.0
 10
62.8887620613
 20
47.4596274168
 30
0.0
 10
63.0175979932
 20
47.479462005
 30
0.0
 10
63.1077971603
 20
47.4967685234
 30
0.0
 10
63.1656138588
 20
47.511311263
 30
0.0
 10
63.1982007673
 20
47.5212070097
 30
0.0
 10
63.223977751
 20
47.5313671105
 30
0.0
 10
63.2448026125
 20
47.542126372
 30
0.0
 10
63.2580753949
 20
47.5547119928
 30
0.0
 10
63.2581103804
 20
47.5630273992
 30
0.0
  0
SPLINE
  5
359
100
AcDbEntity
  8
0
100
AcDbSpline
 62
7
  6
BYLAYER
 70
0
 71
3
 72
20
 73
16
 74
0
 42
0.0000001
 43
0.0000001
 44
0.0000000001
 40
0.0
 40
0.0
 40
0.0
 40
0.0
 40
0.1855253334
 40
0.3684132077
 40
0.5400363614
 40
0.6929403974
 40
0.8206198989
 40
0.8729910924
 40
0.9166599619
 40
0.9510420032
 40
0.9647278152
 40
0.9760917729
 40
0.9851659658
 40
0.9920241777
 40
1.0
 40
1.0
 40
1.0
 40
1.0
 10
59.7441320883
 20
43.3065524578
 30
0.0
 10
59.9629302676
 20
43.3215606859
 30
0.0
 10
60.3974491229
 20
43.3508822837
 30
0.0
 10
61.034345739
 20
43.3944466164
 30
0.0
 10
61.6325952273
 20
43.437952652
 30
0.0
 10
62.1653981739
 20
43.4812931326
 30
0.0
 10
62.5572375624
 20
43.5188162017
 30
0.0
 10
62.8198538151
 20
43.5500888914
 30
0.0
 10
62.9725167048
 20
43.571840191
 30
0.0
 10
63.0792765416
 20
43.5909225231
 30
0.0
 10
63.147788814
 20
43.6068840209
 30
0.0
 10
63.1864912918
 20
43.6177345233
 30
0.0
 10
63.2172876397
 20
43.6288961831
 30
0.0
 10
63.2416985048
 20
43.6404998532
 30
0.0
 10
63.2581838448
 20
43.6542495671
 30
0.0
 10
63.2582173891
 20
43.663677848
 30
0.0
  0
SPLINE
  5
35A
100
AcDbEntity
  8
0
100
AcDbSpline
 62
7
  6
BYLAYER
 70
0
 71
3
 72
9
 73
5
 74
0
 42
0.0000001
 43
0.0000001
 44
0.0000000001
 40
0.0
 40
0.0
 40
0.0
 40
0.0
 40
0.4997414891
 40
1.0
 40
1.0
 40
1.0
 40
1.0
 10
57.3443755783
 20
48.6503383909
 30
0.0
 10
57.2910525326
 20
48.5952989275
 30
0.0
 10
57.2059339425
 20
48.4627246345
 30
0.0
 10
57.1748313544
 20
48.3082743572
 30
0.0
 10
57.1748324642
 20
48.2315615972
 30
0.0
  0
SPLINE
  5
35B
100
AcDbEntity
  8
0
100
AcDbSpline
 62
7
  6
BYLAYER
 70
0
 71
3
 72
21
 73
17
 74
0
 42
0.0000001
 43
0.0000001
 44
0.0000000001
 40
0.0
 40
0.0
 40
0.0
 40
0.0
 40
0.0093644433
 40
0.0176535969
 40
0.0287246832
 40
0.0426642918
 40
0.0594151985
 40
0.100913629
 40
0.1522761
 40
0.2124931023
 40
0.2805332674
 40
0.3552990791
 40
0.5187688894
 40
0.6894873212
 40
0.8540000263
 40
1.0
 40
1.0
 40
1.0
 40
1.0
 10
57.1633714175
 20
58.6783804637
 30
0.0
 10
57.1634346381
 20
58.6941446635
 30
0.0
 10
57.1926272807
 20
58.7165519662
 30
0.0
 10
57.2345287821
 20
58.7354870481
 30
0.0
 10
57.2884435554
 20
58.7539838282
 30
0.0
 10
57.3560975932
 20
58.7719885543
 30
0.0
 10
57.4748633963
 20
58.7985283229
 30
0.0
 10
57.6565697565
 20
58.8305240734
 30
0.0
 10
57.9116148166
 20
58.8677259039
 30
0.0
 10
58.2116253577
 20
58.9055024759
 30
0.0
 10
58.5512493498
 20
58.9438555694
 30
0.0
 10
59.0640924088
 20
58.9970610892
 30
0.0
 10
59.7494374387
 20
59.0623609019
 30
0.0
 10
60.5853282532
 20
59.1404023947
 30
0.0
 10
61.3915316866
 20
59.2199074129
 30
0.0
 10
61.9110702593
 20
59.277995958
 30
0.0
 10
62.1548653885
 20
59.3091673975
 30
0.0
  0
SPLINE
  5
35C
100
AcDbEntity
  8
0
100
AcDbSpline
 62
7
  6
BYLAYER
 70
0
 71
3
 72
15
 73
11
 74
0
 42
0.0000001
 43
0.0000001
 44
0.0000000001
 40
0.0
 40
0.0
 40
0.0
 40
0.0
 40
0.4047855486
 40
0.5703309972
 40
0.7095132308
 40
0.8216426838
 40
0.9063465896
 40
0.9385624706
 40
0.9643522117
 40
1.0
 40
1.0
 40
1.0
 40
1.0
 10
62.2058750822
 20
59.3157537394
 30
0.0
 10
62.3537505593
 20
59.3350389041
 30
0.0
 10
62.5619009492
 20
59.364201936
 30
0.0
 10
62.8192493548
 20
59.4101920657
 30
0.0
 10
62.969466736
 20
59.4423285769
 30
0.0
 10
63.0890841751
 20
59.4745495259
 30
0.0
 10
63.1687020603
 20
59.5028354863
 30
0.0
 10
63.2156562868
 20
59.5272618707
 30
0.0
 10
63.2436724135
 20
59.5465034739
 30
0.0
 10
63.2594861265
 20
59.5664204188
 30
0.0
 10
63.2606134701
 20
59.5795050042
 30
0.0
  0
SPLINE
  5
35D
100
AcDbEntity
  8
0
100
AcDbSpline
 62
7
  6
BYLAYER
 70
0
 71
3
 72
18
 73
14
 74
0
 42
0.0000001
 43
0.0000001
 44
0.0000000001
 40
0.0
 40
0.0
 40
0.0
 40
0.0
 40
0.0084031274
 40
0.0152000382
 40
0.0240988095
 40
0.0483927561
 40
0.0812686539
 40
0.1715386701
 40
0.2920420828
 40
0.4396224748
 40
0.6106409934
 40
0.7994945423
 40
1.0
 40
1.0
 40
1.0
 40
1.0
 10
57.1620042703
 20
43.0142107363
 30
0.0
 10
57.1620433735
 20
43.0215264768
 30
0.0
 10
57.172893842
 20
43.0328543004
 30
0.0
 10
57.1907272192
 20
43.0426794211
 30
0.0
 10
57.2231875314
 20
43.0562251545
 30
0.0
 10
57.2785604895
 20
43.071554049
 30
0.0
 10
57.4042712609
 20
43.0981260929
 30
0.0
 10
57.6142749605
 20
43.1286670969
 30
0.0
 10
57.9242653023
 20
43.1640234367
 30
0.0
 10
58.3049198114
 20
43.1995545987
 30
0.0
 10
58.7452718028
 20
43.2352547521
 30
0.0
 10
59.2318267183
 20
43.2710976304
 30
0.0
 10
59.5699900756
 20
43.2946134638
 30
0.0
 10
59.7441420801
 20
43.3065707234
 30
0.0
  0
SPLINE
  5
35E
100
AcDbEntity
  8
0
100
AcDbSpline
 62
7
  6
BYLAYER
 70
0
 71
3
 72
32
 73
28
 74
0
 42
0.0000001
 43
0.0000001
 44
0.0000000001
 40
0.0
 40
0.0
 40
0.0
 40
0.0
 40
0.004112664
 40
0.007564686
 40
0.0120838506
 40
0.0243916841
 40
0.0410333446
 40
0.0618977737
 40
0.0868461279
 40
0.1483801594
 40
0.2236654253
 40
0.3094373434
 40
0.4022896641
 40
0.4988076228
 40
0.5954722605
 40
0.688638287
 40
0.7746547362
 40
0.8499257344
 40
0.911768867
 40
0.9370696641
 40
0.9583232664
 40
0.9753172801
 40
0.9821585685
 40
0.9878712927
 40
0.9924485614
 40
0.9959100435
 40
1.0
 40
1.0
 40
1.0
 40
1.0
 10
57.1610877737
 20
52.1131729378
 30
0.0
 10
57.1611330314
 20
52.1216179726
 30
0.0
 10
57.1752534578
 20
52.1340872389
 30
0.0
 10
57.1965564741
 20
52.1447682228
 30
0.0
 10
57.2359465416
 20
52.1598309764
 30
0.0
 10
57.3023425488
 20
52.1768386804
 30
0.0
 10
57.4028525122
 20
52.1966183715
 30
0.0
 10
57.5295430617
 20
52.2164053419
 30
0.0
 10
57.7481285332
 20
52.2451241853
 30
0.0
 10
58.0785698429
 20
52.2794305117
 30
0.0
 10
58.5339709315
 20
52.3186806543
 30
0.0
 10
59.0538620709
 20
52.3582710933
 30
0.0
 10
59.6174513947
 20
52.3980607446
 30
0.0
 10
60.2034569822
 20
52.4379100475
 30
0.0
 10
60.7901102936
 20
52.4777309594
 30
0.0
 10
61.3551528969
 20
52.5174815418
 30
0.0
 10
61.8761717081
 20
52.5569950853
 30
0.0
 10
62.3326680261
 20
52.5964013353
 30
0.0
 10
62.6644422146
 20
52.6308114642
 30
0.0
 10
62.8852029046
 20
52.659369635
 30
0.0
 10
63.0141998244
 20
52.6792359094
 30
0.0
 10
63.1051701785
 20
52.696532043
 30
0.0
 10
63.1641760663
 20
52.710971801
 30
0.0
 10
63.1978321377
 20
52.7208306532
 30
0.0
 10
63.2246059488
 20
52.7309550916
 30
0.0
 10
63.2460666244
 20
52.7415804275
 30
0.0
 10
63.2599800768
 20
52.7541835086
 30
0.0
 10
63.2600027136
 20
52.7625820053
 30
0.0
  0
SPLINE
  5
35F
100
AcDbEntity
  8
0
100
AcDbSpline
 62
7
  6
BYLAYER
 70
0
 71
3
 72
15
 73
11
 74
0
 42
0.0000001
 43
0.0000001
 44
0.0000000001
 40
0.0
 40
0.0
 40
0.0
 40
0.0
 40
0.3731908751
 40
0.5424791582
 40
0.691029493
 40
0.8128701023
 40
0.905032223
 40
0.9395033518
 40
0.9662546631
 40
1.0
 40
1.0
 40
1.0
 40
1.0
 10
59.744149218
 20
43.3065615972
 30
0.0
 10
59.7441494177
 20
43.2295007671
 30
0.0
 10
59.7474329542
 20
43.1174304728
 30
0.0
 10
59.7588329264
 20
42.9751687547
 30
0.0
 10
59.7697583538
 20
42.8850104042
 30
0.0
 10
59.7833563219
 20
42.8112934663
 30
0.0
 10
59.7966456534
 20
42.7617434403
 30
0.0
 10
59.8093094102
 20
42.7323392521
 30
0.0
 10
59.8187102222
 20
42.7158182579
 30
0.0
 10
59.8301916337
 20
42.7060252313
 30
0.0
 10
59.8371343217
 20
42.7066201777
 30
0.0
  0
SPLINE
  5
360
100
AcDbEntity
  8
0
100
AcDbSpline
 62
7
  6
BYLAYER
 70
0
 71
3
 72
32
 73
28
 74
0
 42
0.0000001
 43
0.0000001
 44
0.0000000001
 40
0.0
 40
0.0
 40
0.0
 40
0.0
 40
0.0040797761
 40
0.0075130102
 40
0.012056001
 40
0.0177490378
 40
0.024585597
 40
0.0416071647
 40
0.0629230931
 40
0.0883027447
 40
0.1502792215
 40
0.2255506992
 40
0.3115981089
 40
0.4048547988
 40
0.5016198239
 40
0.5981928971
 40
0.6910151118
 40
0.7767332434
 40
0.8520154014
 40
0.9135876753
 40
0.9384821286
 40
0.9592576935
 40
0.9757957064
 40
0.9880056636
 40
0.9924848058
 40
0.9959066009
 40
1.0
 40
1.0
 40
1.0
 40
1.0
 10
57.1625889332
 20
50.8142280883
 30
0.0
 10
57.1626273221
 20
50.822604875
 30
0.0
 10
57.1763522386
 20
50.8351973355
 30
0.0
 10
57.1976506229
 20
50.845877411
 30
0.0
 10
57.2242259453
 20
50.8560176912
 30
0.0
 10
57.2577590056
 20
50.8658716349
 30
0.0
 10
57.316761728
 20
50.8803240378
 30
0.0
 10
57.4079038188
 20
50.8976180376
 30
0.0
 10
57.5372389496
 20
50.9174835932
 30
0.0
 10
57.7585491843
 20
50.9460340993
 30
0.0
 10
58.0907331869
 20
50.9804274347
 30
0.0
 10
58.5475210761
 20
51.0199138767
 30
0.0
 10
59.0687439192
 20
51.0594386889
 30
0.0
 10
59.6341923325
 20
51.0991955799
 30
0.0
 10
60.221299245
 20
51.1390223603
 30
0.0
 10
60.8075100621
 20
51.1788766932
 30
0.0
 10
61.3709873434
 20
51.2186970925
 30
0.0
 10
61.8906509292
 20
51.258315628
 30
0.0
 10
62.3459679941
 20
51.2976056958
 30
0.0
 10
62.6763491122
 20
51.3318455486
 30
0.0
 10
62.8946926253
 20
51.3606047768
 30
0.0
 10
63.0208606642
 20
51.3804008245
 30
0.0
 10
63.1207464582
 20
51.4001910808
 30
0.0
 10
63.1866344627
 20
51.4172143941
 30
0.0
 10
63.2256292903
 20
51.4322909222
 30
0.0
 10
63.2467487018
 20
51.4429964147
 30
0.0
 10
63.2606225234
 20
51.4554949503
 30
0.0
 10
63.2606520785
 20
51.4638997446
 30
0.0
  0
SPLINE
  5
361
100
AcDbEntity
  8
0
100
AcDbSpline
 62
7
  6
BYLAYER
 70
0
 71
3
 72
31
 73
27
 74
0
 42
0.0000001
 43
0.0000001
 44
0.0000000001
 40
0.0
 40
0.0
 40
0.0
 40
0.0
 40
0.0040503771
 40
0.0074028167
 40
0.0118037795
 40
0.0239037068
 40
0.0405115913
 40
0.0616248073
 40
0.0869936095
 40
0.1492042921
 40
0.2245152261
 40
0.3102609246
 40
0.4034917952
 40
0.5005029521
 40
0.5974591727
 40
0.6905282088
 40
0.7761897171
 40
0.8515062894
 40
0.913615927
 40
0.9388331947
 40
0.959723098
 40
0.9761796792
 40
0.9882141096
 40
0.9926031256
 40
0.9959514176
 40
1.0
 40
1.0
 40
1.0
 40
1.0
 10
57.1640364325
 20
49.5133705383
 30
0.0
 10
57.1640832634
 20
49.5216830635
 30
0.0
 10
57.1773019372
 20
49.5342480455
 30
0.0
 10
57.1980398704
 20
49.5450369067
 30
0.0
 10
57.2363731916
 20
49.5601884114
 30
0.0
 10
57.3020037546
 20
49.5772822705
 30
0.0
 10
57.4024484767
 20
49.5970883551
 30
0.0
 10
57.5304077327
 20
49.6168041894
 30
0.0
 10
57.751665497
 20
49.6454144828
 30
0.0
 10
58.0842419286
 20
49.6796683868
 30
0.0
 10
58.5407551844
 20
49.7192153343
 30
0.0
 10
59.0611250756
 20
49.7589551847
 30
0.0
 10
59.626142362
 20
49.7987263418
 30
0.0
 10
60.2142153563
 20
49.8385802239
 30
0.0
 10
60.801956079
 20
49.8784255742
 30
0.0
 10
61.3663510374
 20
49.9182417572
 30
0.0
 10
61.8862252099
 20
49.9579914979
 30
0.0
 10
62.3423728588
 20
49.9974850792
 30
0.0
 10
62.6744442166
 20
50.0317034984
 30
0.0
 10
62.8947180156
 20
50.0603193169
 30
0.0
 10
63.0215742397
 20
50.0801070078
 30
0.0
 10
63.1210936744
 20
50.0999334017
 30
0.0
 10
63.186239388
 20
50.1170167827
 30
0.0
 10
63.2243997562
 20
50.1321511474
 30
0.0
 10
63.2450918356
 20
50.1429372495
 30
0.0
 10
63.2583120199
 20
50.1555009351
 30
0.0
 10
63.258339248
 20
50.1638098641
 30
0.0
  0
SPLINE
  5
362
100
AcDbEntity
  8
0
100
AcDbSpline
 62
7
  6
BYLAYER
 70
0
 71
3
 72
32
 73
28
 74
0
 42
0.0000001
 43
0.0000001
 44
0.0000000001
 40
0.0
 40
0.0
 40
0.0
 40
0.0
 40
0.0041287143
 40
0.0076131957
 40
0.0121777309
 40
0.0246027802
 40
0.0413773112
 40
0.062367627
 40
0.0874126087
 40
0.1489719959
 40
0.2242545543
 40
0.3100878007
 40
0.4029901259
 40
0.499474161
 40
0.596024506
 40
0.689063086
 40
0.7750046754
 40
0.850278425
 40
0.9119795569
 40
0.9371784529
 40
0.9583378227
 40
0.9752663201
 40
0.9820920333
 40
0.9878038366
 40
0.9923967389
 40
0.9958883333
 40
1.0
 40
1.0
 40
1.0
 40
1.0
 10
57.1610436377
 20
39.1136195482
 30
0.0
 10
57.161084713
 20
39.1220978936
 30
0.0
 10
57.1754464654
 20
39.1345563411
 30
0.0
 10
57.1969445548
 20
39.1451979006
 30
0.0
 10
57.2367869828
 20
39.1602505149
 30
0.0
 10
57.303802056
 20
39.1772357465
 30
0.0
 10
57.4051106175
 20
39.1970031103
 30
0.0
 10
57.5325440068
 20
39.2167775656
 30
0.0
 10
57.7516590893
 20
39.24544098
 30
0.0
 10
58.0823523704
 20
39.2797982725
 30
0.0
 10
58.5379466647
 20
39.3190360743
 30
0.0
 10
59.0580845446
 20
39.3585873207
 30
0.0
 10
59.6218578174
 20
39.3983419798
 30
0.0
 10
60.2076854643
 20
39.4381720458
 30
0.0
 10
60.7937947411
 20
39.4779871957
 30
0.0
 10
61.3582085733
 20
39.5177266392
 30
0.0
 10
61.8788363883
 20
39.5572428001
 30
0.0
 10
62.3349177915
 20
39.596549204
 30
0.0
 10
62.6662083246
 20
39.6309606768
 30
0.0
 10
62.8862760233
 20
39.659530801
 30
0.0
 10
63.0147353009
 20
39.6793952182
 30
0.0
 10
63.1053417468
 20
39.6966909148
 30
0.0
 10
63.1641800099
 20
39.7111214555
 30
0.0
 10
63.1978319189
 20
39.7209798493
 30
0.0
 10
63.2247117504
 20
39.7311143568
 30
0.0
 10
63.2463072226
 20
39.741690169
 30
0.0
 10
63.2605003839
 20
39.754251278
 30
0.0
 10
63.2605356276
 20
39.7626946417
 30
0.0
  0
ENDSEC
  0
SECTION
  2
OBJECTS
  0
DICTIONARY
  5
C
100
AcDbDictionary
280
0
281
1
  3
ACAD_GROUP
350
D
  3
ACAD_MLINESTYLE
350
17
  3
ACAD_LAYOUT
350
1A
  3
ACAD_PLOTSETTINGS
350
19
  3
ACAD_PLOTSTYLENAME
350
E
  0
DICTIONARY
  5
D
102
{ACAD_REACTORS
330
C
102
}
100
AcDbDictionary
280
0
281
1
  0
ACDBDICTIONARYWDFLT
  5
E
102
{ACAD_REACTORS
330
C
102
}
100
AcDbDictionary
281
1
  3
Normal
350
F
100
AcDbDictionaryWithDefault
340
F
  0
DICTIONARY
  5
17
102
{ACAD_REACTORS
330
C
102
}
100
AcDbDictionary
280
0
281
1
  3
Standard
350
18
  0
DICTIONARY
  5
19
102
{ACAD_REACTORS
330
C
102
}
100
AcDbDictionary
281
1
  0
DICTIONARY
  5
1A
102
{ACAD_REACTORS
330
C
102
}
100
AcDbDictionary
281
1
  3
Model
350
363
  3
Layout1
350
364
  0
ACDBPLACEHOLDER
  5
F
102
{ACAD_REACTORS
330
E
102
}
  0
MLINESTYLE
  5
18
102
{ACAD_REACTORS
330
17
102
}
100
AcDbMlineStyle
  2
STANDARD
 70
0
  3

 62
256
 51
90.0
 52
90.0
 71
2
 49
0.5
 62
256
  6
BYLAYER
 49
-0.5
 62
256
  6
BYLAYER
  0
LAYOUT
  5
363
102
{ACAD_REACTORS
330
1A
102
}
100
AcDbPlotSettings
  1

  2
none_device
  4

  6

 40
0.0
 41
0.0
 42
0.0
 43
0.0
 44
210.0
 45
297.0
 46
0.0
 47
0.0
 48
0.0
 49
0.0
140
0.0
141
0.0
142
1.0
143
1.0
 70
1024
 72
1
 73
0
 74
0
  7

 75
0
147
1.0
148
0.0
149
0.0
100
AcDbLayout
  1
Model
 70
0
 71
0
 10
0.0
 20
0.0
 11
210.0
 21
297.0
 12
0.0
 22
0.0
 32
0.0
 14
0.0
 24
0.0
 34
0.0
 15
0.0
 25
0.0
 35
0.0
146
0.0
 13
0.0
 23
0.0
 33
0.0
 16
1.0
 26
0.0
 36
0.0
 17
0.0
 27
1.0
 37
0.0
 76
0
330
210
345
0
346
0
  0
LAYOUT
  5
364
102
{ACAD_REACTORS
330
1A
102
}
100
AcDbPlotSettings
  1

  2
none_device
  4

  6

 40
0.0
 41
0.0
 42
0.0
 43
0.0
 44
210.0
 45
297.0
 46
0.0
 47
0.0
 48
0.0
 49
0.0
140
0.0
141
0.0
142
1.0
143
1.0
 70
0
 72
1
 73
0
 74
0
  7

 75
0
147
1.0
148
0.0
149
0.0
100
AcDbLayout
  1
Layout1
 70
0
 71
1
 10
0.0
 20
0.0
 11
210.0
 21
297.0
 12
0.0
 22
0.0
 32
0.0
 14
0.0
 24
0.0
 34
0.0
 15
0.0
 25
0.0
 35
0.0
146
0.0
 13
0.0
 23
0.0
 33
0.0
 16
1.0
 26
0.0
 36
0.0
 17
0.0
 27
1.0
 37
0.0
 76
0
330
211
345
0
346
0
  0
ENDSEC
  0
EOF
