999
DXF file: C:\Users\sesa63760\Dev\_Creo\CAD\MCADID0004740_3D-CAD\drw0001_5.dxf
999
Pro/ENGINEER 2019471 by Parametric Technology Corporation
  0
SECTION
  2
HEADER
  9
$ACADVER
  1
AC1024
  9
$DWGCODEPAGE
  3
ANSI_1252
  9
$EXTMAX
 10
117.6826942898
 20
166.4369533528
 30
0.0
  9
$EXTMIN
 10
0.0
 20
0.0
 30
0.0
  9
$LIMMIN
 10
0.0
 20
0.0
  9
$LIMMAX
 10
117.6826942898
 20
166.4369533528
  9
$VIEWCTR
 10
58.8413471449
 20
83.2184766764
  9
$VIEWSIZE
 40
166.4369533528
  9
$CLAYER
  8
0
  9
$LTSCALE
 40
10.849223626
  9
$CELTYPE
  6
BYLAYER
  9
$DIMSCALE
 40
1.0
  9
$DIMASZ
 40
1.4009844558
  9
$DIMEXO
 40
1.0
  9
$DIMDLI
 40
7.4958272325
  9
$DIMEXE
 40
1.0
  9
$DIMCEN
 40
1.7753275024
  9
$DIMLFAC
 40
1.0
  9
$DIMBLK
  1
_FILLED
  9
$DIMALT
 70
0
  9
$DIMALTF
 40
0.0393700787
  9
$DIMTXT
 40
1.9613782382
  9
$DIMTOL
 70
1
  9
$DIMLIM
 70
0
  9
$DIMTFAC
 40
1.0
  9
$DIMTP
 40
0.01
  9
$DIMTM
 40
0.01
  9
$DIMGAP
 40
0.625
  9
$DIMDSEP
 70
46
  9
$AUNITS
 70
0
  9
$PDMODE
 70
3
  9
$PDSIZE
 40
0.3125
  9
$HANDSEED
  5
361
  9
$TILEMODE
 70
1
  9
$MEASUREMENT
 70
1
  9
$INSUNITS
 70
4
  0
ENDSEC
  0
SECTION
  2
CLASSES
  0
CLASS
  1
ACDBDICTIONARYWDFLT
  2
AcDbDictionaryWithDefault
  3
AutoCAD 2000
 90
0
 91
1
280
0
281
0
  0
CLASS
  1
ACDBPLACEHOLDER
  2
AcDbPlaceHolder
  3
AutoCAD 2000
 90
0
 91
1
280
0
281
0
  0
CLASS
  1
LAYOUT
  2
AcDbLayout
  3
AutoCAD 2000
 90
0
 91
0
280
0
281
0
  0
ENDSEC
  0
SECTION
  2
TABLES
  0
TABLE
  2
VPORT
  5
8
100
AcDbSymbolTable
 70
2
  0
VPORT
  5
1F4
100
AcDbSymbolTableRecord
100
AcDbViewportTableRecord
  2
*ACTIVE
 70
0
 10
0.0
 20
0.0
 11
1.0
 21
1.0
 12
58.8413471449
 22
83.2184766764
 13
0.0
 23
0.0
 14
1.0
 24
1.0
 15
0.0
 25
0.0
 16
0.0
 26
0.0
 36
1.0
 17
0.0
 27
0.0
 37
0.0
 40
166.4369533528
 41
0.7070707071
 42
50.0
 43
0.0
 44
0.0
 50
0.0
 51
0.0
 71
0
 72
100
 73
1
 74
1
 75
0
 76
0
 77
0
 78
0
  0
ENDTAB
  0
TABLE
  2
LTYPE
  5
5
100
AcDbSymbolTable
 70
6
  0
LTYPE
  5
14
100
AcDbSymbolTableRecord
100
AcDbLinetypeTableRecord
  2
BYBLOCK
 70
0
  3

 72
65
 73
0
 40
0.0
  0
LTYPE
  5
15
100
AcDbSymbolTableRecord
100
AcDbLinetypeTableRecord
  2
BYLAYER
 70
0
  3

 72
65
 73
0
 40
0.0
  0
LTYPE
  5
16
100
AcDbSymbolTableRecord
100
AcDbLinetypeTableRecord
  2
CONTINUOUS
 70
64
  3
Solid line
 72
65
 73
0
 40
0.0
  0
LTYPE
  5
1F5
100
AcDbSymbolTableRecord
100
AcDbLinetypeTableRecord
  2
CENTER
 70
64
  3
____ _ ____ _ ____ _ ____ _ ____ _ ____ _ ____
 72
65
 73
4
 40
0.6
 49
0.375
 74
0
 49
-0.075
 74
0
 49
0.075
 74
0
 49
-0.075
 74
0
  0
LTYPE
  5
1F6
100
AcDbSymbolTableRecord
100
AcDbLinetypeTableRecord
  2
HIDDEN
 70
64
  3
- - - - - - - - - - - - - - - - - - - -
 72
65
 73
2
 40
0.2
 49
0.1
 74
0
 49
-0.1
 74
0
  0
LTYPE
  5
1F7
100
AcDbSymbolTableRecord
100
AcDbLinetypeTableRecord
  2
PHANTOM
 70
64
  3
_____ _ _ _____ _ _ _____ _ _ _____
 72
65
 73
6
 40
0.8
 49
0.45
 74
0
 49
-0.05
 74
0
 49
0.1
 74
0
 49
-0.05
 74
0
 49
0.1
 74
0
 49
-0.05
 74
0
  0
LTYPE
  5
1F8
100
AcDbSymbolTableRecord
100
AcDbLinetypeTableRecord
  2
DOT
 70
64
  3
. . . . . . . . . . . . . . . . . . . .
 72
65
 73
2
 40
0.2
 49
0.1
 74
0
 49
-0.1
 74
0
  0
LTYPE
  5
1F9
100
AcDbSymbolTableRecord
100
AcDbLinetypeTableRecord
  2
DASHED
 70
64
  3
- - - - - - - - - - - - - - - - - - - -
 72
65
 73
2
 40
0.2
 49
0.1
 74
0
 49
-0.1
 74
0
  0
ENDTAB
  0
TABLE
  2
LAYER
  5
2
100
AcDbSymbolTable
 70
36
  0
LAYER
  5
10
100
AcDbSymbolTableRecord
100
AcDbLayerTableRecord
  2
0
 70
0
 62
7
  6
CONTINUOUS
370
-3
390
F
  0
LAYER
  5
1FA
100
AcDbSymbolTableRecord
100
AcDbLayerTableRecord
  2
DEFAULT_1
 70
0
 62
7
  6
CENTER
370
-3
390
F
  0
LAYER
  5
1FB
100
AcDbSymbolTableRecord
100
AcDbLayerTableRecord
  2
DEFAULT_2
 70
0
 62
7
  6
HIDDEN
370
-3
390
F
  0
LAYER
  5
1FC
100
AcDbSymbolTableRecord
100
AcDbLayerTableRecord
  2
DEFAULT_3
 70
0
 62
7
  6
PHANTOM
370
-3
390
F
  0
LAYER
  5
1FD
100
AcDbSymbolTableRecord
100
AcDbLayerTableRecord
  2
00_COMPONENTS
 70
0
 62
7
  6
CONTINUOUS
370
-3
390
F
  0
LAYER
  5
1FE
100
AcDbSymbolTableRecord
100
AcDbLayerTableRecord
  2
01_1_DEFAULT_DATUMS
 70
0
 62
7
  6
CONTINUOUS
370
-3
390
F
  0
LAYER
  5
1FF
100
AcDbSymbolTableRecord
100
AcDbLayerTableRecord
  2
01_PLANES
 70
0
 62
7
  6
CONTINUOUS
370
-3
390
F
  0
LAYER
  5
200
100
AcDbSymbolTableRecord
100
AcDbLayerTableRecord
  2
02_COORD_SYS
 70
0
 62
7
  6
CONTINUOUS
370
-3
390
F
  0
LAYER
  5
201
100
AcDbSymbolTableRecord
100
AcDbLayerTableRecord
  2
03_AXES
 70
0
 62
7
  6
CONTINUOUS
370
-3
390
F
  0
LAYER
  5
202
100
AcDbSymbolTableRecord
100
AcDbLayerTableRecord
  2
04_POINTS
 70
0
 62
7
  6
CONTINUOUS
370
-3
390
F
  0
LAYER
  5
203
100
AcDbSymbolTableRecord
100
AcDbLayerTableRecord
  2
05_CURVES
 70
0
 62
7
  6
CONTINUOUS
370
-3
390
F
  0
LAYER
  5
204
100
AcDbSymbolTableRecord
100
AcDbLayerTableRecord
  2
06_SURFS
 70
0
 62
7
  6
CONTINUOUS
370
-3
390
F
  0
LAYER
  5
205
100
AcDbSymbolTableRecord
100
AcDbLayerTableRecord
  2
07_COSMETICS
 70
0
 62
7
  6
CONTINUOUS
370
-3
390
F
  0
LAYER
  5
206
100
AcDbSymbolTableRecord
100
AcDbLayerTableRecord
  2
10_NOTES
 70
0
 62
7
  6
CONTINUOUS
370
-3
390
F
  0
LAYER
  5
207
100
AcDbSymbolTableRecord
100
AcDbLayerTableRecord
  2
11_NOTES_PUB
 70
0
 62
7
  6
CONTINUOUS
370
-3
390
F
  0
LAYER
  5
208
100
AcDbSymbolTableRecord
100
AcDbLayerTableRecord
  2
13_REF_GTOL
 70
0
 62
7
  6
CONTINUOUS
370
-3
390
F
  0
LAYER
  5
209
100
AcDbSymbolTableRecord
100
AcDbLayerTableRecord
  2
16_MISC
 70
0
 62
7
  6
CONTINUOUS
370
-3
390
F
  0
LAYER
  5
20A
100
AcDbSymbolTableRecord
100
AcDbLayerTableRecord
  2
17_NO_PRINT
 70
0
 62
7
  6
CONTINUOUS
370
-3
390
F
  0
LAYER
  5
20B
100
AcDbSymbolTableRecord
100
AcDbLayerTableRecord
  2
18_DATUM_CAMS_JOINTS
 70
0
 62
7
  6
CONTINUOUS
370
-3
390
F
  0
LAYER
  5
20C
100
AcDbSymbolTableRecord
100
AcDbLayerTableRecord
  2
19_DATUM_FUNCTIONAL
 70
0
 62
7
  6
CONTINUOUS
370
-3
390
F
  0
LAYER
  5
20D
100
AcDbSymbolTableRecord
100
AcDbLayerTableRecord
  2
20_DATUM_KINEMATIC_SCHEME
 70
0
 62
7
  6
CONTINUOUS
370
-3
390
F
  0
ENDTAB
  0
TABLE
  2
STYLE
  5
3
100
AcDbSymbolTable
 70
1
  0
STYLE
  5
11
100
AcDbSymbolTableRecord
100
AcDbTextStyleTableRecord
  2
STANDARD
 70
0
 40
0.0
 41
1.0
 50
0.0
 71
0
 42
0.2
  3
ARIAL.TTF
  4

  0
STYLE
  5
20E
100
AcDbSymbolTableRecord
100
AcDbTextStyleTableRecord
  2
TEXTSTYLE_1
 70
0
 40
0.0
 41
0.8
 50
0.0
 71
0
 42
0.2
  3
gdt
  4

  0
ENDTAB
  0
TABLE
  2
VIEW
  5
6
100
AcDbSymbolTable
 70
0
  0
ENDTAB
  0
TABLE
  2
UCS
  5
7
100
AcDbSymbolTable
 70
0
  0
ENDTAB
  0
TABLE
  2
APPID
  5
9
100
AcDbSymbolTable
 70
1
  0
APPID
  5
20F
100
AcDbSymbolTableRecord
100
AcDbRegAppTableRecord
  2
ACAD
 70
0
  0
ENDTAB
  0
TABLE
  2
BLOCK_RECORD
  5
1
100
AcDbSymbolTable
 70
0
  0
BLOCK_RECORD
  5
210
100
AcDbSymbolTableRecord
100
AcDbBlockTableRecord
  2
*Model_Space
  0
BLOCK_RECORD
  5
211
100
AcDbSymbolTableRecord
100
AcDbBlockTableRecord
  2
*Paper_Space
  0
BLOCK_RECORD
  5
212
100
AcDbSymbolTableRecord
100
AcDbBlockTableRecord
  2
_FILLED
  0
ENDTAB
  0
TABLE
  2
DIMSTYLE
  5
A
100
AcDbSymbolTable
 70
1
100
AcDbDimStyleTable
 71
0
  0
DIMSTYLE
105
213
100
AcDbSymbolTableRecord
100
AcDbDimStyleTableRecord
  2
STANDARD
 70
0
  3

  4

 40
1.0
 41
1.4009844558
 42
1.0
 43
0.38
 44
1.0
 45
0.0
 46
0.0
 47
0.01
 48
0.01
140
1.9613782382
141
0.09
142
0.0
143
25.4
144
1.0
145
0.0
146
1.0
147
0.625
 71
1
 72
0
 73
0
 74
0
 75
0
 76
0
 77
1
 78
8
 79
2
170
0
171
1
172
0
173
0
174
0
175
0
176
0
177
0
178
0
270
2
179
2
271
2
272
2
273
2
274
2
275
0
280
0
281
0
282
0
283
1
284
8
285
0
286
0
287
3
288
0
340
11
278
46
341
212
342
212
343
212
344
212
  0
ENDTAB
  0
ENDSEC
  0
SECTION
  2
BLOCKS
  0
BLOCK
  5
20
100
AcDbEntity
  8
0
100
AcDbBlockBegin
  2
*Model_Space
 70
0
 10
0.0
 20
0.0
 30
0.0
  3
*Model_Space
  1

  0
ENDBLK
  5
21
100
AcDbEntity
  8
0
100
AcDbBlockEnd
  0
BLOCK
  5
1C
100
AcDbEntity
  8
0
100
AcDbBlockBegin
  2
*Paper_Space
 70
0
 10
0.0
 20
0.0
 30
0.0
  3
*Paper_Space
  1

  0
ENDBLK
  5
1D
100
AcDbEntity
  8
0
100
AcDbBlockEnd
  0
BLOCK
  5
214
100
AcDbEntity
  8
0
100
AcDbBlockBegin
  2
_FILLED
 70
64
 10
0.0
 20
0.0
  3
_FILLED
  1

  0
SOLID
  5
215
100
AcDbEntity
  8
0
  6
BYBLOCK
 62
0
100
AcDbTrace
 10
0.0
 20
0.0
 11
-1.0
 21
0.25
 12
-1.0
 22
-0.25
 13
-1.0
 23
-0.25
  0
ENDBLK
  5
216
100
AcDbEntity
  8
0
  6
BYBLOCK
 62
0
100
AcDbBlockEnd
  0
ENDSEC
  0
SECTION
  2
ENTITIES
  0
LINE
  5
217
100
AcDbEntity
  8
0
100
AcDbLine
 62
7
  6
BYLAYER
 10
62.2210824379
 20
13.5471938776
 11
58.7210870706
 21
13.5471938776
  0
LINE
  5
218
100
AcDbEntity
  8
0
100
AcDbLine
 62
7
  6
BYLAYER
 10
66.5210062982
 20
13.6971938776
 11
54.4211632103
 21
13.6971938776
  0
LINE
  5
219
100
AcDbEntity
  8
0
100
AcDbLine
 62
7
  6
BYLAYER
 10
66.8210847542
 20
14.6971938776
 11
54.1210847542
 21
14.6971938776
  0
LINE
  5
21A
100
AcDbEntity
  8
0
100
AcDbLine
 62
7
  6
BYLAYER
 10
54.1211660771
 20
15.4971938776
 11
66.8210034314
 21
15.4971938776
  0
LINE
  5
21B
100
AcDbEntity
  8
0
100
AcDbLine
 62
7
  6
BYLAYER
 10
66.8210034314
 20
16.6971938776
 11
54.1211660771
 21
16.6971938776
  0
LINE
  5
21C
100
AcDbEntity
  8
0
100
AcDbLine
 62
7
  6
BYLAYER
 10
54.1211660771
 20
17.8471938776
 11
66.8210034314
 21
17.8471938776
  0
LINE
  5
21D
100
AcDbEntity
  8
0
100
AcDbLine
 62
7
  6
BYLAYER
 10
67.8219378984
 20
19.1871938776
 11
53.1202316101
 21
19.1871938776
  0
LINE
  5
21E
100
AcDbEntity
  8
0
100
AcDbLine
 62
7
  6
BYLAYER
 10
68.4710810092
 20
21.2971938776
 11
52.4710884993
 21
21.2971938776
  0
LINE
  5
21F
100
AcDbEntity
  8
0
100
AcDbLine
 62
7
  6
BYLAYER
 10
52.4710847542
 20
22.2971938776
 11
68.4710847542
 21
22.2971938776
  0
LINE
  5
220
100
AcDbEntity
  8
0
100
AcDbLine
 62
7
  6
BYLAYER
 10
67.971080612
 20
22.7971938776
 11
52.9710888965
 21
22.7971938776
  0
LINE
  5
221
100
AcDbEntity
  8
0
100
AcDbLine
 62
7
  6
BYLAYER
 10
52.9710847542
 20
23.2971938776
 11
67.9710847542
 21
23.2971938776
  0
LINE
  5
222
100
AcDbEntity
  8
0
100
AcDbLine
 62
7
  6
BYLAYER
 10
53.1710891058
 20
23.4971938776
 11
67.7710804027
 21
23.4971938776
  0
LINE
  5
223
100
AcDbEntity
  8
0
100
AcDbLine
 62
7
  6
BYLAYER
 10
53.1710888412
 20
24.6971938776
 11
67.7710806673
 21
24.6971938776
  0
LINE
  5
224
100
AcDbEntity
  8
0
100
AcDbLine
 62
7
  6
BYLAYER
 10
67.9710847542
 20
24.8971938776
 11
52.9710847542
 21
24.8971938776
  0
LINE
  5
225
100
AcDbEntity
  8
0
100
AcDbLine
 62
7
  6
BYLAYER
 10
52.9710847542
 20
27.0971938776
 11
67.9710847542
 21
27.0971938776
  0
LINE
  5
226
100
AcDbEntity
  8
0
100
AcDbLine
 62
7
  6
BYLAYER
 10
66.8710847542
 20
28.1971938776
 11
54.0710847542
 21
28.1971938776
  0
LINE
  5
227
100
AcDbEntity
  8
0
100
AcDbLine
 62
7
  6
BYLAYER
 10
55.7210847368
 20
29.7165686145
 11
65.2210847717
 21
29.7165686145
  0
LWPOLYLINE
  5
228
100
AcDbEntity
  8
0
100
AcDbPolyline
 62
7
  6
BYLAYER
 90
11
 70
0
 10
62.6507973248
 20
40.642174645
 10
62.6359201584
 20
40.6384267392
 10
62.4682414245
 20
40.6061227744
 10
62.1685895047
 20
40.5645244642
 10
61.7568243657
 20
40.5191028028
 10
61.2452922384
 20
40.4707948383
 10
60.6565534245
 20
40.4197550836
 10
60.0248427908
 20
40.3661660372
 10
59.3944059776
 20
40.3102313046
 10
58.823068301
 20
40.2529191756
 10
58.3699460599
 20
40.1956706889
  0
LWPOLYLINE
  5
229
100
AcDbEntity
  8
0
100
AcDbPolyline
 62
7
  6
BYLAYER
 90
11
 70
0
 10
58.2958019228
 20
38.966760328
 10
58.3048390944
 20
38.9688990538
 10
58.4518860754
 20
38.9984583982
 10
58.7286160023
 20
39.0380745182
 10
59.1141049138
 20
39.0815254429
 10
59.5880806309
 20
39.1273177248
 10
60.1355245228
 20
39.1755466088
 10
60.7361469434
 20
39.2264722341
 10
61.3592875258
 20
39.2804882443
 10
61.9629680318
 20
39.3383300471
 10
62.472788352
 20
39.3984201187
  0
LWPOLYLINE
  5
22A
100
AcDbEntity
  8
0
100
AcDbPolyline
 62
7
  6
BYLAYER
 90
5
 70
0
 10
58.2257022913
 20
38.8722047577
 10
57.9278450681
 20
38.8038435998
 10
57.6276281244
 20
38.6403081145
 10
57.4247777642
 20
38.2385197834
 10
57.4218270104
 20
38.1796669814
  0
LWPOLYLINE
  5
22B
100
AcDbEntity
  8
0
100
AcDbPolyline
 62
7
  6
BYLAYER
 90
11
 70
0
 10
58.2978737985
 20
40.2677602208
 10
58.3062554441
 20
40.269661922
 10
58.4567724118
 20
40.2993798463
 10
58.7401639934
 20
40.3393499768
 10
59.1283850227
 20
40.3829613672
 10
59.6053779744
 20
40.4289916566
 10
60.1577456321
 20
40.4774689792
 10
60.7630235502
 20
40.5286869804
 10
61.3873976199
 20
40.5829895605
 10
61.9843106325
 20
40.6407091896
 10
62.4877552018
 20
40.7003517791
  0
LWPOLYLINE
  5
22C
100
AcDbEntity
  8
0
100
AcDbPolyline
 62
7
  6
BYLAYER
 90
5
 70
0
 10
58.3699460599
 20
40.1956706889
 10
58.0421069729
 20
40.1348741191
 10
57.7762347359
 20
40.0414220322
 10
57.4898516349
 20
39.7586681341
 10
57.4215668614
 20
39.4783280481
  0
LINE
  5
22D
100
AcDbEntity
  8
0
100
AcDbLine
 62
7
  6
BYLAYER
 10
62.7478298121
 20
38.1447206411
 11
62.8698427797
 21
38.1661227176
  0
LWPOLYLINE
  5
22E
100
AcDbEntity
  8
0
100
AcDbPolyline
 62
7
  6
BYLAYER
 90
5
 70
0
 10
62.4877552018
 20
40.7003517791
 10
62.8548158991
 20
40.762288843
 10
63.1353709249
 20
40.8516037302
 10
63.4342706988
 20
41.1198917508
 10
63.5180907839
 20
41.4292491546
  0
LWPOLYLINE
  5
22F
100
AcDbEntity
  8
0
100
AcDbPolyline
 62
7
  6
BYLAYER
 90
5
 70
0
 10
62.472788352
 20
39.3984201187
 10
62.8439290564
 20
39.4601600439
 10
63.1279772447
 20
39.5472524195
 10
63.4334560056
 20
39.8155101081
 10
63.5193608535
 20
40.1283213524
  0
LINE
  5
230
100
AcDbEntity
  8
0
100
AcDbLine
 62
7
  6
BYLAYER
 10
58.6331119372
 20
38.9308143632
 11
58.2257022913
 21
38.8722047577
  0
LWPOLYLINE
  5
231
100
AcDbEntity
  8
0
100
AcDbPolyline
 62
7
  6
BYLAYER
 90
4
 70
0
 10
60.9174677097
 20
39.1420371899
 10
59.8823030889
 20
39.0538524491
 10
59.1969235798
 20
38.9915835865
 10
58.6331119372
 20
38.9308143632
  0
LINE
  5
232
100
AcDbEntity
  8
0
100
AcDbLine
 62
7
  6
BYLAYER
 10
57.1109181488
 20
37.2971938776
 11
63.8312513597
 21
37.2971938776
  0
LINE
  5
233
100
AcDbEntity
  8
0
100
AcDbLine
 62
7
  6
BYLAYER
 10
63.4110847523
 20
37.3771938801
 11
57.5310847562
 21
37.3771938801
  0
LWPOLYLINE
  5
234
100
AcDbEntity
  8
0
100
AcDbPolyline
 62
7
  6
BYLAYER
 90
10
 70
0
 10
62.6471224265
 20
44.5415349795
 10
62.6243595859
 20
44.5356830039
 10
62.4205422809
 20
44.4983332032
 10
62.0573198892
 20
44.4513967915
 10
61.5632817233
 20
44.4002377153
 10
60.9619424208
 20
44.345812787
 10
60.2933504909
 20
44.2889685516
 10
59.6134945432
 20
44.2303156578
 10
58.9867445365
 20
44.1703907927
 10
58.4751237774
 20
44.1104099811
  0
LWPOLYLINE
  5
235
100
AcDbEntity
  8
0
100
AcDbPolyline
 62
7
  6
BYLAYER
 90
5
 70
0
 10
62.6482965256
 20
45.841777675
 10
62.6373345314
 20
45.8391134688
 10
62.4815378997
 20
45.8082288384
 10
62.1936201881
 20
45.7674566387
 10
61.7950907634
 20
45.7230541789
  0
LWPOLYLINE
  5
236
100
AcDbEntity
  8
0
100
AcDbPolyline
 62
7
  6
BYLAYER
 90
5
 70
0
 10
62.7057543827
 20
42.033721293
 10
63.0050463126
 20
42.1018211596
 10
63.2964645921
 20
42.2534113664
 10
63.5147319256
 20
42.650330088
 10
63.5200982994
 20
42.7298405777
  0
LWPOLYLINE
  5
237
100
AcDbEntity
  8
0
100
AcDbPolyline
 62
7
  6
BYLAYER
 90
5
 70
0
 10
58.2585173726
 20
42.7779478656
 10
57.9406131433
 20
42.7080552449
 10
57.6313412741
 20
42.5425792081
 10
57.4265373113
 20
42.1407106996
 10
57.4233662723
 20
42.0796584977
  0
LWPOLYLINE
  5
238
100
AcDbEntity
  8
0
100
AcDbPolyline
 62
7
  6
BYLAYER
 90
5
 70
0
 10
58.2866750138
 20
41.4828372377
 10
57.9576632354
 20
41.4127287215
 10
57.6425255145
 20
41.2510548941
 10
57.4277849466
 20
40.8466129685
 10
57.4238518245
 20
40.7785056795
  0
LWPOLYLINE
  5
239
100
AcDbEntity
  8
0
100
AcDbPolyline
 62
7
  6
BYLAYER
 90
5
 70
0
 10
58.2978940963
 20
45.4675349402
 10
58.3032510568
 20
45.4685023796
 10
58.4532212425
 20
45.4987212308
 10
58.7395163254
 20
45.5394241777
 10
59.1364477303
 20
45.5838126659
  0
LWPOLYLINE
  5
23A
100
AcDbEntity
  8
0
100
AcDbPolyline
 62
7
  6
BYLAYER
 90
5
 70
0
 10
62.5162267893
 20
44.6043181779
 10
62.8686301906
 20
44.6658385165
 10
63.1495118237
 20
44.7578449415
 10
63.442450427
 20
45.0292963206
 10
63.5210815461
 20
45.3290189974
  0
LWPOLYLINE
  5
23B
100
AcDbEntity
  8
0
100
AcDbPolyline
 62
7
  6
BYLAYER
 90
5
 70
0
 10
62.50351633
 20
43.3023910555
 10
62.861607201
 20
43.3640677428
 10
63.1433533677
 20
43.4556689023
 10
63.4384608602
 20
43.7259929909
 10
63.5192142332
 20
44.0298310191
  0
LWPOLYLINE
  5
23C
100
AcDbEntity
  8
0
100
AcDbPolyline
 62
7
  6
BYLAYER
 90
5
 70
0
 10
58.4403515807
 20
45.4056355049
 10
58.080055345
 20
45.3437490294
 10
57.796250916
 20
45.2523139366
 10
57.4964775122
 20
44.9724074715
 10
57.4216914239
 20
44.679666178
  0
LWPOLYLINE
  5
23D
100
AcDbEntity
  8
0
100
AcDbPolyline
 62
7
  6
BYLAYER
 90
5
 70
0
 10
62.4932276344
 20
45.9012397434
 10
62.8549855288
 20
45.9624821325
 10
63.1364339594
 20
46.0512319799
 10
63.4365858555
 20
46.3214622959
 10
63.5190693241
 20
46.6283618187
  0
LWPOLYLINE
  5
23E
100
AcDbEntity
  8
0
100
AcDbPolyline
 62
7
  6
BYLAYER
 90
5
 70
0
 10
58.4751237774
 20
44.1104099811
 10
58.1008979686
 20
44.0486317789
 10
57.8056108041
 20
43.9563197631
 10
57.502032438
 20
43.6785289647
 10
57.4238852065
 20
43.3793133733
  0
LWPOLYLINE
  5
23F
100
AcDbEntity
  8
0
100
AcDbPolyline
 62
7
  6
BYLAYER
 90
11
 70
0
 10
58.2970248048
 20
42.8678998729
 10
58.3017320955
 20
42.8686386822
 10
58.4484478257
 20
42.8978157298
 10
58.7254780438
 20
42.9374534423
 10
59.1103617713
 20
42.9811765294
 10
59.5933308172
 20
43.0279127743
 10
60.158595138
 20
43.0774929739
 10
60.7775678789
 20
43.1298962028
 10
61.4117954734
 20
43.18527124
 10
62.0096296797
 20
43.2433634552
 10
62.50351633
 20
43.3023910555
  0
LINE
  5
240
100
AcDbEntity
  8
0
100
AcDbLine
 62
7
  6
BYLAYER
 10
62.2913188332
 20
41.9749643632
 11
62.7057543827
 21
42.033721293
  0
LINE
  5
241
100
AcDbEntity
  8
0
100
AcDbLine
 62
7
  6
BYLAYER
 10
58.7175311657
 20
42.8408197726
 11
58.2585173726
 21
42.7779478656
  0
LINE
  5
242
100
AcDbEntity
  8
0
100
AcDbLine
 62
7
  6
BYLAYER
 10
58.7495977812
 20
41.5445122359
 11
58.2866750138
 21
41.4828372377
  0
LINE
  5
243
100
AcDbEntity
  8
0
100
AcDbLine
 62
7
  6
BYLAYER
 10
59.1364477303
 20
45.5838126659
 11
59.6240325556
 21
45.6306036127
  0
LINE
  5
244
100
AcDbEntity
  8
0
100
AcDbLine
 62
7
  6
BYLAYER
 10
61.7950907634
 20
45.7230541789
 11
61.3053502614
 21
45.6762682599
  0
LINE
  5
245
100
AcDbEntity
  8
0
100
AcDbLine
 62
7
  6
BYLAYER
 10
59.6240325556
 20
45.6306036127
 11
60.1829238707
 21
45.6796102654
  0
LWPOLYLINE
  5
246
100
AcDbEntity
  8
0
100
AcDbPolyline
 62
7
  6
BYLAYER
 90
3
 70
0
 10
61.3053502614
 20
45.6762682599
 10
60.7435372719
 20
45.6271202562
 10
60.1347227063
 20
45.5754938133
  0
LWPOLYLINE
  5
247
100
AcDbEntity
  8
0
100
AcDbPolyline
 62
7
  6
BYLAYER
 90
4
 70
0
 10
60.1347227063
 20
45.5754938133
 10
59.5165207005
 20
45.5215044829
 10
58.9332528523
 20
45.464894884
 10
58.4403515807
 20
45.4056355049
  0
LWPOLYLINE
  5
248
100
AcDbEntity
  8
0
100
AcDbPolyline
 62
7
  6
BYLAYER
 90
4
 70
0
 10
60.0432718604
 20
41.7675926891
 10
61.0721973901
 20
41.8551970575
 10
61.7357943378
 20
41.9156537782
 10
62.2913188332
 20
41.9749643632
  0
LWPOLYLINE
  5
249
100
AcDbEntity
  8
0
100
AcDbPolyline
 62
7
  6
BYLAYER
 90
4
 70
0
 10
60.9667434997
 20
41.7462291411
 10
59.9973955853
 20
41.6638614177
 10
59.3374369288
 20
41.6049532897
 10
58.7495977812
 20
41.5445122359
  0
LWPOLYLINE
  5
24A
100
AcDbEntity
  8
0
100
AcDbPolyline
 62
7
  6
BYLAYER
 90
4
 70
0
 10
61.0172989921
 20
43.0506538737
 10
60.0373596583
 20
42.9672150039
 10
59.339316997
 20
42.9052145938
 10
58.7175311657
 20
42.8408197726
  0
LWPOLYLINE
  5
24B
100
AcDbEntity
  8
0
100
AcDbPolyline
 62
7
  6
BYLAYER
 90
5
 70
0
 10
60.1829238707
 20
45.6796102654
 10
60.7871963754
 20
45.7308009232
 10
61.4057724301
 20
45.7846655661
 10
61.9970034595
 20
45.8419241019
 10
62.4932276344
 20
45.9012397434
  0
LINE
  5
24C
100
AcDbEntity
  8
0
100
AcDbLine
 62
7
  6
BYLAYER
 10
60.3904870048
 20
45.6971938776
 11
61.3710242004
 21
45.6971938776
  0
LINE
  5
24D
100
AcDbEntity
  8
0
100
AcDbLine
 62
7
  6
BYLAYER
 10
67.9710847542
 20
22.7971938776
 11
68.4710847542
 21
22.2971938776
  0
LWPOLYLINE
  5
24E
100
AcDbEntity
  8
0
100
AcDbPolyline
 62
7
  6
BYLAYER
 90
11
 70
0
 10
58.2966394968
 20
46.7673747634
 10
58.3102290879
 20
46.7707245534
 10
58.4766135331
 20
46.802584703
 10
58.7756069448
 20
46.8436956323
 10
59.178768691
 20
46.8881292963
 10
59.6646818765
 20
46.9343816177
 10
60.2194854701
 20
46.9827200422
 10
60.8258526983
 20
47.0340139622
 10
61.454518719
 20
47.0891038126
 10
62.0407251177
 20
47.1467099604
 10
62.5185546386
 20
47.2046160912
  0
LWPOLYLINE
  5
24F
100
AcDbEntity
  8
0
100
AcDbPolyline
 62
7
  6
BYLAYER
 90
6
 70
0
 10
58.2974164741
 20
48.0674638835
 10
58.3101383985
 20
48.0705534067
 10
58.4890743815
 20
48.1046291642
 10
58.8197656984
 20
48.1490322624
 10
59.2728188631
 20
48.1975007463
 10
59.8282751459
 20
48.2489461668
  0
LWPOLYLINE
  5
250
100
AcDbEntity
  8
0
100
AcDbPolyline
 62
7
  6
BYLAYER
 90
11
 70
0
 10
62.6488716081
 20
47.1414351479
 10
62.6396019352
 20
47.1393054573
 10
62.4860404362
 20
47.1090289358
 10
62.199173593
 20
47.0683314573
 10
61.7941212954
 20
47.0229005712
 10
61.2790487187
 20
46.9738168595
 10
60.6800188152
 20
46.9217459503
 10
60.0352505582
 20
46.8670705397
 10
59.3950136295
 20
46.8102874752
 10
58.8239058588
 20
46.7529945451
 10
58.3727631348
 20
46.6961222693
  0
LWPOLYLINE
  5
251
100
AcDbEntity
  8
0
100
AcDbPolyline
 62
7
  6
BYLAYER
 90
5
 70
0
 10
58.2370565703
 20
49.2745658895
 10
57.9341202366
 20
49.2053928756
 10
57.6406673023
 20
49.0495159326
 10
57.4271370214
 20
48.6438739774
 10
57.4234912001
 20
48.57831592
  0
LWPOLYLINE
  5
252
100
AcDbEntity
  8
0
100
AcDbPolyline
 62
7
  6
BYLAYER
 90
5
 70
0
 10
62.6997872526
 20
49.8326211603
 10
63.0008879157
 20
49.9005194393
 10
63.2916969271
 20
50.0498239563
 10
63.5138967201
 20
50.4485012901
 10
63.5195135592
 20
50.5298731747
  0
LWPOLYLINE
  5
253
100
AcDbEntity
  8
0
100
AcDbPolyline
 62
7
  6
BYLAYER
 90
5
 70
0
 10
58.2786329855
 20
47.9815131022
 10
57.9527692748
 20
47.9113444575
 10
57.6399707665
 20
47.748868739
 10
57.4277386404
 20
47.3451037292
 10
57.4239921664
 20
47.2786512835
  0
LWPOLYLINE
  5
254
100
AcDbEntity
  8
0
100
AcDbPolyline
 62
7
  6
BYLAYER
 90
5
 70
0
 10
58.3727631348
 20
46.6961222693
 10
58.0445587409
 20
46.6354811125
 10
57.7812260607
 20
46.5438733183
 10
57.4937639639
 20
46.265688668
 10
57.4218273273
 20
45.9782127249
  0
LWPOLYLINE
  5
255
100
AcDbEntity
  8
0
100
AcDbPolyline
 62
7
  6
BYLAYER
 90
5
 70
0
 10
62.5185546386
 20
47.2046160912
 10
62.8688557544
 20
47.265432662
 10
63.1406642626
 20
47.3541411401
 10
63.4341549798
 20
47.6192781509
 10
63.5184252392
 20
47.9293906697
  0
LWPOLYLINE
  5
256
100
AcDbEntity
  8
0
100
AcDbPolyline
 62
7
  6
BYLAYER
 90
5
 70
0
 10
62.5091899843
 20
51.103353315
 10
62.8615560438
 20
51.1642447391
 10
63.1411875598
 20
51.2537196133
 10
63.4387479213
 20
51.5225812438
 10
63.5210147946
 20
51.8288030534
  0
LWPOLYLINE
  5
257
100
AcDbEntity
  8
0
100
AcDbPolyline
 62
7
  6
BYLAYER
 90
5
 70
0
 10
62.4130453619
 20
48.4904028698
 10
62.8150135697
 20
48.55391772
 10
63.1228053708
 20
48.6455980432
 10
63.433303168
 20
48.9180050594
 10
63.5180661269
 20
49.2290023633
  0
LINE
  5
258
100
AcDbEntity
  8
0
100
AcDbLine
 62
7
  6
BYLAYER
 10
58.6605305197
 20
49.3341201918
 11
58.2370565703
 21
49.2745658895
  0
LINE
  5
259
100
AcDbEntity
  8
0
100
AcDbLine
 62
7
  6
BYLAYER
 10
62.2794734789
 20
49.7735773953
 11
62.6997872526
 21
49.8326211603
  0
LINE
  5
25A
100
AcDbEntity
  8
0
100
AcDbLine
 62
7
  6
BYLAYER
 10
58.7024903601
 20
50.6390298941
 11
58.2654964666
 21
50.5791681999
  0
LINE
  5
25B
100
AcDbEntity
  8
0
100
AcDbLine
 62
7
  6
BYLAYER
 10
58.7329958964
 20
48.0425926078
 11
58.2786329855
 21
47.9815131022
  0
LWPOLYLINE
  5
25C
100
AcDbEntity
  8
0
100
AcDbPolyline
 62
7
  6
BYLAYER
 90
11
 70
0
 10
58.2952321519
 20
50.6669905424
 10
58.2983072546
 20
50.6672974782
 10
58.4311010914
 20
50.6947079086
 10
58.6887109914
 20
50.732907049
 10
59.0579530226
 20
50.7757602786
 10
59.5305984306
 20
50.822069075
 10
60.0945165048
 20
50.8719741119
 10
60.7313030652
 20
50.9260409129
 10
61.399331851
 20
50.9841651696
 10
62.0164462065
 20
51.043939432
 10
62.5091899843
 20
51.103353315
  0
LWPOLYLINE
  5
25D
100
AcDbEntity
  8
0
100
AcDbPolyline
 62
7
  6
BYLAYER
 90
3
 70
0
 10
59.852457663
 20
49.4513513519
 10
59.2162309644
 20
49.3933335996
 10
58.6605305197
 20
49.3341201918
  0
LWPOLYLINE
  5
25E
100
AcDbEntity
  8
0
100
AcDbPolyline
 62
7
  6
BYLAYER
 90
4
 70
0
 10
59.8282751459
 20
48.2489461668
 10
61.1764801206
 20
48.3642373016
 10
61.8558637294
 20
48.4274650238
 10
62.4130453619
 20
48.4904028698
  0
LWPOLYLINE
  5
25F
100
AcDbEntity
  8
0
100
AcDbPolyline
 62
7
  6
BYLAYER
 90
4
 70
0
 10
60.0667010968
 20
49.5696214258
 10
61.072980112
 20
49.6552433524
 10
61.7239520552
 20
49.7145088645
 10
62.2794734789
 20
49.7735773953
  0
LWPOLYLINE
  5
260
100
AcDbEntity
  8
0
100
AcDbPolyline
 62
7
  6
BYLAYER
 90
4
 70
0
 10
60.9158690974
 20
50.8418348189
 10
59.9266899296
 20
50.757739436
 10
59.2718435138
 20
50.6988129634
 10
58.7024903601
 20
50.6390298941
  0
LWPOLYLINE
  5
261
100
AcDbEntity
  8
0
100
AcDbPolyline
 62
7
  6
BYLAYER
 90
4
 70
0
 10
60.9305147851
 20
48.2430920215
 10
59.9614713816
 20
48.1607743269
 10
59.3129509995
 20
48.1026520537
 10
58.7329958964
 20
48.0425926078
  0
LINE
  5
262
100
AcDbEntity
  8
0
100
AcDbLine
 62
7
  6
BYLAYER
 10
60.7314334037
 20
46.9248311243
 11
60.2101736366
 21
46.9833068378
  0
LINE
  5
263
100
AcDbEntity
  8
0
100
AcDbLine
 62
7
  6
BYLAYER
 10
60.7306902424
 20
49.524889699
 11
60.2109758394
 21
49.5831707259
  0
LINE
  5
264
100
AcDbEntity
  8
0
100
AcDbLine
 62
7
  6
BYLAYER
 10
60.725093959
 20
48.2255361666
 11
60.2189078804
 21
48.2823448181
  0
LINE
  5
265
100
AcDbEntity
  8
0
100
AcDbLine
 62
7
  6
BYLAYER
 10
60.7223278119
 20
46.9254236764
 11
60.2185396002
 21
46.9826376313
  0
LINE
  5
266
100
AcDbEntity
  8
0
100
AcDbLine
 62
7
  6
BYLAYER
 10
60.7245495203
 20
49.5255268369
 11
60.2213554902
 21
49.5827749496
  0
LINE
  5
267
100
AcDbEntity
  8
0
100
AcDbLine
 62
7
  6
BYLAYER
 10
60.7161345773
 20
48.2247981065
 11
60.2261472729
 21
48.2830427931
  0
LWPOLYLINE
  5
268
100
AcDbEntity
  8
0
100
AcDbPolyline
 62
7
  6
BYLAYER
 90
5
 70
0
 10
58.2547719408
 20
54.4773390109
 10
57.9400109354
 20
54.4071402486
 10
57.63817769
 20
54.2488021084
 10
57.4251311038
 20
53.8447361985
 10
57.4213915251
 20
53.7784101783
  0
LWPOLYLINE
  5
269
100
AcDbEntity
  8
0
100
AcDbPolyline
 62
7
  6
BYLAYER
 90
5
 70
0
 10
58.2654964666
 20
50.5791681999
 10
57.9476896416
 20
50.510184718
 10
57.6422459207
 20
50.3517242238
 10
57.4274676159
 20
49.9454913052
 10
57.4237633504
 20
49.8794494436
  0
LWPOLYLINE
  5
26A
100
AcDbEntity
  8
0
100
AcDbPolyline
 62
7
  6
BYLAYER
 90
5
 70
0
 10
62.6688597001
 20
55.0274298546
 10
62.9858937206
 20
55.0954965163
 10
63.2926918064
 20
55.250896487
 10
63.5124899093
 20
55.6480796848
 10
63.5180585089
 20
55.7291386568
  0
LWPOLYLINE
  5
26B
100
AcDbEntity
  8
0
100
AcDbPolyline
 62
7
  6
BYLAYER
 90
5
 70
0
 10
58.3414420911
 20
53.1914185307
 10
58.0290496091
 20
53.1317368668
 10
57.7670637751
 20
53.0363715916
 10
57.4883515681
 20
52.7545713653
 10
57.4220998443
 20
52.4781743927
  0
LWPOLYLINE
  5
26C
100
AcDbEntity
  8
0
100
AcDbPolyline
 62
7
  6
BYLAYER
 90
9
 70
0
 10
58.2988580896
 20
51.9679053747
 10
58.3060110975
 20
51.9692654757
 10
58.4568054987
 20
51.9993587365
 10
58.741557569
 20
52.0396544179
 10
59.1360387485
 20
52.0837461093
 10
59.6221822697
 20
52.1304322441
 10
60.186492277
 20
52.1799292266
 10
60.8061121182
 20
52.232438582
 10
61.2686810328
 20
52.2724382381
  0
LWPOLYLINE
  5
26D
100
AcDbEntity
  8
0
100
AcDbPolyline
 62
7
  6
BYLAYER
 90
5
 70
0
 10
58.3872084045
 20
51.8980293757
 10
58.0540734818
 20
51.8378269555
 10
57.7826241202
 20
51.7455158665
 10
57.4924903658
 20
51.4651753084
 10
57.4214504648
 20
51.1795656492
  0
LWPOLYLINE
  5
26E
100
AcDbEntity
  8
0
100
AcDbPolyline
 62
7
  6
BYLAYER
 90
5
 70
0
 10
62.6464976393
 20
52.3410125929
 10
62.6408033684
 20
52.3399895133
 10
62.4847345742
 20
52.3087907508
 10
62.1913727576
 20
52.2671908691
 10
61.7794500975
 20
52.2214484851
  0
LWPOLYLINE
  5
26F
100
AcDbEntity
  8
0
100
AcDbPolyline
 62
7
  6
BYLAYER
 90
5
 70
0
 10
62.4844333849
 20
53.7000140098
 10
62.8508850363
 20
53.7616859686
 10
63.1407699988
 20
53.8531782169
 10
63.4401555829
 20
54.1268630858
 10
63.5195990158
 20
54.4282892277
  0
LWPOLYLINE
  5
270
100
AcDbEntity
  8
0
100
AcDbPolyline
 62
7
  6
BYLAYER
 90
6
 70
0
 10
62.315345954
 20
52.3778422515
 10
62.7211090024
 20
52.4365967619
 10
62.8746882416
 20
52.4672612472
 10
63.1449375041
 20
52.5559025898
 10
63.4398169805
 20
52.8251601365
 10
63.5209650042
 20
53.1294450311
  0
LINE
  5
271
100
AcDbEntity
  8
0
100
AcDbLine
 62
7
  6
BYLAYER
 10
58.6951868753
 20
54.5383736131
 11
58.2547719408
 21
54.4773390109
  0
LINE
  5
272
100
AcDbEntity
  8
0
100
AcDbLine
 62
7
  6
BYLAYER
 10
62.210977499
 20
54.9656547706
 11
62.6688597001
 21
55.0274298546
  0
LWPOLYLINE
  5
273
100
AcDbEntity
  8
0
100
AcDbPolyline
 62
7
  6
BYLAYER
 90
3
 70
0
 10
61.3416596307
 20
53.5789173548
 10
61.9715771551
 20
53.6392186727
 10
62.4844333849
 20
53.7000140098
  0
LWPOLYLINE
  5
274
100
AcDbEntity
  8
0
100
AcDbPolyline
 62
7
  6
BYLAYER
 90
7
 70
0
 10
61.7794500975
 20
52.2214484851
 10
61.2671325105
 20
52.1728147221
 10
60.6782107941
 20
52.1215657959
 10
60.0467476773
 20
52.0679921177
 10
59.4170369058
 20
52.0123880425
 10
58.8439421753
 20
51.9552742244
 10
58.3872084045
 20
51.8980293757
  0
LWPOLYLINE
  5
275
100
AcDbEntity
  8
0
100
AcDbPolyline
 62
7
  6
BYLAYER
 90
3
 70
0
 10
61.2686916193
 20
52.2724215999
 10
61.7687006133
 20
52.3187681646
 10
62.315345954
 20
52.3778422515
  0
LWPOLYLINE
  5
276
100
AcDbEntity
  8
0
100
AcDbPolyline
 62
7
  6
BYLAYER
 90
3
 70
0
 10
59.864511324
 20
54.6523222358
 10
59.2473875107
 20
54.5963530234
 10
58.6951868753
 20
54.5383736131
  0
LWPOLYLINE
  5
277
100
AcDbEntity
  8
0
100
AcDbPolyline
 62
7
  6
BYLAYER
 90
6
 70
0
 10
61.3621792945
 20
53.4813917607
 10
60.6813769638
 20
53.421888934
 10
59.9531621044
 20
53.3600245953
 10
59.3023146167
 20
53.30156571
 10
58.7608024368
 20
53.2459018465
 10
58.3414420911
 20
53.1914185307
  0
LINE
  5
278
100
AcDbEntity
  8
0
100
AcDbLine
 62
7
  6
BYLAYER
 10
60.6888245317
 20
53.5224635907
 11
61.3416596307
 21
53.5789173548
  0
LWPOLYLINE
  5
279
100
AcDbEntity
  8
0
100
AcDbPolyline
 62
7
  6
BYLAYER
 90
4
 70
0
 10
59.9655820856
 20
54.7609503715
 10
60.921133233
 20
54.8421529228
 10
61.6030180525
 20
54.9028669404
 10
62.210977499
 20
54.9656547706
  0
LWPOLYLINE
  5
27A
100
AcDbEntity
  8
0
100
AcDbPolyline
 62
7
  6
BYLAYER
 90
8
 70
0
 10
58.298453155
 20
53.267821261
 10
58.3001133008
 20
53.267636893
 10
58.4339543714
 20
53.2953540268
 10
58.6954461705
 20
53.3338668079
 10
59.0672760935
 20
53.3766591021
 10
59.5330534155
 20
53.4222572387
 10
60.0781414306
 20
53.4706123199
 10
60.6888245317
 20
53.5224635907
  0
LINE
  5
27B
100
AcDbEntity
  8
0
100
AcDbLine
 62
7
  6
BYLAYER
 10
60.7308774186
 20
54.7248874135
 11
60.2120775369
 21
54.7831068273
  0
LINE
  5
27C
100
AcDbEntity
  8
0
100
AcDbLine
 62
7
  6
BYLAYER
 10
60.7234902815
 20
53.4256460515
 11
60.2144977293
 21
53.4828570151
  0
LINE
  5
27D
100
AcDbEntity
  8
0
100
AcDbLine
 62
7
  6
BYLAYER
 10
60.7203330881
 20
54.7252096869
 11
60.2172240828
 21
54.7825036721
  0
LWPOLYLINE
  5
27E
100
AcDbEntity
  8
0
100
AcDbPolyline
 62
7
  6
BYLAYER
 90
3
 70
0
 10
60.7207711333
 20
53.4253096762
 10
60.6572794085
 20
53.4331489309
 10
60.2259878488
 20
53.4831655159
  0
LWPOLYLINE
  5
27F
100
AcDbEntity
  8
0
100
AcDbPolyline
 62
7
  6
BYLAYER
 90
3
 70
0
 10
63.2332768428
 20
48.4516948243
 10
62.9365905824
 20
48.5757794414
 10
62.9075118584
 20
48.5814696982
  0
LWPOLYLINE
  5
280
100
AcDbEntity
  8
0
100
AcDbPolyline
 62
7
  6
BYLAYER
 90
11
 70
0
 10
62.6058425386
 20
58.876505513
 10
62.5473334702
 20
58.8619997265
 10
62.308987967
 20
58.816996506
 10
61.9489913422
 20
58.7662457049
 10
61.4937733061
 20
58.7136384108
 10
60.9628096354
 20
58.6599963768
 10
60.3816274396
 20
58.6055249296
 10
59.7815939093
 20
58.5501774119
 10
59.2004422309
 20
58.4938823847
 10
58.6775669895
 20
58.4365184213
 10
58.3483733411
 20
58.3924874485
  0
LINE
  5
281
100
AcDbEntity
  8
0
100
AcDbLine
 62
7
  6
BYLAYER
 10
57.4213095933
 20
57.6795837962
 11
57.9069927119
 21
57.7971938639
  0
LWPOLYLINE
  5
282
100
AcDbEntity
  8
0
100
AcDbPolyline
 62
7
  6
BYLAYER
 90
5
 70
0
 10
58.2439286804
 20
55.7757518547
 10
57.9314604212
 20
55.704613895
 10
57.6312080108
 20
55.5411050978
 10
57.4268900218
 20
55.1396469839
 10
57.4237094253
 20
55.0784215541
  0
LWPOLYLINE
  5
283
100
AcDbEntity
  8
0
100
AcDbPolyline
 62
7
  6
BYLAYER
 90
5
 70
0
 10
58.2789210445
 20
57.0813395487
 10
57.9503669028
 20
57.0110089103
 10
57.6395874063
 20
56.8496678198
 10
57.4271423201
 20
56.4445341974
 10
57.4235556661
 20
56.3795742498
  0
LWPOLYLINE
  5
284
100
AcDbEntity
  8
0
100
AcDbPolyline
 62
7
  6
BYLAYER
 90
5
 70
0
 10
62.4460073834
 20
57.6299771741
 10
62.8394457499
 20
57.7049698364
 10
63.1424172669
 20
57.8109850891
 10
63.4430935724
 20
58.0972355378
 10
63.5187496561
 20
58.3940122579
  0
LWPOLYLINE
  5
285
100
AcDbEntity
  8
0
100
AcDbPolyline
 62
7
  6
BYLAYER
 90
6
 70
0
 10
58.3496332972
 20
58.3924969251
 10
58.1277857439
 20
58.353863132
 10
57.8680524044
 20
58.2829488327
 10
57.7323222009
 20
58.2177116037
 10
57.4756814159
 20
57.9305513328
 10
57.4213093909
 20
57.6794896495
  0
LWPOLYLINE
  5
286
100
AcDbEntity
  8
0
100
AcDbPolyline
 62
7
  6
BYLAYER
 90
5
 70
0
 10
62.4993852026
 20
56.3018026529
 10
62.8610353491
 20
56.3640404848
 10
63.1445652312
 20
56.4561680181
 10
63.4395205468
 20
56.7269095365
 10
63.5198203233
 20
57.0298685426
  0
LINE
  5
287
100
AcDbEntity
  8
0
100
AcDbLine
 62
7
  6
BYLAYER
 10
58.4767458718
 20
57.202649694
 11
58.477228437
 21
57.2027288392
  0
LINE
  5
288
100
AcDbEntity
  8
0
100
AcDbLine
 62
7
  6
BYLAYER
 10
58.349606175
 20
58.392672785
 11
58.3483733411
 21
58.3924874485
  0
LINE
  5
289
100
AcDbEntity
  8
0
100
AcDbLine
 62
7
  6
BYLAYER
 10
58.6795913721
 20
55.8363712952
 11
58.2439286804
 21
55.7757518547
  0
LINE
  5
28A
100
AcDbEntity
  8
0
100
AcDbLine
 62
7
  6
BYLAYER
 10
58.7338448076
 20
57.1427060745
 11
58.2789210445
 21
57.0813395487
  0
LWPOLYLINE
  5
28B
100
AcDbEntity
  8
0
100
AcDbPolyline
 62
7
  6
BYLAYER
 90
7
 70
0
 10
58.4767458718
 20
57.202649694
 10
58.9931955581
 20
57.2697768131
 10
59.7500344441
 20
57.3467860359
 10
60.5388940046
 20
57.4200401868
 10
61.2845377996
 20
57.4911680161
 10
61.9289436388
 20
57.5607243127
 10
62.4460073834
 20
57.6299771741
  0
LWPOLYLINE
  5
28C
100
AcDbEntity
  8
0
100
AcDbPolyline
 62
7
  6
BYLAYER
 90
3
 70
0
 10
59.8544654071
 20
55.9515310874
 10
59.2294037591
 20
55.894620917
 10
58.6795913721
 20
55.8363712952
  0
LWPOLYLINE
  5
28D
100
AcDbEntity
  8
0
100
AcDbPolyline
 62
7
  6
BYLAYER
 90
4
 70
0
 10
60.9191529364
 20
57.3421271707
 10
59.9499796324
 20
57.2597347613
 10
59.3051146837
 20
57.2019864103
 10
58.7338448076
 20
57.1427060745
  0
LINE
  5
28E
100
AcDbEntity
  8
0
100
AcDbLine
 62
7
  6
BYLAYER
 10
60.7317688571
 20
56.0247607378
 11
60.2107795828
 21
56.0831908957
  0
LWPOLYLINE
  5
28F
100
AcDbEntity
  8
0
100
AcDbPolyline
 62
7
  6
BYLAYER
 90
3
 70
0
 10
58.1858501388
 20
58.5608519501
 10
58.6695107413
 20
58.4608679392
 10
58.7662267362
 20
58.4462451669
  0
LINE
  5
290
100
AcDbEntity
  8
0
100
AcDbLine
 62
7
  6
BYLAYER
 10
57.8280646593
 20
58.6876765359
 11
58.1858501388
 21
58.5608519501
  0
LINE
  5
291
100
AcDbEntity
  8
0
100
AcDbLine
 62
7
  6
BYLAYER
 10
63.2856546389
 20
48.4134605225
 11
63.2332768428
 21
48.4516948243
  0
LINE
  5
292
100
AcDbEntity
  8
0
100
AcDbLine
 62
7
  6
BYLAYER
 10
63.2856546389
 20
48.4134605225
 11
63.2996942853
 21
48.4017704708
  0
LINE
  5
293
100
AcDbEntity
  8
0
100
AcDbLine
 62
7
  6
BYLAYER
 10
62.8252540466
 20
38.1583014877
 11
63.4110847523
 21
37.3771938801
  0
LINE
  5
294
100
AcDbEntity
  8
0
100
AcDbLine
 62
7
  6
BYLAYER
 10
54.4210847542
 20
13.6971938776
 11
54.1210847542
 21
14.6971938776
  0
LINE
  5
295
100
AcDbEntity
  8
0
100
AcDbLine
 62
7
  6
BYLAYER
 10
57.5018780378
 20
58.9893829482
 11
57.8280646593
 21
58.6876765359
  0
LWPOLYLINE
  5
296
100
AcDbEntity
  8
0
100
AcDbPolyline
 62
7
  6
BYLAYER
 90
4
 70
0
 10
57.421567005
 20
39.4784577613
 10
57.504989716
 20
39.1701175493
 10
57.8088462811
 20
38.8998072629
 10
58.0372198155
 20
38.8289461785
  0
LWPOLYLINE
  5
297
100
AcDbEntity
  8
0
100
AcDbPolyline
 62
7
  6
BYLAYER
 90
4
 70
0
 10
57.4238518417
 20
40.778659114
 10
57.5024873454
 20
40.4785463569
 10
57.7977607231
 20
40.2054090683
 10
58.0299611491
 20
40.1306049536
  0
LWPOLYLINE
  5
298
100
AcDbEntity
  8
0
100
AcDbPolyline
 62
7
  6
BYLAYER
 90
11
 70
0
 10
58.2980276551
 20
55.8683901386
 10
58.2983188154
 20
55.8676935069
 10
58.4366441157
 20
55.8957578316
 10
58.7024334344
 20
55.9345305298
 10
59.074187279
 20
55.9774278469
 10
59.5422690496
 20
56.023224573
 10
60.0919870909
 20
56.0717822517
 10
60.7074266078
 20
56.1239507687
 10
61.3633357322
 20
56.1809108067
 10
61.9891837489
 20
56.241184418
 10
62.4993852026
 20
56.3018026529
  0
LINE
  5
299
100
AcDbEntity
  8
0
100
AcDbLine
 62
7
  6
BYLAYER
 10
61.3710847542
 20
45.6971938776
 11
61.3762362904
 21
45.6830401482
  0
LINE
  5
29A
100
AcDbEntity
  8
0
100
AcDbLine
 62
7
  6
BYLAYER
 10
61.7985159478
 20
44.522836325
 11
61.8329734657
 21
44.4281650726
  0
LINE
  5
29B
100
AcDbEntity
  8
0
100
AcDbLine
 62
7
  6
BYLAYER
 10
62.2535934549
 20
43.27252115
 11
62.2871147552
 21
43.1804221343
  0
LWPOLYLINE
  5
29C
100
AcDbEntity
  8
0
100
AcDbPolyline
 62
7
  6
BYLAYER
 90
4
 70
0
 10
57.4239922752
 20
47.2788008039
 10
57.5095691663
 20
46.9664139711
 10
57.8112023358
 20
46.6991571684
 10
58.0301972442
 20
46.6304850557
  0
LINE
  5
29D
100
AcDbEntity
  8
0
100
AcDbLine
 62
7
  6
BYLAYER
 10
57.4215165639
 20
59.2832884813
 11
57.5018780378
 21
58.9893829482
  0
LWPOLYLINE
  5
29E
100
AcDbEntity
  8
0
100
AcDbPolyline
 62
7
  6
BYLAYER
 90
4
 70
0
 10
57.4213095935
 20
57.6795701315
 10
57.5063177272
 20
57.3684974455
 10
57.8066471636
 20
57.1015162389
 10
58.0352916716
 20
57.0291879939
  0
LWPOLYLINE
  5
29F
100
AcDbEntity
  8
0
100
AcDbPolyline
 62
7
  6
BYLAYER
 90
4
 70
0
 10
57.4234912773
 20
48.5784768413
 10
57.5066460549
 20
48.2703527873
 10
57.8112192098
 20
47.9988143874
 10
58.0375694074
 20
47.9296045772
  0
LWPOLYLINE
  5
2A0
100
AcDbEntity
  8
0
100
AcDbPolyline
 62
7
  6
BYLAYER
 90
4
 70
0
 10
57.4220999705
 20
52.4783223248
 10
57.5039883746
 20
52.1725950851
 10
57.8075449447
 20
51.9002946075
 10
58.0326278036
 20
51.8305339787
  0
LWPOLYLINE
  5
2A1
100
AcDbEntity
  8
0
100
AcDbPolyline
 62
7
  6
BYLAYER
 90
4
 70
0
 10
57.4218274123
 20
45.9783644068
 10
57.5029666082
 20
45.6740053846
 10
57.8037884445
 20
45.4020919846
 10
58.0348007826
 20
45.3291690769
  0
LWPOLYLINE
  5
2A2
100
AcDbEntity
  8
0
100
AcDbPolyline
 62
7
  6
BYLAYER
 90
4
 70
0
 10
57.4237094914
 20
55.0785693703
 10
57.5029574279
 20
54.7773652595
 10
57.7984985502
 20
54.5049495927
 10
58.0357352961
 20
54.4284889275
  0
LWPOLYLINE
  5
2A3
100
AcDbEntity
  8
0
100
AcDbPolyline
 62
7
  6
BYLAYER
 90
4
 70
0
 10
57.4213915445
 20
53.778541466
 10
57.4992376252
 20
53.4801772124
 10
57.7903440833
 20
53.2086893508
 10
58.025183658
 20
53.1303296247
  0
LWPOLYLINE
  5
2A4
100
AcDbEntity
  8
0
100
AcDbPolyline
 62
7
  6
BYLAYER
 90
4
 70
0
 10
57.4238851983
 20
43.3794203426
 10
57.4990532232
 20
43.0856627957
 10
57.7909339542
 20
42.8094037695
 10
58.0348466463
 20
42.7287728884
  0
LWPOLYLINE
  5
2A5
100
AcDbEntity
  8
0
100
AcDbPolyline
 62
7
  6
BYLAYER
 90
5
 70
0
 10
57.4237634626
 20
49.8795704565
 10
57.4295428636
 20
49.7969919578
 10
57.6541991419
 20
49.3971646587
 10
57.9497158104
 20
49.2477144011
 10
58.0363481485
 20
49.2287357763
  0
LWPOLYLINE
  5
2A6
100
AcDbEntity
  8
0
100
AcDbPolyline
 62
7
  6
BYLAYER
 90
5
 70
0
 10
57.423366408
 20
42.0797449638
 10
57.4290925458
 20
41.9975622894
 10
57.6513052919
 20
41.5994629826
 10
57.953623381
 20
41.4466545937
 10
58.0345360408
 20
41.4291094065
  0
LWPOLYLINE
  5
2A7
100
AcDbEntity
  8
0
100
AcDbPolyline
 62
7
  6
BYLAYER
 90
5
 70
0
 10
57.4235557571
 20
56.3796714253
 10
57.4289902642
 20
56.2996107899
 10
57.6489419347
 20
55.9014858408
 10
57.9417362
 20
55.7502290269
 10
58.0374703229
 20
55.7287485964
  0
LWPOLYLINE
  5
2A8
100
AcDbEntity
  8
0
100
AcDbPolyline
 62
7
  6
BYLAYER
 90
5
 70
0
 10
57.4216915148
 20
44.6797586667
 10
57.4270489241
 20
44.6003288241
 10
57.6455123642
 20
44.2032714588
 10
57.9336060418
 20
44.0529179246
 10
58.037823325
 20
44.0289135242
  0
LWPOLYLINE
  5
2A9
100
AcDbEntity
  8
0
100
AcDbPolyline
 62
7
  6
BYLAYER
 90
5
 70
0
 10
57.4214505841
 20
51.1796525088
 10
57.4265581727
 20
51.1021091598
 10
57.647208121
 20
50.7016163171
 10
57.9447057751
 20
50.5494529824
 10
58.0356965594
 20
50.5292875917
  0
LWPOLYLINE
  5
2AA
100
AcDbEntity
  8
0
100
AcDbPolyline
 62
7
  6
BYLAYER
 90
4
 70
0
 10
57.4218270442
 20
38.1797255231
 10
57.4259063551
 20
38.1104456056
 10
57.6283575965
 20
37.7182697777
 10
57.7329905256
 20
37.6464015727
  0
LINE
  5
2AB
100
AcDbEntity
  8
0
100
AcDbLine
 62
7
  6
BYLAYER
 10
52.4710847542
 20
22.2971938776
 11
52.4710847542
 21
21.2971938776
  0
LINE
  5
2AC
100
AcDbEntity
  8
0
100
AcDbLine
 62
7
  6
BYLAYER
 10
52.9710847542
 20
22.7971938776
 11
52.9710847542
 21
23.2971938776
  0
LINE
  5
2AD
100
AcDbEntity
  8
0
100
AcDbLine
 62
7
  6
BYLAYER
 10
52.9710847542
 20
24.8971938776
 11
52.9710847542
 21
27.0971938776
  0
LINE
  5
2AE
100
AcDbEntity
  8
0
100
AcDbLine
 62
7
  6
BYLAYER
 10
53.1201717402
 20
21.2971938776
 11
53.1201717402
 21
19.1871938776
  0
LINE
  5
2AF
100
AcDbEntity
  8
0
100
AcDbLine
 62
7
  6
BYLAYER
 10
53.1215352676
 20
21.2971938776
 11
53.1215352676
 21
19.1871938776
  0
LINE
  5
2B0
100
AcDbEntity
  8
0
100
AcDbLine
 62
7
  6
BYLAYER
 10
53.1487012468
 20
21.2971938776
 11
53.1487012468
 21
19.1871938776
  0
LINE
  5
2B1
100
AcDbEntity
  8
0
100
AcDbLine
 62
7
  6
BYLAYER
 10
53.2864623439
 20
19.1871938776
 11
53.2864623439
 21
21.2971938776
  0
LINE
  5
2B2
100
AcDbEntity
  8
0
100
AcDbLine
 62
7
  6
BYLAYER
 10
53.5810628811
 20
21.2971938776
 11
53.5810628811
 21
19.1871938776
  0
LINE
  5
2B3
100
AcDbEntity
  8
0
100
AcDbLine
 62
7
  6
BYLAYER
 10
53.5952289402
 20
21.2971938776
 11
53.5952289402
 21
19.1871938776
  0
LINE
  5
2B4
100
AcDbEntity
  8
0
100
AcDbLine
 62
7
  6
BYLAYER
 10
53.6748755612
 20
21.2971938776
 11
53.6748755612
 21
19.1871938776
  0
LINE
  5
2B5
100
AcDbEntity
  8
0
100
AcDbLine
 62
7
  6
BYLAYER
 10
53.8498330133
 20
19.1871938776
 11
53.8498330133
 21
21.2971938776
  0
LINE
  5
2B6
100
AcDbEntity
  8
0
100
AcDbLine
 62
7
  6
BYLAYER
 10
54.1210847542
 20
14.6971938776
 11
54.1210847542
 21
15.4971938776
  0
LINE
  5
2B7
100
AcDbEntity
  8
0
100
AcDbLine
 62
7
  6
BYLAYER
 10
54.1210847542
 20
16.6971938776
 11
54.1210847542
 21
17.8471938776
  0
LINE
  5
2B8
100
AcDbEntity
  8
0
100
AcDbLine
 62
7
  6
BYLAYER
 10
54.4051879903
 20
21.2971938776
 11
54.4051879903
 21
19.1871938776
  0
LINE
  5
2B9
100
AcDbEntity
  8
0
100
AcDbLine
 62
7
  6
BYLAYER
 10
54.5725215068
 20
19.1871938776
 11
54.5725215068
 21
21.2971938776
  0
LINE
  5
2BA
100
AcDbEntity
  8
0
100
AcDbLine
 62
7
  6
BYLAYER
 10
54.8710847542
 20
15.4971938776
 11
54.8710847542
 21
16.6971938776
  0
LINE
  5
2BB
100
AcDbEntity
  8
0
100
AcDbLine
 62
7
  6
BYLAYER
 10
54.9710847542
 20
17.8471938776
 11
54.9710847542
 21
19.1871938776
  0
LWPOLYLINE
  5
2BC
100
AcDbEntity
  8
0
100
AcDbPolyline
 62
7
  6
BYLAYER
 90
3
 70
0
 10
63.5184253254
 20
47.9292120788
 10
63.4402983469
 20
48.2284401862
 10
63.2997064548
 20
48.4017778899
  0
LWPOLYLINE
  5
2BD
100
AcDbEntity
  8
0
100
AcDbPolyline
 62
7
  6
BYLAYER
 90
4
 70
0
 10
63.521014864
 20
51.8286630532
 10
63.4444948881
 20
52.1245861684
 10
63.1470122878
 20
52.4012008327
 10
62.9092259751
 20
52.4785895707
  0
LWPOLYLINE
  5
2BE
100
AcDbEntity
  8
0
100
AcDbPolyline
 62
7
  6
BYLAYER
 90
4
 70
0
 10
63.5195136764
 20
50.5297841996
 10
63.4435112619
 20
50.824896946
 10
63.1469892728
 20
51.1018449872
 10
62.9059100348
 20
51.1784368725
  0
LWPOLYLINE
  5
2BF
100
AcDbEntity
  8
0
100
AcDbPolyline
 62
7
  6
BYLAYER
 90
4
 70
0
 10
63.5210816108
 20
45.3289004186
 10
63.4459419049
 20
45.6222199028
 10
63.1489839588
 20
45.9003713242
 10
62.9072702436
 20
45.9789692042
  0
LWPOLYLINE
  5
2C0
100
AcDbEntity
  8
0
100
AcDbPolyline
 62
7
  6
BYLAYER
 90
4
 70
0
 10
63.5209650739
 20
53.129327253
 10
63.4464890146
 20
53.4214233977
 10
63.1507324604
 20
53.6997552815
 10
62.9070089027
 20
53.7793995426
  0
LWPOLYLINE
  5
2C1
100
AcDbEntity
  8
0
100
AcDbPolyline
 62
7
  6
BYLAYER
 90
4
 70
0
 10
63.5193609884
 20
40.128147199
 10
63.4467584124
 20
40.4170139553
 10
63.1547239331
 20
40.6967696017
 10
62.9080700576
 20
40.7792423413
  0
LWPOLYLINE
  5
2C2
100
AcDbEntity
  8
0
100
AcDbPolyline
 62
7
  6
BYLAYER
 90
4
 70
0
 10
63.5192143184
 20
44.0297425605
 10
63.4469565031
 20
44.3178774157
 10
63.1449303876
 20
44.6027808681
 10
62.906394967
 20
44.6782088592
  0
LWPOLYLINE
  5
2C3
100
AcDbEntity
  8
0
100
AcDbPolyline
 62
7
  6
BYLAYER
 90
4
 70
0
 10
63.5190694216
 20
46.6281998536
 10
63.4468208144
 20
46.9164187726
 10
63.156503907
 20
47.1958452502
 10
62.9107589715
 20
47.2791083583
  0
LWPOLYLINE
  5
2C4
100
AcDbEntity
  8
0
100
AcDbPolyline
 62
7
  6
BYLAYER
 90
4
 70
0
 10
63.5180662707
 20
49.2288646471
 10
63.446286597
 20
49.5162485282
 10
63.1537708657
 20
49.7975110654
 10
62.9075139954
 20
49.8794635957
  0
LINE
  5
2C5
100
AcDbEntity
  8
0
100
AcDbLine
 62
7
  6
BYLAYER
 10
57.4238852065
 20
43.3793133733
 11
57.4238851983
 21
43.3794336155
  0
LINE
  5
2C6
100
AcDbEntity
  8
0
100
AcDbLine
 62
7
  6
BYLAYER
 10
58.4710847542
 20
38.9075052703
 11
58.4710847542
 21
39.0012068438
  0
LINE
  5
2C7
100
AcDbEntity
  8
0
100
AcDbLine
 62
7
  6
BYLAYER
 10
58.4710847542
 20
40.2084487798
 11
58.4710847542
 21
40.3013984885
  0
LINE
  5
2C8
100
AcDbEntity
  8
0
100
AcDbLine
 62
7
  6
BYLAYER
 10
58.4710847542
 20
41.5074060669
 11
58.4710847542
 21
41.5998391955
  0
LINE
  5
2C9
100
AcDbEntity
  8
0
100
AcDbLine
 62
7
  6
BYLAYER
 10
58.7210847542
 20
13.6971938776
 11
58.7210847542
 21
13.5471938776
  0
LINE
  5
2CA
100
AcDbEntity
  8
0
100
AcDbLine
 62
7
  6
BYLAYER
 10
59.8710847542
 20
62.2971933796
 11
59.8710847542
 21
153.2971938776
  0
LINE
  5
2CB
100
AcDbEntity
  8
0
100
AcDbLine
 62
7
  6
BYLAYER
 10
61.0710847542
 20
62.2971943452
 11
61.0710847542
 21
153.2971938776
  0
LINE
  5
2CC
100
AcDbEntity
  8
0
100
AcDbLine
 62
7
  6
BYLAYER
 10
57.4213915251
 20
53.7784101783
 11
57.421391545
 21
53.7785272244
  0
LINE
  5
2CD
100
AcDbEntity
  8
0
100
AcDbLine
 62
7
  6
BYLAYER
 10
57.4238518245
 20
40.7785056795
 11
57.4238518429
 21
40.7786324334
  0
LINE
  5
2CE
100
AcDbEntity
  8
0
100
AcDbLine
 62
7
  6
BYLAYER
 10
57.4218270104
 20
38.1796669814
 11
57.4218270448
 21
38.1797634828
  0
LINE
  5
2CF
100
AcDbEntity
  8
0
100
AcDbLine
 62
7
  6
BYLAYER
 10
57.4237094253
 20
55.0784215541
 11
57.4237094929
 21
55.0785379104
  0
LINE
  5
2D0
100
AcDbEntity
  8
0
100
AcDbLine
 62
7
  6
BYLAYER
 10
57.4235556661
 20
56.3795742498
 11
57.4235557572
 21
56.3797046799
  0
LINE
  5
2D1
100
AcDbEntity
  8
0
100
AcDbLine
 62
7
  6
BYLAYER
 10
57.4234912001
 20
48.57831592
 11
57.4234912786
 21
48.5784500931
  0
LINE
  5
2D2
100
AcDbEntity
  8
0
100
AcDbLine
 62
7
  6
BYLAYER
 10
57.4216914239
 20
44.679666178
 11
57.4216915149
 21
44.6797884602
  0
LINE
  5
2D3
100
AcDbEntity
  8
0
100
AcDbLine
 62
7
  6
BYLAYER
 10
57.4218273273
 20
45.9782127249
 11
57.4218274143
 21
45.9783282807
  0
LINE
  5
2D4
100
AcDbEntity
  8
0
100
AcDbLine
 62
7
  6
BYLAYER
 10
57.4237633504
 20
49.8794494436
 11
57.4237634624
 21
49.8795890045
  0
LINE
  5
2D5
100
AcDbEntity
  8
0
100
AcDbLine
 62
7
  6
BYLAYER
 10
57.4239921664
 20
47.2786512835
 11
57.4239922755
 21
47.2787900956
  0
LINE
  5
2D6
100
AcDbEntity
  8
0
100
AcDbLine
 62
7
  6
BYLAYER
 10
57.4214504648
 20
51.1795656492
 11
57.4214505841
 21
51.1796816123
  0
LINE
  5
2D7
100
AcDbEntity
  8
0
100
AcDbLine
 62
7
  6
BYLAYER
 10
57.4233662723
 20
42.0796584977
 11
57.4233664084
 21
42.0797842304
  0
LINE
  5
2D8
100
AcDbEntity
  8
0
100
AcDbLine
 62
7
  6
BYLAYER
 10
57.4220998443
 20
52.4781743927
 11
57.4220999728
 21
52.4782823358
  0
LINE
  5
2D9
100
AcDbEntity
  8
0
100
AcDbLine
 62
7
  6
BYLAYER
 10
57.4215668614
 20
39.4783280481
 11
57.4215670058
 21
39.4784391687
  0
LINE
  5
2DA
100
AcDbEntity
  8
0
100
AcDbLine
 62
7
  6
BYLAYER
 10
57.4213093909
 20
57.6794896495
 11
57.4213095933
 21
57.6795837962
  0
LWPOLYLINE
  5
2DB
100
AcDbEntity
  8
0
100
AcDbPolyline
 62
7
  6
BYLAYER
 90
5
 70
0
 10
63.5198204085
 20
57.0297977578
 10
63.4474493812
 20
57.3180628345
 10
63.1508931652
 20
57.5999670014
 10
62.8621114027
 20
57.6938591747
 10
62.8194613088
 20
57.7011606338
  0
LWPOLYLINE
  5
2DC
100
AcDbEntity
  8
0
100
AcDbPolyline
 62
7
  6
BYLAYER
 90
11
 70
0
 10
63.5187311456
 20
58.3938696037
 10
63.5149012091
 20
58.4614803465
 10
63.3008571515
 20
58.8704853361
 10
62.9706146486
 20
59.0474533416
 10
62.6042437738
 20
59.1368195937
 10
62.0990429244
 20
59.2198503795
 10
61.4572070802
 20
59.3044723331
 10
60.746033204
 20
59.3890215768
 10
60.3860837496
 20
59.4312077982
 10
59.6993783078
 20
59.5149854056
 10
59.1719097933
 20
59.5877375313
  0
LWPOLYLINE
  5
2DD
100
AcDbEntity
  8
0
100
AcDbPolyline
 62
7
  6
BYLAYER
 90
5
 70
0
 10
63.5195990605
 20
54.4281400772
 10
63.5160393399
 20
54.4928947879
 10
63.3057377464
 20
54.8962869991
 10
63.0041126231
 20
55.0564952248
 10
62.9064128801
 20
55.0784321158
  0
LWPOLYLINE
  5
2DE
100
AcDbEntity
  8
0
100
AcDbPolyline
 62
7
  6
BYLAYER
 90
5
 70
0
 10
63.5180586036
 20
55.7290037734
 10
63.5145635358
 20
55.7931758403
 10
63.3043608126
 20
56.1972229263
 10
62.9981290071
 20
56.3588878959
 10
62.9066652969
 20
56.3788670509
  0
LWPOLYLINE
  5
2DF
100
AcDbEntity
  8
0
100
AcDbPolyline
 62
7
  6
BYLAYER
 90
5
 70
0
 10
63.521058979
 20
38.8291486477
 10
63.5176146732
 20
38.8927488042
 10
63.3106578557
 20
39.2936911704
 10
63.0089075203
 20
39.4552415051
 10
62.9049914301
 20
39.4788824558
  0
LWPOLYLINE
  5
2E0
100
AcDbEntity
  8
0
100
AcDbPolyline
 62
7
  6
BYLAYER
 90
5
 70
0
 10
63.5180909086
 20
41.4291399109
 10
63.5148131478
 20
41.4912531152
 10
63.3122043401
 20
41.8903499305
 10
62.9966643725
 20
42.0593932706
 10
62.9059049385
 20
42.079262869
  0
LWPOLYLINE
  5
2E1
100
AcDbEntity
  8
0
100
AcDbPolyline
 62
7
  6
BYLAYER
 90
5
 70
0
 10
63.5200984501
 20
42.7297660961
 10
63.5180626561
 20
42.7786235494
 10
63.3262391992
 20
43.1793318472
 10
63.0422604429
 20
43.3446678252
 10
62.905839683
 20
43.3784485831
  0
LINE
  5
2E2
100
AcDbEntity
  8
0
100
AcDbLine
 62
7
  6
BYLAYER
 10
63.5200984501
 20
42.7297660961
 11
63.5200982994
 21
42.7298692511
  0
LINE
  5
2E3
100
AcDbEntity
  8
0
100
AcDbLine
 62
7
  6
BYLAYER
 10
63.5193609884
 20
40.128147199
 11
63.5193608506
 21
40.1282777474
  0
LINE
  5
2E4
100
AcDbEntity
  8
0
100
AcDbLine
 62
7
  6
BYLAYER
 10
63.521058979
 20
38.8291486477
 11
63.521058848
 21
38.8292783684
  0
LINE
  5
2E5
100
AcDbEntity
  8
0
100
AcDbLine
 62
7
  6
BYLAYER
 10
63.5180662707
 20
49.2288646471
 11
63.5180661267
 21
49.2289942878
  0
LINE
  5
2E6
100
AcDbEntity
  8
0
100
AcDbLine
 62
7
  6
BYLAYER
 10
63.5180909086
 20
41.4291399109
 11
63.5180907841
 21
41.4292650034
  0
LINE
  5
2E7
100
AcDbEntity
  8
0
100
AcDbLine
 62
7
  6
BYLAYER
 10
63.5195136764
 20
50.5297841996
 11
63.5195135588
 21
50.5299127862
  0
LINE
  5
2E8
100
AcDbEntity
  8
0
100
AcDbLine
 62
7
  6
BYLAYER
 10
63.5190694216
 20
46.6281998536
 11
63.5190693218
 21
46.6283220192
  0
LINE
  5
2E9
100
AcDbEntity
  8
0
100
AcDbLine
 62
7
  6
BYLAYER
 10
63.5192143184
 20
44.0297425605
 11
63.5192142331
 21
44.0298606118
  0
LINE
  5
2EA
100
AcDbEntity
  8
0
100
AcDbLine
 62
7
  6
BYLAYER
 10
63.5180586036
 20
55.7290037734
 11
63.5180585088
 21
55.7291346169
  0
LINE
  5
2EB
100
AcDbEntity
  8
0
100
AcDbLine
 62
7
  6
BYLAYER
 10
63.5198204085
 20
57.0297977578
 11
63.5198203226
 21
57.029912071
  0
LINE
  5
2EC
100
AcDbEntity
  8
0
100
AcDbLine
 62
7
  6
BYLAYER
 10
63.5184253254
 20
47.9292120788
 11
63.5184252366
 21
47.9293527237
  0
LINE
  5
2ED
100
AcDbEntity
  8
0
100
AcDbLine
 62
7
  6
BYLAYER
 10
63.5210816108
 20
45.3289004186
 11
63.5210815462
 21
45.3290239041
  0
LINE
  5
2EE
100
AcDbEntity
  8
0
100
AcDbLine
 62
7
  6
BYLAYER
 10
63.5209650739
 20
53.129327253
 11
63.5209650043
 21
53.1294456272
  0
LINE
  5
2EF
100
AcDbEntity
  8
0
100
AcDbLine
 62
7
  6
BYLAYER
 10
63.521014864
 20
51.8286630532
 11
63.5210147941
 21
51.8287886672
  0
LINE
  5
2F0
100
AcDbEntity
  8
0
100
AcDbLine
 62
7
  6
BYLAYER
 10
63.5195990605
 20
54.4281400772
 11
63.5195990145
 21
54.4282611247
  0
LINE
  5
2F1
100
AcDbEntity
  8
0
100
AcDbLine
 62
7
  6
BYLAYER
 10
62.2210847542
 20
13.6971938776
 11
62.2210847542
 21
13.5471938776
  0
LINE
  5
2F2
100
AcDbEntity
  8
0
100
AcDbLine
 62
7
  6
BYLAYER
 10
62.4710847542
 20
39.3081306509
 11
62.4710847542
 21
39.3982193238
  0
LINE
  5
2F3
100
AcDbEntity
  8
0
100
AcDbLine
 62
7
  6
BYLAYER
 10
62.4710847542
 20
40.606670553
 11
62.4710847542
 21
40.6983768474
  0
LINE
  5
2F4
100
AcDbEntity
  8
0
100
AcDbLine
 62
7
  6
BYLAYER
 10
62.4710847542
 20
41.9079667001
 11
62.4710847542
 21
42.0004508197
  0
LINE
  5
2F5
100
AcDbEntity
  8
0
100
AcDbLine
 62
7
  6
BYLAYER
 10
63.5187311456
 20
58.3938696037
 11
63.5187311394
 21
58.3940451203
  0
LINE
  5
2F6
100
AcDbEntity
  8
0
100
AcDbLine
 62
7
  6
BYLAYER
 10
65.9710847542
 20
17.8471938776
 11
65.9710847542
 21
19.1871938776
  0
LINE
  5
2F7
100
AcDbEntity
  8
0
100
AcDbLine
 62
7
  6
BYLAYER
 10
66.0710847542
 20
15.4971938776
 11
66.0710847542
 21
16.6971938776
  0
LINE
  5
2F8
100
AcDbEntity
  8
0
100
AcDbLine
 62
7
  6
BYLAYER
 10
66.3696479242
 20
21.2971938776
 11
66.3696479242
 21
19.1871938776
  0
LINE
  5
2F9
100
AcDbEntity
  8
0
100
AcDbLine
 62
7
  6
BYLAYER
 10
66.5369815182
 20
19.1871938776
 11
66.5369815182
 21
21.2971938776
  0
LINE
  5
2FA
100
AcDbEntity
  8
0
100
AcDbLine
 62
7
  6
BYLAYER
 10
66.8210847542
 20
14.6971938776
 11
66.8210847542
 21
15.4971938776
  0
LINE
  5
2FB
100
AcDbEntity
  8
0
100
AcDbLine
 62
7
  6
BYLAYER
 10
66.8210847542
 20
16.6971938776
 11
66.8210847542
 21
17.8471938776
  0
LINE
  5
2FC
100
AcDbEntity
  8
0
100
AcDbLine
 62
7
  6
BYLAYER
 10
67.0923364952
 20
21.2971938776
 11
67.0923364952
 21
19.1871938776
  0
LINE
  5
2FD
100
AcDbEntity
  8
0
100
AcDbLine
 62
7
  6
BYLAYER
 10
67.2672939473
 20
21.2971938776
 11
67.2672939473
 21
19.1871938776
  0
LINE
  5
2FE
100
AcDbEntity
  8
0
100
AcDbLine
 62
7
  6
BYLAYER
 10
67.3469405683
 20
21.2971938776
 11
67.3469405683
 21
19.1871938776
  0
LINE
  5
2FF
100
AcDbEntity
  8
0
100
AcDbLine
 62
7
  6
BYLAYER
 10
67.3611066274
 20
21.2971938776
 11
67.3611066274
 21
19.1871938776
  0
LINE
  5
300
100
AcDbEntity
  8
0
100
AcDbLine
 62
7
  6
BYLAYER
 10
67.6557071646
 20
21.2971938776
 11
67.6557071646
 21
19.1871938776
  0
LINE
  5
301
100
AcDbEntity
  8
0
100
AcDbLine
 62
7
  6
BYLAYER
 10
67.7934682617
 20
21.2971938776
 11
67.7934682617
 21
19.1871938776
  0
LINE
  5
302
100
AcDbEntity
  8
0
100
AcDbLine
 62
7
  6
BYLAYER
 10
67.8206342409
 20
21.2971938776
 11
67.8206342409
 21
19.1871938776
  0
LINE
  5
303
100
AcDbEntity
  8
0
100
AcDbLine
 62
7
  6
BYLAYER
 10
67.8219977683
 20
21.2971938776
 11
67.8219977683
 21
19.1871938776
  0
LINE
  5
304
100
AcDbEntity
  8
0
100
AcDbLine
 62
7
  6
BYLAYER
 10
67.9710847542
 20
22.7971938776
 11
67.9710847542
 21
23.2971938776
  0
LINE
  5
305
100
AcDbEntity
  8
0
100
AcDbLine
 62
7
  6
BYLAYER
 10
67.9710847542
 20
24.8971938776
 11
67.9710847542
 21
27.0971938776
  0
LINE
  5
306
100
AcDbEntity
  8
0
100
AcDbLine
 62
7
  6
BYLAYER
 10
68.4710847542
 20
22.2971938776
 11
68.4710847542
 21
21.2971938776
  0
LINE
  5
307
100
AcDbEntity
  8
0
100
AcDbLine
 62
7
  6
BYLAYER
 10
61.0710847542
 20
62.2971943427
 11
61.0710771323
 21
62.297171314
  0
LWPOLYLINE
  5
308
100
AcDbEntity
  8
0
100
AcDbPolyline
 62
7
  6
BYLAYER
 90
6
 70
0
 10
59.8714540301
 20
62.2971989287
 10
59.6257343074
 20
61.6564314603
 10
59.0342555617
 20
61.0355201128
 10
58.3520281929
 20
60.479793304
 10
57.7653498833
 20
59.9396394422
 10
57.5102447959
 20
59.6119034511
  0
LINE
  5
309
100
AcDbEntity
  8
0
100
AcDbLine
 62
7
  6
BYLAYER
 10
57.5108396761
 20
59.6115210249
 11
57.5108857026
 21
59.6115961285
  0
LINE
  5
30A
100
AcDbEntity
  8
0
100
AcDbLine
 62
7
  6
BYLAYER
 10
59.5440543777
 20
45.6229285284
 11
59.5067954968
 21
45.5205605943
  0
LINE
  5
30B
100
AcDbEntity
  8
0
100
AcDbLine
 62
7
  6
BYLAYER
 10
59.0534706072
 20
44.2750606966
 11
59.0164060986
 21
44.173226796
  0
LINE
  5
30C
100
AcDbEntity
  8
0
100
AcDbLine
 62
7
  6
BYLAYER
 10
58.5578940846
 20
42.913475391
 11
58.5216860107
 21
42.8139945256
  0
LINE
  5
30D
100
AcDbEntity
  8
0
100
AcDbLine
 62
7
  6
BYLAYER
 10
58.5289476283
 20
58.9781678264
 11
58.528740421
 21
58.9778376465
  0
LINE
  5
30E
100
AcDbEntity
  8
0
100
AcDbLine
 62
7
  6
BYLAYER
 10
58.5289649397
 20
58.9777298722
 11
58.6829583374
 21
59.1660093245
  0
LWPOLYLINE
  5
30F
100
AcDbEntity
  8
0
100
AcDbPolyline
 62
7
  6
BYLAYER
 90
5
 70
0
 10
58.6829583374
 20
59.1660093245
 10
59.3645429503
 20
59.7538866139
 10
59.8708472359
 20
60.174162616
 10
60.795265841
 20
61.267362494
 10
61.070715415
 20
62.2971705593
  0
LWPOLYLINE
  5
310
100
AcDbEntity
  8
0
100
AcDbPolyline
 62
7
  6
BYLAYER
 90
11
 70
0
 10
58.2967993625
 20
44.1676854322
 10
58.2961487447
 20
44.1667654495
 10
58.4286668181
 20
44.1942751307
 10
58.6935810066
 20
44.2335118229
 10
59.0762613614
 20
44.277691865
 10
59.5636869527
 20
44.3251218089
 10
60.1371339046
 20
44.3756221316
 10
60.7723320357
 20
44.4295170639
 10
61.4248364598
 20
44.4864817482
 10
62.0265151141
 20
44.5450179364
 10
62.5162267893
 20
44.6043181779
  0
LWPOLYLINE
  5
311
100
AcDbEntity
  8
0
100
AcDbPolyline
 62
7
  6
BYLAYER
 90
4
 70
0
 10
58.3068911689
 20
57.1717950549
 10
58.2907992085
 20
57.1653292759
 10
58.3503184612
 20
57.1794582082
 10
58.4772433415
 20
57.2025474754
  0
LINE
  5
312
100
AcDbEntity
  8
0
100
AcDbLine
 62
7
  6
BYLAYER
 10
66.5210847542
 20
13.6971938776
 11
66.8210847542
 21
14.6971938776
  0
LINE
  5
313
100
AcDbEntity
  8
0
100
AcDbLine
 62
7
  6
BYLAYER
 10
57.7329905256
 20
37.6464015727
 11
57.5310847562
 21
37.3771938801
  0
LWPOLYLINE
  5
314
100
AcDbEntity
  8
0
100
AcDbPolyline
 62
7
  6
BYLAYER
 90
7
 70
0
 10
62.641752541
 20
53.6393842937
 10
62.6502364096
 20
53.6426457632
 10
62.5847681513
 20
53.6271802057
 10
62.4958190073
 20
53.6106010349
 10
62.2249703364
 20
53.5713736806
 10
61.8400464622
 20
53.5276652499
 10
61.3621792945
 20
53.4813917607
  0
LWPOLYLINE
  5
315
100
AcDbEntity
  8
0
100
AcDbPolyline
 62
7
  6
BYLAYER
 90
7
 70
0
 10
58.2982985552
 20
54.5678642958
 10
58.2946524981
 20
54.5665128195
 10
58.3651390327
 20
54.5828271482
 10
58.5977783502
 20
54.6206735337
 10
58.9546935201
 20
54.6644326423
 10
59.4156534272
 20
54.7113275583
 10
59.9655820856
 20
54.7609503715
  0
LWPOLYLINE
  5
316
100
AcDbEntity
  8
0
100
AcDbPolyline
 62
7
  6
BYLAYER
 90
8
 70
0
 10
62.6454090685
 20
56.2404570291
 10
62.6488593217
 20
56.241712406
 10
62.5647381307
 20
56.2227979012
 10
62.3045529477
 20
56.1819832493
 10
61.913850246
 20
56.135562096
 10
61.4130368006
 20
56.0860124354
 10
60.823120189
 20
56.0338809434
 10
59.8544654071
 20
55.9515310874
  0
LWPOLYLINE
  5
317
100
AcDbEntity
  8
0
100
AcDbPolyline
 62
7
  6
BYLAYER
 90
7
 70
0
 10
62.6465804138
 20
57.5413829384
 10
62.6494807418
 20
57.5424280079
 10
62.5672339897
 20
57.523429933
 10
62.3298008189
 20
57.4852283528
 10
61.9638889701
 20
57.4409474192
 10
61.4883010971
 20
57.3931381897
 10
60.9191529364
 20
57.3421271707
  0
LWPOLYLINE
  5
318
100
AcDbEntity
  8
0
100
AcDbPolyline
 62
7
  6
BYLAYER
 90
8
 70
0
 10
62.6521406688
 20
54.942695823
 10
62.6543187156
 20
54.9434490739
 10
62.5545319851
 20
54.9211547088
 10
62.2890899183
 20
54.8799178748
 10
61.8965050596
 20
54.8335648127
 10
61.3947677764
 20
54.7843608441
 10
60.8117390178
 20
54.7329731547
 10
59.864511324
 20
54.6523222358
  0
LWPOLYLINE
  5
319
100
AcDbEntity
  8
0
100
AcDbPolyline
 62
7
  6
BYLAYER
 90
7
 70
0
 10
58.2946534846
 20
49.3670567842
 10
58.2910757041
 20
49.3657656804
 10
58.3777689144
 20
49.3851532522
 10
58.6246257607
 20
49.4242262044
 10
58.9940586243
 20
49.4688206292
 10
59.4777306742
 20
49.5172447316
 10
60.0667010968
 20
49.5696214258
  0
LWPOLYLINE
  5
31A
100
AcDbEntity
  8
0
100
AcDbPolyline
 62
7
  6
BYLAYER
 90
7
 70
0
 10
62.6468471076
 20
51.0414657995
 10
62.6494787515
 20
51.0424039421
 10
62.5655519621
 20
51.0230545076
 10
62.3279410761
 20
50.9849858264
 10
61.9636614802
 20
50.9409367156
 10
61.4908854787
 20
50.8933734339
 10
60.9158690974
 20
50.8418348189
  0
LWPOLYLINE
  5
31B
100
AcDbEntity
  8
0
100
AcDbPolyline
 62
7
  6
BYLAYER
 90
8
 70
0
 10
62.6477372371
 20
49.7412349599
 10
62.6503085341
 20
49.7421386547
 10
62.5573930441
 20
49.7214242482
 10
62.2958016472
 20
49.6808252255
 10
61.9093146166
 20
49.6350615145
 10
61.4143607716
 20
49.5861281223
 10
60.8272953269
 20
49.5342457266
 10
59.852457663
 20
49.4513513519
  0
LINE
  5
31C
100
AcDbEntity
  8
0
100
AcDbLine
 62
7
  6
BYLAYER
 10
52.9710847542
 20
22.7971938776
 11
52.4710847542
 21
22.2971938776
  0
LWPOLYLINE
  5
31D
100
AcDbEntity
  8
0
100
AcDbPolyline
 62
7
  6
BYLAYER
 90
7
 70
0
 10
62.6468334177
 20
48.4411008366
 10
62.6494733117
 20
48.4420361135
 10
62.5648249369
 20
48.4227869219
 10
62.324475445
 20
48.3846541995
 10
61.9622458276
 20
48.3408233716
 10
61.4947058546
 20
48.2936607884
 10
60.9305147851
 20
48.2430920215
  0
LWPOLYLINE
  5
31E
100
AcDbEntity
  8
0
100
AcDbPolyline
 62
7
  6
BYLAYER
 90
7
 70
0
 10
62.6455527797
 20
39.3407985918
 10
62.6497418813
 20
39.3423804616
 10
62.5846194937
 20
39.3271322889
 10
62.3592168177
 20
39.2894079758
 10
61.9949021495
 20
39.2442564643
 10
61.5086655415
 20
39.1950444281
 10
60.9174677097
 20
39.1420371899
  0
LWPOLYLINE
  5
31F
100
AcDbEntity
  8
0
100
AcDbPolyline
 62
7
  6
BYLAYER
 90
7
 70
0
 10
62.6450045245
 20
43.2407734456
 10
62.6487176447
 20
43.2421518539
 10
62.5801798015
 20
43.2260602334
 10
62.3640023023
 20
43.1900144065
 10
62.0227695346
 20
43.1474431746
 10
61.5697805611
 20
43.1008746802
 10
61.0172989921
 20
43.0506538737
  0
LWPOLYLINE
  5
320
100
AcDbEntity
  8
0
100
AcDbPolyline
 62
7
  6
BYLAYER
 90
7
 70
0
 10
58.2944570725
 20
41.5670319963
 10
58.2906882325
 20
41.5656518631
 10
58.3615530398
 20
41.5819006726
 10
58.594246566
 20
41.6200099835
 10
58.9589167783
 20
41.6649974936
 10
59.4459894726
 20
41.7142659155
 10
60.0432718604
 20
41.7675926891
  0
LWPOLYLINE
  5
321
100
AcDbEntity
  8
0
100
AcDbPolyline
 62
7
  6
BYLAYER
 90
7
 70
0
 10
62.6453041386
 20
41.9404837425
 10
62.6484977357
 20
41.941647076
 10
62.5718522507
 20
41.9241654517
 10
62.3363035306
 20
41.8863001146
 10
61.9828083028
 20
41.8430758276
 10
61.5233601496
 20
41.7963561964
 10
60.9667434997
 20
41.7462291411
  0
LWPOLYLINE
  5
322
100
AcDbEntity
  8
0
100
AcDbPolyline
 62
7
  6
BYLAYER
 90
4
 70
0
 10
62.8698427797
 20
38.1661227176
 10
63.1395314224
 20
38.2531815971
 10
63.4351554641
 20
38.5167079257
 10
63.5210588478
 20
38.8292652032
  0
LINE
  5
323
100
AcDbEntity
  8
0
100
AcDbLine
 62
7
  6
BYLAYER
 10
59.8710847542
 20
153.2971938776
 11
61.0710847542
 21
153.2971938776
  0
ARC
  5
324
100
AcDbEntity
  8
0
100
AcDbCircle
 62
7
  6
BYLAYER
 10
59.7512072517
 20
23.1096242047
 40
15.2992929312
100
AcDbArc
 50
95.8707998455
 51
96.2811158649
  0
ARC
  5
325
100
AcDbEntity
  8
0
100
AcDbCircle
 62
7
  6
BYLAYER
 10
65.4397794462
 20
51.1984088624
 40
10.9081836869
100
AcDbArc
 50
129.1514580448
 51
129.4880957861
  0
ARC
  5
326
100
AcDbEntity
  8
0
100
AcDbCircle
 62
7
  6
BYLAYER
 10
64.2728340764
 20
52.6120659726
 40
9.0751030189
100
AcDbArc
 50
129.4778168115
 51
130.544752606
  0
ARC
  5
327
100
AcDbEntity
  8
0
100
AcDbCircle
 62
7
  6
BYLAYER
 10
57.4710847542
 20
33.3134422485
 40
4.0
100
AcDbArc
 50
95.1660626579
 51
244.0555202276
  0
ARC
  5
328
100
AcDbEntity
  8
0
100
AcDbCircle
 62
7
  6
BYLAYER
 10
63.4710847542
 20
33.3134422485
 40
4.0
100
AcDbArc
 50
295.9444797724
 51
84.8339373421
  0
ARC
  5
329
100
AcDbEntity
  8
0
100
AcDbCircle
 62
7
  6
BYLAYER
 10
54.0710847542
 20
27.0971938776
 40
1.1
100
AcDbArc
 50
90.0
 51
180.0
  0
ARC
  5
32A
100
AcDbEntity
  8
0
100
AcDbCircle
 62
7
  6
BYLAYER
 10
66.8710847542
 20
27.0971938776
 40
1.1
100
AcDbArc
 50
0.0
 51
90.0
  0
ARC
  5
32B
100
AcDbEntity
  8
0
100
AcDbCircle
 62
7
  6
BYLAYER
 10
65.5710847542
 20
28.9971938776
 40
0.8
100
AcDbArc
 50
115.9444797724
 51
270.0
  0
ARC
  5
32C
100
AcDbEntity
  8
0
100
AcDbCircle
 62
7
  6
BYLAYER
 10
55.3710847542
 20
28.9971938776
 40
0.8
100
AcDbArc
 50
270.0
 51
64.0555202276
  0
ARC
  5
32D
100
AcDbEntity
  8
0
100
AcDbCircle
 62
7
  6
BYLAYER
 10
67.4710847542
 20
24.0971938776
 40
0.6
100
AcDbArc
 50
90.0
 51
270.0
  0
ARC
  5
32E
100
AcDbEntity
  8
0
100
AcDbCircle
 62
7
  6
BYLAYER
 10
53.4710847542
 20
24.0971938776
 40
0.6
100
AcDbArc
 50
270.0
 51
90.0
  0
ARC
  5
32F
100
AcDbEntity
  8
0
100
AcDbCircle
 62
7
  6
BYLAYER
 10
57.9913767197
 20
59.2972008405
 40
0.5700300439
100
AcDbArc
 50
180.0029290914
 51
181.3822868648
  0
ARC
  5
330
100
AcDbEntity
  8
0
100
AcDbCircle
 62
7
  6
BYLAYER
 10
58.9409044543
 20
59.6153386982
 40
0.4753256998
100
AcDbArc
 50
240.1829704204
 51
241.2952122661
  0
ARC
  5
331
100
AcDbEntity
  8
0
100
AcDbCircle
 62
7
  6
BYLAYER
 10
58.4098252973
 20
57.6104845997
 40
0.4132888229
100
AcDbArc
 50
270.0494676255
 51
279.3172909271
  0
ARC
  5
332
100
AcDbEntity
  8
0
100
AcDbCircle
 62
7
  6
BYLAYER
 10
63.5710847542
 20
37.4971938776
 40
0.2
100
AcDbArc
 50
216.8698976458
 51
269.9999983275
  0
ARC
  5
333
100
AcDbEntity
  8
0
100
AcDbCircle
 62
7
  6
BYLAYER
 10
53.1710847542
 20
23.2971938776
 40
0.2
100
AcDbArc
 50
90.0
 51
180.0
  0
ARC
  5
334
100
AcDbEntity
  8
0
100
AcDbCircle
 62
7
  6
BYLAYER
 10
67.7710847542
 20
23.2971938776
 40
0.2
100
AcDbArc
 50
0.0
 51
90.0
  0
ARC
  5
335
100
AcDbEntity
  8
0
100
AcDbCircle
 62
7
  6
BYLAYER
 10
53.1710847542
 20
24.8971938776
 40
0.2
100
AcDbArc
 50
180.0
 51
270.0
  0
ARC
  5
336
100
AcDbEntity
  8
0
100
AcDbCircle
 62
7
  6
BYLAYER
 10
67.7710847542
 20
24.8971938776
 40
0.2
100
AcDbArc
 50
270.0
 51
360.0
  0
ARC
  5
337
100
AcDbEntity
  8
0
100
AcDbCircle
 62
7
  6
BYLAYER
 10
57.3710847542
 20
37.4971938776
 40
0.2
100
AcDbArc
 50
270.0000016725
 51
323.1301023542
  0
SPLINE
  5
338
100
AcDbEntity
  8
0
100
AcDbSpline
 62
7
  6
BYLAYER
 70
0
 71
3
 72
10
 73
6
 74
0
 42
0.0000001
 43
0.0000001
 44
0.0000000001
 40
0.0
 40
0.0
 40
0.0
 40
0.0
 40
0.2508828705
 40
0.5018340766
 40
1.0
 40
1.0
 40
1.0
 40
1.0
 10
57.70442177
 20
58.7879810613
 30
0.0
 10
57.6623916681
 20
58.8139424811
 30
0.0
 10
57.5844487879
 20
58.8768523026
 30
0.0
 10
57.4661271244
 20
59.0359045226
 30
0.0
 10
57.4238772881
 20
59.1853839552
 30
0.0
 10
57.4215125569
 20
59.2834499392
 30
0.0
  0
SPLINE
  5
339
100
AcDbEntity
  8
0
100
AcDbSpline
 62
7
  6
BYLAYER
 70
0
 71
3
 72
9
 73
5
 74
0
 42
0.0000001
 43
0.0000001
 44
0.0000000001
 40
0.0
 40
0.0
 40
0.0
 40
0.0
 40
0.499198357
 40
1.0
 40
1.0
 40
1.0
 40
1.0
 10
57.4213770258
 20
59.2971717003
 30
0.0
 10
57.4213437263
 20
59.3520738183
 30
0.0
 10
57.4367519344
 20
59.4626290183
 30
0.0
 10
57.4820725662
 20
59.5645164292
 30
0.0
 10
57.5108422621
 20
59.6114838773
 30
0.0
  0
SPLINE
  5
33A
100
AcDbEntity
  8
0
100
AcDbSpline
 62
7
  6
BYLAYER
 70
0
 71
3
 72
11
 73
7
 74
0
 42
0.0000001
 43
0.0000001
 44
0.0000000001
 40
0.0
 40
0.0
 40
0.0
 40
0.0
 40
0.2497791299
 40
0.5000162098
 40
0.750029314
 40
1.0
 40
1.0
 40
1.0
 40
1.0
 10
58.5288773378
 20
58.9777673442
 30
0.0
 10
58.487510874
 20
58.9120334593
 30
0.0
 10
58.3771530742
 20
58.7960998502
 30
0.0
 10
58.159467639
 20
58.6971262845
 30
0.0
 10
57.9203834552
 20
58.6909953793
 30
0.0
 10
57.7704286554
 20
58.746938709
 30
0.0
 10
57.70442177
 20
58.7879810613
 30
0.0
  0
SPLINE
  5
33B
100
AcDbEntity
  8
0
100
AcDbSpline
 62
7
  6
BYLAYER
 70
0
 71
3
 72
15
 73
11
 74
0
 42
0.0000001
 43
0.0000001
 44
0.0000000001
 40
0.0
 40
0.0
 40
0.0
 40
0.0
 40
0.2939450608
 40
0.4456563645
 40
0.5914953193
 40
0.7253468625
 40
0.8413007306
 40
0.933796274
 40
0.970232186
 40
1.0
 40
1.0
 40
1.0
 40
1.0
 10
61.2943057455
 20
58.6906823745
 30
0.0
 10
61.0395503973
 20
58.7335239892
 30
0.0
 10
60.6523804445
 20
58.7928084313
 30
0.0
 10
60.138767758
 20
58.8729837751
 30
0.0
 10
59.7646630661
 20
58.9345604067
 30
0.0
 10
59.4224959184
 20
58.9966652435
 30
0.0
 10
59.1281846265
 20
59.0589756897
 30
0.0
 10
58.9198972482
 20
59.1143530784
 30
0.0
 10
58.7886224901
 20
59.1616699051
 30
0.0
 10
58.7355511605
 20
59.1858585342
 30
0.0
 10
58.7126070458
 20
59.1984276595
 30
0.0
  0
LINE
  5
33C
100
AcDbEntity
  8
0
100
AcDbLine
 62
7
  6
BYLAYER
 10
60.7255508709
 20
57.3254018996
 11
60.1792696086
 21
57.3868089619
  0
SPLINE
  5
33D
100
AcDbEntity
  8
0
100
AcDbSpline
 62
7
  6
BYLAYER
 70
0
 71
3
 72
21
 73
17
 74
0
 42
0.0000001
 43
0.0000001
 44
0.0000000001
 40
0.0
 40
0.0
 40
0.0
 40
0.0
 40
0.2042227868
 40
0.396130061
 40
0.5690289994
 40
0.7179242076
 40
0.7819832923
 40
0.8384925771
 40
0.887070545
 40
0.9273356052
 40
0.9589227592
 40
0.9816280591
 40
0.9896154954
 40
0.9953422061
 40
0.9987984272
 40
1.0
 40
1.0
 40
1.0
 40
1.0
 10
60.5856698336
 20
62.297193867
 30
0.0
 10
60.618716707
 20
62.2971665102
 30
0.0
 10
60.6828175348
 20
62.2971041897
 30
0.0
 10
60.7748967673
 20
62.2971003014
 30
0.0
 10
60.8580221708
 20
62.2973461613
 30
0.0
 10
60.9204607457
 20
62.2974999828
 30
0.0
 10
60.9640636866
 20
62.2973216276
 30
0.0
 10
60.9914357677
 20
62.2970875207
 30
0.0
 10
61.0149486419
 20
62.2968393174
 30
0.0
 10
61.0344532755
 20
62.2966263307
 30
0.0
 10
61.0497077876
 20
62.296576844
 30
0.0
 10
61.0598831854
 20
62.2965851687
 30
0.0
 10
61.0656440572
 20
62.2967741387
 30
0.0
 10
61.0686378708
 20
62.2967792874
 30
0.0
 10
61.0699270579
 20
62.2970798071
 30
0.0
 10
61.0710847542
 20
62.2969999093
 30
0.0
 10
61.0710847542
 20
62.2971943452
 30
0.0
  0
SPLINE
  5
33E
100
AcDbEntity
  8
0
100
AcDbSpline
 62
7
  6
BYLAYER
 70
0
 71
3
 72
32
 73
28
 74
0
 42
0.0000001
 43
0.0000001
 44
0.0000000001
 40
0.0
 40
0.0
 40
0.0
 40
0.0
 40
0.0040620664
 40
0.0074508973
 40
0.0119194678
 40
0.0175204528
 40
0.0242814885
 40
0.0412338625
 40
0.0625658654
 40
0.0880151942
 40
0.1501619351
 40
0.2254299292
 40
0.3114106813
 40
0.4047470496
 40
0.5016668829
 40
0.5983940417
 40
0.6912360098
 40
0.7768959233
 40
0.8521980341
 40
0.9139800075
 40
0.9388990797
 40
0.9596116011
 40
0.976036983
 40
0.988123352
 40
0.9925491423
 40
0.9959302171
 40
1.0
 40
1.0
 40
1.0
 40
1.0
 10
57.4235557571
 20
56.3796714394
 30
0.0
 10
57.4235997027
 20
56.3880100653
 30
0.0
 10
57.4370308348
 20
56.4005958781
 30
0.0
 10
57.4580304334
 20
56.411329269
 30
0.0
 10
57.4841104559
 20
56.421488003
 30
0.0
 10
57.5171148995
 20
56.4313776215
 30
0.0
 10
57.575593812
 20
56.4458670092
 30
0.0
 10
57.6664526484
 20
56.4631549242
 30
0.0
 10
57.7957945912
 20
56.4830109293
 30
0.0
 10
58.0175883087
 20
56.5115571346
 30
0.0
 10
58.3501921682
 20
56.5459100343
 30
0.0
 10
58.8070812192
 20
56.5854780769
 30
0.0
 10
59.3282071872
 20
56.6250755347
 30
0.0
 10
59.8938805364
 20
56.664831237
 30
0.0
 10
60.4816606565
 20
56.7046740823
 30
0.0
 10
61.0684234075
 20
56.7445190789
 30
0.0
 10
61.6320155468
 20
56.7843793128
 30
0.0
 10
62.1515269493
 20
56.824046899
 30
0.0
 10
62.6070893871
 20
56.8634413442
 30
0.0
 10
62.9379355079
 20
56.897580154
 30
0.0
 10
63.1565842266
 20
56.926352572
 30
0.0
 10
63.2824123599
 20
56.9461649924
 30
0.0
 10
63.3816393045
 20
56.9659717583
 30
0.0
 10
63.4469124425
 20
56.9830235911
 30
0.0
 10
63.4853858256
 20
56.9981221363
 30
0.0
 10
63.5062621462
 20
57.0088711827
 30
0.0
 10
63.5197927251
 20
57.0213996603
 30
0.0
 10
63.5198204108
 20
57.0297541968
 30
0.0
  0
SPLINE
  5
33F
100
AcDbEntity
  8
0
100
AcDbSpline
 62
7
  6
BYLAYER
 70
0
 71
3
 72
14
 73
10
 74
0
 42
0.0000001
 43
0.0000001
 44
0.0000000001
 40
0.0
 40
0.0
 40
0.0
 40
0.0
 40
0.059125179
 40
0.1330577502
 40
0.2291700747
 40
0.3488235079
 40
0.4907849221
 40
0.6505666916
 40
1.0
 40
1.0
 40
1.0
 40
1.0
 10
61.2580202594
 20
53.4719610358
 30
0.0
 10
61.2711480856
 20
53.4731406758
 30
0.0
 10
61.3017260717
 20
53.4646053589
 30
0.0
 10
61.3388794041
 20
53.4280357765
 30
0.0
 10
61.3725289945
 20
53.3725272072
 30
0.0
 10
61.4019029743
 20
53.2980659818
 30
0.0
 10
61.4257298627
 20
53.2070407788
 30
0.0
 10
61.4502315309
 20
53.0638467338
 30
0.0
 10
61.4574101332
 20
52.9500927247
 30
0.0
 10
61.4574097671
 20
52.8721938912
 30
0.0
  0
SPLINE
  5
340
100
AcDbEntity
  8
0
100
AcDbSpline
 62
7
  6
BYLAYER
 70
0
 71
3
 72
31
 73
27
 74
0
 42
0.0000001
 43
0.0000001
 44
0.0000000001
 40
0.0
 40
0.0
 40
0.0
 40
0.0
 40
0.0040518069
 40
0.0074027352
 40
0.0117941906
 40
0.0238309308
 40
0.0402833981
 40
0.0611596263
 40
0.0863648085
 40
0.148470037
 40
0.2237940638
 40
0.3094573546
 40
0.402514775
 40
0.4994644785
 40
0.5964766338
 40
0.6897171524
 40
0.7754689712
 40
0.8507713814
 40
0.9129776567
 40
0.9383517637
 40
0.9594784166
 40
0.9760989448
 40
0.9882020906
 40
0.9926022508
 40
0.995952949
 40
1.0
 40
1.0
 40
1.0
 40
1.0
 10
57.4237094914
 20
55.0785693846
 30
0.0
 10
57.4237479627
 20
55.0868849447
 30
0.0
 10
57.4369930118
 20
55.0994395315
 30
0.0
 10
57.4577020335
 20
55.1102275496
 30
0.0
 10
57.4958807147
 20
55.1253585369
 30
0.0
 10
57.561027346
 20
55.142442132
 30
0.0
 10
57.6605154557
 20
55.1622676059
 30
0.0
 10
57.7873092503
 20
55.1820626185
 30
0.0
 10
58.0075218676
 20
55.210682281
 30
0.0
 10
58.3395774213
 20
55.2448963325
 30
0.0
 10
58.7957385361
 20
55.2843857994
 30
0.0
 10
59.3156115607
 20
55.3241338036
 30
0.0
 10
59.8799764526
 20
55.3639550864
 30
0.0
 10
60.467686062
 20
55.4038000202
 30
0.0
 10
61.0557716023
 20
55.4436546072
 30
0.0
 10
61.6208274897
 20
55.4834233184
 30
0.0
 10
62.1412162577
 20
55.5231590494
 30
0.0
 10
62.5977183165
 20
55.5627106986
 30
0.0
 10
62.9302809387
 20
55.5969680647
 30
0.0
 10
63.151569772
 20
55.6255790491
 30
0.0
 10
63.2795953816
 20
55.6452922266
 30
0.0
 10
63.3801033086
 20
55.6650921035
 30
0.0
 10
63.4457667714
 20
55.6821852894
 30
0.0
 10
63.4841007314
 20
55.6973410182
 30
0.0
 10
63.5048271756
 20
55.7081255118
 30
0.0
 10
63.5180269511
 20
55.7207021681
 30
0.0
 10
63.5180586036
 20
55.7290079962
 30
0.0
  0
SPLINE
  5
341
100
AcDbEntity
  8
0
100
AcDbSpline
 62
7
  6
BYLAYER
 70
0
 71
3
 72
32
 73
28
 74
0
 42
0.0000001
 43
0.0000001
 44
0.0000000001
 40
0.0
 40
0.0
 40
0.0
 40
0.0
 40
0.0040927497
 40
0.0075098321
 40
0.0119819406
 40
0.0241738138
 40
0.0406933537
 40
0.0614559009
 40
0.08634858
 40
0.1479532351
 40
0.223243723
 40
0.3089540058
 40
0.4017748065
 40
0.4983682427
 40
0.5951582579
 40
0.68843064
 40
0.7744716399
 40
0.8497338368
 40
0.9117347122
 40
0.937127089
 40
0.9584492674
 40
0.9754655948
 40
0.9822937533
 40
0.9879738663
 40
0.9925021952
 40
0.9959257758
 40
1.0
 40
1.0
 40
1.0
 40
1.0
 10
57.421567005
 20
39.4784577752
 30
0.0
 10
57.4216118126
 20
39.4868609029
 30
0.0
 10
57.4354468696
 20
39.4993533798
 30
0.0
 10
57.4565412877
 20
39.510070161
 30
0.0
 10
57.4954642361
 20
39.5251474667
 30
0.0
 10
57.5612595304
 20
39.5421768428
 30
0.0
 10
57.6610366256
 20
39.5619692861
 30
0.0
 10
57.787131616
 20
39.581768175
 30
0.0
 10
58.0055034867
 20
39.6105348107
 30
0.0
 10
58.3359567604
 20
39.6447544275
 30
0.0
 10
58.7913254653
 20
39.6840592107
 30
0.0
 10
59.3109701722
 20
39.7236848696
 30
0.0
 10
59.8744518269
 20
39.7635130367
 30
0.0
 10
60.460734522
 20
39.8033665106
 30
0.0
 10
61.0479483071
 20
39.8431948404
 30
0.0
 10
61.6134492707
 20
39.8829520898
 30
0.0
 10
62.134655163
 20
39.9224827578
 30
0.0
 10
62.5914447913
 20
39.9619879436
 30
0.0
 10
62.923676105
 20
39.9963747206
 30
0.0
 10
63.1450693334
 20
40.0249236883
 30
0.0
 10
63.2744288027
 20
40.0447880429
 30
0.0
 10
63.3655533407
 20
40.0620810871
 30
0.0
 10
63.4244966053
 20
40.0765375155
 30
0.0
 10
63.4579530728
 20
40.0863913873
 30
0.0
 10
63.4844393079
 20
40.0965404331
 30
0.0
 10
63.5056735131
 20
40.1072274033
 30
0.0
 10
63.5193310769
 20
40.1198257106
 30
0.0
 10
63.5193609893
 20
40.1281908676
 30
0.0
  0
SPLINE
  5
342
100
AcDbEntity
  8
0
100
AcDbSpline
 62
7
  6
BYLAYER
 70
0
 71
3
 72
32
 73
28
 74
0
 42
0.0000001
 43
0.0000001
 44
0.0000000001
 40
0.0
 40
0.0
 40
0.0
 40
0.0
 40
0.0040974877
 40
0.0075246391
 40
0.0120105794
 40
0.0242365342
 40
0.0407908412
 40
0.06157972
 40
0.0864813003
 40
0.1480458013
 40
0.2233296577
 40
0.3090564528
 40
0.401882152
 40
0.4984445444
 40
0.5951932366
 40
0.6884361638
 40
0.7744798953
 40
0.8497496409
 40
0.9117043302
 40
0.9370721048
 40
0.9583793281
 40
0.9753981884
 40
0.9822364843
 40
0.9879337147
 40
0.992482643
 40
0.9959195097
 40
1.0
 40
1.0
 40
1.0
 40
1.0
 10
57.4213915445
 20
53.7785414797
 30
0.0
 10
57.4214289754
 20
53.7869547662
 30
0.0
 10
57.4353470027
 20
53.7994449283
 30
0.0
 10
57.4565000327
 20
53.8101480289
 30
0.0
 10
57.4955609994
 20
53.8252214263
 30
0.0
 10
57.5615312462
 20
53.8422427654
 30
0.0
 10
57.6615152168
 20
53.8620311376
 30
0.0
 10
57.787761382
 20
53.8818258062
 30
0.0
 10
58.00613533
 20
53.9105792837
 30
0.0
 10
58.3365224037
 20
53.944829809
 30
0.0
 10
58.7918526724
 20
53.9841119636
 30
0.0
 10
59.3115530181
 20
54.0237260492
 30
0.0
 10
59.875042327
 20
54.0635414572
 30
0.0
 10
60.461213728
 20
54.1033953572
 30
0.0
 10
61.0482458174
 20
54.1432207583
 30
0.0
 10
61.6136334587
 20
54.182976622
 30
0.0
 10
62.1348250335
 20
54.2224981952
 30
0.0
 10
62.5915649295
 20
54.2619728351
 30
0.0
 10
62.9236808384
 20
54.2963690642
 30
0.0
 10
63.1449066382
 20
54.3249203412
 30
0.0
 10
63.2741955055
 20
54.344785992
 30
0.0
 10
63.3653184319
 20
54.3620802457
 30
0.0
 10
63.424329682
 20
54.3765304038
 30
0.0
 10
63.457887762
 20
54.3863847722
 30
0.0
 10
63.4844970839
 20
54.3965206184
 30
0.0
 10
63.5058180376
 20
54.4071936288
 30
0.0
 10
63.5195661373
 20
54.4197897757
 30
0.0
 10
63.5195990607
 20
54.42816818
 30
0.0
  0
SPLINE
  5
343
100
AcDbEntity
  8
0
100
AcDbSpline
 62
7
  6
BYLAYER
 70
0
 71
3
 72
20
 73
16
 74
0
 42
0.0000001
 43
0.0000001
 44
0.0000000001
 40
0.0
 40
0.0
 40
0.0
 40
0.0
 40
0.007982875
 40
0.0148311827
 40
0.0239126239
 40
0.0353202279
 40
0.0491045874
 40
0.0837750909
 40
0.127457155
 40
0.179513658
 40
0.3061003421
 40
0.4581689754
 40
0.6298657101
 40
0.8133049952
 40
1.0
 40
1.0
 40
1.0
 40
1.0
 10
57.4238851983
 20
43.3794203563
 30
0.0
 10
57.4239230741
 20
43.3886293576
 30
0.0
 10
57.4398261524
 20
43.4021640616
 30
0.0
 10
57.4636560125
 20
43.4135712136
 30
0.0
 10
57.4937238504
 20
43.4245310085
 30
0.0
 10
57.531659536
 20
43.4351823618
 30
0.0
 10
57.5990098373
 20
43.4508394371
 30
0.0
 10
57.7036652019
 20
43.4694541148
 30
0.0
 10
57.8526036809
 20
43.4908487411
 30
0.0
 10
58.1072432984
 20
43.5215633616
 30
0.0
 10
58.487000277
 20
43.5585153391
 30
0.0
 10
59.0047836373
 20
43.6011080209
 30
0.0
 10
59.5883501058
 20
43.6437164048
 30
0.0
 10
60.2119420902
 20
43.6865052611
 30
0.0
 10
60.6379626485
 20
43.7152427751
 30
0.0
 10
60.8528325817
 20
43.7299425016
 30
0.0
  0
SPLINE
  5
344
100
AcDbEntity
  8
0
100
AcDbSpline
 62
7
  6
BYLAYER
 70
0
 71
3
 72
18
 73
14
 74
0
 42
0.0000001
 43
0.0000001
 44
0.0000000001
 40
0.0
 40
0.0
 40
0.0
 40
0.0
 40
0.1999781036
 40
0.3886565434
 40
0.5604481527
 40
0.7098688256
 40
0.8314649921
 40
0.9207345708
 40
0.9527659576
 40
0.9763373281
 40
0.9850010158
 40
0.9916720894
 40
1.0
 40
1.0
 40
1.0
 40
1.0
 10
60.8528325817
 20
43.7299425016
 30
0.0
 10
61.0321907658
 20
43.742212791
 30
0.0
 10
61.3807535413
 20
43.7663396978
 30
0.0
 10
61.8832443704
 20
43.8031607893
 30
0.0
 10
62.3401616029
 20
43.8398348882
 30
0.0
 10
62.7366087172
 20
43.8760818854
 30
0.0
 10
63.0585149197
 20
43.9119950317
 30
0.0
 10
63.2747169908
 20
43.9434181273
 30
0.0
 10
63.4021654556
 20
43.9708647505
 30
0.0
 10
63.4576804513
 20
43.9866570805
 30
0.0
 10
63.4901684966
 20
44.0005543593
 30
0.0
 10
63.5081629476
 20
44.01066662
 30
0.0
 10
63.5191886055
 20
44.0222263441
 30
0.0
 10
63.5192143196
 20
44.0297129707
 30
0.0
  0
SPLINE
  5
345
100
AcDbEntity
  8
0
100
AcDbSpline
 62
7
  6
BYLAYER
 70
0
 71
3
 72
9
 73
5
 74
0
 42
0.0000001
 43
0.0000001
 44
0.0000000001
 40
0.0
 40
0.0
 40
0.0
 40
0.0
 40
0.2406664101
 40
1.0
 40
1.0
 40
1.0
 40
1.0
 10
61.2791834134
 20
53.3604055584
 30
0.0
 10
61.234640337
 20
53.3659370143
 30
0.0
 10
61.0495041959
 20
53.3884875816
 30
0.0
 10
60.8642119253
 20
53.4097318581
 30
0.0
 10
60.7234902815
 20
53.4256460515
 30
0.0
  0
SPLINE
  5
346
100
AcDbEntity
  8
0
100
AcDbSpline
 62
7
  6
BYLAYER
 70
0
 71
3
 72
11
 73
7
 74
0
 42
0.0000001
 43
0.0000001
 44
0.0000000001
 40
0.0
 40
0.0
 40
0.0
 40
0.0
 40
0.2307012218
 40
0.4738599232
 40
0.7323707185
 40
1.0
 40
1.0
 40
1.0
 40
1.0
 10
58.3483826494
 20
58.3924888553
 30
0.0
 10
58.2873723175
 20
58.3832248649
 30
0.0
 10
58.1652094035
 20
58.3361516639
 30
0.0
 10
58.0197444848
 20
58.1983497896
 30
0.0
 10
57.9278475803
 20
58.0102273876
 30
0.0
 10
57.9054870296
 20
57.8687813627
 30
0.0
 10
57.9054872241
 20
57.7971939138
 30
0.0
  0
SPLINE
  5
347
100
AcDbEntity
  8
0
100
AcDbSpline
 62
7
  6
BYLAYER
 70
0
 71
3
 72
11
 73
7
 74
0
 42
0.0000001
 43
0.0000001
 44
0.0000000001
 40
0.0
 40
0.0
 40
0.0
 40
0.0
 40
0.2501235904
 40
0.5000876483
 40
0.749727947
 40
1.0
 40
1.0
 40
1.0
 40
1.0
 10
62.487718292
 20
48.3715394957
 30
0.0
 10
62.5389381806
 20
48.4229736448
 30
0.0
 10
62.6620671162
 20
48.5066310699
 30
0.0
 10
62.8778450048
 20
48.5603610185
 30
0.0
 10
63.098337623
 20
48.5298790451
 30
0.0
 10
63.2291327694
 20
48.459065679
 30
0.0
 10
63.2856667183
 20
48.4134683326
 30
0.0
  0
SPLINE
  5
348
100
AcDbEntity
  8
0
100
AcDbSpline
 62
7
  6
BYLAYER
 70
0
 71
3
 72
19
 73
15
 74
0
 42
0.0000001
 43
0.0000001
 44
0.0000000001
 40
0.0
 40
0.0
 40
0.0
 40
0.0
 40
0.2082477492
 40
0.4004375236
 40
0.5716924232
 40
0.7172909721
 40
0.8342428224
 40
0.8814236105
 40
0.9208036654
 40
0.9522164854
 40
0.9755736129
 40
0.9842719263
 40
0.9910750639
 40
1.0
 40
1.0
 40
1.0
 40
1.0
 10
61.4574123664
 20
52.8721847518
 30
0.0
 10
61.6022873796
 20
52.8825794902
 30
0.0
 10
61.8808319464
 20
52.9030568534
 30
0.0
 10
62.2783203945
 20
52.934664332
 30
0.0
 10
62.6319850971
 20
52.966055869
 30
0.0
 10
62.9329374369
 20
52.9973765628
 30
0.0
 10
63.1472710949
 20
53.0247672929
 30
0.0
 10
63.2873926882
 20
53.0475535717
 30
0.0
 10
63.3681784428
 20
53.0632522012
 30
0.0
 10
63.4320077829
 20
53.0789123745
 30
0.0
 10
63.4741534736
 20
53.0924991993
 30
0.0
 10
63.4987835687
 20
53.1043488296
 30
0.0
 10
63.5128611548
 20
53.113262315
 30
0.0
 10
63.5209414919
 20
53.1231016234
 30
0.0
 10
63.5209650739
 20
53.1293264919
 30
0.0
  0
SPLINE
  5
349
100
AcDbEntity
  8
0
100
AcDbSpline
 62
7
  6
BYLAYER
 70
0
 71
3
 72
32
 73
28
 74
0
 42
0.0000001
 43
0.0000001
 44
0.0000000001
 40
0.0
 40
0.0
 40
0.0
 40
0.0
 40
0.004108641
 40
0.0075971447
 40
0.0121911505
 40
0.0179079495
 40
0.0247420027
 40
0.0416947012
 40
0.0628839395
 40
0.0881130717
 40
0.1498545258
 40
0.2251327873
 40
0.3110983183
 40
0.404169735
 40
0.5007451527
 40
0.5972305724
 40
0.6901142129
 40
0.7759266919
 40
0.851204561
 40
0.9127441245
 40
0.9377593436
 40
0.9587138858
 40
0.9754521791
 40
0.9878461597
 40
0.9923989256
 40
0.9958751502
 40
1.0
 40
1.0
 40
1.0
 40
1.0
 10
57.4216915148
 20
44.6797586811
 30
0.0
 10
57.4217352777
 20
44.6881957351
 30
0.0
 10
57.4358759149
 20
44.7007659319
 30
0.0
 10
57.4574683855
 20
44.7113479444
 30
0.0
 10
57.4843524737
 20
44.721480092
 30
0.0
 10
57.5180361262
 20
44.7313384693
 30
0.0
 10
57.5769526373
 20
44.7457701989
 30
0.0
 10
57.6676892553
 20
44.7630654831
 30
0.0
 10
57.796322617
 20
44.7829301186
 30
0.0
 10
58.0165973828
 20
44.8114954585
 30
0.0
 10
58.3480402239
 20
44.8459076674
 30
0.0
 10
58.8042583883
 20
44.8852371113
 30
0.0
 10
59.3250091891
 20
44.9247504595
 30
0.0
 10
59.8895875985
 20
44.9644915407
 30
0.0
 10
60.4758149772
 20
45.0043068189
 30
0.0
 10
61.0616543846
 20
45.0441415167
 30
0.0
 10
61.6253450122
 20
45.0839031413
 30
0.0
 10
62.1453878527
 20
45.123463492
 30
0.0
 10
62.6008857303
 20
45.1626988758
 30
0.0
 10
62.9314662457
 20
45.1970459472
 30
0.0
 10
63.1504013737
 20
45.2257224448
 30
0.0
 10
63.2776224273
 20
45.2454994731
 30
0.0
 10
63.3787134637
 20
45.2652692243
 30
0.0
 10
63.4455616136
 20
45.2822597782
 30
0.0
 10
63.4852883562
 20
45.2973139748
 30
0.0
 10
63.5067323323
 20
45.3079657461
 30
0.0
 10
63.5210470118
 20
45.3204250121
 30
0.0
 10
63.5210816109
 20
45.328895394
 30
0.0
  0
SPLINE
  5
34A
100
AcDbEntity
  8
0
100
AcDbSpline
 62
7
  6
BYLAYER
 70
0
 71
3
 72
31
 73
27
 74
0
 42
0.0000001
 43
0.0000001
 44
0.0000000001
 40
0.0
 40
0.0
 40
0.0
 40
0.0
 40
0.0040501825
 40
0.0073995289
 40
0.0117905219
 40
0.0238346308
 40
0.0403135776
 40
0.061243142
 40
0.0864938925
 40
0.1486334348
 40
0.2239566488
 40
0.3096332342
 40
0.4027360142
 40
0.4997094446
 40
0.5967176343
 40
0.6899233884
 40
0.7756467552
 40
0.8509545541
 40
0.9131470542
 40
0.9384904009
 40
0.959561867
 40
0.9761322899
 40
0.9882110983
 40
0.9926057935
 40
0.995953921
 40
1.0
 40
1.0
 40
1.0
 40
1.0
 10
57.4238518417
 20
40.7786591281
 30
0.0
 10
57.4238896534
 20
40.7869712498
 30
0.0
 10
57.4371131179
 20
40.7995307147
 30
0.0
 10
57.4578160541
 20
40.8103203495
 30
0.0
 10
57.4960026927
 20
40.8254569392
 30
0.0
 10
57.5612199795
 20
40.8425435183
 30
0.0
 10
57.6608885803
 20
40.862371311
 30
0.0
 10
57.7879444238
 20
40.8821461123
 30
0.0
 10
58.0084303904
 20
40.9107574914
 30
0.0
 10
58.3406431499
 20
40.9449844585
 30
0.0
 10
58.796893587
 20
40.9844878779
 30
0.0
 10
59.3168785043
 20
41.0242415206
 30
0.0
 10
59.8814064661
 20
41.0640499722
 30
0.0
 10
60.469242173
 20
41.1038979148
 30
0.0
 10
61.057289267
 20
41.1437517912
 30
0.0
 10
61.6221989724
 20
41.1835296316
 30
0.0
 10
62.1424610332
 20
41.223276894
 30
0.0
 10
62.5988822173
 20
41.2628158756
 30
0.0
 10
62.9313608429
 20
41.2970649536
 30
0.0
 10
63.1524405982
 20
41.3256758679
 30
0.0
 10
63.2801810224
 20
41.3453990998
 30
0.0
 10
63.380412886
 20
41.3652156302
 30
0.0
 10
63.4459065973
 20
41.3823067696
 30
0.0
 10
63.4841693868
 20
41.397458134
 30
0.0
 10
63.5048742519
 20
41.4082443976
 30
0.0
 10
63.5180631994
 20
41.4208204901
 30
0.0
 10
63.518090909
 20
41.42912423
 30
0.0
  0
SPLINE
  5
34B
100
AcDbEntity
  8
0
100
AcDbSpline
 62
7
  6
BYLAYER
 70
0
 71
3
 72
32
 73
28
 74
0
 42
0.0000001
 43
0.0000001
 44
0.0000000001
 40
0.0
 40
0.0
 40
0.0
 40
0.0
 40
0.0040844658
 40
0.007487842
 40
0.0119419702
 40
0.0240915194
 40
0.0405704637
 40
0.0613058888
 40
0.0861964816
 40
0.1478599586
 40
0.223156624
 40
0.3088475396
 40
0.4016695043
 40
0.49830927
 40
0.5951512092
 40
0.6884557449
 40
0.7744851409
 40
0.8497441476
 40
0.9118021899
 40
0.9372209397
 40
0.9585546296
 40
0.9755577884
 40
0.9823672442
 40
0.9880197297
 40
0.9925234601
 40
0.9959321703
 40
1.0
 40
1.0
 40
1.0
 40
1.0
 10
57.4218274123
 20
45.9783644209
 30
0.0
 10
57.4218685875
 20
45.9867500324
 30
0.0
 10
57.4355890644
 20
45.999254362
 30
0.0
 10
57.4566009043
 20
46.0099845503
 30
0.0
 10
57.4953474874
 20
46.0250692353
 30
0.0
 10
57.5609290517
 20
46.0421075472
 30
0.0
 10
57.660465841
 20
46.0619056297
 30
0.0
 10
57.7864081111
 20
46.0817097935
 30
0.0
 10
58.0048257376
 20
46.1104876232
 30
0.0
 10
58.3353920465
 20
46.1446711608
 30
0.0
 10
58.7908226295
 20
46.1840086222
 30
0.0
 10
59.310408852
 20
46.2236494249
 30
0.0
 10
59.8739117607
 20
46.2634928298
 30
0.0
 10
60.4603622415
 20
46.3033445244
 30
0.0
 10
61.047807009
 20
46.3431781382
 30
0.0
 10
61.6134214132
 20
46.3829365589
 30
0.0
 10
62.1346288725
 20
46.422485711
 30
0.0
 10
62.5914740448
 20
46.4620230739
 30
0.0
 10
62.9238510653
 20
46.4963975369
 30
0.0
 10
63.1454272423
 20
46.524945449
 30
0.0
 10
63.2748299548
 20
46.5448070008
 30
0.0
 10
63.3659070814
 20
46.562100509
 30
0.0
 10
63.4247188171
 20
46.576563101
 30
0.0
 10
63.4580206771
 20
46.5864278292
 30
0.0
 10
63.4843481146
 20
46.5965861462
 30
0.0
 10
63.5054826561
 20
46.6072896167
 30
0.0
 10
63.519040202
 20
46.6198881413
 30
0.0
 10
63.5190694223
 20
46.6282396477
 30
0.0
  0
SPLINE
  5
34C
100
AcDbEntity
  8
0
100
AcDbSpline
 62
7
  6
BYLAYER
 70
0
 71
3
 72
32
 73
28
 74
0
 42
0.0000001
 43
0.0000001
 44
0.0000000001
 40
0.0
 40
0.0
 40
0.0
 40
0.0
 40
0.0040503262
 40
0.0074001085
 40
0.0117935744
 40
0.0238547741
 40
0.0403771052
 40
0.0613794397
 40
0.0866808673
 40
0.1488501946
 40
0.2658818885
 40
0.4029982765
 40
0.5487132359
 40
0.6207582726
 40
0.6901023933
 40
0.7552243473
 40
0.8148984426
 40
0.8679572418
 40
0.9132390387
 40
0.9495951404
 40
0.9640928351
 40
0.9760674765
 40
0.9855322792
 40
0.9925278488
 40
0.9951359085
 40
0.9971930739
 40
1.0
 40
1.0
 40
1.0
 40
1.0
 10
57.4239922752
 20
47.2788008181
 30
0.0
 10
57.4240388683
 20
47.2871140152
 30
0.0
 10
57.4372580525
 20
47.2996722211
 30
0.0
 10
57.4579726938
 20
47.3104640056
 30
0.0
 10
57.4962052082
 20
47.3256055703
 30
0.0
 10
57.561563205
 20
47.3426955425
 30
0.0
 10
57.6615214459
 20
47.3625210408
 30
0.0
 10
57.7889410716
 20
47.3822669636
 30
0.0
 10
58.0097660514
 20
47.4108775257
 30
0.0
 10
58.4273440883
 20
47.453854666
 30
0.0
 10
59.0744423469
 20
47.5069751463
 30
0.0
 10
59.8931022128
 20
47.5651652517
 30
0.0
 10
60.61985511
 20
47.6139298989
 30
0.0
 10
61.2077565207
 20
47.6542701492
 30
0.0
 10
61.6305518896
 20
47.6843847566
 30
0.0
 10
62.0278881125
 20
47.7145112402
 30
0.0
 10
62.3917002885
 20
47.7445618965
 30
0.0
 10
62.7146591505
 20
47.7744390002
 30
0.0
 10
62.9895325386
 20
47.8041214121
 30
0.0
 10
63.1852100194
 20
47.8299257074
 30
0.0
 10
63.3123469391
 20
47.8516059929
 30
0.0
 10
63.3846094429
 20
47.8665127852
 30
0.0
 10
63.4410890448
 20
47.8813748274
 30
0.0
 10
63.4780848081
 20
47.8943366597
 30
0.0
 10
63.4994107222
 20
47.9055726646
 30
0.0
 10
63.5117783586
 20
47.9142300346
 30
0.0
 10
63.5184007258
 20
47.9234942303
 30
0.0
 10
63.5184253262
 20
47.9292554167
 30
0.0
  0
SPLINE
  5
34D
100
AcDbEntity
  8
0
100
AcDbSpline
 62
7
  6
BYLAYER
 70
0
 71
3
 72
20
 73
16
 74
0
 42
0.0000001
 43
0.0000001
 44
0.0000000001
 40
0.0
 40
0.0
 40
0.0
 40
0.0
 40
0.0080078325
 40
0.014918285
 40
0.0241066086
 40
0.0356732678
 40
0.0496343585
 40
0.0845211765
 40
0.1282522582
 40
0.1802477486
 40
0.3066175851
 40
0.4587258722
 40
0.6304701671
 40
0.8136890593
 40
1.0
 40
1.0
 40
1.0
 40
1.0
 10
57.423366408
 20
42.0797449776
 30
0.0
 10
57.4234172867
 20
42.0889937598
 30
0.0
 10
57.4395679525
 20
42.1025239443
 30
0.0
 10
57.4636584695
 20
42.1139015837
 30
0.0
 10
57.4941843859
 20
42.124862581
 30
0.0
 10
57.5327002645
 20
42.1354906805
 30
0.0
 10
57.600804709
 20
42.1510879331
 30
0.0
 10
57.7060992793
 20
42.1697208828
 30
0.0
 10
57.8554566355
 20
42.1911333496
 30
0.0
 10
58.1101363635
 20
42.2218620486
 30
0.0
 10
58.4900711425
 20
42.2588678022
 30
0.0
 10
59.0083335495
 20
42.3013946891
 30
0.0
 10
59.5924499438
 20
42.3439683987
 30
0.0
 10
60.2161459518
 20
42.3867688271
 30
0.0
 10
60.6419781767
 20
42.4155153793
 30
0.0
 10
60.8566616272
 20
42.4302169304
 30
0.0
  0
SPLINE
  5
34E
100
AcDbEntity
  8
0
100
AcDbSpline
 62
7
  6
BYLAYER
 70
0
 71
3
 72
9
 73
5
 74
0
 42
0.0000001
 43
0.0000001
 44
0.0000000001
 40
0.0
 40
0.0
 40
0.0
 40
0.0
 40
0.5348456221
 40
1.0
 40
1.0
 40
1.0
 40
1.0
 10
60.8566616272
 20
42.4302169304
 30
0.0
 10
61.1546825529
 20
42.4506254429
 30
0.0
 10
61.7118344495
 20
42.4895520044
 30
0.0
 10
62.2686522316
 20
42.5334690836
 30
0.0
 10
62.5273643993
 20
42.5571679328
 30
0.0
  0
SPLINE
  5
34F
100
AcDbEntity
  8
0
100
AcDbSpline
 62
7
  6
BYLAYER
 70
0
 71
3
 72
16
 73
12
 74
0
 42
0.0000001
 43
0.0000001
 44
0.0000000001
 40
0.0
 40
0.0
 40
0.0
 40
0.0
 40
0.4170710817
 40
0.586047492
 40
0.7266980953
 40
0.8383394226
 40
0.8831180872
 40
0.9204868372
 40
0.9504794397
 40
0.9732698498
 40
1.0
 40
1.0
 40
1.0
 40
1.0
 10
62.5273643993
 20
42.5571679328
 30
0.0
 10
62.6683134452
 20
42.5700793092
 30
0.0
 10
62.8662792215
 20
42.5894911836
 30
0.0
 10
63.1110205147
 20
42.6199308849
 30
0.0
 10
63.2524425226
 20
42.6410674153
 30
0.0
 10
63.3515682106
 20
42.6594950055
 30
0.0
 10
63.4155962095
 20
42.6748752866
 30
0.0
 10
63.4520405723
 20
42.6853653395
 30
0.0
 10
63.4811592174
 20
42.6961456028
 30
0.0
 10
63.5044059013
 20
42.7073977256
 30
0.0
 10
63.5200782269
 20
42.7206661724
 30
0.0
 10
63.5200984511
 20
42.7297374174
 30
0.0
  0
SPLINE
  5
350
100
AcDbEntity
  8
0
100
AcDbSpline
 62
7
  6
BYLAYER
 70
0
 71
3
 72
11
 73
7
 74
0
 42
0.0000001
 43
0.0000001
 44
0.0000000001
 40
0.0
 40
0.0
 40
0.0
 40
0.0
 40
0.269503131
 40
0.5281529338
 40
0.7701509482
 40
1.0
 40
1.0
 40
1.0
 40
1.0
 10
57.905488088
 20
57.7971939137
 30
0.0
 10
57.9054883198
 20
57.7196518812
 30
0.0
 10
57.9315185813
 20
57.566774126
 30
0.0
 10
58.0388594926
 20
57.3674817677
 30
0.0
 10
58.2069791621
 20
57.2318279942
 30
0.0
 10
58.3440494459
 20
57.1971981556
 30
0.0
 10
58.4101821196
 20
57.1971959308
 30
0.0
  0
SPLINE
  5
351
100
AcDbEntity
  8
0
100
AcDbSpline
 62
7
  6
BYLAYER
 70
0
 71
3
 72
22
 73
18
 74
0
 42
0.0000001
 43
0.0000001
 44
0.0000000001
 40
0.0
 40
0.0
 40
0.0
 40
0.0
 40
0.0033094299
 40
0.0083025892
 40
0.0155300058
 40
0.0251354978
 40
0.037153473
 40
0.0515809994
 40
0.0875800783
 40
0.1329138099
 40
0.1872570657
 40
0.2497881237
 40
0.3194311966
 40
0.475717681
 40
0.6474234256
 40
0.8254811756
 40
1.0
 40
1.0
 40
1.0
 40
1.0
 10
57.4220999705
 20
52.4783223387
 30
0.0
 10
57.4221226331
 20
52.4828114621
 30
0.0
 10
57.4282773121
 20
52.4935431064
 30
0.0
 10
57.4461003239
 20
52.504955845
 30
0.0
 10
57.4732461195
 20
52.516993782
 30
0.0
 10
57.5105778022
 20
52.528875592
 30
0.0
 10
57.5579745579
 20
52.5409799345
 30
0.0
 10
57.6408748663
 20
52.5584620524
 30
0.0
 10
57.769103802
 20
52.5795211168
 30
0.0
 10
57.9515756604
 20
52.6036038877
 30
0.0
 10
58.1702960134
 20
52.6277180315
 30
0.0
 10
58.4221443596
 20
52.6519529187
 30
0.0
 10
58.8119830688
 20
52.68569234
 30
0.0
 10
59.3498150121
 20
52.7267272908
 30
0.0
 10
60.0345907358
 20
52.7746128688
 30
0.0
 10
60.744156643
 20
52.8224886843
 30
0.0
 10
61.2212948114
 20
52.8552968617
 30
0.0
 10
61.4574219335
 20
52.8722030174
 30
0.0
  0
SPLINE
  5
352
100
AcDbEntity
  8
0
100
AcDbSpline
 62
7
  6
BYLAYER
 70
0
 71
3
 72
21
 73
17
 74
0
 42
0.0000001
 43
0.0000001
 44
0.0000000001
 40
0.0
 40
0.0
 40
0.0
 40
0.0
 40
0.0014710898
 40
0.0054741685
 40
0.0119874412
 40
0.0209873361
 40
0.0463517459
 40
0.0813330056
 40
0.1254581693
 40
0.1781731682
 40
0.2389043382
 40
0.306893573
 40
0.4612045959
 40
0.6338121195
 40
0.8165796792
 40
1.0
 40
1.0
 40
1.0
 40
1.0
 10
59.8710898987
 20
62.2971994004
 30
0.0
 10
59.8713926372
 20
62.2973758479
 30
0.0
 10
59.8727999738
 20
62.2971357229
 30
0.0
 10
59.875560062
 20
62.2974533814
 30
0.0
 10
59.8802604594
 20
62.2973535791
 30
0.0
 10
59.8899663367
 20
62.2974870953
 30
0.0
 10
59.9065067652
 20
62.2974216125
 30
0.0
 10
59.9313803179
 20
62.297364404
 30
0.0
 10
59.9627833103
 20
62.2972303838
 30
0.0
 10
60.0003144267
 20
62.2971300107
 30
0.0
 10
60.0435318796
 20
62.2971064446
 30
0.0
 10
60.1109482626
 20
62.2971634941
 30
0.0
 10
60.2050133014
 20
62.2972512166
 30
0.0
 10
60.3264178165
 20
62.2971913866
 30
0.0
 10
60.4547560546
 20
62.2971731076
 30
0.0
 10
60.5419800786
 20
62.2971886225
 30
0.0
 10
60.5856698336
 20
62.297193867
 30
0.0
  0
LINE
  5
353
100
AcDbEntity
  8
0
100
AcDbLine
 62
7
  6
BYLAYER
 10
60.7295784346
 20
52.1249847025
 11
60.2155063121
 21
52.1827508212
  0
SPLINE
  5
354
100
AcDbEntity
  8
0
100
AcDbSpline
 62
7
  6
BYLAYER
 70
0
 71
3
 72
15
 73
11
 74
0
 42
0.0000001
 43
0.0000001
 44
0.0000000001
 40
0.0
 40
0.0
 40
0.0
 40
0.0
 40
0.0298182986
 40
0.0533136342
 40
0.0838503427
 40
0.1668331651
 40
0.2789621856
 40
0.4194372457
 40
0.5872096641
 40
1.0
 40
1.0
 40
1.0
 40
1.0
 10
57.4218270442
 20
38.1797261041
 30
0.0
 10
57.4218529783
 20
38.1864751983
 30
0.0
 10
57.4312016697
 20
38.1970948058
 30
0.0
 10
57.4471585744
 20
38.2064596133
 30
0.0
 10
57.475763721
 20
38.2191618702
 30
0.0
 10
57.524735472
 20
38.2335973773
 30
0.0
 10
57.5989019169
 20
38.2503090964
 30
0.0
 10
57.6925737348
 20
38.267052488
 30
0.0
 10
57.8539786617
 20
38.2913207301
 30
0.0
 10
57.9844916828
 20
38.3068477788
 30
0.0
 10
58.07736202
 20
38.3170765336
 30
0.0
  0
SPLINE
  5
355
100
AcDbEntity
  8
0
100
AcDbSpline
 62
7
  6
BYLAYER
 70
0
 71
3
 72
23
 73
19
 74
0
 42
0.0000001
 43
0.0000001
 44
0.0000000001
 40
0.0
 40
0.0
 40
0.0
 40
0.0
 40
0.1314307892
 40
0.2899349543
 40
0.4604380808
 40
0.5454269142
 40
0.6277831561
 40
0.7057053508
 40
0.7773939356
 40
0.8410530929
 40
0.8950273746
 40
0.9383941304
 40
0.9705061901
 40
0.9821707971
 40
0.9908543721
 40
0.9940946209
 40
0.9966358429
 40
1.0
 40
1.0
 40
1.0
 40
1.0
 10
58.1863101353
 20
38.328673492
 30
0.0
 10
58.4204497552
 20
38.352796819
 30
0.0
 10
58.9378968348
 20
38.3966707689
 30
0.0
 10
59.7603505248
 20
38.4559690452
 30
0.0
 10
60.5000998591
 20
38.5058446128
 30
0.0
 10
61.1037399773
 20
38.5471397143
 30
0.0
 10
61.5419003417
 20
38.5780506918
 30
0.0
 10
61.9561834382
 20
38.6089017609
 30
0.0
 10
62.3368941712
 20
38.6396436137
 30
0.0
 10
62.6745710803
 20
38.6702296265
 30
0.0
 10
62.9613274283
 20
38.7006643582
 30
0.0
 10
63.1911744106
 20
38.7309761075
 30
0.0
 10
63.3451423202
 20
38.7572819648
 30
0.0
 10
63.436361918
 20
38.7800735371
 30
0.0
 10
63.476503829
 20
38.7933141624
 30
0.0
 10
63.4999424249
 20
38.804834529
 30
0.0
 10
63.5134069134
 20
38.8135529512
 30
0.0
 10
63.5210360099
 20
38.8231104432
 30
0.0
 10
63.5210589794
 20
38.8291352593
 30
0.0
  0
SPLINE
  5
356
100
AcDbEntity
  8
0
100
AcDbSpline
 62
7
  6
BYLAYER
 70
0
 71
3
 72
32
 73
28
 74
0
 42
0.0000001
 43
0.0000001
 44
0.0000000001
 40
0.0
 40
0.0
 40
0.0
 40
0.0
 40
0.0041188716
 40
0.0076147748
 40
0.012207899
 40
0.0179161216
 40
0.0247350014
 40
0.0416426271
 40
0.062775967
 40
0.0879490927
 40
0.1496212097
 40
0.2248991204
 40
0.3108217479
 40
0.4038313154
 40
0.5003599461
 40
0.5968449883
 40
0.6897646805
 40
0.7756135061
 40
0.8508916674
 40
0.9124651942
 40
0.9375358255
 40
0.9585568408
 40
0.9753615848
 40
0.9878107922
 40
0.9923833933
 40
0.9958724035
 40
1.0
 40
1.0
 40
1.0
 40
1.0
 10
57.4214505841
 20
51.1796525228
 30
0.0
 10
57.421495162
 20
51.1881106677
 30
0.0
 10
57.4357627452
 20
51.200645524
 30
0.0
 10
57.4573715674
 20
51.2112262948
 30
0.0
 10
57.4842567615
 20
51.2213604006
 30
0.0
 10
57.5178854019
 20
51.231220165
 30
0.0
 10
57.5766585661
 20
51.2456491892
 30
0.0
 10
57.6671524623
 20
51.2629460033
 30
0.0
 10
57.7954613899
 20
51.2828104971
 30
0.0
 10
58.0153617997
 20
51.3113862054
 30
0.0
 10
58.3465495704
 20
51.3457956471
 30
0.0
 10
58.8025440607
 20
51.3850803175
 30
0.0
 10
59.3230831152
 20
51.4246007579
 30
0.0
 10
59.8873555489
 20
51.4643394064
 30
0.0
 10
60.4733645157
 20
51.5041551292
 30
0.0
 10
61.0591876686
 20
51.5439805058
 30
0.0
 10
61.6230332552
 20
51.5837290473
 30
0.0
 10
62.1432324625
 20
51.6232709119
 30
0.0
 10
62.5988802144
 20
51.6625147532
 30
0.0
 10
62.9296465336
 20
51.6968802849
 30
0.0
 10
63.1489097881
 20
51.7255318145
 30
0.0
 10
63.2765238586
 20
51.7453033012
 30
0.0
 10
63.3780110633
 20
51.7650689863
 30
0.0
 10
63.4451597607
 20
51.7820469382
 30
0.0
 10
63.4850832371
 20
51.7971015447
 30
0.0
 10
63.5066132597
 20
51.8077280575
 30
0.0
 10
63.5209801377
 20
51.8202012473
 30
0.0
 10
63.5210148639
 20
51.8286773554
 30
0.0
  0
SPLINE
  5
357
100
AcDbEntity
  8
0
100
AcDbSpline
 62
7
  6
BYLAYER
 70
0
 71
3
 72
15
 73
11
 74
0
 42
0.0000001
 43
0.0000001
 44
0.0000000001
 40
0.0
 40
0.0
 40
0.0
 40
0.0
 40
0.1302263001
 40
0.260283802
 40
0.3897121793
 40
0.5180444295
 40
0.6445081122
 40
0.7681392204
 40
0.8874790394
 40
1.0
 40
1.0
 40
1.0
 40
1.0
 10
60.5856698324
 20
62.297193867
 30
0.0
 10
60.5858603996
 20
62.1477142683
 30
0.0
 10
60.5409624676
 20
61.847494884
 30
0.0
 10
60.3623726105
 20
61.4335924947
 30
0.0
 10
60.1119228727
 20
61.0633774035
 30
0.0
 10
59.818967799
 20
60.732639609
 30
0.0
 10
59.5038083899
 20
60.4332371573
 30
0.0
 10
59.180870159
 20
60.1582139984
 30
0.0
 10
58.8618523391
 20
59.9037647887
 30
0.0
 10
58.6528059146
 20
59.7390350425
 30
0.0
 10
58.5526519161
 20
59.6574836186
 30
0.0
  0
SPLINE
  5
358
100
AcDbEntity
  8
0
100
AcDbSpline
 62
7
  6
BYLAYER
 70
0
 71
3
 72
16
 73
12
 74
0
 42
0.0000001
 43
0.0000001
 44
0.0000000001
 40
0.0
 40
0.0
 40
0.0
 40
0.0
 40
0.2182380296
 40
0.4136449232
 40
0.5840424457
 40
0.7280715637
 40
0.9293970538
 40
0.9599933638
 40
0.9821369396
 40
0.995563129
 40
1.0
 40
1.0
 40
1.0
 40
1.0
 10
58.373637881
 20
59.5082228046
 30
0.0
 10
58.3191416949
 20
59.4615335312
 30
0.0
 10
58.2169890102
 20
59.371637011
 30
0.0
 10
58.0785461027
 20
59.2385731928
 30
0.0
 10
57.9632146651
 20
59.1164171214
 30
0.0
 10
57.8527107837
 20
58.989060165
 30
0.0
 10
57.7741166205
 20
58.8890056423
 30
0.0
 10
57.7283015287
 20
58.823806112
 30
0.0
 10
57.7137734562
 20
58.8027515492
 30
0.0
 10
57.710670739
 20
58.7972466264
 30
0.0
 10
57.7032518653
 20
58.7866017798
 30
0.0
 10
57.7042353056
 20
58.7876794437
 30
0.0
  0
LINE
  5
359
100
AcDbEntity
  8
0
100
AcDbLine
 62
7
  6
BYLAYER
 10
60.7265719252
 20
50.8252883571
 11
60.2127041004
 21
50.883008962
  0
SPLINE
  5
35A
100
AcDbEntity
  8
0
100
AcDbSpline
 62
7
  6
BYLAYER
 70
0
 71
3
 72
13
 73
9
 74
0
 42
0.0000001
 43
0.0000001
 44
0.0000000001
 40
0.0
 40
0.0
 40
0.0
 40
0.0
 40
0.3443001161
 40
0.5027472677
 40
0.6448146033
 40
0.7660755117
 40
0.8650083102
 40
1.0
 40
1.0
 40
1.0
 40
1.0
 10
61.4574287785
 20
52.8721938911
 30
0.0
 10
61.457428366
 20
52.7968562131
 30
0.0
 10
61.4507036115
 20
52.6866613653
 30
0.0
 10
61.4276863197
 20
52.5472955416
 30
0.0
 10
61.4054717539
 20
52.4577619971
 30
0.0
 10
61.3772996398
 20
52.3828144551
 30
0.0
 10
61.3408886989
 20
52.3160080426
 30
0.0
 10
61.2981036889
 20
52.2750470153
 30
0.0
 10
61.2686810482
 20
52.2724382395
 30
0.0
  0
SPLINE
  5
35B
100
AcDbEntity
  8
0
100
AcDbSpline
 62
7
  6
BYLAYER
 70
0
 71
3
 72
32
 73
28
 74
0
 42
0.0000001
 43
0.0000001
 44
0.0000000001
 40
0.0
 40
0.0
 40
0.0
 40
0.0
 40
0.0040587121
 40
0.0074375818
 40
0.0118885537
 40
0.0174628477
 40
0.0241889088
 40
0.0410921732
 40
0.0624058134
 40
0.0878583936
 40
0.150038604
 40
0.2253121978
 40
0.3112498688
 40
0.404586687
 40
0.5015398119
 40
0.5983163955
 40
0.6911839613
 40
0.7768335641
 40
0.8521413509
 40
0.9139971286
 40
0.9389558317
 40
0.9596750855
 40
0.97608606
 40
0.9881488159
 40
0.9925631961
 40
0.9959352446
 40
1.0
 40
1.0
 40
1.0
 40
1.0
 10
57.4237634626
 20
49.8795704704
 30
0.0
 10
57.4238107172
 20
49.8879016507
 30
0.0
 10
57.4371792314
 20
49.9004828987
 30
0.0
 10
57.458109574
 20
49.9112294678
 30
0.0
 10
57.4840639619
 20
49.9213882383
 30
0.0
 10
57.5168965017
 20
49.9312818194
 30
0.0
 10
57.5751298474
 20
49.9457987422
 30
0.0
 10
57.6657714343
 20
49.9630824001
 30
0.0
 10
57.7949715594
 20
49.9829341864
 30
0.0
 10
58.0167891166
 20
50.0114799726
 30
0.0
 10
58.3494594904
 20
50.0458208379
 30
0.0
 10
58.806309862
 20
50.0853930968
 30
0.0
 10
59.3273231012
 20
50.1250225704
 30
0.0
 10
59.8929405177
 20
50.1647758869
 30
0.0
 10
60.4808530747
 20
50.204622886
 30
0.0
 10
61.0678006005
 20
50.2444644196
 30
0.0
 10
61.6314890044
 20
50.2843262704
 30
0.0
 10
62.1510083911
 20
50.3240103352
 30
0.0
 10
62.6066811957
 20
50.3634311215
 30
0.0
 10
62.9377514891
 20
50.3975641974
 30
0.0
 10
63.1566371948
 20
50.4263148203
 30
0.0
 10
63.282523653
 20
50.4461318102
 30
0.0
 10
63.3816759883
 20
50.4659424132
 30
0.0
 10
63.4468429723
 20
50.4830019234
 30
0.0
 10
63.4852082818
 20
50.4981066141
 30
0.0
 10
63.5060320037
 20
50.508866776
 30
0.0
 10
63.5194833313
 20
50.5214008522
 30
0.0
 10
63.5195136785
 20
50.5297445164
 30
0.0
  0
SPLINE
  5
35C
100
AcDbEntity
  8
0
100
AcDbSpline
 62
7
  6
BYLAYER
 70
0
 71
3
 72
14
 73
10
 74
0
 42
0.0000001
 43
0.0000001
 44
0.0000000001
 40
0.0
 40
0.0
 40
0.0
 40
0.0
 40
0.0912808037
 40
0.2044680889
 40
0.3340812932
 40
0.4742985398
 40
0.7582112226
 40
0.8874746495
 40
1.0
 40
1.0
 40
1.0
 40
1.0
 10
57.9054880823
 20
57.7971948799
 30
0.0
 10
58.0484639055
 20
57.8150743421
 30
0.0
 10
58.3695463252
 20
57.8484286802
 30
0.0
 10
58.8948917776
 20
57.894425543
 30
0.0
 10
59.4976544777
 20
57.9416972826
 30
0.0
 10
60.3693555119
 20
58.0063579213
 30
0.0
 10
61.2405882032
 20
58.070130256
 30
0.0
 10
62.0674652857
 20
58.14022773
 30
0.0
 10
62.4473314581
 20
58.1775991192
 30
0.0
 10
62.6238557651
 20
58.1973387577
 30
0.0
  0
SPLINE
  5
35D
100
AcDbEntity
  8
0
100
AcDbSpline
 62
7
  6
BYLAYER
 70
0
 71
3
 72
15
 73
11
 74
0
 42
0.0000001
 43
0.0000001
 44
0.0000000001
 40
0.0
 40
0.0
 40
0.0
 40
0.0
 40
0.4137076153
 40
0.582251973
 40
0.7223960407
 40
0.8331668705
 40
0.9148220456
 40
0.9450735367
 40
0.968709438
 40
1.0
 40
1.0
 40
1.0
 40
1.0
 10
62.6238557651
 20
58.1973387577
 30
0.0
 10
62.7514026264
 20
58.2116015467
 30
0.0
 10
62.9307730855
 20
58.2332496141
 30
0.0
 10
63.1522846706
 20
58.2673908537
 30
0.0
 10
63.2802431695
 20
58.2911967951
 30
0.0
 10
63.380661677
 20
58.3152147053
 30
0.0
 10
63.4465236211
 20
58.3362337748
 30
0.0
 10
63.4846786971
 20
58.3546960309
 30
0.0
 10
63.5064797886
 20
58.3686771662
 30
0.0
 10
63.518693098
 20
58.3841303613
 30
0.0
 10
63.5187311473
 20
58.3938373559
 30
0.0
  0
SPLINE
  5
35E
100
AcDbEntity
  8
0
100
AcDbSpline
 62
7
  6
BYLAYER
 70
0
 71
3
 72
32
 73
28
 74
0
 42
0.0000001
 43
0.0000001
 44
0.0000000001
 40
0.0
 40
0.0
 40
0.0
 40
0.0
 40
0.0040556142
 40
0.0074107701
 40
0.0118058038
 40
0.0238413409
 40
0.0402711261
 40
0.0610912064
 40
0.0862351946
 40
0.1482929253
 40
0.2236193753
 40
0.3092740578
 40
0.4022772799
 40
0.4991917402
 40
0.5962011764
 40
0.6894777892
 40
0.7752691416
 40
0.8505604071
 40
0.9127707533
 40
0.9381743851
 40
0.9593602996
 40
0.976049367
 40
0.9826826631
 40
0.9881911632
 40
0.9925989622
 40
0.9959529528
 40
1.0
 40
1.0
 40
1.0
 40
1.0
 10
57.4234912773
 20
48.5784768557
 30
0.0
 10
57.4235351305
 20
48.5868004742
 30
0.0
 10
57.436825059
 20
48.599345498
 30
0.0
 10
57.4575569029
 20
48.6101309044
 30
0.0
 10
57.4957566848
 20
48.6252542183
 30
0.0
 10
57.5608608723
 20
48.6423338286
 30
0.0
 10
57.660186151
 20
48.6621553439
 30
0.0
 10
57.7866900542
 20
48.6819683598
 30
0.0
 10
58.0065663641
 20
48.7106113206
 30
0.0
 10
58.3384164104
 20
48.7448034607
 30
0.0
 10
58.7944830612
 20
48.784277154
 30
0.0
 10
59.3142497336
 20
48.8240134075
 30
0.0
 10
59.878430228
 20
48.8638503056
 30
0.0
 10
60.4659696842
 20
48.903692331
 30
0.0
 10
61.0540706817
 20
48.9435472741
 30
0.0
 10
61.6192953794
 20
48.9833066826
 30
0.0
 10
62.1398362612
 20
49.0230257532
 30
0.0
 10
62.5964169226
 20
49.0625793883
 30
0.0
 10
62.9290407722
 20
49.0968789103
 30
0.0
 10
63.1505203031
 20
49.1254398094
 30
0.0
 10
63.2788958954
 20
49.1452560613
 30
0.0
 10
63.3686057506
 20
49.1626088829
 30
0.0
 10
63.4260324843
 20
49.1771542429
 30
0.0
 10
63.4584288431
 20
49.1870521113
 30
0.0
 10
63.4840748659
 20
49.1972126554
 30
0.0
 10
63.5048250762
 20
49.207981584
 30
0.0
 10
63.5180381884
 20
49.2205668792
 30
0.0
 10
63.5180662707
 20
49.228872983
 30
0.0
  0
ENDSEC
  0
SECTION
  2
OBJECTS
  0
DICTIONARY
  5
C
100
AcDbDictionary
280
0
281
1
  3
ACAD_GROUP
350
D
  3
ACAD_MLINESTYLE
350
17
  3
ACAD_LAYOUT
350
1A
  3
ACAD_PLOTSETTINGS
350
19
  3
ACAD_PLOTSTYLENAME
350
E
  0
DICTIONARY
  5
D
102
{ACAD_REACTORS
330
C
102
}
100
AcDbDictionary
280
0
281
1
  0
ACDBDICTIONARYWDFLT
  5
E
102
{ACAD_REACTORS
330
C
102
}
100
AcDbDictionary
281
1
  3
Normal
350
F
100
AcDbDictionaryWithDefault
340
F
  0
DICTIONARY
  5
17
102
{ACAD_REACTORS
330
C
102
}
100
AcDbDictionary
280
0
281
1
  3
Standard
350
18
  0
DICTIONARY
  5
19
102
{ACAD_REACTORS
330
C
102
}
100
AcDbDictionary
281
1
  0
DICTIONARY
  5
1A
102
{ACAD_REACTORS
330
C
102
}
100
AcDbDictionary
281
1
  3
Model
350
35F
  3
Layout1
350
360
  0
ACDBPLACEHOLDER
  5
F
102
{ACAD_REACTORS
330
E
102
}
  0
MLINESTYLE
  5
18
102
{ACAD_REACTORS
330
17
102
}
100
AcDbMlineStyle
  2
STANDARD
 70
0
  3

 62
256
 51
90.0
 52
90.0
 71
2
 49
0.5
 62
256
  6
BYLAYER
 49
-0.5
 62
256
  6
BYLAYER
  0
LAYOUT
  5
35F
102
{ACAD_REACTORS
330
1A
102
}
100
AcDbPlotSettings
  1

  2
none_device
  4

  6

 40
0.0
 41
0.0
 42
0.0
 43
0.0
 44
210.0
 45
297.0
 46
0.0
 47
0.0
 48
0.0
 49
0.0
140
0.0
141
0.0
142
1.0
143
1.0
 70
1024
 72
1
 73
0
 74
0
  7

 75
0
147
1.0
148
0.0
149
0.0
100
AcDbLayout
  1
Model
 70
0
 71
0
 10
0.0
 20
0.0
 11
210.0
 21
297.0
 12
0.0
 22
0.0
 32
0.0
 14
0.0
 24
0.0
 34
0.0
 15
0.0
 25
0.0
 35
0.0
146
0.0
 13
0.0
 23
0.0
 33
0.0
 16
1.0
 26
0.0
 36
0.0
 17
0.0
 27
1.0
 37
0.0
 76
0
330
210
345
0
346
0
  0
LAYOUT
  5
360
102
{ACAD_REACTORS
330
1A
102
}
100
AcDbPlotSettings
  1

  2
none_device
  4

  6

 40
0.0
 41
0.0
 42
0.0
 43
0.0
 44
210.0
 45
297.0
 46
0.0
 47
0.0
 48
0.0
 49
0.0
140
0.0
141
0.0
142
1.0
143
1.0
 70
0
 72
1
 73
0
 74
0
  7

 75
0
147
1.0
148
0.0
149
0.0
100
AcDbLayout
  1
Layout1
 70
0
 71
1
 10
0.0
 20
0.0
 11
210.0
 21
297.0
 12
0.0
 22
0.0
 32
0.0
 14
0.0
 24
0.0
 34
0.0
 15
0.0
 25
0.0
 35
0.0
146
0.0
 13
0.0
 23
0.0
 33
0.0
 16
1.0
 26
0.0
 36
0.0
 17
0.0
 27
1.0
 37
0.0
 76
0
330
211
345
0
346
0
  0
ENDSEC
  0
EOF
