999
DXF file: C:\Users\sesa63760\Dev\_Creo\CAD\MCADID0004779_3D-CAD\drw0001_1.dxf
999
Pro/ENGINEER 2019471 by Parametric Technology Corporation
  0
SECTION
  2
HEADER
  9
$ACADVER
  1
AC1024
  9
$DWGCODEPAGE
  3
ANSI_1252
  9
$EXTMAX
 10
57.9781477805
 20
81.9976661467
 30
0.0
  9
$EXTMIN
 10
0.0
 20
0.0
 30
0.0
  9
$LIMMIN
 10
0.0
 20
0.0
  9
$LIMMAX
 10
57.9781477805
 20
81.9976661467
  9
$VIEWCTR
 10
28.9890738903
 20
40.9988330734
  9
$VIEWSIZE
 40
81.9976661467
  9
$CLAYER
  8
0
  9
$LTSCALE
 40
5.3450330525
  9
$CELTYPE
  6
BYLAYER
  9
$DIMSCALE
 40
1.0
  9
$DIMASZ
 40
0.690216045
  9
$DIMEXO
 40
1.0
  9
$DIMDLI
 40
3.6929319272
  9
$DIMEXE
 40
1.0
  9
$DIMCEN
 40
0.8746417722
  9
$DIMLFAC
 40
1.0
  9
$DIMBLK
  1
_FILLED
  9
$DIMALT
 70
0
  9
$DIMALTF
 40
0.0393700787
  9
$DIMTXT
 40
0.966302463
  9
$DIMTOL
 70
1
  9
$DIMLIM
 70
0
  9
$DIMTFAC
 40
1.0
  9
$DIMTP
 40
0.01
  9
$DIMTM
 40
0.01
  9
$DIMGAP
 40
0.625
  9
$DIMDSEP
 70
46
  9
$AUNITS
 70
0
  9
$PDMODE
 70
3
  9
$PDSIZE
 40
0.3125
  9
$HANDSEED
  5
2D0
  9
$TILEMODE
 70
1
  9
$MEASUREMENT
 70
1
  9
$INSUNITS
 70
4
  0
ENDSEC
  0
SECTION
  2
CLASSES
  0
CLASS
  1
ACDBDICTIONARYWDFLT
  2
AcDbDictionaryWithDefault
  3
AutoCAD 2000
 90
0
 91
1
280
0
281
0
  0
CLASS
  1
ACDBPLACEHOLDER
  2
AcDbPlaceHolder
  3
AutoCAD 2000
 90
0
 91
1
280
0
281
0
  0
CLASS
  1
LAYOUT
  2
AcDbLayout
  3
AutoCAD 2000
 90
0
 91
0
280
0
281
0
  0
ENDSEC
  0
SECTION
  2
TABLES
  0
TABLE
  2
VPORT
  5
8
100
AcDbSymbolTable
 70
2
  0
VPORT
  5
1F4
100
AcDbSymbolTableRecord
100
AcDbViewportTableRecord
  2
*ACTIVE
 70
0
 10
0.0
 20
0.0
 11
1.0
 21
1.0
 12
28.9890738903
 22
40.9988330734
 13
0.0
 23
0.0
 14
1.0
 24
1.0
 15
0.0
 25
0.0
 16
0.0
 26
0.0
 36
1.0
 17
0.0
 27
0.0
 37
0.0
 40
81.9976661467
 41
0.7070707071
 42
50.0
 43
0.0
 44
0.0
 50
0.0
 51
0.0
 71
0
 72
100
 73
1
 74
1
 75
0
 76
0
 77
0
 78
0
  0
ENDTAB
  0
TABLE
  2
LTYPE
  5
5
100
AcDbSymbolTable
 70
6
  0
LTYPE
  5
14
100
AcDbSymbolTableRecord
100
AcDbLinetypeTableRecord
  2
BYBLOCK
 70
0
  3

 72
65
 73
0
 40
0.0
  0
LTYPE
  5
15
100
AcDbSymbolTableRecord
100
AcDbLinetypeTableRecord
  2
BYLAYER
 70
0
  3

 72
65
 73
0
 40
0.0
  0
LTYPE
  5
16
100
AcDbSymbolTableRecord
100
AcDbLinetypeTableRecord
  2
CONTINUOUS
 70
64
  3
Solid line
 72
65
 73
0
 40
0.0
  0
LTYPE
  5
1F5
100
AcDbSymbolTableRecord
100
AcDbLinetypeTableRecord
  2
CENTER
 70
64
  3
____ _ ____ _ ____ _ ____ _ ____ _ ____ _ ____
 72
65
 73
4
 40
0.6
 49
0.375
 74
0
 49
-0.075
 74
0
 49
0.075
 74
0
 49
-0.075
 74
0
  0
LTYPE
  5
1F6
100
AcDbSymbolTableRecord
100
AcDbLinetypeTableRecord
  2
HIDDEN
 70
64
  3
- - - - - - - - - - - - - - - - - - - -
 72
65
 73
2
 40
0.2
 49
0.1
 74
0
 49
-0.1
 74
0
  0
LTYPE
  5
1F7
100
AcDbSymbolTableRecord
100
AcDbLinetypeTableRecord
  2
PHANTOM
 70
64
  3
_____ _ _ _____ _ _ _____ _ _ _____
 72
65
 73
6
 40
0.8
 49
0.45
 74
0
 49
-0.05
 74
0
 49
0.1
 74
0
 49
-0.05
 74
0
 49
0.1
 74
0
 49
-0.05
 74
0
  0
LTYPE
  5
1F8
100
AcDbSymbolTableRecord
100
AcDbLinetypeTableRecord
  2
DOT
 70
64
  3
. . . . . . . . . . . . . . . . . . . .
 72
65
 73
2
 40
0.2
 49
0.1
 74
0
 49
-0.1
 74
0
  0
LTYPE
  5
1F9
100
AcDbSymbolTableRecord
100
AcDbLinetypeTableRecord
  2
DASHED
 70
64
  3
- - - - - - - - - - - - - - - - - - - -
 72
65
 73
2
 40
0.2
 49
0.1
 74
0
 49
-0.1
 74
0
  0
ENDTAB
  0
TABLE
  2
LAYER
  5
2
100
AcDbSymbolTable
 70
36
  0
LAYER
  5
10
100
AcDbSymbolTableRecord
100
AcDbLayerTableRecord
  2
0
 70
0
 62
7
  6
CONTINUOUS
370
-3
390
F
  0
LAYER
  5
1FA
100
AcDbSymbolTableRecord
100
AcDbLayerTableRecord
  2
DEFAULT_1
 70
0
 62
7
  6
CENTER
370
-3
390
F
  0
LAYER
  5
1FB
100
AcDbSymbolTableRecord
100
AcDbLayerTableRecord
  2
DEFAULT_2
 70
0
 62
7
  6
HIDDEN
370
-3
390
F
  0
LAYER
  5
1FC
100
AcDbSymbolTableRecord
100
AcDbLayerTableRecord
  2
DEFAULT_3
 70
0
 62
7
  6
PHANTOM
370
-3
390
F
  0
LAYER
  5
1FD
100
AcDbSymbolTableRecord
100
AcDbLayerTableRecord
  2
00_COMPONENTS
 70
0
 62
7
  6
CONTINUOUS
370
-3
390
F
  0
LAYER
  5
1FE
100
AcDbSymbolTableRecord
100
AcDbLayerTableRecord
  2
01_1_DEFAULT_DATUMS
 70
0
 62
7
  6
CONTINUOUS
370
-3
390
F
  0
LAYER
  5
1FF
100
AcDbSymbolTableRecord
100
AcDbLayerTableRecord
  2
01_PLANES
 70
0
 62
7
  6
CONTINUOUS
370
-3
390
F
  0
LAYER
  5
200
100
AcDbSymbolTableRecord
100
AcDbLayerTableRecord
  2
02_COORD_SYS
 70
0
 62
7
  6
CONTINUOUS
370
-3
390
F
  0
LAYER
  5
201
100
AcDbSymbolTableRecord
100
AcDbLayerTableRecord
  2
03_AXES
 70
0
 62
7
  6
CONTINUOUS
370
-3
390
F
  0
LAYER
  5
202
100
AcDbSymbolTableRecord
100
AcDbLayerTableRecord
  2
04_POINTS
 70
0
 62
7
  6
CONTINUOUS
370
-3
390
F
  0
LAYER
  5
203
100
AcDbSymbolTableRecord
100
AcDbLayerTableRecord
  2
05_CURVES
 70
0
 62
7
  6
CONTINUOUS
370
-3
390
F
  0
LAYER
  5
204
100
AcDbSymbolTableRecord
100
AcDbLayerTableRecord
  2
06_SURFS
 70
0
 62
7
  6
CONTINUOUS
370
-3
390
F
  0
LAYER
  5
205
100
AcDbSymbolTableRecord
100
AcDbLayerTableRecord
  2
07_COSMETICS
 70
0
 62
7
  6
CONTINUOUS
370
-3
390
F
  0
LAYER
  5
206
100
AcDbSymbolTableRecord
100
AcDbLayerTableRecord
  2
10_NOTES
 70
0
 62
7
  6
CONTINUOUS
370
-3
390
F
  0
LAYER
  5
207
100
AcDbSymbolTableRecord
100
AcDbLayerTableRecord
  2
11_NOTES_PUB
 70
0
 62
7
  6
CONTINUOUS
370
-3
390
F
  0
LAYER
  5
208
100
AcDbSymbolTableRecord
100
AcDbLayerTableRecord
  2
13_REF_GTOL
 70
0
 62
7
  6
CONTINUOUS
370
-3
390
F
  0
LAYER
  5
209
100
AcDbSymbolTableRecord
100
AcDbLayerTableRecord
  2
16_MISC
 70
0
 62
7
  6
CONTINUOUS
370
-3
390
F
  0
LAYER
  5
20A
100
AcDbSymbolTableRecord
100
AcDbLayerTableRecord
  2
17_NO_PRINT
 70
0
 62
7
  6
CONTINUOUS
370
-3
390
F
  0
LAYER
  5
20B
100
AcDbSymbolTableRecord
100
AcDbLayerTableRecord
  2
18_DATUM_CAMS_JOINTS
 70
0
 62
7
  6
CONTINUOUS
370
-3
390
F
  0
LAYER
  5
20C
100
AcDbSymbolTableRecord
100
AcDbLayerTableRecord
  2
19_DATUM_FUNCTIONAL
 70
0
 62
7
  6
CONTINUOUS
370
-3
390
F
  0
LAYER
  5
20D
100
AcDbSymbolTableRecord
100
AcDbLayerTableRecord
  2
20_DATUM_KINEMATIC_SCHEME
 70
0
 62
7
  6
CONTINUOUS
370
-3
390
F
  0
ENDTAB
  0
TABLE
  2
STYLE
  5
3
100
AcDbSymbolTable
 70
1
  0
STYLE
  5
11
100
AcDbSymbolTableRecord
100
AcDbTextStyleTableRecord
  2
STANDARD
 70
0
 40
0.0
 41
1.0
 50
0.0
 71
0
 42
0.2
  3
ARIAL.TTF
  4

  0
STYLE
  5
20E
100
AcDbSymbolTableRecord
100
AcDbTextStyleTableRecord
  2
TEXTSTYLE_1
 70
0
 40
0.0
 41
0.8
 50
0.0
 71
0
 42
0.2
  3
gdt
  4

  0
ENDTAB
  0
TABLE
  2
VIEW
  5
6
100
AcDbSymbolTable
 70
0
  0
ENDTAB
  0
TABLE
  2
UCS
  5
7
100
AcDbSymbolTable
 70
0
  0
ENDTAB
  0
TABLE
  2
APPID
  5
9
100
AcDbSymbolTable
 70
1
  0
APPID
  5
20F
100
AcDbSymbolTableRecord
100
AcDbRegAppTableRecord
  2
ACAD
 70
0
  0
ENDTAB
  0
TABLE
  2
BLOCK_RECORD
  5
1
100
AcDbSymbolTable
 70
0
  0
BLOCK_RECORD
  5
210
100
AcDbSymbolTableRecord
100
AcDbBlockTableRecord
  2
*Model_Space
  0
BLOCK_RECORD
  5
211
100
AcDbSymbolTableRecord
100
AcDbBlockTableRecord
  2
*Paper_Space
  0
BLOCK_RECORD
  5
212
100
AcDbSymbolTableRecord
100
AcDbBlockTableRecord
  2
_FILLED
  0
ENDTAB
  0
TABLE
  2
DIMSTYLE
  5
A
100
AcDbSymbolTable
 70
1
100
AcDbDimStyleTable
 71
0
  0
DIMSTYLE
105
213
100
AcDbSymbolTableRecord
100
AcDbDimStyleTableRecord
  2
STANDARD
 70
0
  3

  4

 40
1.0
 41
0.690216045
 42
1.0
 43
0.38
 44
1.0
 45
0.0
 46
0.0
 47
0.01
 48
0.01
140
0.966302463
141
0.09
142
0.0
143
25.4
144
1.0
145
0.0
146
1.0
147
0.625
 71
1
 72
0
 73
0
 74
0
 75
0
 76
0
 77
1
 78
8
 79
2
170
0
171
1
172
0
173
0
174
0
175
0
176
0
177
0
178
0
270
2
179
2
271
2
272
2
273
2
274
2
275
0
280
0
281
0
282
0
283
1
284
8
285
0
286
0
287
3
288
0
340
11
278
46
341
212
342
212
343
212
344
212
  0
ENDTAB
  0
ENDSEC
  0
SECTION
  2
BLOCKS
  0
BLOCK
  5
20
100
AcDbEntity
  8
0
100
AcDbBlockBegin
  2
*Model_Space
 70
0
 10
0.0
 20
0.0
 30
0.0
  3
*Model_Space
  1

  0
ENDBLK
  5
21
100
AcDbEntity
  8
0
100
AcDbBlockEnd
  0
BLOCK
  5
1C
100
AcDbEntity
  8
0
100
AcDbBlockBegin
  2
*Paper_Space
 70
0
 10
0.0
 20
0.0
 30
0.0
  3
*Paper_Space
  1

  0
ENDBLK
  5
1D
100
AcDbEntity
  8
0
100
AcDbBlockEnd
  0
BLOCK
  5
214
100
AcDbEntity
  8
0
100
AcDbBlockBegin
  2
_FILLED
 70
64
 10
0.0
 20
0.0
  3
_FILLED
  1

  0
SOLID
  5
215
100
AcDbEntity
  8
0
  6
BYBLOCK
 62
0
100
AcDbTrace
 10
0.0
 20
0.0
 11
-1.0
 21
0.25
 12
-1.0
 22
-0.25
 13
-1.0
 23
-0.25
  0
ENDBLK
  5
216
100
AcDbEntity
  8
0
  6
BYBLOCK
 62
0
100
AcDbBlockEnd
  0
ENDSEC
  0
SECTION
  2
ENTITIES
  0
LINE
  5
217
100
AcDbEntity
  8
0
100
AcDbLine
 62
7
  6
BYLAYER
 10
11.3373973238
 20
57.4494220807
 11
11.0545534337
 21
57.2861174157
  0
LINE
  5
218
100
AcDbEntity
  8
0
100
AcDbLine
 62
7
  6
BYLAYER
 10
28.3078894169
 20
67.2472817736
 11
28.0250455269
 21
67.0839771086
  0
LINE
  5
219
100
AcDbEntity
  8
0
100
AcDbLine
 62
7
  6
BYLAYER
 10
6.726132197
 20
35.9754150386
 11
6.726132197
 21
47.814700087
  0
LINE
  5
21A
100
AcDbEntity
  8
0
100
AcDbLine
 62
7
  6
BYLAYER
 10
7.1654764412
 20
35.3630488078
 11
7.1654764413
 21
47.2023338561
  0
LINE
  5
21B
100
AcDbEntity
  8
0
100
AcDbLine
 62
7
  6
BYLAYER
 10
24.9609092823
 20
64.2943623012
 11
22.3918734626
 21
62.8111376328
  0
LINE
  5
21C
100
AcDbEntity
  8
0
100
AcDbLine
 62
7
  6
BYLAYER
 10
20.0893356324
 20
59.6445264802
 11
14.468772884
 21
56.3995124346
  0
LINE
  5
21D
100
AcDbEntity
  8
0
100
AcDbLine
 62
7
  6
BYLAYER
 10
10.468772884
 20
47.4498201504
 11
10.468772884
 21
56.4696359066
  0
LWPOLYLINE
  5
21E
100
AcDbEntity
  8
0
100
AcDbPolyline
 62
7
  6
BYLAYER
 90
5
 70
0
 10
20.0893356324
 20
58.0865558459
 10
18.6873344824
 20
57.3353865425
 10
16.6401609431
 20
55.2878933353
 10
15.7281816389
 20
52.9833958267
 10
15.6895116895
 20
52.3871646129
  0
LINE
  5
21F
100
AcDbEntity
  8
0
100
AcDbLine
 62
7
  6
BYLAYER
 10
11.8324006271
 20
48.2638559952
 11
11.8324006271
 21
44.5079448764
  0
LINE
  5
220
100
AcDbEntity
  8
0
100
AcDbLine
 62
7
  6
BYLAYER
 10
10.468772884
 20
50.3342140242
 11
7.1654676092
 21
48.4270612188
  0
LINE
  5
221
100
AcDbEntity
  8
0
100
AcDbLine
 62
7
  6
BYLAYER
 10
28.4823243582
 20
22.886933097
 11
7.2690326015
 21
35.1341557339
  0
LINE
  5
222
100
AcDbEntity
  8
0
100
AcDbLine
 62
7
  6
BYLAYER
 10
28.3787681967
 20
23.1158261716
 11
7.1654764412
 21
35.3630488078
  0
LINE
  5
223
100
AcDbEntity
  8
0
100
AcDbLine
 62
7
  6
BYLAYER
 10
14.468772884
 20
49.7859571417
 11
14.468772884
 21
56.4696359066
  0
LINE
  5
224
100
AcDbEntity
  8
0
100
AcDbLine
 62
7
  6
BYLAYER
 10
15.6893356324
 20
52.3871646132
 11
15.6893356324
 21
50.4906451665
  0
LINE
  5
225
100
AcDbEntity
  8
0
100
AcDbLine
 62
7
  6
BYLAYER
 10
15.8021626339
 20
50.5557854774
 11
11.8324006271
 21
48.2638559952
  0
LWPOLYLINE
  5
226
100
AcDbEntity
  8
0
100
AcDbPolyline
 62
7
  6
BYLAYER
 90
7
 70
0
 10
15.6895116895
 20
52.3871646129
 10
15.7272931324
 20
51.7977838995
 10
16.6359552989
 20
49.4926292942
 10
18.6796793807
 20
47.4444924929
 10
21.6797785047
 20
45.8335910328
 10
25.3724503955
 20
44.8038941422
 10
27.4394062876
 20
44.6233786739
  0
LINE
  5
227
100
AcDbEntity
  8
0
100
AcDbLine
 62
7
  6
BYLAYER
 10
20.0893356324
 20
59.8173366091
 11
20.0893356324
 21
51.5706621961
  0
LINE
  5
228
100
AcDbEntity
  8
0
100
AcDbLine
 62
7
  6
BYLAYER
 10
21.0893356324
 20
59.8173366091
 11
21.0893356324
 21
60.2255878176
  0
LINE
  5
229
100
AcDbEntity
  8
0
100
AcDbLine
 62
7
  6
BYLAYER
 10
23.1893356324
 20
60.2255878176
 11
23.1893356324
 21
61.6952921685
  0
LINE
  5
22A
100
AcDbEntity
  8
0
100
AcDbLine
 62
7
  6
BYLAYER
 10
23.7118440096
 20
41.4054113192
 11
23.7118440096
 21
37.6495002004
  0
LINE
  5
22B
100
AcDbEntity
  8
0
100
AcDbLine
 62
7
  6
BYLAYER
 10
24.4593356324
 20
25.2095541761
 11
24.4593356324
 21
17.5455610264
  0
LINE
  5
22C
100
AcDbEntity
  8
0
100
AcDbLine
 62
7
  6
BYLAYER
 10
28.3080307273
 20
47.6516439722
 11
28.0251868373
 21
47.4883393072
  0
LINE
  5
22D
100
AcDbEntity
  8
0
100
AcDbLine
 62
7
  6
BYLAYER
 10
45.2785228205
 20
57.4495036651
 11
44.9956789304
 21
57.2861990001
  0
LINE
  5
22E
100
AcDbEntity
  8
0
100
AcDbLine
 62
7
  6
BYLAYER
 10
7.1654764411
 20
47.2023338562
 11
11.8324006271
 21
44.5079448764
  0
LINE
  5
22F
100
AcDbEntity
  8
0
100
AcDbLine
 62
7
  6
BYLAYER
 10
23.7118440096
 20
37.6495002004
 11
28.3787681955
 21
34.9551112206
  0
LINE
  5
230
100
AcDbEntity
  8
0
100
AcDbLine
 62
7
  6
BYLAYER
 10
23.7118440096
 20
41.4054113192
 11
27.4394062876
 21
43.5575075575
  0
LINE
  5
231
100
AcDbEntity
  8
0
100
AcDbLine
 62
7
  6
BYLAYER
 10
43.1678383962
 20
52.6382678646
 11
44.4098983807
 21
53.3553672505
  0
LINE
  5
232
100
AcDbEntity
  8
0
100
AcDbLine
 62
7
  6
BYLAYER
 10
11.8324006271
 20
48.2638559952
 11
23.7118440096
 21
41.4054113192
  0
LINE
  5
233
100
AcDbEntity
  8
0
100
AcDbLine
 62
7
  6
BYLAYER
 10
27.4392649772
 20
65.1388676839
 11
27.4392649772
 21
66.2674955995
  0
LINE
  5
234
100
AcDbEntity
  8
0
100
AcDbLine
 62
7
  6
BYLAYER
 10
27.4394062876
 20
37.6520420419
 11
27.4394062876
 21
46.6718577981
  0
LINE
  5
235
100
AcDbEntity
  8
0
100
AcDbLine
 62
7
  6
BYLAYER
 10
28.3787681954
 20
34.9551112207
 11
28.3787681967
 21
23.1158261716
  0
LINE
  5
236
100
AcDbEntity
  8
0
100
AcDbLine
 62
7
  6
BYLAYER
 10
27.4394062876
 20
39.8015964388
 11
23.7118440096
 21
37.6495002004
  0
LINE
  5
237
100
AcDbEntity
  8
0
100
AcDbLine
 62
7
  6
BYLAYER
 10
35.1669738647
 20
37.6495277352
 11
31.4394062876
 21
39.8015911931
  0
LINE
  5
238
100
AcDbEntity
  8
0
100
AcDbLine
 62
7
  6
BYLAYER
 10
30.5000885393
 20
23.1158312713
 11
30.5000885394
 21
34.9551163198
  0
LINE
  5
239
100
AcDbEntity
  8
0
100
AcDbLine
 62
7
  6
BYLAYER
 10
31.4392649772
 20
65.15218869
 11
31.4392649772
 21
66.2674955995
  0
LINE
  5
23A
100
AcDbEntity
  8
0
100
AcDbLine
 62
7
  6
BYLAYER
 10
31.4394062876
 20
37.581663204
 11
31.4394062876
 21
46.6718577981
  0
LINE
  5
23B
100
AcDbEntity
  8
0
100
AcDbLine
 62
7
  6
BYLAYER
 10
35.1669738647
 20
41.405438854
 11
47.0463183299
 21
48.263940639
  0
LWPOLYLINE
  5
23C
100
AcDbEntity
  8
0
100
AcDbPolyline
 62
7
  6
BYLAYER
 90
4
 70
0
 10
31.4394062876
 20
44.600734348
 10
32.9981157522
 20
44.7192129674
 10
36.3144159417
 20
45.5122919276
 10
39.1620943531
 20
46.7738542385
  0
LWPOLYLINE
  5
23D
100
AcDbEntity
  8
0
100
AcDbPolyline
 62
7
  6
BYLAYER
 90
7
 70
0
 10
27.4394062876
 20
45.3445655078
 10
25.7520800152
 20
45.4915128199
 10
22.3988211807
 20
46.4239991372
 10
19.6660553239
 20
47.8878640714
 10
17.8046345488
 20
49.7487971042
 10
16.9747695331
 20
51.844222122
 10
16.9395000185
 20
52.3871646136
  0
LINE
  5
23E
100
AcDbEntity
  8
0
100
AcDbLine
 62
7
  6
BYLAYER
 10
14.468772884
 20
53.3552804203
 11
15.7059746271
 21
52.6409978201
  0
LINE
  5
23F
100
AcDbEntity
  8
0
100
AcDbLine
 62
7
  6
BYLAYER
 10
31.4394062876
 20
43.5575023119
 11
35.1669738647
 21
41.405438854
  0
LINE
  5
240
100
AcDbEntity
  8
0
100
AcDbLine
 62
7
  6
BYLAYER
 10
34.4193356324
 20
25.2094908749
 11
34.4193356324
 21
17.5455610264
  0
LINE
  5
241
100
AcDbEntity
  8
0
100
AcDbLine
 62
7
  6
BYLAYER
 10
35.1669738647
 20
41.405438854
 11
35.1669738647
 21
37.6495277352
  0
LINE
  5
242
100
AcDbEntity
  8
0
100
AcDbLine
 62
7
  6
BYLAYER
 10
35.6893356324
 20
60.2255878176
 11
35.6893356324
 21
61.6952921685
  0
LINE
  5
243
100
AcDbEntity
  8
0
100
AcDbLine
 62
7
  6
BYLAYER
 10
51.7132036552
 20
47.2024409356
 11
47.0463183299
 21
44.5080295202
  0
LINE
  5
244
100
AcDbEntity
  8
0
100
AcDbLine
 62
7
  6
BYLAYER
 10
35.1669738647
 20
37.6495277352
 11
30.5000885394
 21
34.9551163198
  0
LINE
  5
245
100
AcDbEntity
  8
0
100
AcDbLine
 62
7
  6
BYLAYER
 10
13.6001679941
 20
57.4494107935
 11
13.8830167716
 21
57.2861033067
  0
LINE
  5
246
100
AcDbEntity
  8
0
100
AcDbLine
 62
7
  6
BYLAYER
 10
30.5708013976
 20
47.651632685
 11
30.8536501751
 21
47.4883251982
  0
LINE
  5
247
100
AcDbEntity
  8
0
100
AcDbLine
 62
7
  6
BYLAYER
 10
37.7893356324
 20
59.8173366091
 11
37.7893356324
 21
60.2255878176
  0
LINE
  5
248
100
AcDbEntity
  8
0
100
AcDbLine
 62
7
  6
BYLAYER
 10
38.7893356324
 20
59.8173366091
 11
38.7893356324
 21
51.5706621961
  0
LWPOLYLINE
  5
249
100
AcDbEntity
  8
0
100
AcDbPolyline
 62
7
  6
BYLAYER
 90
7
 70
0
 10
41.9391712463
 20
52.3871646128
 10
41.9048856178
 20
51.8518046622
 10
41.0787038365
 20
49.7556679233
 10
39.2210910757
 20
47.8940075629
 10
36.4944444376
 20
46.4297517367
 10
33.1359484779
 20
45.493183055
 10
31.4394062876
 20
45.3450364263
  0
LINE
  5
24A
100
AcDbEntity
  8
0
100
AcDbLine
 62
7
  6
BYLAYER
 10
43.1893356324
 20
52.3871646132
 11
43.1893356324
 21
50.4907202612
  0
LWPOLYLINE
  5
24B
100
AcDbEntity
  8
0
100
AcDbPolyline
 62
7
  6
BYLAYER
 90
5
 70
0
 10
43.1891817225
 20
52.3871645934
 10
43.1229708795
 20
53.1661321737
 10
42.1429068444
 20
55.4247490033
 10
40.0735673753
 20
57.4195012808
 10
38.7893356324
 20
58.0924753382
  0
LINE
  5
24C
100
AcDbEntity
  8
0
100
AcDbLine
 62
7
  6
BYLAYER
 10
44.4098983807
 20
49.7860439718
 11
44.4098983807
 21
56.4697174911
  0
LINE
  5
24D
100
AcDbEntity
  8
0
100
AcDbLine
 62
7
  6
BYLAYER
 10
51.7132036579
 20
35.3631558888
 11
30.5000885393
 21
23.1158312713
  0
LINE
  5
24E
100
AcDbEntity
  8
0
100
AcDbLine
 62
7
  6
BYLAYER
 10
51.6096476786
 20
35.1342629194
 11
30.3965325573
 21
22.8869383004
  0
LINE
  5
24F
100
AcDbEntity
  8
0
100
AcDbLine
 62
7
  6
BYLAYER
 10
47.0463183299
 20
48.263940639
 11
43.0765232676
 21
50.5558510369
  0
LINE
  5
250
100
AcDbEntity
  8
0
100
AcDbLine
 62
7
  6
BYLAYER
 10
47.0463183299
 20
48.263940639
 11
47.0463183299
 21
44.5080295202
  0
LINE
  5
251
100
AcDbEntity
  8
0
100
AcDbLine
 62
7
  6
BYLAYER
 10
48.4098983807
 20
50.3342842441
 11
51.7131948235
 21
48.4271682984
  0
LINE
  5
252
100
AcDbEntity
  8
0
100
AcDbLine
 62
7
  6
BYLAYER
 10
48.4098983807
 20
47.3795228969
 11
48.4098983807
 21
56.4697174911
  0
LINE
  5
253
100
AcDbEntity
  8
0
100
AcDbLine
 62
7
  6
BYLAYER
 10
44.4098983807
 20
56.3995441952
 11
38.7893356324
 21
59.6445042002
  0
LINE
  5
254
100
AcDbEntity
  8
0
100
AcDbLine
 62
7
  6
BYLAYER
 10
51.7132036552
 20
47.2024409356
 11
51.7132036579
 21
35.3631558888
  0
LINE
  5
255
100
AcDbEntity
  8
0
100
AcDbLine
 62
7
  6
BYLAYER
 10
52.1525390678
 20
35.9755170192
 11
52.1525390678
 21
47.8148020675
  0
LINE
  5
256
100
AcDbEntity
  8
0
100
AcDbLine
 62
7
  6
BYLAYER
 10
36.4867605115
 20
62.8111715127
 11
33.9177032998
 21
64.2943838307
  0
LINE
  5
257
100
AcDbEntity
  8
0
100
AcDbLine
 62
7
  6
BYLAYER
 10
30.5706600872
 20
67.2472704864
 11
30.8535088647
 21
67.0839629996
  0
LINE
  5
258
100
AcDbEntity
  8
0
100
AcDbLine
 62
7
  6
BYLAYER
 10
47.5412934907
 20
57.4494923779
 11
47.8241422682
 21
57.2861848911
  0
LWPOLYLINE
  5
259
100
AcDbEntity
  8
0
100
AcDbPolyline
 62
7
  6
BYLAYER
 90
4
 70
0
 10
29.4392987863
 20
65.3350646545
 10
26.5163311557
 20
65.0483308046
 10
23.9214220786
 20
64.2203244042
 10
23.1813064301
 20
63.8384560628
  0
LINE
  5
25A
100
AcDbEntity
  8
0
100
AcDbLine
 62
7
  6
BYLAYER
 10
29.9069838987
 20
65.3279122
 11
29.8900696227
 21
65.3284201307
  0
LINE
  5
25B
100
AcDbEntity
  8
0
100
AcDbLine
 62
7
  6
BYLAYER
 10
29.9037435807
 20
65.2925960417
 11
29.8870367292
 21
65.2941237083
  0
ARC
  5
25C
100
AcDbEntity
  8
0
100
AcDbCircle
 62
7
  6
BYLAYER
 10
29.4392230924
 20
50.0362452009
 40
15.2988194537
100
AcDbArc
 50
88.311285141
 51
89.999716518
  0
ARC
  5
25D
100
AcDbEntity
  8
0
100
AcDbCircle
 62
7
  6
BYLAYER
 10
29.439340132
 20
48.3492156991
 40
12.9693619674
100
AcDbArc
 50
82.6204120432
 51
97.3844420935
  0
ARC
  5
25E
100
AcDbEntity
  8
0
100
AcDbCircle
 62
7
  6
BYLAYER
 10
28.7185350592
 20
54.0407722294
 40
10.92043318
100
AcDbArc
 50
107.7214800976
 51
110.1263336921
  0
ARC
  5
25F
100
AcDbEntity
  8
0
100
AcDbCircle
 62
7
  6
BYLAYER
 10
30.2046185373
 20
54.1699866109
 40
10.783803481
100
AcDbArc
 50
69.8596770295
 51
72.1868751092
  0
ARC
  5
260
100
AcDbEntity
  8
0
100
AcDbCircle
 62
7
  6
BYLAYER
 10
27.1958259705
 20
56.8815830632
 40
8.0320778035
100
AcDbArc
 50
119.9873961028
 51
123.0116615878
  0
ARC
  5
261
100
AcDbEntity
  8
0
100
AcDbCircle
 62
7
  6
BYLAYER
 10
31.7513485665
 20
56.9946820939
 40
7.8998916602
100
AcDbArc
 50
56.8986578597
 51
60.0342451091
  0
ARC
  5
262
100
AcDbEntity
  8
0
100
AcDbCircle
 62
7
  6
BYLAYER
 10
27.1791929881
 20
62.7430627735
 40
7.3078241058
100
AcDbArc
 50
236.8080232478
 51
238.0022772639
  0
ARC
  5
263
100
AcDbEntity
  8
0
100
AcDbCircle
 62
7
  6
BYLAYER
 10
31.7102061703
 20
62.7273861136
 40
7.2888531876
100
AcDbArc
 50
301.7350453468
 51
303.1270787691
  0
ARC
  5
264
100
AcDbEntity
  8
0
100
AcDbCircle
 62
7
  6
BYLAYER
 10
21.195134483
 20
51.5622723116
 40
4.2562121847
100
AcDbArc
 50
169.4538626196
 51
174.3790702707
  0
ARC
  5
265
100
AcDbEntity
  8
0
100
AcDbCircle
 62
7
  6
BYLAYER
 10
37.7016631946
 20
51.564838253
 40
4.2379219295
100
AcDbArc
 50
5.6096218333
 51
10.5535789139
  0
ARC
  5
266
100
AcDbEntity
  8
0
100
AcDbCircle
 62
7
  6
BYLAYER
 10
34.9857844153
 20
60.226330504
 40
2.8035427897
100
AcDbArc
 50
351.9095435838
 51
359.9848217779
  0
ARC
  5
267
100
AcDbEntity
  8
0
100
AcDbCircle
 62
7
  6
BYLAYER
 10
23.8848569709
 20
60.2257615584
 40
2.7955128182
100
AcDbArc
 50
180.0035609263
 51
188.1020849535
  0
SPLINE
  5
268
100
AcDbEntity
  8
0
100
AcDbSpline
 62
7
  6
BYLAYER
 70
0
 71
3
 72
15
 73
11
 74
0
 42
0.0000001
 43
0.0000001
 44
0.0000000001
 40
0.0
 40
0.0
 40
0.0
 40
0.0
 40
0.1141512577
 40
0.2373200215
 40
0.3669685884
 40
0.4999912727
 40
0.633015914
 40
0.7626659783
 40
0.8858477055
 40
1.0
 40
1.0
 40
1.0
 40
1.0
 10
30.5706516733
 20
67.2472656265
 30
0.0
 10
30.4932026581
 20
67.2919822754
 30
0.0
 10
30.3238453769
 20
67.3708484823
 30
0.0
 10
30.0480545234
 20
67.4546777858
 30
0.0
 10
29.7494648576
 20
67.5062780993
 30
0.0
 10
29.4392915946
 20
67.5236938589
 30
0.0
 10
29.1291172351
 20
67.5062841391
 30
0.0
 10
28.8305121272
 20
67.4546959902
 30
0.0
 10
28.5547096188
 20
67.3708626038
 30
0.0
 10
28.3853398744
 20
67.2919975492
 30
0.0
 10
28.3078894169
 20
67.2472817736
 30
0.0
  0
SPLINE
  5
269
100
AcDbEntity
  8
0
100
AcDbSpline
 62
7
  6
BYLAYER
 70
0
 71
3
 72
15
 73
11
 74
0
 42
0.0000001
 43
0.0000001
 44
0.0000000001
 40
0.0
 40
0.0
 40
0.0
 40
0.0
 40
0.1080131279
 40
0.2180612218
 40
0.3320010906
 40
0.4513569005
 40
0.5772797604
 40
0.7104997397
 40
0.8513973505
 40
1.0
 40
1.0
 40
1.0
 40
1.0
 10
31.4392649772
 20
66.2674955995
 30
0.0
 10
31.4392645963
 20
66.3053571841
 30
0.0
 10
31.4326738886
 20
66.3819451198
 30
0.0
 10
31.4033496938
 20
66.4950781393
 30
0.0
 10
31.3548886424
 20
66.6057593157
 30
0.0
 10
31.2879833551
 20
66.7129022023
 30
0.0
 10
31.2033179611
 20
66.8154934867
 30
0.0
 10
31.1018238514
 20
66.9126685936
 30
0.0
 10
30.9844577666
 20
67.0035003078
 30
0.0
 10
30.898619226
 20
67.0579177714
 30
0.0
 10
30.8535088647
 20
67.0839629996
 30
0.0
  0
SPLINE
  5
26A
100
AcDbEntity
  8
0
100
AcDbSpline
 62
7
  6
BYLAYER
 70
0
 71
3
 72
15
 73
11
 74
0
 42
0.0000001
 43
0.0000001
 44
0.0000000001
 40
0.0
 40
0.0
 40
0.0
 40
0.0
 40
0.1485260938
 40
0.2895006119
 40
0.4227409634
 40
0.5486445713
 40
0.6679954014
 40
0.7819394365
 40
0.8919880463
 40
1.0
 40
1.0
 40
1.0
 40
1.0
 10
28.0250455269
 20
67.0839771086
 30
0.0
 10
27.9799568113
 20
67.0579452819
 30
0.0
 10
27.8941209033
 20
67.0035189996
 30
0.0
 10
27.7767346528
 20
66.912695868
 30
0.0
 10
27.6752100544
 20
66.8155062749
 30
0.0
 10
27.5905513659
 20
66.7129063069
 30
0.0
 10
27.5236500972
 20
66.6057659966
 30
0.0
 10
27.4751816735
 20
66.4950847129
 30
0.0
 10
27.4458540789
 20
66.3819477454
 30
0.0
 10
27.4392645962
 20
66.3053577822
 30
0.0
 10
27.4392649771
 20
66.2674955995
 30
0.0
  0
SPLINE
  5
26B
100
AcDbEntity
  8
0
100
AcDbSpline
 62
7
  6
BYLAYER
 70
0
 71
3
 72
15
 73
11
 74
0
 42
0.0000001
 43
0.0000001
 44
0.0000000001
 40
0.0
 40
0.0
 40
0.0
 40
0.0
 40
0.1485260938
 40
0.2895006119
 40
0.4227409634
 40
0.5486445713
 40
0.6679954014
 40
0.7819394365
 40
0.8919880463
 40
1.0
 40
1.0
 40
1.0
 40
1.0
 10
30.8534844275
 20
65.4510140905
 30
0.0
 10
30.8985731431
 20
65.4770459172
 30
0.0
 10
30.9844090511
 20
65.5314721995
 30
0.0
 10
31.1017953016
 20
65.6222953311
 30
0.0
 10
31.2033199
 20
65.7194849242
 30
0.0
 10
31.2879785885
 20
65.8220848922
 30
0.0
 10
31.3548798572
 20
65.9292252025
 30
0.0
 10
31.4033482809
 20
66.0399064862
 30
0.0
 10
31.4326758755
 20
66.1530434537
 30
0.0
 10
31.4392653582
 20
66.2296334169
 30
0.0
 10
31.4392649772
 20
66.2674955995
 30
0.0
  0
SPLINE
  5
26C
100
AcDbEntity
  8
0
100
AcDbSpline
 62
7
  6
BYLAYER
 70
0
 71
3
 72
9
 73
5
 74
0
 42
0.0000001
 43
0.0000001
 44
0.0000000001
 40
0.0
 40
0.0
 40
0.0
 40
0.0
 40
0.5175908732
 40
1.0
 40
1.0
 40
1.0
 40
1.0
 10
28.3078894169
 20
67.2472817736
 30
0.0
 10
28.2608643705
 20
67.2201320125
 30
0.0
 10
28.1727463996
 20
67.1627215955
 30
0.0
 10
28.0925064128
 20
67.0945401396
 30
0.0
 10
28.0565700507
 20
67.0589053505
 30
0.0
  0
SPLINE
  5
26D
100
AcDbEntity
  8
0
100
AcDbSpline
 62
7
  6
BYLAYER
 70
0
 71
3
 72
27
 73
23
 74
0
 42
0.0000001
 43
0.0000001
 44
0.0000000001
 40
0.0
 40
0.0
 40
0.0
 40
0.0
 40
0.0521182558
 40
0.0763994176
 40
0.0997525388
 40
0.1224626785
 40
0.1448671171
 40
0.1673253461
 40
0.1901930937
 40
0.2137929291
 40
0.2383991237
 40
0.291320302
 40
0.3499898693
 40
0.4144512727
 40
0.4840824668
 40
0.5577891877
 40
0.6341612853
 40
0.7116005095
 40
0.7884448437
 40
0.8630593364
 40
0.9339875222
 40
1.0
 40
1.0
 40
1.0
 40
1.0
 10
28.0565700507
 20
67.0589053505
 30
0.0
 10
28.0107096055
 20
67.0134297599
 30
0.0
 10
27.949570389
 20
66.9396640273
 30
0.0
 10
27.8904390465
 20
66.8307686023
 30
0.0
 10
27.8596633433
 20
66.7488781171
 30
0.0
 10
27.8418794974
 20
66.6655835878
 30
0.0
 10
27.8372215204
 20
66.5816333153
 30
0.0
 10
27.8457909758
 20
66.4977969167
 30
0.0
 10
27.8674622956
 20
66.4148486371
 30
0.0
 10
27.9019825181
 20
66.3335002334
 30
0.0
 10
27.966232092
 20
66.225525624
 30
0.0
 10
28.0792469053
 20
66.0980584813
 30
0.0
 10
28.2543024387
 20
65.9660507026
 30
0.0
 10
28.466510231
 20
65.8544582373
 30
0.0
 10
28.7092760215
 20
65.7665485938
 30
0.0
 10
28.975077453
 20
65.7049185903
 30
0.0
 10
29.2555610102
 20
65.6714901346
 30
0.0
 10
29.5418684951
 20
65.6673014851
 30
0.0
 10
29.8249140233
 20
65.6925039279
 30
0.0
 10
30.0957921281
 20
65.7462784939
 30
0.0
 10
30.345858722
 20
65.8269584158
 30
0.0
 10
30.4997972907
 20
65.9000102358
 30
0.0
 10
30.5706405374
 20
65.9409113592
 30
0.0
  0
SPLINE
  5
26E
100
AcDbEntity
  8
0
100
AcDbSpline
 62
7
  6
BYLAYER
 70
0
 71
3
 72
19
 73
15
 74
0
 42
0.0000001
 43
0.0000001
 44
0.0000000001
 40
0.0
 40
0.0
 40
0.0
 40
0.0
 40
0.1502310308
 40
0.2874245777
 40
0.41249624
 40
0.4714370892
 40
0.5285721513
 40
0.5845232331
 40
0.6399904438
 40
0.6957023035
 40
0.7523717849
 40
0.8106484086
 40
0.87109725
 40
1.0
 40
1.0
 40
1.0
 40
1.0
 10
30.5706405374
 20
65.9409113592
 30
0.0
 10
30.6293210973
 20
65.974790394
 30
0.0
 10
30.7374963717
 20
66.0472909774
 30
0.0
 10
30.8735681734
 20
66.1755454593
 30
0.0
 10
30.9577413563
 20
66.2950943974
 30
0.0
 10
31.0031579666
 20
66.3942079584
 30
0.0
 10
31.0262114188
 20
66.468537765
 30
0.0
 10
31.0386557538
 20
66.5437815839
 30
0.0
 10
31.0404439774
 20
66.619392029
 30
0.0
 10
31.0315022241
 20
66.6948177535
 30
0.0
 10
31.0119485457
 20
66.7695037535
 30
0.0
 10
30.9819521587
 20
66.8429465704
 30
0.0
 10
30.927191992
 20
66.9405339699
 30
0.0
 10
30.8726352834
 20
67.0073200704
 30
0.0
 10
30.8319467978
 20
67.0488478743
 30
0.0
  0
SPLINE
  5
26F
100
AcDbEntity
  8
0
100
AcDbSpline
 62
7
  6
BYLAYER
 70
0
 71
3
 72
9
 73
5
 74
0
 42
0.0000001
 43
0.0000001
 44
0.0000000001
 40
0.0
 40
0.0
 40
0.0
 40
0.0
 40
0.2362491101
 40
1.0
 40
1.0
 40
1.0
 40
1.0
 10
30.8319467978
 20
67.0488478743
 30
0.0
 10
30.8138322839
 20
67.0673360526
 30
0.0
 10
30.7340135943
 20
67.1425064617
 30
0.0
 10
30.6431168485
 20
67.2054264916
 30
0.0
 10
30.5706516733
 20
67.2472656265
 30
0.0
  0
SPLINE
  5
270
100
AcDbEntity
  8
0
100
AcDbSpline
 62
7
  6
BYLAYER
 70
0
 71
3
 72
15
 73
11
 74
0
 42
0.0000001
 43
0.0000001
 44
0.0000000001
 40
0.0
 40
0.0
 40
0.0
 40
0.0
 40
0.0993948548
 40
0.2024199741
 40
0.3120925186
 40
0.430476259
 40
0.5586259013
 40
0.6967131982
 40
0.8442024618
 40
1.0
 40
1.0
 40
1.0
 40
1.0
 10
27.4392649771
 20
66.2674955995
 30
0.0
 10
27.4392655141
 20
66.2141254822
 30
0.0
 10
27.4525806366
 20
66.1050234389
 30
0.0
 10
27.5113134902
 20
65.9466734706
 30
0.0
 10
27.6069842624
 20
65.7954872263
 30
0.0
 10
27.7371980458
 20
65.6542014272
 30
0.0
 10
27.8992425164
 20
65.5250620064
 30
0.0
 10
28.0900399724
 20
65.4102052501
 30
0.0
 10
28.3060383145
 20
65.3116271158
 30
0.0
 10
28.4605246846
 20
65.2591925212
 30
0.0
 10
28.540863353
 20
65.2358697389
 30
0.0
  0
SPLINE
  5
271
100
AcDbEntity
  8
0
100
AcDbSpline
 62
7
  6
BYLAYER
 70
0
 71
3
 72
9
 73
5
 74
0
 42
0.0000001
 43
0.0000001
 44
0.0000000001
 40
0.0
 40
0.0
 40
0.0
 40
0.0
 40
0.5161467129
 40
1.0
 40
1.0
 40
1.0
 40
1.0
 10
30.3510373795
 20
65.2397829946
 30
0.0
 10
30.4411165415
 20
65.2664213549
 30
0.0
 10
30.6131747623
 20
65.3269144753
 30
0.0
 10
30.7772236802
 20
65.4069851903
 30
0.0
 10
30.8534844275
 20
65.4510140905
 30
0.0
  0
SPLINE
  5
272
100
AcDbEntity
  8
0
100
AcDbSpline
 62
7
  6
BYLAYER
 70
0
 71
3
 72
15
 73
11
 74
0
 42
0.0000001
 43
0.0000001
 44
0.0000000001
 40
0.0
 40
0.0
 40
0.0
 40
0.0
 40
0.1141512577
 40
0.2373200215
 40
0.3669685884
 40
0.4999912727
 40
0.633015914
 40
0.7626659783
 40
0.8858477055
 40
1.0
 40
1.0
 40
1.0
 40
1.0
 10
47.5412850768
 20
57.449487518
 30
0.0
 10
47.4638360616
 20
57.4942041669
 30
0.0
 10
47.2944787805
 20
57.5730703738
 30
0.0
 10
47.0186879269
 20
57.6568996773
 30
0.0
 10
46.7200982611
 20
57.7084999908
 30
0.0
 10
46.4099249981
 20
57.7259157504
 30
0.0
 10
46.0997506386
 20
57.7085060306
 30
0.0
 10
45.8011455307
 20
57.6569178817
 30
0.0
 10
45.5253430223
 20
57.5730844953
 30
0.0
 10
45.3559732779
 20
57.4942194407
 30
0.0
 10
45.2785228205
 20
57.4495036651
 30
0.0
  0
SPLINE
  5
273
100
AcDbEntity
  8
0
100
AcDbSpline
 62
7
  6
BYLAYER
 70
0
 71
3
 72
15
 73
11
 74
0
 42
0.0000001
 43
0.0000001
 44
0.0000000001
 40
0.0
 40
0.0
 40
0.0
 40
0.0
 40
0.1080131279
 40
0.2180612218
 40
0.3320010906
 40
0.4513569005
 40
0.5772797604
 40
0.7104997397
 40
0.8513973505
 40
1.0
 40
1.0
 40
1.0
 40
1.0
 10
48.4098983808
 20
56.4697174911
 30
0.0
 10
48.4098979998
 20
56.5075790756
 30
0.0
 10
48.4033072921
 20
56.5841670113
 30
0.0
 10
48.3739830973
 20
56.6973000308
 30
0.0
 10
48.325522046
 20
56.8079812072
 30
0.0
 10
48.2586167586
 20
56.9151240938
 30
0.0
 10
48.1739513647
 20
57.0177153782
 30
0.0
 10
48.072457255
 20
57.1148904851
 30
0.0
 10
47.9550911701
 20
57.2057221993
 30
0.0
 10
47.8692526295
 20
57.2601396629
 30
0.0
 10
47.8241422682
 20
57.2861848911
 30
0.0
  0
SPLINE
  5
274
100
AcDbEntity
  8
0
100
AcDbSpline
 62
7
  6
BYLAYER
 70
0
 71
3
 72
15
 73
11
 74
0
 42
0.0000001
 43
0.0000001
 44
0.0000000001
 40
0.0
 40
0.0
 40
0.0
 40
0.0
 40
0.1485260938
 40
0.2895006119
 40
0.4227409634
 40
0.5486445713
 40
0.6679954014
 40
0.7819394365
 40
0.8919880463
 40
1.0
 40
1.0
 40
1.0
 40
1.0
 10
44.9956789304
 20
57.2861990001
 30
0.0
 10
44.9505902148
 20
57.2601671734
 30
0.0
 10
44.8647543068
 20
57.2057408911
 30
0.0
 10
44.7473680563
 20
57.1149177595
 30
0.0
 10
44.6458434579
 20
57.0177281664
 30
0.0
 10
44.5611847694
 20
56.9151281984
 30
0.0
 10
44.4942835007
 20
56.8079878881
 30
0.0
 10
44.445815077
 20
56.6973066044
 30
0.0
 10
44.4164874824
 20
56.5841696369
 30
0.0
 10
44.4098979997
 20
56.5075796737
 30
0.0
 10
44.4098983807
 20
56.4697174911
 30
0.0
  0
SPLINE
  5
275
100
AcDbEntity
  8
0
100
AcDbSpline
 62
7
  6
BYLAYER
 70
0
 71
3
 72
15
 73
11
 74
0
 42
0.0000001
 43
0.0000001
 44
0.0000000001
 40
0.0
 40
0.0
 40
0.0
 40
0.0
 40
0.1485260938
 40
0.2895006119
 40
0.4227409634
 40
0.5486445713
 40
0.6679954014
 40
0.7819394365
 40
0.8919880463
 40
1.0
 40
1.0
 40
1.0
 40
1.0
 10
47.824117831
 20
55.653235982
 30
0.0
 10
47.8692065466
 20
55.6792678087
 30
0.0
 10
47.9550424546
 20
55.733694091
 30
0.0
 10
48.0724287051
 20
55.8245172226
 30
0.0
 10
48.1739533035
 20
55.9217068157
 30
0.0
 10
48.258611992
 20
56.0243067837
 30
0.0
 10
48.3255132607
 20
56.131447094
 30
0.0
 10
48.3739816844
 20
56.2421283777
 30
0.0
 10
48.403309279
 20
56.3552653452
 30
0.0
 10
48.4098987617
 20
56.4318553084
 30
0.0
 10
48.4098983808
 20
56.4697174911
 30
0.0
  0
SPLINE
  5
276
100
AcDbEntity
  8
0
100
AcDbSpline
 62
7
  6
BYLAYER
 70
0
 71
3
 72
9
 73
5
 74
0
 42
0.0000001
 43
0.0000001
 44
0.0000000001
 40
0.0
 40
0.0
 40
0.0
 40
0.0
 40
0.5175908732
 40
1.0
 40
1.0
 40
1.0
 40
1.0
 10
45.2785228205
 20
57.4495036651
 30
0.0
 10
45.231497774
 20
57.422353904
 30
0.0
 10
45.1433798031
 20
57.364943487
 30
0.0
 10
45.0631398163
 20
57.2967620311
 30
0.0
 10
45.0272034543
 20
57.2611272421
 30
0.0
  0
SPLINE
  5
277
100
AcDbEntity
  8
0
100
AcDbSpline
 62
7
  6
BYLAYER
 70
0
 71
3
 72
27
 73
23
 74
0
 42
0.0000001
 43
0.0000001
 44
0.0000000001
 40
0.0
 40
0.0
 40
0.0
 40
0.0
 40
0.0521182558
 40
0.0763994176
 40
0.0997525388
 40
0.1224626785
 40
0.1448671171
 40
0.1673253461
 40
0.1901930937
 40
0.2137929291
 40
0.2383991237
 40
0.291320302
 40
0.3499898693
 40
0.4144512727
 40
0.4840824668
 40
0.5577891877
 40
0.6341612853
 40
0.7116005095
 40
0.7884448437
 40
0.8630593364
 40
0.9339875222
 40
1.0
 40
1.0
 40
1.0
 40
1.0
 10
45.0272034543
 20
57.2611272421
 30
0.0
 10
44.9813430091
 20
57.2156516514
 30
0.0
 10
44.9202037926
 20
57.1418859188
 30
0.0
 10
44.86107245
 20
57.0329904938
 30
0.0
 10
44.8302967468
 20
56.9511000086
 30
0.0
 10
44.8125129009
 20
56.8678054793
 30
0.0
 10
44.8078549239
 20
56.7838552068
 30
0.0
 10
44.8164243793
 20
56.7000188082
 30
0.0
 10
44.8380956992
 20
56.6170705287
 30
0.0
 10
44.8726159216
 20
56.5357221249
 30
0.0
 10
44.9368654955
 20
56.4277475155
 30
0.0
 10
45.0498803088
 20
56.3002803728
 30
0.0
 10
45.2249358423
 20
56.1682725941
 30
0.0
 10
45.4371436345
 20
56.0566801288
 30
0.0
 10
45.6799094251
 20
55.9687704853
 30
0.0
 10
45.9457108565
 20
55.9071404818
 30
0.0
 10
46.2261944138
 20
55.8737120261
 30
0.0
 10
46.5125018986
 20
55.8695233766
 30
0.0
 10
46.7955474268
 20
55.8947258194
 30
0.0
 10
47.0664255316
 20
55.9485003854
 30
0.0
 10
47.3164921255
 20
56.0291803073
 30
0.0
 10
47.4704306942
 20
56.1022321273
 30
0.0
 10
47.5412739409
 20
56.1431332507
 30
0.0
  0
SPLINE
  5
278
100
AcDbEntity
  8
0
100
AcDbSpline
 62
7
  6
BYLAYER
 70
0
 71
3
 72
19
 73
15
 74
0
 42
0.0000001
 43
0.0000001
 44
0.0000000001
 40
0.0
 40
0.0
 40
0.0
 40
0.0
 40
0.1502310308
 40
0.2874245777
 40
0.41249624
 40
0.4714370892
 40
0.5285721513
 40
0.5845232331
 40
0.6399904438
 40
0.6957023035
 40
0.7523717849
 40
0.8106484086
 40
0.87109725
 40
1.0
 40
1.0
 40
1.0
 40
1.0
 10
47.5412739409
 20
56.1431332507
 30
0.0
 10
47.5999545008
 20
56.1770122855
 30
0.0
 10
47.7081297753
 20
56.2495128689
 30
0.0
 10
47.8442015769
 20
56.3777673508
 30
0.0
 10
47.9283747599
 20
56.4973162889
 30
0.0
 10
47.9737913701
 20
56.5964298499
 30
0.0
 10
47.9968448223
 20
56.6707596565
 30
0.0
 10
48.0092891573
 20
56.7460034754
 30
0.0
 10
48.0110773809
 20
56.8216139205
 30
0.0
 10
48.0021356276
 20
56.897039645
 30
0.0
 10
47.9825819492
 20
56.971725645
 30
0.0
 10
47.9525855623
 20
57.0451684619
 30
0.0
 10
47.8978253955
 20
57.1427558614
 30
0.0
 10
47.843268687
 20
57.2095419619
 30
0.0
 10
47.8025802013
 20
57.2510697658
 30
0.0
  0
SPLINE
  5
279
100
AcDbEntity
  8
0
100
AcDbSpline
 62
7
  6
BYLAYER
 70
0
 71
3
 72
9
 73
5
 74
0
 42
0.0000001
 43
0.0000001
 44
0.0000000001
 40
0.0
 40
0.0
 40
0.0
 40
0.0
 40
0.2362491101
 40
1.0
 40
1.0
 40
1.0
 40
1.0
 10
47.8025802013
 20
57.2510697658
 30
0.0
 10
47.7844656874
 20
57.2695579441
 30
0.0
 10
47.7046469978
 20
57.3447283532
 30
0.0
 10
47.613750252
 20
57.4076483831
 30
0.0
 10
47.5412850768
 20
57.449487518
 30
0.0
  0
SPLINE
  5
27A
100
AcDbEntity
  8
0
100
AcDbSpline
 62
7
  6
BYLAYER
 70
0
 71
3
 72
25
 73
21
 74
0
 42
0.0000001
 43
0.0000001
 44
0.0000000001
 40
0.0
 40
0.0
 40
0.0
 40
0.0
 40
0.0213317797
 40
0.042892043
 40
0.0648969414
 40
0.0875419536
 40
0.1353163243
 40
0.1872166937
 40
0.2436548455
 40
0.3046029226
 40
0.3696903377
 40
0.4382877458
 40
0.5095749599
 40
0.5825996089
 40
0.6563309761
 40
0.7297087932
 40
0.8016867703
 40
0.8712723804
 40
0.9376269365
 40
1.0
 40
1.0
 40
1.0
 40
1.0
 10
44.4098983807
 20
56.4697174911
 30
0.0
 10
44.4098986661
 20
56.4413453517
 30
0.0
 10
44.4135714888
 20
56.3842320812
 30
0.0
 10
44.4299728625
 20
56.2992732445
 30
0.0
 10
44.4571901679
 20
56.2152928449
 30
0.0
 10
44.5085516404
 20
56.1033461726
 30
0.0
 10
44.6006894541
 20
55.9677469362
 30
0.0
 10
44.7478891944
 20
55.8199528146
 30
0.0
 10
44.9303184316
 20
55.6866468816
 30
0.0
 10
45.144059867
 20
55.5704016267
 30
0.0
 10
45.3846436723
 20
55.4734750369
 30
0.0
 10
45.6470169581
 20
55.3978557934
 30
0.0
 10
45.9256356279
 20
55.3451282939
 30
0.0
 10
46.2145765575
 20
55.3163983625
 30
0.0
 10
46.5076834317
 20
55.3122709953
 30
0.0
 10
46.7987080714
 20
55.3328394276
 30
0.0
 10
47.0814265134
 20
55.377681133
 30
0.0
 10
47.3498794006
 20
55.4458163988
 30
0.0
 10
47.5982733457
 20
55.5358409327
 30
0.0
 10
47.7522733606
 20
55.6117568053
 30
0.0
 10
47.824117831
 20
55.653235982
 30
0.0
  0
SPLINE
  5
27B
100
AcDbEntity
  8
0
100
AcDbSpline
 62
7
  6
BYLAYER
 70
0
 71
3
 72
15
 73
11
 74
0
 42
0.0000001
 43
0.0000001
 44
0.0000000001
 40
0.0
 40
0.0
 40
0.0
 40
0.0
 40
0.1141512577
 40
0.2373200215
 40
0.3669685884
 40
0.4999912727
 40
0.633015914
 40
0.7626659783
 40
0.8858477055
 40
1.0
 40
1.0
 40
1.0
 40
1.0
 10
13.6001595802
 20
57.4494059335
 30
0.0
 10
13.5227105649
 20
57.4941225825
 30
0.0
 10
13.3533532838
 20
57.5729887894
 30
0.0
 10
13.0775624302
 20
57.6568180929
 30
0.0
 10
12.7789727644
 20
57.7084184064
 30
0.0
 10
12.4687995014
 20
57.725834166
 30
0.0
 10
12.158625142
 20
57.7084244462
 30
0.0
 10
11.860020034
 20
57.6568362973
 30
0.0
 10
11.5842175257
 20
57.5730029108
 30
0.0
 10
11.4148477813
 20
57.4941378563
 30
0.0
 10
11.3373973238
 20
57.4494220807
 30
0.0
  0
SPLINE
  5
27C
100
AcDbEntity
  8
0
100
AcDbSpline
 62
7
  6
BYLAYER
 70
0
 71
3
 72
15
 73
11
 74
0
 42
0.0000001
 43
0.0000001
 44
0.0000000001
 40
0.0
 40
0.0
 40
0.0
 40
0.0
 40
0.1080131279
 40
0.2180612218
 40
0.3320010906
 40
0.4513569005
 40
0.5772797604
 40
0.7104997397
 40
0.8513973505
 40
1.0
 40
1.0
 40
1.0
 40
1.0
 10
14.4687728841
 20
56.4696359066
 30
0.0
 10
14.4687725031
 20
56.5074974912
 30
0.0
 10
14.4621817955
 20
56.5840854269
 30
0.0
 10
14.4328576007
 20
56.6972184464
 30
0.0
 10
14.3843965493
 20
56.8078996228
 30
0.0
 10
14.317491262
 20
56.9150425094
 30
0.0
 10
14.232825868
 20
57.0176337938
 30
0.0
 10
14.1313317583
 20
57.1148089006
 30
0.0
 10
14.0139656735
 20
57.2056406148
 30
0.0
 10
13.9281271328
 20
57.2600580785
 30
0.0
 10
13.8830167716
 20
57.2861033067
 30
0.0
  0
SPLINE
  5
27D
100
AcDbEntity
  8
0
100
AcDbSpline
 62
7
  6
BYLAYER
 70
0
 71
3
 72
15
 73
11
 74
0
 42
0.0000001
 43
0.0000001
 44
0.0000000001
 40
0.0
 40
0.0
 40
0.0
 40
0.0
 40
0.1485260938
 40
0.2895006119
 40
0.4227409634
 40
0.5486445713
 40
0.6679954014
 40
0.7819394365
 40
0.8919880463
 40
1.0
 40
1.0
 40
1.0
 40
1.0
 10
11.0545534337
 20
57.2861174157
 30
0.0
 10
11.0094647181
 20
57.260085589
 30
0.0
 10
10.9236288101
 20
57.2056593066
 30
0.0
 10
10.8062425596
 20
57.114836175
 30
0.0
 10
10.7047179612
 20
57.017646582
 30
0.0
 10
10.6200592727
 20
56.915046614
 30
0.0
 10
10.553158004
 20
56.8079063036
 30
0.0
 10
10.5046895803
 20
56.69722502
 30
0.0
 10
10.4753619858
 20
56.5840880524
 30
0.0
 10
10.468772503
 20
56.5074980893
 30
0.0
 10
10.468772884
 20
56.4696359066
 30
0.0
  0
SPLINE
  5
27E
100
AcDbEntity
  8
0
100
AcDbSpline
 62
7
  6
BYLAYER
 70
0
 71
3
 72
15
 73
11
 74
0
 42
0.0000001
 43
0.0000001
 44
0.0000000001
 40
0.0
 40
0.0
 40
0.0
 40
0.0
 40
0.1485260938
 40
0.2895006119
 40
0.4227409634
 40
0.5486445713
 40
0.6679954014
 40
0.7819394365
 40
0.8919880463
 40
1.0
 40
1.0
 40
1.0
 40
1.0
 10
13.8829923343
 20
55.6531543976
 30
0.0
 10
13.9280810499
 20
55.6791862243
 30
0.0
 10
14.0139169579
 20
55.7336125066
 30
0.0
 10
14.1313032085
 20
55.8244356382
 30
0.0
 10
14.2328278069
 20
55.9216252313
 30
0.0
 10
14.3174864954
 20
56.0242251993
 30
0.0
 10
14.3843877641
 20
56.1313655096
 30
0.0
 10
14.4328561877
 20
56.2420467933
 30
0.0
 10
14.4621837823
 20
56.3551837608
 30
0.0
 10
14.468773265
 20
56.431773724
 30
0.0
 10
14.4687728841
 20
56.4696359066
 30
0.0
  0
SPLINE
  5
27F
100
AcDbEntity
  8
0
100
AcDbSpline
 62
7
  6
BYLAYER
 70
0
 71
3
 72
9
 73
5
 74
0
 42
0.0000001
 43
0.0000001
 44
0.0000000001
 40
0.0
 40
0.0
 40
0.0
 40
0.0
 40
0.5175908732
 40
1.0
 40
1.0
 40
1.0
 40
1.0
 10
11.3373973238
 20
57.4494220807
 30
0.0
 10
11.2903722774
 20
57.4222723195
 30
0.0
 10
11.2022543064
 20
57.3648619026
 30
0.0
 10
11.1220143196
 20
57.2966804467
 30
0.0
 10
11.0860779576
 20
57.2610456576
 30
0.0
  0
SPLINE
  5
280
100
AcDbEntity
  8
0
100
AcDbSpline
 62
7
  6
BYLAYER
 70
0
 71
3
 72
27
 73
23
 74
0
 42
0.0000001
 43
0.0000001
 44
0.0000000001
 40
0.0
 40
0.0
 40
0.0
 40
0.0
 40
0.0521182558
 40
0.0763994176
 40
0.0997525388
 40
0.1224626785
 40
0.1448671171
 40
0.1673253461
 40
0.1901930937
 40
0.2137929291
 40
0.2383991237
 40
0.291320302
 40
0.3499898693
 40
0.4144512727
 40
0.4840824668
 40
0.5577891877
 40
0.6341612853
 40
0.7116005095
 40
0.7884448437
 40
0.8630593364
 40
0.9339875222
 40
1.0
 40
1.0
 40
1.0
 40
1.0
 10
11.0860779576
 20
57.2610456576
 30
0.0
 10
11.0402175124
 20
57.215570067
 30
0.0
 10
10.9790782959
 20
57.1418043344
 30
0.0
 10
10.9199469533
 20
57.0329089094
 30
0.0
 10
10.8891712501
 20
56.9510184242
 30
0.0
 10
10.8713874043
 20
56.8677238949
 30
0.0
 10
10.8667294272
 20
56.7837736224
 30
0.0
 10
10.8752988826
 20
56.6999372238
 30
0.0
 10
10.8969702025
 20
56.6169889442
 30
0.0
 10
10.931490425
 20
56.5356405405
 30
0.0
 10
10.9957399988
 20
56.4276659311
 30
0.0
 10
11.1087548122
 20
56.3001987884
 30
0.0
 10
11.2838103456
 20
56.1681910097
 30
0.0
 10
11.4960181378
 20
56.0565985444
 30
0.0
 10
11.7387839284
 20
55.9686889009
 30
0.0
 10
12.0045853598
 20
55.9070588974
 30
0.0
 10
12.2850689171
 20
55.8736304417
 30
0.0
 10
12.571376402
 20
55.8694417922
 30
0.0
 10
12.8544219301
 20
55.894644235
 30
0.0
 10
13.1253000349
 20
55.948418801
 30
0.0
 10
13.3753666289
 20
56.0290987229
 30
0.0
 10
13.5293051976
 20
56.1021505428
 30
0.0
 10
13.6001484443
 20
56.1430516662
 30
0.0
  0
SPLINE
  5
281
100
AcDbEntity
  8
0
100
AcDbSpline
 62
7
  6
BYLAYER
 70
0
 71
3
 72
19
 73
15
 74
0
 42
0.0000001
 43
0.0000001
 44
0.0000000001
 40
0.0
 40
0.0
 40
0.0
 40
0.0
 40
0.1502310308
 40
0.2874245777
 40
0.41249624
 40
0.4714370892
 40
0.5285721513
 40
0.5845232331
 40
0.6399904438
 40
0.6957023035
 40
0.7523717849
 40
0.8106484086
 40
0.87109725
 40
1.0
 40
1.0
 40
1.0
 40
1.0
 10
13.6001484443
 20
56.1430516662
 30
0.0
 10
13.6588290041
 20
56.176930701
 30
0.0
 10
13.7670042786
 20
56.2494312845
 30
0.0
 10
13.9030760803
 20
56.3776857664
 30
0.0
 10
13.9872492632
 20
56.4972347044
 30
0.0
 10
14.0326658734
 20
56.5963482654
 30
0.0
 10
14.0557193256
 20
56.6706780721
 30
0.0
 10
14.0681636607
 20
56.7459218909
 30
0.0
 10
14.0699518843
 20
56.8215323361
 30
0.0
 10
14.061010131
 20
56.8969580606
 30
0.0
 10
14.0414564525
 20
56.9716440606
 30
0.0
 10
14.0114600656
 20
57.0450868775
 30
0.0
 10
13.9566998988
 20
57.142674277
 30
0.0
 10
13.9021431903
 20
57.2094603775
 30
0.0
 10
13.8614547046
 20
57.2509881814
 30
0.0
  0
SPLINE
  5
282
100
AcDbEntity
  8
0
100
AcDbSpline
 62
7
  6
BYLAYER
 70
0
 71
3
 72
9
 73
5
 74
0
 42
0.0000001
 43
0.0000001
 44
0.0000000001
 40
0.0
 40
0.0
 40
0.0
 40
0.0
 40
0.2362491101
 40
1.0
 40
1.0
 40
1.0
 40
1.0
 10
13.8614547046
 20
57.2509881814
 30
0.0
 10
13.8433401908
 20
57.2694763597
 30
0.0
 10
13.7635215012
 20
57.3446467688
 30
0.0
 10
13.6726247554
 20
57.4075667986
 30
0.0
 10
13.6001595802
 20
57.4494059335
 30
0.0
  0
SPLINE
  5
283
100
AcDbEntity
  8
0
100
AcDbSpline
 62
7
  6
BYLAYER
 70
0
 71
3
 72
25
 73
21
 74
0
 42
0.0000001
 43
0.0000001
 44
0.0000000001
 40
0.0
 40
0.0
 40
0.0
 40
0.0
 40
0.0213317797
 40
0.042892043
 40
0.0648969414
 40
0.0875419536
 40
0.1353163243
 40
0.1872166937
 40
0.2436548455
 40
0.3046029226
 40
0.3696903377
 40
0.4382877458
 40
0.5095749599
 40
0.5825996089
 40
0.6563309761
 40
0.7297087932
 40
0.8016867703
 40
0.8712723804
 40
0.9376269365
 40
1.0
 40
1.0
 40
1.0
 40
1.0
 10
10.468772884
 20
56.4696359066
 30
0.0
 10
10.4687731695
 20
56.4412637673
 30
0.0
 10
10.4724459921
 20
56.3841504968
 30
0.0
 10
10.4888473659
 20
56.2991916601
 30
0.0
 10
10.5160646712
 20
56.2152112605
 30
0.0
 10
10.5674261438
 20
56.1032645882
 30
0.0
 10
10.6595639575
 20
55.9676653517
 30
0.0
 10
10.8067636978
 20
55.8198712302
 30
0.0
 10
10.989192935
 20
55.6865652971
 30
0.0
 10
11.2029343704
 20
55.5703200422
 30
0.0
 10
11.4435181756
 20
55.4733934524
 30
0.0
 10
11.7058914614
 20
55.397774209
 30
0.0
 10
11.9845101313
 20
55.3450467095
 30
0.0
 10
12.2734510608
 20
55.3163167781
 30
0.0
 10
12.566557935
 20
55.3121894109
 30
0.0
 10
12.8575825748
 20
55.3327578432
 30
0.0
 10
13.1403010167
 20
55.3775995486
 30
0.0
 10
13.408753904
 20
55.4457348144
 30
0.0
 10
13.657147849
 20
55.5357593482
 30
0.0
 10
13.8111478639
 20
55.6116752208
 30
0.0
 10
13.8829923343
 20
55.6531543976
 30
0.0
  0
SPLINE
  5
284
100
AcDbEntity
  8
0
100
AcDbSpline
 62
7
  6
BYLAYER
 70
0
 71
3
 72
15
 73
11
 74
0
 42
0.0000001
 43
0.0000001
 44
0.0000000001
 40
0.0
 40
0.0
 40
0.0
 40
0.0
 40
0.1141512577
 40
0.2373200215
 40
0.3669685884
 40
0.4999912727
 40
0.633015914
 40
0.7626659783
 40
0.8858477055
 40
1.0
 40
1.0
 40
1.0
 40
1.0
 10
30.5707929837
 20
47.6516278251
 30
0.0
 10
30.4933439684
 20
47.696344474
 30
0.0
 10
30.3239866873
 20
47.7752106809
 30
0.0
 10
30.0481958338
 20
47.8590399844
 30
0.0
 10
29.749606168
 20
47.9106402979
 30
0.0
 10
29.439432905
 20
47.9280560575
 30
0.0
 10
29.1292585455
 20
47.9106463377
 30
0.0
 10
28.8306534376
 20
47.8590581888
 30
0.0
 10
28.5548509292
 20
47.7752248024
 30
0.0
 10
28.3854811848
 20
47.6963597478
 30
0.0
 10
28.3080307273
 20
47.6516439722
 30
0.0
  0
SPLINE
  5
285
100
AcDbEntity
  8
0
100
AcDbSpline
 62
7
  6
BYLAYER
 70
0
 71
3
 72
15
 73
11
 74
0
 42
0.0000001
 43
0.0000001
 44
0.0000000001
 40
0.0
 40
0.0
 40
0.0
 40
0.0
 40
0.1080131279
 40
0.2180612218
 40
0.3320010906
 40
0.4513569005
 40
0.5772797604
 40
0.7104997397
 40
0.8513973505
 40
1.0
 40
1.0
 40
1.0
 40
1.0
 10
31.4394062876
 20
46.6718577981
 30
0.0
 10
31.4394059067
 20
46.7097193827
 30
0.0
 10
31.432815199
 20
46.7863073184
 30
0.0
 10
31.4034910042
 20
46.8994403379
 30
0.0
 10
31.3550299528
 20
47.0101215143
 30
0.0
 10
31.2881246655
 20
47.1172644009
 30
0.0
 10
31.2034592715
 20
47.2198556853
 30
0.0
 10
31.1019651618
 20
47.3170307922
 30
0.0
 10
30.984599077
 20
47.4078625064
 30
0.0
 10
30.8987605364
 20
47.46227997
 30
0.0
 10
30.8536501751
 20
47.4883251982
 30
0.0
  0
SPLINE
  5
286
100
AcDbEntity
  8
0
100
AcDbSpline
 62
7
  6
BYLAYER
 70
0
 71
3
 72
15
 73
11
 74
0
 42
0.0000001
 43
0.0000001
 44
0.0000000001
 40
0.0
 40
0.0
 40
0.0
 40
0.0
 40
0.1485260938
 40
0.2895006119
 40
0.4227409634
 40
0.5486445713
 40
0.6679954014
 40
0.7819394365
 40
0.8919880463
 40
1.0
 40
1.0
 40
1.0
 40
1.0
 10
28.0251868373
 20
47.4883393072
 30
0.0
 10
27.9800981217
 20
47.4623074805
 30
0.0
 10
27.8942622137
 20
47.4078811982
 30
0.0
 10
27.7768759632
 20
47.3170580666
 30
0.0
 10
27.6753513648
 20
47.2198684735
 30
0.0
 10
27.5906926763
 20
47.1172685055
 30
0.0
 10
27.5237914075
 20
47.0101281952
 30
0.0
 10
27.4753229839
 20
46.8994469115
 30
0.0
 10
27.4459953893
 20
46.7863099439
 30
0.0
 10
27.4394059066
 20
46.7097199808
 30
0.0
 10
27.4394062875
 20
46.6718577981
 30
0.0
  0
SPLINE
  5
287
100
AcDbEntity
  8
0
100
AcDbSpline
 62
7
  6
BYLAYER
 70
0
 71
3
 72
15
 73
11
 74
0
 42
0.0000001
 43
0.0000001
 44
0.0000000001
 40
0.0
 40
0.0
 40
0.0
 40
0.0
 40
0.1485260938
 40
0.2895006119
 40
0.4227409634
 40
0.5486445713
 40
0.6679954014
 40
0.7819394365
 40
0.8919880463
 40
1.0
 40
1.0
 40
1.0
 40
1.0
 10
30.8536257379
 20
45.8553762891
 30
0.0
 10
30.8987144535
 20
45.8814081158
 30
0.0
 10
30.9845503615
 20
45.9358343981
 30
0.0
 10
31.101936612
 20
46.0266575297
 30
0.0
 10
31.2034612104
 20
46.1238471228
 30
0.0
 10
31.2881198989
 20
46.2264470908
 30
0.0
 10
31.3550211676
 20
46.3335874011
 30
0.0
 10
31.4034895913
 20
46.4442686848
 30
0.0
 10
31.4328171858
 20
46.5574056523
 30
0.0
 10
31.4394066686
 20
46.6339956155
 30
0.0
 10
31.4394062876
 20
46.6718577981
 30
0.0
  0
SPLINE
  5
288
100
AcDbEntity
  8
0
100
AcDbSpline
 62
7
  6
BYLAYER
 70
0
 71
3
 72
9
 73
5
 74
0
 42
0.0000001
 43
0.0000001
 44
0.0000000001
 40
0.0
 40
0.0
 40
0.0
 40
0.0
 40
0.5175908732
 40
1.0
 40
1.0
 40
1.0
 40
1.0
 10
28.3080307273
 20
47.6516439722
 30
0.0
 10
28.2610056809
 20
47.6244942111
 30
0.0
 10
28.17288771
 20
47.5670837941
 30
0.0
 10
28.0926477232
 20
47.4989023382
 30
0.0
 10
28.0567113611
 20
47.4632675491
 30
0.0
  0
SPLINE
  5
289
100
AcDbEntity
  8
0
100
AcDbSpline
 62
7
  6
BYLAYER
 70
0
 71
3
 72
27
 73
23
 74
0
 42
0.0000001
 43
0.0000001
 44
0.0000000001
 40
0.0
 40
0.0
 40
0.0
 40
0.0
 40
0.0521182558
 40
0.0763994176
 40
0.0997525388
 40
0.1224626785
 40
0.1448671171
 40
0.1673253461
 40
0.1901930937
 40
0.2137929291
 40
0.2383991237
 40
0.291320302
 40
0.3499898693
 40
0.4144512727
 40
0.4840824668
 40
0.5577891877
 40
0.6341612853
 40
0.7116005095
 40
0.7884448437
 40
0.8630593364
 40
0.9339875222
 40
1.0
 40
1.0
 40
1.0
 40
1.0
 10
28.0567113611
 20
47.4632675491
 30
0.0
 10
28.0108509159
 20
47.4177919585
 30
0.0
 10
27.9497116994
 20
47.3440262259
 30
0.0
 10
27.8905803568
 20
47.2351308009
 30
0.0
 10
27.8598046537
 20
47.1532403157
 30
0.0
 10
27.8420208078
 20
47.0699457864
 30
0.0
 10
27.8373628308
 20
46.9859955139
 30
0.0
 10
27.8459322861
 20
46.9021591153
 30
0.0
 10
27.867603606
 20
46.8192108357
 30
0.0
 10
27.9021238285
 20
46.737862432
 30
0.0
 10
27.9663734024
 20
46.6298878226
 30
0.0
 10
28.0793882157
 20
46.5024206799
 30
0.0
 10
28.2544437491
 20
46.3704129012
 30
0.0
 10
28.4666515414
 20
46.2588204359
 30
0.0
 10
28.7094173319
 20
46.1709107924
 30
0.0
 10
28.9752187634
 20
46.1092807889
 30
0.0
 10
29.2557023206
 20
46.0758523332
 30
0.0
 10
29.5420098055
 20
46.0716636837
 30
0.0
 10
29.8250553337
 20
46.0968661265
 30
0.0
 10
30.0959334385
 20
46.1506406925
 30
0.0
 10
30.3460000324
 20
46.2313206144
 30
0.0
 10
30.4999386011
 20
46.3043724343
 30
0.0
 10
30.5707818478
 20
46.3452735578
 30
0.0
  0
SPLINE
  5
28A
100
AcDbEntity
  8
0
100
AcDbSpline
 62
7
  6
BYLAYER
 70
0
 71
3
 72
19
 73
15
 74
0
 42
0.0000001
 43
0.0000001
 44
0.0000000001
 40
0.0
 40
0.0
 40
0.0
 40
0.0
 40
0.1502310308
 40
0.2874245777
 40
0.41249624
 40
0.4714370892
 40
0.5285721513
 40
0.5845232331
 40
0.6399904438
 40
0.6957023035
 40
0.7523717849
 40
0.8106484086
 40
0.87109725
 40
1.0
 40
1.0
 40
1.0
 40
1.0
 10
30.5707818478
 20
46.3452735578
 30
0.0
 10
30.6294624077
 20
46.3791525926
 30
0.0
 10
30.7376376821
 20
46.451653176
 30
0.0
 10
30.8737094838
 20
46.5799076579
 30
0.0
 10
30.9578826667
 20
46.699456596
 30
0.0
 10
31.0032992769
 20
46.798570157
 30
0.0
 10
31.0263527292
 20
46.8728999636
 30
0.0
 10
31.0387970642
 20
46.9481437825
 30
0.0
 10
31.0405852878
 20
47.0237542276
 30
0.0
 10
31.0316435345
 20
47.0991799521
 30
0.0
 10
31.0120898561
 20
47.1738659521
 30
0.0
 10
30.9820934691
 20
47.247308769
 30
0.0
 10
30.9273333024
 20
47.3448961685
 30
0.0
 10
30.8727765938
 20
47.411682269
 30
0.0
 10
30.8320881082
 20
47.4532100729
 30
0.0
  0
SPLINE
  5
28B
100
AcDbEntity
  8
0
100
AcDbSpline
 62
7
  6
BYLAYER
 70
0
 71
3
 72
9
 73
5
 74
0
 42
0.0000001
 43
0.0000001
 44
0.0000000001
 40
0.0
 40
0.0
 40
0.0
 40
0.0
 40
0.2362491101
 40
1.0
 40
1.0
 40
1.0
 40
1.0
 10
30.8320881082
 20
47.4532100729
 30
0.0
 10
30.8139735943
 20
47.4716982512
 30
0.0
 10
30.7341549047
 20
47.5468686603
 30
0.0
 10
30.6432581589
 20
47.6097886902
 30
0.0
 10
30.5707929837
 20
47.6516278251
 30
0.0
  0
SPLINE
  5
28C
100
AcDbEntity
  8
0
100
AcDbSpline
 62
7
  6
BYLAYER
 70
0
 71
3
 72
25
 73
21
 74
0
 42
0.0000001
 43
0.0000001
 44
0.0000000001
 40
0.0
 40
0.0
 40
0.0
 40
0.0
 40
0.0213317797
 40
0.042892043
 40
0.0648969414
 40
0.0875419536
 40
0.1353163243
 40
0.1872166937
 40
0.2436548455
 40
0.3046029226
 40
0.3696903377
 40
0.4382877458
 40
0.5095749599
 40
0.5825996089
 40
0.6563309761
 40
0.7297087932
 40
0.8016867703
 40
0.8712723804
 40
0.9376269365
 40
1.0
 40
1.0
 40
1.0
 40
1.0
 10
27.4394062875
 20
46.6718577981
 30
0.0
 10
27.439406573
 20
46.6434856588
 30
0.0
 10
27.4430793956
 20
46.5863723883
 30
0.0
 10
27.4594807694
 20
46.5014135516
 30
0.0
 10
27.4866980748
 20
46.417433152
 30
0.0
 10
27.5380595473
 20
46.3054864797
 30
0.0
 10
27.630197361
 20
46.1698872432
 30
0.0
 10
27.7773971013
 20
46.0220931217
 30
0.0
 10
27.9598263385
 20
45.8887871887
 30
0.0
 10
28.1735677739
 20
45.7725419337
 30
0.0
 10
28.4141515791
 20
45.675615344
 30
0.0
 10
28.6765248649
 20
45.5999961005
 30
0.0
 10
28.9551435348
 20
45.547268601
 30
0.0
 10
29.2440844644
 20
45.5185386696
 30
0.0
 10
29.5371913386
 20
45.5144113024
 30
0.0
 10
29.8282159783
 20
45.5349797347
 30
0.0
 10
30.1109344202
 20
45.5798214401
 30
0.0
 10
30.3793873075
 20
45.6479567059
 30
0.0
 10
30.6277812525
 20
45.7379812398
 30
0.0
 10
30.7817812674
 20
45.8138971123
 30
0.0
 10
30.8536257379
 20
45.8553762891
 30
0.0
  0
SPLINE
  5
28D
100
AcDbEntity
  8
0
100
AcDbSpline
 62
7
  6
BYLAYER
 70
0
 71
3
 72
23
 73
19
 74
0
 42
0.0000001
 43
0.0000001
 44
0.0000000001
 40
0.0
 40
0.0
 40
0.0
 40
0.0
 40
0.0457811485
 40
0.0949746517
 40
0.1479196237
 40
0.2046662713
 40
0.2650339284
 40
0.3286524406
 40
0.3950076248
 40
0.4634799645
 40
0.5333701617
 40
0.6039304068
 40
0.6743911252
 40
0.7439893375
 40
0.8119839948
 40
0.8776908572
 40
0.9405454215
 40
1.0
 40
1.0
 40
1.0
 40
1.0
 10
31.2513277838
 20
61.3720581744
 30
0.0
 10
31.2261152347
 20
61.4182102228
 30
0.0
 10
31.1644051374
 20
61.5089997922
 30
0.0
 10
31.0468170435
 20
61.6324928842
 30
0.0
 10
30.9032412312
 20
61.7460359345
 30
0.0
 10
30.7360762933
 20
61.8479209139
 30
0.0
 10
30.5479752347
 20
61.9366135062
 30
0.0
 10
30.3419558672
 20
62.0107350164
 30
0.0
 10
30.1213312995
 20
62.0691344625
 30
0.0
 10
29.8896534256
 20
62.1108546162
 30
0.0
 10
29.6506731122
 20
62.135228756
 30
0.0
 10
29.4082662502
 20
62.1418792282
 30
0.0
 10
29.1663616757
 20
62.1306749326
 30
0.0
 10
28.9288856977
 20
62.1018001954
 30
0.0
 10
28.6996883481
 20
62.0557493984
 30
0.0
 10
28.482438819
 20
61.9932273375
 30
0.0
 10
28.2807266888
 20
61.9152357131
 30
0.0
 10
28.1549739467
 20
61.8518958809
 30
0.0
 10
28.0958271546
 20
61.8177476684
 30
0.0
  0
SPLINE
  5
28E
100
AcDbEntity
  8
0
100
AcDbSpline
 62
7
  6
BYLAYER
 70
0
 71
3
 72
14
 73
10
 74
0
 42
0.0000001
 43
0.0000001
 44
0.0000000001
 40
0.0
 40
0.0
 40
0.0
 40
0.0
 40
0.1080578617
 40
0.2181536135
 40
0.3321483672
 40
0.4515529382
 40
0.7103677854
 40
0.8514074843
 40
1.0
 40
1.0
 40
1.0
 40
1.0
 10
31.339333391
 20
61.6952921683
 30
0.0
 10
31.3393336898
 20
61.6593239996
 30
0.0
 10
31.3330751313
 20
61.5865646761
 30
0.0
 10
31.3052148506
 20
61.4790885038
 30
0.0
 10
31.2591676835
 20
61.3739338719
 30
0.0
 10
31.1721364197
 20
61.2345642907
 30
0.0
 10
31.0517281437
 20
61.1078672496
 30
0.0
 10
30.9072463571
 20
60.9960907714
 30
0.0
 10
30.825678262
 20
60.9443648964
 30
0.0
 10
30.7828441102
 20
60.9196347349
 30
0.0
  0
SPLINE
  5
28F
100
AcDbEntity
  8
0
100
AcDbSpline
 62
7
  6
BYLAYER
 70
0
 71
3
 72
28
 73
24
 74
0
 42
0.0000001
 43
0.0000001
 44
0.0000000001
 40
0.0
 40
0.0
 40
0.0
 40
0.0
 40
0.021329098
 40
0.0428866739
 40
0.0648889103
 40
0.087530704
 40
0.1109768854
 40
0.1353607094
 40
0.187254797
 40
0.2149150587
 40
0.2437224237
 40
0.3046626035
 40
0.3697422387
 40
0.438331036
 40
0.5096087139
 40
0.5826239842
 40
0.6563464097
 40
0.7297145361
 40
0.8016819268
 40
0.871266416
 40
0.9375963875
 40
0.9693350078
 40
1.0
 40
1.0
 40
1.0
 40
1.0
 10
35.689326996
 20
61.695292168
 30
0.0
 10
35.6893268916
 20
61.7839552183
 30
0.0
 10
35.6778964394
 20
61.9624376111
 30
0.0
 10
35.6265988751
 20
62.2279320011
 30
0.0
 10
35.541556406
 20
62.4903591992
 30
0.0
 10
35.4232736181
 20
62.7481609629
 30
0.0
 10
35.2725480277
 20
63.0000025652
 30
0.0
 10
35.0244049573
 20
63.3327927331
 30
0.0
 10
34.7177817432
 20
63.6408086332
 30
0.0
 10
34.3652026549
 20
63.9215322404
 30
0.0
 10
33.96204148
 20
64.1973176253
 30
0.0
 10
33.3950406941
 20
64.5056912672
 30
0.0
 10
32.6432766959
 20
64.8085446418
 30
0.0
 10
31.8233377409
 20
65.0448528784
 30
0.0
 10
30.9526648278
 20
65.2096368691
 30
0.0
 10
30.0497247633
 20
65.2994297203
 30
0.0
 10
29.133763469
 20
65.3123180978
 30
0.0
 10
28.2243270023
 20
65.2480280967
 30
0.0
 10
27.3407744634
 20
65.107926017
 30
0.0
 10
26.5020021438
 20
64.8949924471
 30
0.0
 10
25.8454131936
 20
64.6571069175
 30
0.0
 10
25.3592126493
 20
64.4329709488
 30
0.0
 10
25.1302935572
 20
64.3105323402
 30
0.0
 10
25.0198998502
 20
64.2467968842
 30
0.0
  0
SPLINE
  5
290
100
AcDbEntity
  8
0
100
AcDbSpline
 62
7
  6
BYLAYER
 70
0
 71
3
 72
15
 73
11
 74
0
 42
0.0000001
 43
0.0000001
 44
0.0000000001
 40
0.0
 40
0.0
 40
0.0
 40
0.0
 40
0.1145548202
 40
0.2302436291
 40
0.3481465996
 40
0.4692404232
 40
0.5943589897
 40
0.7242032221
 40
0.8593218132
 40
1.0
 40
1.0
 40
1.0
 40
1.0
 10
37.7893271067
 20
60.2255878176
 30
0.0
 10
37.7893271064
 20
60.3394152966
 30
0.0
 10
37.7752315303
 20
60.5684413652
 30
0.0
 10
37.7119892327
 20
60.9093550592
 30
0.0
 10
37.6070604398
 20
61.2466414008
 30
0.0
 10
37.4610665982
 20
61.5784700796
 30
0.0
 10
37.2748816028
 20
61.9032042529
 30
0.0
 10
37.0494984361
 20
62.2192698313
 30
0.0
 10
36.7861383314
 20
62.5250551465
 30
0.0
 10
36.5902220179
 20
62.7171738661
 30
0.0
 10
36.4867605115
 20
62.8111715127
 30
0.0
  0
SPLINE
  5
291
100
AcDbEntity
  8
0
100
AcDbSpline
 62
7
  6
BYLAYER
 70
0
 71
3
 72
15
 73
11
 74
0
 42
0.0000001
 43
0.0000001
 44
0.0000000001
 40
0.0
 40
0.0
 40
0.0
 40
0.0
 40
0.1406778591
 40
0.2757962216
 40
0.4056403317
 40
0.5307588797
 40
0.6518527803
 40
0.7697559084
 40
0.8854449332
 40
1.0
 40
1.0
 40
1.0
 40
1.0
 10
22.3918734626
 20
62.8111376328
 30
0.0
 10
22.2884148045
 20
62.717140845
 30
0.0
 10
22.0925039203
 20
62.5250240017
 30
0.0
 10
21.829151291
 20
62.2192421409
 30
0.0
 10
21.6037745981
 20
61.9031804598
 30
0.0
 10
21.417595005
 20
61.5784505624
 30
0.0
 10
21.2716054382
 20
61.2466264732
 30
0.0
 10
21.1666797379
 20
60.9093449674
 30
0.0
 10
21.1034393152
 20
60.5684362745
 30
0.0
 10
21.0893441577
 20
60.3394136198
 30
0.0
 10
21.0893441581
 20
60.2255878176
 30
0.0
  0
SPLINE
  5
292
100
AcDbEntity
  8
0
100
AcDbSpline
 62
7
  6
BYLAYER
 70
0
 71
3
 72
16
 73
12
 74
0
 42
0.0000001
 43
0.0000001
 44
0.0000000001
 40
0.0
 40
0.0
 40
0.0
 40
0.0
 40
0.148571225
 40
0.2894805763
 40
0.422682787
 40
0.5485900627
 40
0.6679373439
 40
0.7818631986
 40
0.8919013685
 40
0.9460798862
 40
1.0
 40
1.0
 40
1.0
 40
1.0
 10
25.0198998502
 20
64.2467968842
 30
0.0
 10
24.8789408427
 20
64.1654146491
 30
0.0
 10
24.6106656168
 20
63.9953707622
 30
0.0
 10
24.2438993644
 20
63.7114931748
 30
0.0
 10
23.9266662456
 20
63.4078373697
 30
0.0
 10
23.6621315515
 20
63.0872028497
 30
0.0
 10
23.4529901265
 20
62.7523897126
 30
0.0
 10
23.3015963808
 20
62.4065488671
 30
0.0
 10
23.2247650206
 20
62.1101264425
 30
0.0
 10
23.1943898607
 20
61.8728574682
 30
0.0
 10
23.1893441991
 20
61.7543636214
 30
0.0
 10
23.1893442687
 20
61.6952921689
 30
0.0
  0
SPLINE
  5
293
100
AcDbEntity
  8
0
100
AcDbSpline
 62
7
  6
BYLAYER
 70
0
 71
3
 72
25
 73
21
 74
0
 42
0.0000001
 43
0.0000001
 44
0.0000000001
 40
0.0
 40
0.0
 40
0.0
 40
0.0
 40
0.0623731472
 40
0.128728048
 40
0.1983142965
 40
0.2702924517
 40
0.3436691482
 40
0.4174005707
 40
0.4904262446
 40
0.5617140822
 40
0.6303117052
 40
0.6953989143
 40
0.7563464804
 40
0.8127840572
 40
0.8646839837
 40
0.9124580541
 40
0.9351030159
 40
0.9571079433
 40
0.9786682911
 40
1.0
 40
1.0
 40
1.0
 40
1.0
 10
30.7828441102
 20
60.9196347349
 30
0.0
 10
30.7145918452
 20
60.8802295065
 30
0.0
 10
30.5682914917
 20
60.8081092729
 30
0.0
 10
30.3323161084
 20
60.7225859069
 30
0.0
 10
30.0772845766
 20
60.6578576121
 30
0.0
 10
29.8087026403
 20
60.6152587756
 30
0.0
 10
29.5322306592
 20
60.5957185936
 30
0.0
 10
29.2537794929
 20
60.5996407677
 30
0.0
 10
28.9792837577
 20
60.6269342248
 30
0.0
 10
28.7145941079
 20
60.6770265181
 30
0.0
 10
28.4653392423
 20
60.7488658
 30
0.0
 10
28.2367857021
 20
60.840946311
 30
0.0
 10
28.0337333529
 20
60.9513790914
 30
0.0
 10
27.8604277458
 20
61.0780189409
 30
0.0
 10
27.7205892084
 20
61.2184219423
 30
0.0
 10
27.6330591749
 20
61.3472403002
 30
0.0
 10
27.5842652898
 20
61.4535888734
 30
0.0
 10
27.5584097047
 20
61.5333705173
 30
0.0
 10
27.5428276615
 20
61.6140811764
 30
0.0
 10
27.5393380978
 20
61.6683387548
 30
0.0
 10
27.5393378738
 20
61.6952921687
 30
0.0
  0
SPLINE
  5
294
100
AcDbEntity
  8
0
100
AcDbSpline
 62
7
  6
BYLAYER
 70
0
 71
3
 72
11
 73
7
 74
0
 42
0.0000001
 43
0.0000001
 44
0.0000000001
 40
0.0
 40
0.0
 40
0.0
 40
0.0
 40
0.2755217852
 40
0.5337303489
 40
0.774654546
 40
1.0
 40
1.0
 40
1.0
 40
1.0
 10
28.0958271546
 20
61.8177476684
 30
0.0
 10
28.0439535787
 20
61.7877986241
 30
0.0
 10
27.9462703681
 20
61.7246820783
 30
0.0
 10
27.8160672316
 20
61.6171887088
 30
0.0
 10
27.7087504741
 20
61.501216705
 30
0.0
 10
27.6518466371
 20
61.4166658464
 30
0.0
 10
27.6282597435
 20
61.3737277264
 30
0.0
  0
SPLINE
  5
295
100
AcDbEntity
  8
0
100
AcDbSpline
 62
7
  6
BYLAYER
 70
0
 71
3
 72
16
 73
12
 74
0
 42
0.0000001
 43
0.0000001
 44
0.0000000001
 40
0.0
 40
0.0
 40
0.0
 40
0.0
 40
0.0539198454
 40
0.1080981286
 40
0.2181358948
 40
0.3320616074
 40
0.4514089954
 40
0.5773163581
 40
0.7105188782
 40
0.8514287932
 40
1.0
 40
1.0
 40
1.0
 40
1.0
 10
35.6893269185
 20
60.2255878169
 30
0.0
 10
35.6893270672
 20
60.1665166606
 30
0.0
 10
35.6842815866
 20
60.0480233471
 30
0.0
 10
35.6539059144
 20
59.8107554618
 30
0.0
 10
35.5770759649
 20
59.5143336296
 30
0.0
 10
35.4256824903
 20
59.1684931149
 30
0.0
 10
35.2165411577
 20
58.8336799289
 30
0.0
 10
34.9520069119
 20
58.5130443369
 30
0.0
 10
34.6347730352
 20
58.2093877708
 30
0.0
 10
34.2680060208
 20
57.9255096851
 30
0.0
 10
33.9997303997
 20
57.7554653241
 30
0.0
 10
33.8587714145
 20
57.6740831019
 30
0.0
  0
SPLINE
  5
296
100
AcDbEntity
  8
0
100
AcDbSpline
 62
7
  6
BYLAYER
 70
0
 71
3
 72
14
 73
10
 74
0
 42
0.0000001
 43
0.0000001
 44
0.0000000001
 40
0.0
 40
0.0
 40
0.0
 40
0.0
 40
0.1080578617
 40
0.2181536135
 40
0.3321483672
 40
0.4515529382
 40
0.7103677854
 40
0.8514074843
 40
1.0
 40
1.0
 40
1.0
 40
1.0
 10
27.5393378738
 20
61.6952921687
 30
0.0
 10
27.5393375749
 20
61.7312603373
 30
0.0
 10
27.5455961334
 20
61.8040196609
 30
0.0
 10
27.5734564141
 20
61.9114958331
 30
0.0
 10
27.6195035812
 20
62.016650465
 30
0.0
 10
27.7065348451
 20
62.1560200462
 30
0.0
 10
27.8269431211
 20
62.2827170873
 30
0.0
 10
27.9714249076
 20
62.3944935656
 30
0.0
 10
28.0529930028
 20
62.4462194406
 30
0.0
 10
28.0958271546
 20
62.4709496021
 30
0.0
  0
SPLINE
  5
297
100
AcDbEntity
  8
0
100
AcDbSpline
 62
7
  6
BYLAYER
 70
0
 71
3
 72
28
 73
24
 74
0
 42
0.0000001
 43
0.0000001
 44
0.0000000001
 40
0.0
 40
0.0
 40
0.0
 40
0.0
 40
0.0306649623
 40
0.0624034409
 40
0.1287330966
 40
0.1983173565
 40
0.2702846573
 40
0.3436529429
 40
0.4173756199
 40
0.4903910395
 40
0.5616687709
 40
0.6302576308
 40
0.6953373499
 40
0.7562775816
 40
0.7850849601
 40
0.812745222
 40
0.864639328
 40
0.8890231727
 40
0.9124693698
 40
0.9351111722
 40
0.9571133983
 40
0.9786709441
 40
1.0
 40
1.0
 40
1.0
 40
1.0
 10
33.8587714145
 20
57.6740831019
 30
0.0
 10
33.7483778158
 20
57.6103477084
 30
0.0
 10
33.5194594231
 20
57.487909309
 30
0.0
 10
33.0332607037
 20
57.263774223
 30
0.0
 10
32.3766745803
 20
57.02588937
 30
0.0
 10
31.5379050401
 20
56.8129556195
 30
0.0
 10
30.6543532777
 20
56.6728529168
 30
0.0
 10
29.7449155377
 20
56.6085620293
 30
0.0
 10
28.8289519019
 20
56.6214499028
 30
0.0
 10
27.9260099228
 20
56.7112425872
 30
0.0
 10
27.055335881
 20
56.8760265468
 30
0.0
 10
26.2353960876
 20
57.1123348502
 30
0.0
 10
25.483631249
 20
57.4151883763
 30
0.0
 10
24.9166299872
 20
57.7235624089
 30
0.0
 10
24.5134684319
 20
57.999347722
 30
0.0
 10
24.1608894125
 20
58.2800716426
 30
0.0
 10
23.8542661654
 20
58.5880876879
 30
0.0
 10
23.6061227943
 20
58.9208779325
 30
0.0
 10
23.4553974002
 20
59.1727198666
 30
0.0
 10
23.337114513
 20
59.4305216461
 30
0.0
 10
23.2520723161
 20
59.6929487941
 30
0.0
 10
23.2007748393
 20
59.9584428538
 30
0.0
 10
23.1893445696
 20
60.1369249437
 30
0.0
 10
23.1893443463
 20
60.2255878184
 30
0.0
  0
SPLINE
  5
298
100
AcDbEntity
  8
0
100
AcDbSpline
 62
7
  6
BYLAYER
 70
0
 71
3
 72
28
 73
24
 74
0
 42
0.0000001
 43
0.0000001
 44
0.0000000001
 40
0.0
 40
0.0
 40
0.0
 40
0.0
 40
0.021329098
 40
0.0428866739
 40
0.0648889103
 40
0.087530704
 40
0.1109768854
 40
0.1353607094
 40
0.187254797
 40
0.2149150587
 40
0.2437224237
 40
0.3046626035
 40
0.3697422387
 40
0.438331036
 40
0.5096087139
 40
0.5826239842
 40
0.6563464097
 40
0.7297145361
 40
0.8016819268
 40
0.871266416
 40
0.9375963875
 40
0.9693350078
 40
1.0
 40
1.0
 40
1.0
 40
1.0
 10
23.1893442687
 20
61.6952921689
 30
0.0
 10
23.1893443732
 20
61.6066291187
 30
0.0
 10
23.2007748253
 20
61.4281467258
 30
0.0
 10
23.2520723897
 20
61.1626523358
 30
0.0
 10
23.3371148588
 20
60.9002251377
 30
0.0
 10
23.4553976467
 20
60.642423374
 30
0.0
 10
23.606123237
 20
60.3905817717
 30
0.0
 10
23.8542663075
 20
60.0577916039
 30
0.0
 10
24.1608895216
 20
59.7497757038
 30
0.0
 10
24.5134686098
 20
59.4690520965
 30
0.0
 10
24.9166297848
 20
59.1932667117
 30
0.0
 10
25.4836305707
 20
58.8848930697
 30
0.0
 10
26.2353945688
 20
58.5820396951
 30
0.0
 10
27.0553335239
 20
58.3457314586
 30
0.0
 10
27.9260064369
 20
58.1809474678
 30
0.0
 10
28.8289465014
 20
58.0911546166
 30
0.0
 10
29.7449077957
 20
58.0782662392
 30
0.0
 10
30.6543442625
 20
58.1425562402
 30
0.0
 10
31.5378968014
 20
58.2826583199
 30
0.0
 10
32.3766691209
 20
58.4955918898
 30
0.0
 10
33.0332580712
 20
58.7334774194
 30
0.0
 10
33.5194586154
 20
58.9576133882
 30
0.0
 10
33.7483777076
 20
59.0800519967
 30
0.0
 10
33.8587714145
 20
59.1437874527
 30
0.0
  0
SPLINE
  5
299
100
AcDbEntity
  8
0
100
AcDbSpline
 62
7
  6
BYLAYER
 70
0
 71
3
 72
16
 73
12
 74
0
 42
0.0000001
 43
0.0000001
 44
0.0000000001
 40
0.0
 40
0.0
 40
0.0
 40
0.0
 40
0.148571225
 40
0.2894805763
 40
0.422682787
 40
0.5485900627
 40
0.6679373439
 40
0.7818631986
 40
0.8919013685
 40
0.9460798862
 40
1.0
 40
1.0
 40
1.0
 40
1.0
 10
33.8587714145
 20
59.1437874527
 30
0.0
 10
33.999730422
 20
59.2251696878
 30
0.0
 10
34.268005648
 20
59.3952135748
 30
0.0
 10
34.6347719004
 20
59.6790911621
 30
0.0
 10
34.9520050192
 20
59.9827469672
 30
0.0
 10
35.2165397133
 20
60.3033814872
 30
0.0
 10
35.4256811382
 20
60.6381946243
 30
0.0
 10
35.5770748839
 20
60.9840354699
 30
0.0
 10
35.6539062442
 20
61.2804578944
 30
0.0
 10
35.684281404
 20
61.5177268687
 30
0.0
 10
35.6893270656
 20
61.6362207156
 30
0.0
 10
35.689326996
 20
61.695292168
 30
0.0
  0
SPLINE
  5
29A
100
AcDbEntity
  8
0
100
AcDbSpline
 62
7
  6
BYLAYER
 70
0
 71
3
 72
25
 73
21
 74
0
 42
0.0000001
 43
0.0000001
 44
0.0000000001
 40
0.0
 40
0.0
 40
0.0
 40
0.0
 40
0.0623731472
 40
0.128728048
 40
0.1983142965
 40
0.2702924517
 40
0.3436691482
 40
0.4174005707
 40
0.4904262446
 40
0.5617140822
 40
0.6303117052
 40
0.6953989143
 40
0.7563464804
 40
0.8127840572
 40
0.8646839837
 40
0.9124580541
 40
0.9351030159
 40
0.9571079433
 40
0.9786682911
 40
1.0
 40
1.0
 40
1.0
 40
1.0
 10
28.0958271546
 20
62.4709496021
 30
0.0
 10
28.1640794196
 20
62.5103548304
 30
0.0
 10
28.3103797731
 20
62.582475064
 30
0.0
 10
28.5463551564
 20
62.66799843
 30
0.0
 10
28.8013866881
 20
62.7327267248
 30
0.0
 10
29.0699686244
 20
62.7753255613
 30
0.0
 10
29.3464406056
 20
62.7948657433
 30
0.0
 10
29.6248917719
 20
62.7909435693
 30
0.0
 10
29.8993875071
 20
62.7636501121
 30
0.0
 10
30.1640771568
 20
62.7135578188
 30
0.0
 10
30.4133320225
 20
62.6417185369
 30
0.0
 10
30.6418855627
 20
62.5496380259
 30
0.0
 10
30.8449379119
 20
62.4392052456
 30
0.0
 10
31.0182435189
 20
62.3125653961
 30
0.0
 10
31.1580820563
 20
62.1721623947
 30
0.0
 10
31.2456120899
 20
62.0433440368
 30
0.0
 10
31.2944059749
 20
61.9369954635
 30
0.0
 10
31.3202615601
 20
61.8572138196
 30
0.0
 10
31.3358436032
 20
61.7765031606
 30
0.0
 10
31.339333167
 20
61.7222455821
 30
0.0
 10
31.339333391
 20
61.6952921683
 30
0.0
  0
SPLINE
  5
29B
100
AcDbEntity
  8
0
100
AcDbSpline
 62
7
  6
BYLAYER
 70
0
 71
3
 72
11
 73
7
 74
0
 42
0.0000001
 43
0.0000001
 44
0.0000000001
 40
0.0
 40
0.0
 40
0.0
 40
0.0
 40
0.2485741145
 40
0.499991377
 40
0.7514132687
 40
1.0
 40
1.0
 40
1.0
 40
1.0
 10
31.2214172644
 20
61.3388037301
 30
0.0
 10
30.9287261757
 20
61.3839835028
 30
0.0
 10
30.3361578476
 20
61.4515059666
 30
0.0
 10
29.4407274758
 20
61.4851989859
 30
0.0
 10
28.5452743119
 20
61.4517136261
 30
0.0
 10
27.9526695997
 20
61.3843305345
 30
0.0
 10
27.6599525499
 20
61.3392204695
 30
0.0
  0
SPLINE
  5
29C
100
AcDbEntity
  8
0
100
AcDbSpline
 62
7
  6
BYLAYER
 70
0
 71
3
 72
26
 73
22
 74
0
 42
0.0000001
 43
0.0000001
 44
0.0000000001
 40
0.0
 40
0.0
 40
0.0
 40
0.0
 40
0.0623760196
 40
0.1287184444
 40
0.198304287
 40
0.2702785553
 40
0.3436519814
 40
0.4173804554
 40
0.4904017301
 40
0.561685085
 40
0.6302791634
 40
0.6953638038
 40
0.7563088614
 40
0.8127439705
 40
0.8392678549
 40
0.8646901204
 40
0.912462548
 40
0.9351058824
 40
0.9571099593
 40
0.9786692246
 40
1.0
 40
1.0
 40
1.0
 40
1.0
 10
32.9607420636
 20
15.5125220689
 30
0.0
 10
32.7818321662
 20
15.4092290081
 30
0.0
 10
32.3983892954
 20
15.2201840192
 30
0.0
 10
31.7798752233
 20
14.9960514975
 30
0.0
 10
31.1114491128
 20
14.82638654
 30
0.0
 10
30.4074690077
 20
14.7147437421
 30
0.0
 10
29.6828204733
 20
14.6635181473
 30
0.0
 10
28.952983441
 20
14.6737809925
 30
0.0
 10
28.2335197172
 20
14.7453275106
 30
0.0
 10
27.5397615042
 20
14.8766335066
 30
0.0
 10
26.8864558266
 20
15.0649156608
 30
0.0
 10
26.2873796384
 20
15.3062650747
 30
0.0
 10
25.7552273195
 20
15.5956907948
 30
0.0
 10
25.3688968898
 20
15.8779542114
 30
0.0
 10
25.1062369771
 20
16.1232303951
 30
0.0
 10
24.8848039686
 20
16.3686038016
 30
0.0
 10
24.7049478515
 20
16.6333052981
 30
0.0
 10
24.5770997359
 20
16.9120442058
 30
0.0
 10
24.5093255385
 20
17.1211555793
 30
0.0
 10
24.4684465276
 20
17.3326981461
 30
0.0
 10
24.4593483058
 20
17.4749142951
 30
0.0
 10
24.4593483927
 20
17.5455610264
 30
0.0
  0
SPLINE
  5
29D
100
AcDbEntity
  8
0
100
AcDbSpline
 62
7
  6
BYLAYER
 70
0
 71
3
 72
15
 73
11
 74
0
 42
0.0000001
 43
0.0000001
 44
0.0000000001
 40
0.0
 40
0.0
 40
0.0
 40
0.0
 40
0.1080118028
 40
0.2180606495
 40
0.3319995088
 40
0.4513602297
 40
0.5772675643
 40
0.7104907695
 40
0.8514450638
 40
1.0
 40
1.0
 40
1.0
 40
1.0
 10
34.4193228721
 20
17.5455610264
 30
0.0
 10
34.4193227561
 20
17.4512842073
 30
0.0
 10
34.4029704345
 20
17.2605675424
 30
0.0
 10
34.3298720628
 20
16.9788794353
 30
0.0
 10
34.2092575387
 20
16.7032483282
 30
0.0
 10
34.042604815
 20
16.4364984779
 30
0.0
 10
33.8318363739
 20
16.181006508
 30
0.0
 10
33.5790515396
 20
15.9390323434
 30
0.0
 10
33.2867843622
 20
15.7128632636
 30
0.0
 10
33.0730349055
 20
15.5773539845
 30
0.0
 10
32.9607420636
 20
15.5125220689
 30
0.0
  0
SPLINE
  5
29E
100
AcDbEntity
  8
0
100
AcDbSpline
 62
7
  6
BYLAYER
 70
0
 71
3
 72
13
 73
9
 74
0
 42
0.0000001
 43
0.0000001
 44
0.0000000001
 40
0.0
 40
0.0
 40
0.0
 40
0.0
 40
0.2659769341
 40
0.5251852922
 40
0.6503575048
 40
0.77159226
 40
0.8882996875
 40
1.0
 40
1.0
 40
1.0
 40
1.0
 10
29.4393724784
 20
55.1161109808
 30
0.0
 10
30.015849457
 20
55.1161123665
 30
0.0
 10
31.1551160582
 20
55.1800288572
 30
0.0
 10
32.5476397235
 20
55.4206654799
 30
0.0
 10
33.6057396514
 20
55.708464858
 30
0.0
 10
34.3503833542
 20
55.9651908873
 30
0.0
 10
35.048072978
 20
56.2626493503
 30
0.0
 10
35.4876885847
 20
56.4916795787
 30
0.0
 10
35.6973539251
 20
56.6127258711
 30
0.0
  0
SPLINE
  5
29F
100
AcDbEntity
  8
0
100
AcDbSpline
 62
7
  6
BYLAYER
 70
0
 71
3
 72
13
 73
9
 74
0
 42
0.0000001
 43
0.0000001
 44
0.0000000001
 40
0.0
 40
0.0
 40
0.0
 40
0.0
 40
0.1116798938
 40
0.2284166979
 40
0.3496458487
 40
0.4748140097
 40
0.7340245056
 40
1.0
 40
1.0
 40
1.0
 40
1.0
 10
23.181466673
 20
56.6126270559
 30
0.0
 10
23.3910897358
 20
56.4916038621
 30
0.0
 10
23.8307482823
 20
56.2626331709
 30
0.0
 10
24.5284030519
 20
55.9651092806
 30
0.0
 10
25.2730931492
 20
55.7084189076
 30
0.0
 10
26.3311618369
 20
55.4206408478
 30
0.0
 10
27.7236580907
 20
55.1800180931
 30
0.0
 10
28.8629079268
 20
55.1161095952
 30
0.0
 10
29.4393724784
 20
55.1161109808
 30
0.0
  0
SPLINE
  5
2A0
100
AcDbEntity
  8
0
100
AcDbSpline
 62
7
  6
BYLAYER
 70
0
 71
3
 72
14
 73
10
 74
0
 42
0.0000001
 43
0.0000001
 44
0.0000000001
 40
0.0
 40
0.0
 40
0.0
 40
0.0
 40
0.2856866926
 40
0.4179486157
 40
0.5436058994
 40
0.6634198123
 40
0.7784584605
 40
0.8901095964
 40
1.0
 40
1.0
 40
1.0
 40
1.0
 10
23.1785535892
 20
56.6275760748
 30
0.0
 10
22.8620804466
 20
56.8346479246
 30
0.0
 10
22.4207909955
 20
57.1754307746
 30
0.0
 10
21.9257249527
 20
57.6993026386
 30
0.0
 10
21.6248139038
 20
58.1002122316
 30
0.0
 10
21.3874982241
 20
58.5158367189
 30
0.0
 10
21.2161635337
 20
58.943052085
 30
0.0
 10
21.1125196741
 20
59.3780756224
 30
0.0
 10
21.0893546398
 20
59.671861263
 30
0.0
 10
21.0893453138
 20
59.8173366093
 30
0.0
  0
SPLINE
  5
2A1
100
AcDbEntity
  8
0
100
AcDbSpline
 62
7
  6
BYLAYER
 70
0
 71
3
 72
14
 73
10
 74
0
 42
0.0000001
 43
0.0000001
 44
0.0000000001
 40
0.0
 40
0.0
 40
0.0
 40
0.0
 40
0.1080431444
 40
0.2181326404
 40
0.3321056638
 40
0.4514814971
 40
0.5774303852
 40
0.7107553626
 40
1.0
 40
1.0
 40
1.0
 40
1.0
 10
48.5598826004
 20
47.81479187
 30
0.0
 10
48.5598836385
 20
47.7740915075
 30
0.0
 10
48.5528382178
 20
47.6917511975
 30
0.0
 10
48.5212483918
 20
47.5701477489
 30
0.0
 10
48.4691981624
 20
47.4511512523
 30
0.0
 10
48.397268339
 20
47.335991025
 30
0.0
 10
48.306257992
 20
47.2256658671
 30
0.0
 10
48.1567072616
 20
47.0825702902
 30
0.0
 10
48.0245464028
 20
46.9915539134
 30
0.0
 10
47.9301842898
 20
46.9370742473
 30
0.0
  0
SPLINE
  5
2A2
100
AcDbEntity
  8
0
100
AcDbSpline
 62
7
  6
BYLAYER
 70
0
 71
3
 72
14
 73
10
 74
0
 42
0.0000001
 43
0.0000001
 44
0.0000000001
 40
0.0
 40
0.0
 40
0.0
 40
0.0
 40
0.1080431444
 40
0.2181326404
 40
0.3321056638
 40
0.4514814971
 40
0.5774303852
 40
0.7107553626
 40
1.0
 40
1.0
 40
1.0
 40
1.0
 10
31.5893905073
 20
38.016932177
 30
0.0
 10
31.5893915454
 20
37.9762318146
 30
0.0
 10
31.5823461247
 20
37.8938915046
 30
0.0
 10
31.5507562986
 20
37.772288056
 30
0.0
 10
31.4987060693
 20
37.6532915594
 30
0.0
 10
31.4267762458
 20
37.5381313321
 30
0.0
 10
31.3357658988
 20
37.4278061741
 30
0.0
 10
31.1862151685
 20
37.2847105973
 30
0.0
 10
31.0540543097
 20
37.1936942205
 30
0.0
 10
30.9596921966
 20
37.1392145543
 30
0.0
  0
SPLINE
  5
2A3
100
AcDbEntity
  8
0
100
AcDbSpline
 62
7
  6
BYLAYER
 70
0
 71
3
 72
12
 73
8
 74
0
 42
0.0000001
 43
0.0000001
 44
0.0000000001
 40
0.0
 40
0.0
 40
0.0
 40
0.0
 40
0.2548564345
 40
0.503934778
 40
0.7514770213
 40
0.8754143235
 40
1.0
 40
1.0
 40
1.0
 40
1.0
 10
7.2690326015
 20
35.1341557339
 30
0.0
 10
7.1919656926
 20
35.1786493279
 30
0.0
 10
7.04714097
 20
35.2811102584
 30
0.0
 10
6.8706484622
 20
35.4786776532
 30
0.0
 10
6.7731897897
 20
35.6759214157
 30
0.0
 10
6.7329557405
 20
35.8449685937
 30
0.0
 10
6.726132197
 20
35.9319132249
 30
0.0
 10
6.726132197
 20
35.9754150386
 30
0.0
  0
SPLINE
  5
2A4
100
AcDbEntity
  8
0
100
AcDbSpline
 62
7
  6
BYLAYER
 70
0
 71
3
 72
13
 73
9
 74
0
 42
0.0000001
 43
0.0000001
 44
0.0000000001
 40
0.0
 40
0.0
 40
0.0
 40
0.0
 40
0.2431637846
 40
0.3705652065
 40
0.5000102065
 40
0.6294542157
 40
0.7568528182
 40
1.0
 40
1.0
 40
1.0
 40
1.0
 10
28.4823243585
 20
22.8869330968
 30
0.0
 10
28.6219944665
 20
22.806296347
 30
0.0
 10
28.8561324268
 20
22.7183445605
 30
0.0
 10
29.1830252358
 20
22.6606929023
 30
0.0
 10
29.4394488951
 20
22.6458885744
 30
0.0
 10
29.6958703986
 20
22.6606985796
 30
0.0
 10
30.022748293
 20
22.7183566317
 30
0.0
 10
30.2568725674
 20
22.806306049
 30
0.0
 10
30.3965325573
 20
22.8869383004
 30
0.0
  0
SPLINE
  5
2A5
100
AcDbEntity
  8
0
100
AcDbSpline
 62
7
  6
BYLAYER
 70
0
 71
3
 72
12
 73
8
 74
0
 42
0.0000001
 43
0.0000001
 44
0.0000000001
 40
0.0
 40
0.0
 40
0.0
 40
0.0
 40
0.1245855944
 40
0.248509433
 40
0.4960607137
 40
0.7451475046
 40
1.0
 40
1.0
 40
1.0
 40
1.0
 10
52.1525390678
 20
35.9755170192
 30
0.0
 10
52.1525390678
 20
35.9320156655
 30
0.0
 10
52.145721241
 20
35.8450759097
 30
0.0
 10
52.1054778492
 20
35.67603447
 30
0.0
 10
52.008033316
 20
35.4787855921
 30
0.0
 10
51.8315344287
 20
35.2812189795
 30
0.0
 10
51.6867123118
 20
35.178755941
 30
0.0
 10
51.6096476793
 20
35.1342629198
 30
0.0
  0
SPLINE
  5
2A6
100
AcDbEntity
  8
0
100
AcDbSpline
 62
7
  6
BYLAYER
 70
0
 71
3
 72
12
 73
8
 74
0
 42
0.0000001
 43
0.0000001
 44
0.0000000001
 40
0.0
 40
0.0
 40
0.0
 40
0.0
 40
0.1081697852
 40
0.218371964
 40
0.451322281
 40
0.7105133255
 40
1.0
 40
1.0
 40
1.0
 40
1.0
 10
52.152531583
 20
47.8148020675
 30
0.0
 10
52.1525315777
 20
47.843200644
 30
0.0
 10
52.1475626344
 20
47.9006476524
 30
0.0
 10
52.1177466607
 20
48.0158082475
 30
0.0
 10
52.0411448976
 20
48.1570608496
 30
0.0
 10
51.8984253591
 20
48.3068804038
 30
0.0
 10
51.7790139734
 20
48.3891684541
 30
0.0
 10
51.7131948236
 20
48.4271682983
 30
0.0
  0
SPLINE
  5
2A7
100
AcDbEntity
  8
0
100
AcDbSpline
 62
7
  6
BYLAYER
 70
0
 71
3
 72
22
 73
18
 74
0
 42
0.0000001
 43
0.0000001
 44
0.0000000001
 40
0.0
 40
0.0
 40
0.0
 40
0.0
 40
0.062381819
 40
0.1287711536
 40
0.1983767448
 40
0.270373488
 40
0.4173890991
 40
0.490433548
 40
0.5617415043
 40
0.6303610233
 40
0.6954679348
 40
0.7564347634
 40
0.8128902258
 40
0.8648051613
 40
0.9125944043
 40
0.9571819392
 40
1.0
 40
1.0
 40
1.0
 40
1.0
 10
30.9596921966
 20
37.1392145543
 30
0.0
 10
30.8824715148
 20
37.094631439
 30
0.0
 10
30.716905644
 20
37.013035013
 30
0.0
 10
30.4498918144
 20
36.9162344859
 30
0.0
 10
30.1612648392
 20
36.8429725288
 30
0.0
 10
29.7534010919
 20
36.7783543177
 30
0.0
 10
29.3336618243
 20
36.7667617878
 30
0.0
 10
28.9188572437
 20
36.8080021629
 30
0.0
 10
28.6193175072
 20
36.8646903734
 30
0.0
 10
28.337266116
 20
36.9459656269
 30
0.0
 10
28.0786387974
 20
37.0501749167
 30
0.0
 10
27.848862511
 20
37.1751387645
 30
0.0
 10
27.652752487
 20
37.3184271244
 30
0.0
 10
27.4945092366
 20
37.477363622
 30
0.0
 10
27.377737441
 20
37.649096883
 30
0.0
 10
27.3057746332
 20
37.8302613893
 30
0.0
 10
27.289423629
 20
37.9557293731
 30
0.0
 10
27.2894220679
 20
38.0169321761
 30
0.0
  0
SPLINE
  5
2A8
100
AcDbEntity
  8
0
100
AcDbSpline
 62
7
  6
BYLAYER
 70
0
 71
3
 72
13
 73
9
 74
0
 42
0.0000001
 43
0.0000001
 44
0.0000000001
 40
0.0
 40
0.0
 40
0.0
 40
0.0
 40
0.2893072232
 40
0.5483377861
 40
0.6677621071
 40
0.7817625478
 40
0.8918968242
 40
1.0
 40
1.0
 40
1.0
 40
1.0
 10
7.1654676092
 20
48.4270612188
 30
0.0
 10
7.0996496907
 20
48.3890614525
 30
0.0
 10
6.9802738228
 20
48.306877995
 30
0.0
 10
6.8581593535
 20
48.1784512337
 30
0.0
 10
6.7894035354
 20
48.0684017205
 30
0.0
 10
6.7530975635
 20
47.9853821979
 30
0.0
 10
6.7311010265
 20
47.900541639
 30
0.0
 10
6.7261396765
 20
47.8430983672
 30
0.0
 10
6.7261396818
 20
47.814700087
 30
0.0
  0
SPLINE
  5
2A9
100
AcDbEntity
  8
0
100
AcDbSpline
 62
7
  6
BYLAYER
 70
0
 71
3
 72
16
 73
12
 74
0
 42
0.0000001
 43
0.0000001
 44
0.0000000001
 40
0.0
 40
0.0
 40
0.0
 40
0.0
 40
0.1570153845
 40
0.3065556416
 40
0.4467559898
 40
0.5763728863
 40
0.6950350583
 40
0.8035006882
 40
0.9038992871
 40
0.952242732
 40
1.0
 40
1.0
 40
1.0
 40
1.0
 10
11.8163067688
 20
46.6319684276
 30
0.0
 10
11.7106056635
 20
46.6513997239
 30
0.0
 10
11.505867444
 20
46.6991818816
 30
0.0
 10
11.216374939
 20
46.7995002919
 30
0.0
 10
10.9572784946
 20
46.9247681384
 30
0.0
 10
10.7348328919
 20
47.072153232
 30
0.0
 10
10.5543862793
 20
47.2385113592
 30
0.0
 10
10.4205665525
 20
47.4203528802
 30
0.0
 10
10.350659044
 20
47.5841123308
 30
0.0
 10
10.3233111514
 20
47.7161512764
 30
0.0
 10
10.3187894981
 20
47.7820218683
 30
0.0
 10
10.3187886644
 20
47.8147102846
 30
0.0
  0
SPLINE
  5
2AA
100
AcDbEntity
  8
0
100
AcDbSpline
 62
7
  6
BYLAYER
 70
0
 71
3
 72
15
 73
11
 74
0
 42
0.0000001
 43
0.0000001
 44
0.0000000001
 40
0.0
 40
0.0
 40
0.0
 40
0.0
 40
0.1080124495
 40
0.2180620536
 40
0.3319994798
 40
0.4513572193
 40
0.5772780622
 40
0.7104994083
 40
0.8513950056
 40
1.0
 40
1.0
 40
1.0
 40
1.0
 10
38.7893173119
 20
59.8173366091
 30
0.0
 10
38.7893173104
 20
59.9943388566
 30
0.0
 10
38.7586043188
 20
60.3524028916
 30
0.0
 10
38.6213813727
 20
60.8812661311
 30
0.0
 10
38.3949248706
 20
61.3987421127
 30
0.0
 10
38.0820741009
 20
61.8995944517
 30
0.0
 10
37.6863103668
 20
62.3792480558
 30
0.0
 10
37.2117899422
 20
62.8335037319
 30
0.0
 10
36.6631330883
 20
63.2581848034
 30
0.0
 10
36.2618168631
 20
63.5125603841
 30
0.0
 10
36.0509181463
 20
63.6343172815
 30
0.0
  0
SPLINE
  5
2AB
100
AcDbEntity
  8
0
100
AcDbSpline
 62
7
  6
BYLAYER
 70
0
 71
3
 72
10
 73
6
 74
0
 42
0.0000001
 43
0.0000001
 44
0.0000000001
 40
0.0
 40
0.0
 40
0.0
 40
0.0
 40
0.232936713
 40
0.4786551182
 40
1.0
 40
1.0
 40
1.0
 40
1.0
 10
47.9301842898
 20
46.9370742473
 30
0.0
 10
47.8672849374
 20
46.900759506
 30
0.0
 10
47.7339439872
 20
46.8330512799
 30
0.0
 10
47.4438230347
 20
46.7180328961
 30
0.0
 10
47.2107234852
 20
46.6587636268
 30
0.0
 10
47.0507445077
 20
46.6299354161
 30
0.0
  0
SPLINE
  5
2AC
100
AcDbEntity
  8
0
100
AcDbSpline
 62
7
  6
BYLAYER
 70
0
 71
3
 72
15
 73
11
 74
0
 42
0.0000001
 43
0.0000001
 44
0.0000000001
 40
0.0
 40
0.0
 40
0.0
 40
0.0
 40
0.1486049948
 40
0.2895005918
 40
0.4227219378
 40
0.5486427811
 40
0.6680005201
 40
0.7819379466
 40
0.8919875506
 40
1.0
 40
1.0
 40
1.0
 40
1.0
 10
22.8277531205
 20
63.6343172804
 30
0.0
 10
22.6168544033
 20
63.5125603821
 30
0.0
 10
22.2155381741
 20
63.2581848072
 30
0.0
 10
21.6668813239
 20
62.8335037299
 30
0.0
 10
21.192360899
 20
62.3792480548
 30
0.0
 10
20.7965971594
 20
61.8995944546
 30
0.0
 10
20.4837463999
 20
61.3987421094
 30
0.0
 10
20.2572898857
 20
60.8812661332
 30
0.0
 10
20.1200669524
 20
60.3524028904
 30
0.0
 10
20.0893539514
 20
59.9943388565
 30
0.0
 10
20.0893539528
 20
59.8173366091
 30
0.0
  0
SPLINE
  5
2AD
100
AcDbEntity
  8
0
100
AcDbSpline
 62
7
  6
BYLAYER
 70
0
 71
3
 72
13
 73
9
 74
0
 42
0.0000001
 43
0.0000001
 44
0.0000000001
 40
0.0
 40
0.0
 40
0.0
 40
0.0
 40
0.1120491978
 40
0.2288745873
 40
0.3499767379
 40
0.4748840755
 40
0.7336326502
 40
1.0
 40
1.0
 40
1.0
 40
1.0
 10
35.6972045917
 20
63.8385485794
 30
0.0
 10
35.5020035158
 20
63.9512454236
 30
0.0
 10
35.0938227882
 20
64.1653589782
 30
0.0
 10
34.4479073799
 20
64.4467243616
 30
0.0
 10
33.7602152902
 20
64.6928540488
 30
0.0
 10
32.7841234372
 20
64.9745442497
 30
0.0
 10
31.4975222844
 20
65.224012101
 30
0.0
 10
30.4425564981
 20
65.3115327672
 30
0.0
 10
29.9069838987
 20
65.3279122
 30
0.0
  0
SPLINE
  5
2AE
100
AcDbEntity
  8
0
100
AcDbSpline
 62
7
  6
BYLAYER
 70
0
 71
3
 72
15
 73
11
 74
0
 42
0.0000001
 43
0.0000001
 44
0.0000000001
 40
0.0
 40
0.0
 40
0.0
 40
0.0
 40
0.1098262311
 40
0.2214190366
 40
0.3364083458
 40
0.4561784751
 40
0.5818153032
 40
0.7140742583
 40
0.8534138291
 40
1.0
 40
1.0
 40
1.0
 40
1.0
 10
37.789325951
 20
59.8173366089
 30
0.0
 10
37.7893352929
 20
59.6716146859
 30
0.0
 10
37.7660511771
 20
59.3773229835
 30
0.0
 10
37.6620945553
 20
58.9415551995
 30
0.0
 10
37.4901259957
 20
58.5136794782
 30
0.0
 10
37.2520804167
 20
58.0973735596
 30
0.0
 10
36.950129945
 20
57.6959766066
 30
0.0
 10
36.5870670651
 20
57.3124908949
 30
0.0
 10
36.1658915248
 20
56.9499844142
 30
0.0
 10
35.8564270063
 20
56.7295583544
 30
0.0
 10
35.6935485282
 20
56.6232592759
 30
0.0
  0
SPLINE
  5
2AF
100
AcDbEntity
  8
0
100
AcDbSpline
 62
7
  6
BYLAYER
 70
0
 71
3
 72
11
 73
7
 74
0
 42
0.0000001
 43
0.0000001
 44
0.0000000001
 40
0.0
 40
0.0
 40
0.0
 40
0.0
 40
0.2895368706
 40
0.5491085983
 40
0.7822509632
 40
1.0
 40
1.0
 40
1.0
 40
1.0
 10
28.3787681978
 20
23.1158261709
 30
0.0
 10
28.3787681978
 20
23.0905068376
 30
0.0
 10
28.3826326186
 20
23.0423285877
 30
0.0
 10
28.4021088659
 20
22.976122665
 30
0.0
 10
28.4349602411
 20
22.9223796994
 30
0.0
 10
28.4658453258
 20
22.8964738809
 30
0.0
 10
28.4823359725
 20
22.8869532141
 30
0.0
  0
SPLINE
  5
2B0
100
AcDbEntity
  8
0
100
AcDbSpline
 62
7
  6
BYLAYER
 70
0
 71
3
 72
15
 73
11
 74
0
 42
0.0000001
 43
0.0000001
 44
0.0000000001
 40
0.0
 40
0.0
 40
0.0
 40
0.0
 40
0.1141216057
 40
0.2373437884
 40
0.3669699918
 40
0.4999994786
 40
0.633029038
 40
0.7626554531
 40
0.8858779697
 40
1.0
 40
1.0
 40
1.0
 40
1.0
 10
30.5000885393
 20
23.1158312714
 30
0.0
 10
30.4274992501
 20
23.0739220758
 30
0.0
 10
30.2687005701
 20
23.0000090348
 30
0.0
 10
30.0101623952
 20
22.9213770013
 30
0.0
 10
29.7302040154
 20
22.8730329519
 30
0.0
 10
29.4394301563
 20
22.8566826288
 30
0.0
 10
29.1486560646
 20
22.8730315718
 30
0.0
 10
28.868696998
 20
22.9213742919
 30
0.0
 10
28.6101577097
 20
23.0000050963
 30
0.0
 10
28.4513580571
 20
23.0739173443
 30
0.0
 10
28.3787681955
 20
23.1158261722
 30
0.0
  0
SPLINE
  5
2B1
100
AcDbEntity
  8
0
100
AcDbSpline
 62
7
  6
BYLAYER
 70
0
 71
3
 72
16
 73
12
 74
0
 42
0.0000001
 43
0.0000001
 44
0.0000000001
 40
0.0
 40
0.0
 40
0.0
 40
0.0
 40
0.1421684387
 40
0.2824777583
 40
0.4190805314
 40
0.5503589978
 40
0.674897081
 40
0.7916384708
 40
0.8469069908
 40
0.9000501572
 40
1.0
 40
1.0
 40
1.0
 40
1.0
 10
29.4393745601
 20
54.4191887645
 30
0.0
 10
29.8788057043
 20
54.4191898208
 30
0.0
 10
30.7523474576
 20
54.4546688488
 30
0.0
 10
32.039368877
 20
54.6135132239
 30
0.0
 10
33.2753644256
 20
54.8748809674
 30
0.0
 10
34.4360021318
 20
55.2335592725
 30
0.0
 10
35.4985780213
 20
55.6826981503
 30
0.0
 10
36.2996049536
 20
56.1333341216
 30
0.0
 10
36.8698038728
 20
56.5333037454
 30
0.0
 10
37.3700066076
 20
56.9394117511
 30
0.0
 10
37.7037284637
 20
57.2788685382
 30
0.0
 10
37.8989589831
 20
57.5182991956
 30
0.0
  0
SPLINE
  5
2B2
100
AcDbEntity
  8
0
100
AcDbSpline
 62
7
  6
BYLAYER
 70
0
 71
3
 72
12
 73
8
 74
0
 42
0.0000001
 43
0.0000001
 44
0.0000000001
 40
0.0
 40
0.0
 40
0.0
 40
0.0
 40
0.2674077912
 40
0.5203930648
 40
0.7628513876
 40
0.8817805619
 40
1.0
 40
1.0
 40
1.0
 40
1.0
 10
37.8989589831
 20
57.5182991956
 30
0.0
 10
38.0404968653
 20
57.6918812171
 30
0.0
 10
38.2935331447
 20
58.0490913752
 30
0.0
 10
38.5777582269
 20
58.62440955
 30
0.0
 10
38.7226811968
 20
59.1214438083
 30
0.0
 10
38.7798317049
 20
59.5195493036
 30
0.0
 10
38.7893173127
 20
59.7183196526
 30
0.0
 10
38.7893173119
 20
59.8173366091
 30
0.0
  0
SPLINE
  5
2B3
100
AcDbEntity
  8
0
100
AcDbSpline
 62
7
  6
BYLAYER
 70
0
 71
3
 72
10
 73
6
 74
0
 42
0.0000001
 43
0.0000001
 44
0.0000000001
 40
0.0
 40
0.0
 40
0.0
 40
0.0
 40
0.2411144641
 40
0.4860913638
 40
1.0
 40
1.0
 40
1.0
 40
1.0
 10
10.3187886644
 20
47.8147102846
 30
0.0
 10
10.3187877116
 20
47.8520613874
 30
0.0
 10
10.3247142844
 20
47.9275085201
 30
0.0
 10
10.3606101051
 20
48.0786673942
 30
0.0
 10
10.4134415118
 20
48.1858898387
 30
0.0
 10
10.456964395
 20
48.2525491645
 30
0.0
  0
SPLINE
  5
2B4
100
AcDbEntity
  8
0
100
AcDbSpline
 62
7
  6
BYLAYER
 70
0
 71
3
 72
13
 73
9
 74
0
 42
0.0000001
 43
0.0000001
 44
0.0000000001
 40
0.0
 40
0.0
 40
0.0
 40
0.0
 40
0.2893046904
 40
0.5483332376
 40
0.6677587623
 40
0.7817604793
 40
0.8918958913
 40
1.0
 40
1.0
 40
1.0
 40
1.0
 10
7.1654764411
 20
35.3630488078
 30
0.0
 10
7.0996575913
 20
35.4010484788
 30
0.0
 10
6.9802787129
 20
35.4832302495
 30
0.0
 10
6.8581611424
 20
35.611657251
 30
0.0
 10
6.7894008054
 20
35.7217069464
 30
0.0
 10
6.7530925171
 20
35.8047284003
 30
0.0
 10
6.7310940738
 20
35.8895710747
 30
0.0
 10
6.7261321956
 20
35.9470159812
 30
0.0
 10
6.726132197
 20
35.9754150386
 30
0.0
  0
SPLINE
  5
2B5
100
AcDbEntity
  8
0
100
AcDbSpline
 62
7
  6
BYLAYER
 70
0
 71
3
 72
10
 73
6
 74
0
 42
0.0000001
 43
0.0000001
 44
0.0000000001
 40
0.0
 40
0.0
 40
0.0
 40
0.0
 40
0.2411144641
 40
0.4860913638
 40
1.0
 40
1.0
 40
1.0
 40
1.0
 10
27.2894220679
 20
38.0169321761
 30
0.0
 10
27.2894211152
 20
38.0542832789
 30
0.0
 10
27.2953476879
 20
38.1297304116
 30
0.0
 10
27.3312435086
 20
38.2808892857
 30
0.0
 10
27.3840749154
 20
38.3881117302
 30
0.0
 10
27.4275977986
 20
38.4547710561
 30
0.0
  0
SPLINE
  5
2B6
100
AcDbEntity
  8
0
100
AcDbSpline
 62
7
  6
BYLAYER
 70
0
 71
3
 72
9
 73
5
 74
0
 42
0.0000001
 43
0.0000001
 44
0.0000000001
 40
0.0
 40
0.0
 40
0.0
 40
0.0
 40
0.2478758841
 40
1.0
 40
1.0
 40
1.0
 40
1.0
 10
7.2690442158
 20
35.1341758509
 30
0.0
 10
7.2652313652
 20
35.1363771521
 30
0.0
 10
7.2502006734
 20
35.1458575123
 30
0.0
 10
7.2367085256
 20
35.1577420456
 30
0.0
 10
7.2277277154
 20
35.1676317528
 30
0.0
  0
SPLINE
  5
2B7
100
AcDbEntity
  8
0
100
AcDbSpline
 62
7
  6
BYLAYER
 70
0
 71
3
 72
11
 73
7
 74
0
 42
0.0000001
 43
0.0000001
 44
0.0000000001
 40
0.0
 40
0.0
 40
0.0
 40
0.0
 40
0.2204811653
 40
0.458551267
 40
0.7182988132
 40
1.0
 40
1.0
 40
1.0
 40
1.0
 10
7.2277277154
 20
35.1676317528
 30
0.0
 10
7.2173807851
 20
35.1790258375
 30
0.0
 10
7.1988329446
 20
35.205531768
 30
0.0
 10
7.1794242234
 20
35.2520983891
 30
0.0
 10
7.1678651557
 20
35.3055229114
 30
0.0
 10
7.1654764411
 20
35.3433842055
 30
0.0
 10
7.1654764411
 20
35.3630488078
 30
0.0
  0
SPLINE
  5
2B8
100
AcDbEntity
  8
0
100
AcDbSpline
 62
7
  6
BYLAYER
 70
0
 71
3
 72
14
 73
10
 74
0
 42
0.0000001
 43
0.0000001
 44
0.0000000001
 40
0.0
 40
0.0
 40
0.0
 40
0.0
 40
0.1439785118
 40
0.2819392741
 40
0.5400504616
 40
0.6611483027
 40
0.7776067703
 40
0.8902294745
 40
1.0
 40
1.0
 40
1.0
 40
1.0
 10
20.0344308649
 20
56.3244468144
 30
0.0
 10
19.8287521881
 20
56.1888182562
 30
0.0
 10
19.4349637385
 20
55.9090645868
 30
0.0
 10
18.7245880917
 20
55.3172607765
 30
0.0
 10
18.1150839168
 20
54.6673526863
 30
0.0
 10
17.63521268
 20
53.9663426885
 30
0.0
 10
17.351833847
 20
53.4368595796
 30
0.0
 10
17.1394215889
 20
52.8959034276
 30
0.0
 10
17.0451785122
 20
52.5259414398
 30
0.0
 10
17.0108188994
 20
52.3412750446
 30
0.0
  0
SPLINE
  5
2B9
100
AcDbEntity
  8
0
100
AcDbSpline
 62
7
  6
BYLAYER
 70
0
 71
3
 72
19
 73
15
 74
0
 42
0.0000001
 43
0.0000001
 44
0.0000000001
 40
0.0
 40
0.0
 40
0.0
 40
0.0
 40
0.1569560792
 40
0.307245726
 40
0.4484974584
 40
0.5790172768
 40
0.6400229926
 40
0.6981552369
 40
0.7535239208
 40
0.8063348413
 40
0.8569091533
 40
0.9056749315
 40
0.9531674168
 40
1.0
 40
1.0
 40
1.0
 40
1.0
 10
27.4247440237
 20
46.2993061237
 30
0.0
 10
26.9178927589
 20
46.363877676
 30
0.0
 10
25.9311190808
 20
46.5394226074
 30
0.0
 10
24.5262818565
 20
46.9478952226
 30
0.0
 10
23.2584223432
 20
47.4862929801
 30
0.0
 10
22.3243044076
 20
48.0438668025
 30
0.0
 10
21.6830296515
 20
48.5446492891
 30
0.0
 10
21.2679946997
 20
48.9338008325
 30
0.0
 10
20.9110078548
 20
49.3421363615
 30
0.0
 10
20.6148386783
 20
49.7670376476
 30
0.0
 10
20.3816648547
 20
50.2054884895
 30
0.0
 10
20.2136080175
 20
50.6545371302
 30
0.0
 10
20.112023132
 20
51.1106764832
 30
0.0
 10
20.0893623587
 20
51.4182054825
 30
0.0
 10
20.0893629345
 20
51.5706621896
 30
0.0
  0
SPLINE
  5
2BA
100
AcDbEntity
  8
0
100
AcDbSpline
 62
7
  6
BYLAYER
 70
0
 71
3
 72
11
 73
7
 74
0
 42
0.0000001
 43
0.0000001
 44
0.0000000001
 40
0.0
 40
0.0
 40
0.0
 40
0.0
 40
0.2177498847
 40
0.4508926469
 40
0.7104640923
 40
1.0
 40
1.0
 40
1.0
 40
1.0
 10
30.3965209428
 20
22.8869584173
 30
0.0
 10
30.4130115659
 20
22.896479228
 30
0.0
 10
30.4438965605
 20
22.9223852165
 30
0.0
 10
30.4767478864
 20
22.9761282071
 30
0.0
 10
30.496224114
 20
23.0423339695
 30
0.0
 10
30.5000885391
 20
23.0905120524
 30
0.0
 10
30.5000885391
 20
23.1158312712
 30
0.0
  0
SPLINE
  5
2BB
100
AcDbEntity
  8
0
100
AcDbSpline
 62
7
  6
BYLAYER
 70
0
 71
3
 72
16
 73
12
 74
0
 42
0.0000001
 43
0.0000001
 44
0.0000000001
 40
0.0
 40
0.0
 40
0.0
 40
0.0
 40
0.1485676571
 40
0.2894810567
 40
0.4226834269
 40
0.548589163
 40
0.6679371918
 40
0.7818631223
 40
0.8919010006
 40
0.9460798465
 40
1.0
 40
1.0
 40
1.0
 40
1.0
 10
39.1620943531
 20
46.7738542385
 30
0.0
 10
39.4721966376
 20
46.9528908073
 30
0.0
 10
40.0623994665
 20
47.3269931418
 30
0.0
 10
40.8692914155
 20
47.9515171336
 30
0.0
 10
41.5672124025
 20
48.6195616914
 30
0.0
 10
42.1491741477
 20
49.324967092
 30
0.0
 10
42.6092941719
 20
50.0615463193
 30
0.0
 10
42.942370625
 20
50.8223959578
 30
0.0
 10
43.1113694675
 20
51.4745314603
 30
0.0
 10
43.1782217486
 20
51.9965192725
 30
0.0
 10
43.1893205608
 20
52.2572073396
 30
0.0
 10
43.1893159632
 20
52.387164595
 30
0.0
  0
SPLINE
  5
2BC
100
AcDbEntity
  8
0
100
AcDbSpline
 62
7
  6
BYLAYER
 70
0
 71
3
 72
16
 73
12
 74
0
 42
0.0000001
 43
0.0000001
 44
0.0000000001
 40
0.0
 40
0.0
 40
0.0
 40
0.0
 40
0.1464025706
 40
0.2855999243
 40
0.4177715515
 40
0.4813827565
 40
0.5434344512
 40
0.6632357942
 40
0.7783086253
 40
0.8900267606
 40
1.0
 40
1.0
 40
1.0
 40
1.0
 10
38.8442331166
 20
57.1409540363
 30
0.0
 10
39.0849551021
 20
56.9822175168
 30
0.0
 10
39.5422875605
 20
56.6532647897
 30
0.0
 10
40.1643807685
 20
56.1129117111
 30
0.0
 10
40.616914088
 20
55.6308703836
 30
0.0
 10
40.9316943886
 20
55.2320388853
 30
0.0
 10
41.2082804988
 20
54.835235074
 30
0.0
 10
41.4978021695
 20
54.3250803347
 30
0.0
 10
41.7515412446
 20
53.6888890439
 30
0.0
 10
41.9050097241
 20
53.0411370315
 30
0.0
 10
41.9393107362
 20
52.6037627439
 30
0.0
 10
41.939310912
 20
52.3871646128
 30
0.0
  0
SPLINE
  5
2BD
100
AcDbEntity
  8
0
100
AcDbSpline
 62
7
  6
BYLAYER
 70
0
 71
3
 72
13
 73
9
 74
0
 42
0.0000001
 43
0.0000001
 44
0.0000000001
 40
0.0
 40
0.0
 40
0.0
 40
0.0
 40
0.1081043534
 40
0.2182399707
 40
0.3322418252
 40
0.4516674016
 40
0.7106957836
 40
1.0
 40
1.0
 40
1.0
 40
1.0
 10
52.1525390678
 20
35.9755170192
 30
0.0
 10
52.1525390664
 20
35.9471182639
 30
0.0
 10
52.1475772961
 20
35.8896739833
 30
0.0
 10
52.1255793305
 20
35.8048322007
 30
0.0
 10
52.0892718098
 20
35.7218115803
 30
0.0
 10
52.0205129374
 20
35.611762944
 30
0.0
 10
51.898397888
 20
35.48333694
 30
0.0
 10
51.7790212749
 20
35.4011554811
 30
0.0
 10
51.7132036566
 20
35.363155888
 30
0.0
  0
SPLINE
  5
2BE
100
AcDbEntity
  8
0
100
AcDbSpline
 62
7
  6
BYLAYER
 70
0
 71
3
 72
12
 73
8
 74
0
 42
0.0000001
 43
0.0000001
 44
0.0000000001
 40
0.0
 40
0.0
 40
0.0
 40
0.0
 40
0.1081697852
 40
0.218371964
 40
0.451322281
 40
0.7105133255
 40
1.0
 40
1.0
 40
1.0
 40
1.0
 10
6.7261396818
 20
47.814700087
 30
0.0
 10
6.726139687
 20
47.7863015106
 30
0.0
 10
6.7311086303
 20
47.7288545021
 30
0.0
 10
6.760924604
 20
47.613693907
 30
0.0
 10
6.8375263672
 20
47.4724413049
 30
0.0
 10
6.9802459057
 20
47.3226217508
 30
0.0
 10
7.0996572913
 20
47.2403337004
 30
0.0
 10
7.1654764411
 20
47.2023338562
 30
0.0
  0
SPLINE
  5
2BF
100
AcDbEntity
  8
0
100
AcDbSpline
 62
7
  6
BYLAYER
 70
0
 71
3
 72
15
 73
11
 74
0
 42
0.0000001
 43
0.0000001
 44
0.0000000001
 40
0.0
 40
0.0
 40
0.0
 40
0.0
 40
0.1141236058
 40
0.2373475862
 40
0.3669728832
 40
0.5000004526
 40
0.6330279586
 40
0.7626530685
 40
0.8858767805
 40
1.0
 40
1.0
 40
1.0
 40
1.0
 10
28.3787681955
 20
34.9551112206
 30
0.0
 10
28.4513589801
 20
34.9132018597
 30
0.0
 10
28.6101614095
 20
34.8392905714
 30
0.0
 10
28.8687020301
 20
34.7606605143
 30
0.0
 10
29.1486600094
 20
34.7123202997
 30
0.0
 10
29.4394300099
 20
34.6959723492
 30
0.0
 10
29.7301997974
 20
34.7123216466
 30
0.0
 10
30.010157169
 20
34.7606631702
 30
0.0
 10
30.268696765
 20
34.8392944873
 30
0.0
 10
30.4274983025
 20
34.9132065771
 30
0.0
 10
30.5000885391
 20
34.9551163196
 30
0.0
  0
SPLINE
  5
2C0
100
AcDbEntity
  8
0
100
AcDbSpline
 62
7
  6
BYLAYER
 70
0
 71
3
 72
9
 73
5
 74
0
 42
0.0000001
 43
0.0000001
 44
0.0000000001
 40
0.0
 40
0.0
 40
0.0
 40
0.0
 40
0.5108717254
 40
1.0
 40
1.0
 40
1.0
 40
1.0
 10
31.4894718142
 20
38.390953685
 30
0.0
 10
31.5213714731
 20
38.3326554997
 30
0.0
 10
31.5716857916
 20
38.2111795247
 30
0.0
 10
31.5893888843
 20
38.0805587519
 30
0.0
 10
31.5893905073
 20
38.016932177
 30
0.0
  0
SPLINE
  5
2C1
100
AcDbEntity
  8
0
100
AcDbSpline
 62
7
  6
BYLAYER
 70
0
 71
3
 72
21
 73
17
 74
0
 42
0.0000001
 43
0.0000001
 44
0.0000000001
 40
0.0
 40
0.0
 40
0.0
 40
0.0
 40
0.15292935
 40
0.2276814727
 40
0.3008796695
 40
0.4414986516
 40
0.5085116263
 40
0.5730645277
 40
0.6350343885
 40
0.6943513526
 40
0.7510135044
 40
0.8050903603
 40
0.8567326006
 40
0.9061919958
 40
0.9538153679
 40
1.0
 40
1.0
 40
1.0
 40
1.0
 10
27.434392194
 20
43.7170592723
 30
0.0
 10
26.7077769332
 20
43.7789088992
 30
0.0
 10
25.6292426608
 20
43.9216101122
 30
0.0
 10
24.2244931582
 20
44.2159244536
 30
0.0
 10
22.893655664
 20
44.5674137664
 30
0.0
 10
21.6269065039
 20
45.0124427058
 30
0.0
 10
20.4465519379
 20
45.5539458268
 30
0.0
 10
19.6340271619
 20
45.9930943849
 30
0.0
 10
18.8853964089
 20
46.4687677725
 30
0.0
 10
18.2055454088
 20
46.9780712675
 30
0.0
 10
17.5988907103
 20
47.5177416874
 30
0.0
 10
17.0694578185
 20
48.0844318566
 30
0.0
 10
16.6207887771
 20
48.6745945014
 30
0.0
 10
16.2559762393
 20
49.2846505945
 30
0.0
 10
15.9779402809
 20
49.9105286649
 30
0.0
 10
15.8501512555
 20
50.3408462597
 30
0.0
 10
15.8021626339
 20
50.5557854774
 30
0.0
  0
SPLINE
  5
2C2
100
AcDbEntity
  8
0
100
AcDbSpline
 62
7
  6
BYLAYER
 70
0
 71
3
 72
16
 73
12
 74
0
 42
0.0000001
 43
0.0000001
 44
0.0000000001
 40
0.0
 40
0.0
 40
0.0
 40
0.0
 40
0.1099764648
 40
0.2216973585
 40
0.3367721657
 40
0.4565743588
 40
0.518626079
 40
0.5822369446
 40
0.7144069689
 40
0.8536014049
 40
1.0
 40
1.0
 40
1.0
 40
1.0
 10
16.9393603528
 20
52.3871646136
 30
0.0
 10
16.939360177
 20
52.6037303673
 30
0.0
 10
16.9736520074
 20
53.0410379251
 30
0.0
 10
17.1270726323
 20
53.688694424
 30
0.0
 10
17.3807377861
 20
54.3247946277
 30
0.0
 10
17.6701736218
 20
54.8348835333
 30
0.0
 10
17.9466813582
 20
55.2316378147
 30
0.0
 10
18.2613695442
 20
55.6304213861
 30
0.0
 10
18.7137733649
 20
56.1124087544
 30
0.0
 10
19.3356909663
 20
56.6527135793
 30
0.0
 10
19.7928989379
 20
56.9816435066
 30
0.0
 10
20.0335554641
 20
57.1403714153
 30
0.0
  0
SPLINE
  5
2C3
100
AcDbEntity
  8
0
100
AcDbSpline
 62
7
  6
BYLAYER
 70
0
 71
3
 72
14
 73
10
 74
0
 42
0.0000001
 43
0.0000001
 44
0.0000000001
 40
0.0
 40
0.0
 40
0.0
 40
0.0
 40
0.1097734836
 40
0.2223984022
 40
0.3388581445
 40
0.4599564407
 40
0.7180657782
 40
0.8560243079
 40
1.0
 40
1.0
 40
1.0
 40
1.0
 10
41.8678967082
 20
52.3410344852
 30
0.0
 10
41.8335519695
 20
52.5256792081
 30
0.0
 10
41.7393461015
 20
52.8955986268
 30
0.0
 10
41.5270015448
 20
53.4364963328
 30
0.0
 10
41.2437089857
 20
53.9659275631
 30
0.0
 10
40.7639732937
 20
54.6668706174
 30
0.0
 10
40.154630347
 20
55.3167313932
 30
0.0
 10
39.4444316616
 20
55.9085056173
 30
0.0
 10
39.0507380392
 20
56.1882486185
 30
0.0
 10
38.8451085887
 20
56.3238737569
 30
0.0
  0
SPLINE
  5
2C4
100
AcDbEntity
  8
0
100
AcDbSpline
 62
7
  6
BYLAYER
 70
0
 71
3
 72
12
 73
8
 74
0
 42
0.0000001
 43
0.0000001
 44
0.0000000001
 40
0.0
 40
0.0
 40
0.0
 40
0.0
 40
0.1129170734
 40
0.2300724899
 40
0.4755775001
 40
0.7335037165
 40
1.0
 40
1.0
 40
1.0
 40
1.0
 10
39.1620943531
 20
45.9573518214
 30
0.0
 10
38.8981874865
 20
45.8049860304
 30
0.0
 10
38.3493739971
 20
45.5134013
 30
0.0
 10
37.1792175888
 20
44.9845140644
 30
0.0
 10
35.5931665603
 20
44.4342811993
 30
0.0
 10
33.5661726842
 20
43.9630914054
 30
0.0
 10
32.1604794545
 20
43.7780047716
 30
0.0
 10
31.4438673147
 20
43.7170234778
 30
0.0
  0
SPLINE
  5
2C5
100
AcDbEntity
  8
0
100
AcDbSpline
 62
7
  6
BYLAYER
 70
0
 71
3
 72
14
 73
10
 74
0
 42
0.0000001
 43
0.0000001
 44
0.0000000001
 40
0.0
 40
0.0
 40
0.0
 40
0.0
 40
0.1079557862
 40
0.2193178129
 40
0.3350589545
 40
0.4560138352
 40
0.7153510608
 40
0.8545632634
 40
1.0
 40
1.0
 40
1.0
 40
1.0
 10
43.0765232676
 20
50.5558510369
 30
0.0
 10
43.0278529583
 20
50.3378442492
 30
0.0
 10
42.8978008864
 20
49.9013744383
 30
0.0
 10
42.613897939
 20
49.2669817535
 30
0.0
 10
42.2408703613
 20
48.6489348543
 30
0.0
 10
41.6143356528
 20
47.8338173719
 30
0.0
 10
40.8290969646
 20
47.0887445732
 30
0.0
 10
39.9228411557
 20
46.4202631299
 30
0.0
 10
39.4227044818
 20
46.1078142512
 30
0.0
 10
39.1620943531
 20
45.9573518214
 30
0.0
  0
SPLINE
  5
2C6
100
AcDbEntity
  8
0
100
AcDbSpline
 62
7
  6
BYLAYER
 70
0
 71
3
 72
13
 73
9
 74
0
 42
0.0000001
 43
0.0000001
 44
0.0000000001
 40
0.0
 40
0.0
 40
0.0
 40
0.0
 40
0.2893072232
 40
0.5483377861
 40
0.6677621071
 40
0.7817625478
 40
0.8918968242
 40
1.0
 40
1.0
 40
1.0
 40
1.0
 10
51.7132036555
 20
47.2024409358
 30
0.0
 10
51.7790215741
 20
47.240440702
 30
0.0
 10
51.8983974419
 20
47.3226241596
 30
0.0
 10
52.0205119113
 20
47.4510509208
 30
0.0
 10
52.0892677293
 20
47.5611004341
 30
0.0
 10
52.1255737012
 20
47.6441199566
 30
0.0
 10
52.1475702383
 20
47.7289605155
 30
0.0
 10
52.1525315882
 20
47.7864037873
 30
0.0
 10
52.152531583
 20
47.8148020675
 30
0.0
  0
SPLINE
  5
2C7
100
AcDbEntity
  8
0
100
AcDbSpline
 62
7
  6
BYLAYER
 70
0
 71
3
 72
19
 73
15
 74
0
 42
0.0000001
 43
0.0000001
 44
0.0000000001
 40
0.0
 40
0.0
 40
0.0
 40
0.0
 40
0.0468328529
 40
0.0943254501
 40
0.1430912413
 40
0.1936654243
 40
0.2464761034
 40
0.3018444389
 40
0.3599762667
 40
0.4209815123
 40
0.5515004986
 40
0.6927519336
 40
0.8430422332
 40
1.0
 40
1.0
 40
1.0
 40
1.0
 10
38.7893083303
 20
51.5706622025
 30
0.0
 10
38.7893077544
 20
51.4182032402
 30
0.0
 10
38.7666486022
 20
51.1106701449
 30
0.0
 10
38.6650600245
 20
50.6545257984
 30
0.0
 10
38.4970010493
 20
50.2054733917
 30
0.0
 10
38.2638228401
 20
49.7670210711
 30
0.0
 10
37.9676511525
 20
49.3421187321
 30
0.0
 10
37.6106608972
 20
48.933783995
 30
0.0
 10
37.1956237933
 20
48.5446331722
 30
0.0
 10
36.5543456854
 20
48.0438521181
 30
0.0
 10
35.6202221022
 20
47.4862788864
 30
0.0
 10
34.3523507869
 20
46.9478809818
 30
0.0
 10
32.9474929127
 20
46.5394080791
 30
0.0
 10
31.9607019064
 20
46.3638648892
 30
0.0
 10
31.4538402477
 20
46.2992949304
 30
0.0
  0
SPLINE
  5
2C8
100
AcDbEntity
  8
0
100
AcDbSpline
 62
7
  6
BYLAYER
 70
0
 71
3
 72
9
 73
5
 74
0
 42
0.0000001
 43
0.0000001
 44
0.0000000001
 40
0.0
 40
0.0
 40
0.0
 40
0.0
 40
0.5108717254
 40
1.0
 40
1.0
 40
1.0
 40
1.0
 10
48.4599639073
 20
48.1888133779
 30
0.0
 10
48.4918635662
 20
48.1305151927
 30
0.0
 10
48.5421778847
 20
48.0090392176
 30
0.0
 10
48.5598809775
 20
47.8784184448
 30
0.0
 10
48.5598826004
 20
47.81479187
 30
0.0
  0
SPLINE
  5
2C9
100
AcDbEntity
  8
0
100
AcDbSpline
 62
7
  6
BYLAYER
 70
0
 71
3
 72
12
 73
8
 74
0
 42
0.0000001
 43
0.0000001
 44
0.0000000001
 40
0.0
 40
0.0
 40
0.0
 40
0.0
 40
0.1182194125
 40
0.2371485638
 40
0.47960686
 40
0.7325921462
 40
1.0
 40
1.0
 40
1.0
 40
1.0
 10
20.0893539528
 20
59.8173366091
 30
0.0
 10
20.0893539537
 20
59.7183194357
 30
0.0
 10
20.0988396069
 20
59.5195486488
 30
0.0
 10
20.1559903544
 20
59.1214422712
 30
0.0
 10
20.3009139864
 20
58.6244069264
 30
0.0
 10
20.5851403019
 20
58.0490875837
 30
0.0
 10
20.8381776436
 20
57.6918768028
 30
0.0
 10
20.9797161113
 20
57.5182944953
 30
0.0
  0
SPLINE
  5
2CA
100
AcDbEntity
  8
0
100
AcDbSpline
 62
7
  6
BYLAYER
 70
0
 71
3
 72
16
 73
12
 74
0
 42
0.0000001
 43
0.0000001
 44
0.0000000001
 40
0.0
 40
0.0
 40
0.0
 40
0.0
 40
0.0999498017
 40
0.1530929663
 40
0.208361496
 40
0.3251029307
 40
0.4496410774
 40
0.5809196014
 40
0.7175224
 40
0.8578316835
 40
1.0
 40
1.0
 40
1.0
 40
1.0
 10
20.9797161113
 20
57.5182944953
 30
0.0
 10
21.1749483523
 20
57.2788623223
 30
0.0
 10
21.5086733103
 20
56.9394035692
 30
0.0
 10
22.0088807305
 20
56.5332935882
 30
0.0
 10
22.5790851927
 20
56.1333221916
 30
0.0
 10
23.3801199286
 20
55.6826848139
 30
0.0
 10
24.4427059455
 20
55.2335456248
 30
0.0
 10
25.6033543172
 20
54.8748684311
 30
0.0
 10
26.8393605667
 20
54.6135032949
 30
0.0
 10
28.1263921996
 20
54.4546630333
 30
0.0
 10
28.9999403947
 20
54.4191877082
 30
0.0
 10
29.4393745601
 20
54.4191887645
 30
0.0
  0
SPLINE
  5
2CB
100
AcDbEntity
  8
0
100
AcDbSpline
 62
7
  6
BYLAYER
 70
0
 71
3
 72
23
 73
19
 74
0
 42
0.0000001
 43
0.0000001
 44
0.0000000001
 40
0.0
 40
0.0
 40
0.0
 40
0.0
 40
0.0726147522
 40
0.1414841032
 40
0.2067060898
 40
0.268540101
 40
0.3274198654
 40
0.3839582269
 40
0.4389366024
 40
0.4932584011
 40
0.5478839556
 40
0.6037481449
 40
0.6616834928
 40
0.7223681943
 40
0.7862948351
 40
0.8537982987
 40
0.9250565291
 40
1.0
 40
1.0
 40
1.0
 40
1.0
 10
22.8198719036
 20
63.6169598045
 30
0.0
 10
22.6396387818
 20
63.4996986632
 30
0.0
 10
22.2978856038
 20
63.2561945893
 30
0.0
 10
21.8349786018
 20
62.8542020609
 30
0.0
 10
21.4392930105
 20
62.4282149465
 30
0.0
 10
21.1145007535
 20
61.9818418043
 30
0.0
 10
20.8637833199
 20
61.5187946074
 30
0.0
 10
20.6899040344
 20
61.0430826158
 30
0.0
 10
20.5948491924
 20
60.5591467906
 30
0.0
 10
20.5800512179
 20
60.0717708988
 30
0.0
 10
20.6455241593
 20
59.585979984
 30
0.0
 10
20.7905533247
 20
59.1067060563
 30
0.0
 10
21.0131882374
 20
58.6384871096
 30
0.0
 10
21.3109946671
 20
58.1855277783
 30
0.0
 10
21.6808888683
 20
57.7516042615
 30
0.0
 10
22.1194975825
 20
57.3402700322
 30
0.0
 10
22.6227674034
 20
56.9551504025
 30
0.0
 10
22.9892799038
 20
56.7235836287
 30
0.0
 10
23.181466673
 20
56.6126270559
 30
0.0
  0
SPLINE
  5
2CC
100
AcDbEntity
  8
0
100
AcDbSpline
 62
7
  6
BYLAYER
 70
0
 71
3
 72
22
 73
18
 74
0
 42
0.0000001
 43
0.0000001
 44
0.0000000001
 40
0.0
 40
0.0
 40
0.0
 40
0.0
 40
0.0749902136
 40
0.1462451003
 40
0.2137741814
 40
0.2777350956
 40
0.3384459577
 40
0.3964084141
 40
0.4522969709
 40
0.5069434487
 40
0.5612801226
 40
0.6162654577
 40
0.6728042952
 40
0.7316785203
 40
0.7934973914
 40
0.8586943599
 40
1.0
 40
1.0
 40
1.0
 40
1.0
 10
35.6973539251
 20
56.6127258711
 30
0.0
 10
35.889448508
 20
56.7236280212
 30
0.0
 10
36.2556942159
 20
56.9549621854
 30
0.0
 10
36.7585540556
 20
57.3398013643
 30
0.0
 10
37.1968707233
 20
57.7507097214
 30
0.0
 10
37.5666956011
 20
58.1842009712
 30
0.0
 10
37.8644598116
 20
58.6367745302
 30
0.0
 10
38.0872847721
 20
59.1045213128
 30
0.0
 10
38.2325117979
 20
59.5833750088
 30
0.0
 10
38.2984780874
 20
60.0687282562
 30
0.0
 10
38.2841539788
 20
60.5557053699
 30
0.0
 10
38.1898243744
 20
61.0392877632
 30
0.0
 10
38.0167199566
 20
61.5146999993
 30
0.0
 10
37.7668819281
 20
61.9774751075
 30
0.0
 10
37.4430886048
 20
62.4237177764
 30
0.0
 10
36.9026713207
 20
63.0068882862
 30
0.0
 10
36.4157314915
 20
63.3841387948
 30
0.0
 10
36.0656499152
 20
63.6124681372
 30
0.0
  0
SPLINE
  5
2CD
100
AcDbEntity
  8
0
100
AcDbSpline
 62
7
  6
BYLAYER
 70
0
 71
3
 72
11
 73
7
 74
0
 42
0.0000001
 43
0.0000001
 44
0.0000000001
 40
0.0
 40
0.0
 40
0.0
 40
0.0
 40
0.2895359088
 40
0.5491073527
 40
0.7822501147
 40
1.0
 40
1.0
 40
1.0
 40
1.0
 10
51.7132036604
 20
35.3631558902
 30
0.0
 10
51.7132036604
 20
35.3378366713
 30
0.0
 10
51.7093392355
 20
35.2896585885
 30
0.0
 10
51.6898630077
 20
35.2234528265
 30
0.0
 10
51.6570116823
 20
35.1697098359
 30
0.0
 10
51.6261266876
 20
35.1438038476
 30
0.0
 10
51.6096360648
 20
35.1342830367
 30
0.0
  0
ENDSEC
  0
SECTION
  2
OBJECTS
  0
DICTIONARY
  5
C
100
AcDbDictionary
280
0
281
1
  3
ACAD_GROUP
350
D
  3
ACAD_MLINESTYLE
350
17
  3
ACAD_LAYOUT
350
1A
  3
ACAD_PLOTSETTINGS
350
19
  3
ACAD_PLOTSTYLENAME
350
E
  0
DICTIONARY
  5
D
102
{ACAD_REACTORS
330
C
102
}
100
AcDbDictionary
280
0
281
1
  0
ACDBDICTIONARYWDFLT
  5
E
102
{ACAD_REACTORS
330
C
102
}
100
AcDbDictionary
281
1
  3
Normal
350
F
100
AcDbDictionaryWithDefault
340
F
  0
DICTIONARY
  5
17
102
{ACAD_REACTORS
330
C
102
}
100
AcDbDictionary
280
0
281
1
  3
Standard
350
18
  0
DICTIONARY
  5
19
102
{ACAD_REACTORS
330
C
102
}
100
AcDbDictionary
281
1
  0
DICTIONARY
  5
1A
102
{ACAD_REACTORS
330
C
102
}
100
AcDbDictionary
281
1
  3
Model
350
2CE
  3
Layout1
350
2CF
  0
ACDBPLACEHOLDER
  5
F
102
{ACAD_REACTORS
330
E
102
}
  0
MLINESTYLE
  5
18
102
{ACAD_REACTORS
330
17
102
}
100
AcDbMlineStyle
  2
STANDARD
 70
0
  3

 62
256
 51
90.0
 52
90.0
 71
2
 49
0.5
 62
256
  6
BYLAYER
 49
-0.5
 62
256
  6
BYLAYER
  0
LAYOUT
  5
2CE
102
{ACAD_REACTORS
330
1A
102
}
100
AcDbPlotSettings
  1

  2
none_device
  4

  6

 40
0.0
 41
0.0
 42
0.0
 43
0.0
 44
210.0
 45
297.0
 46
0.0
 47
0.0
 48
0.0
 49
0.0
140
0.0
141
0.0
142
1.0
143
1.0
 70
1024
 72
1
 73
0
 74
0
  7

 75
0
147
1.0
148
0.0
149
0.0
100
AcDbLayout
  1
Model
 70
0
 71
0
 10
0.0
 20
0.0
 11
210.0
 21
297.0
 12
0.0
 22
0.0
 32
0.0
 14
0.0
 24
0.0
 34
0.0
 15
0.0
 25
0.0
 35
0.0
146
0.0
 13
0.0
 23
0.0
 33
0.0
 16
1.0
 26
0.0
 36
0.0
 17
0.0
 27
1.0
 37
0.0
 76
0
330
210
345
0
346
0
  0
LAYOUT
  5
2CF
102
{ACAD_REACTORS
330
1A
102
}
100
AcDbPlotSettings
  1

  2
none_device
  4

  6

 40
0.0
 41
0.0
 42
0.0
 43
0.0
 44
210.0
 45
297.0
 46
0.0
 47
0.0
 48
0.0
 49
0.0
140
0.0
141
0.0
142
1.0
143
1.0
 70
0
 72
1
 73
0
 74
0
  7

 75
0
147
1.0
148
0.0
149
0.0
100
AcDbLayout
  1
Layout1
 70
0
 71
1
 10
0.0
 20
0.0
 11
210.0
 21
297.0
 12
0.0
 22
0.0
 32
0.0
 14
0.0
 24
0.0
 34
0.0
 15
0.0
 25
0.0
 35
0.0
146
0.0
 13
0.0
 23
0.0
 33
0.0
 16
1.0
 26
0.0
 36
0.0
 17
0.0
 27
1.0
 37
0.0
 76
0
330
211
345
0
346
0
  0
ENDSEC
  0
EOF
