999
DXF file: C:\Users\sesa63760\Dev\_Creo\CAD\MCADID0004654_3D-CAD\drw0001_1.dxf
999
Pro/ENGINEER 2019471 by Parametric Technology Corporation
  0
SECTION
  2
HEADER
  9
$ACADVER
  1
AC1024
  9
$DWGCODEPAGE
  3
ANSI_1252
  9
$EXTMAX
 10
86.0387274402
 20
121.683343094
 30
0.0
  9
$EXTMIN
 10
0.0
 20
0.0
 30
0.0
  9
$LIMMIN
 10
0.0
 20
0.0
  9
$LIMMAX
 10
86.0387274402
 20
121.683343094
  9
$VIEWCTR
 10
43.0193637201
 20
60.841671547
  9
$VIEWSIZE
 40
121.683343094
  9
$CLAYER
  8
0
  9
$LTSCALE
 40
7.9319512535
  9
$CELTYPE
  6
BYLAYER
  9
$DIMSCALE
 40
1.0
  9
$DIMASZ
 40
1.0242705648
  9
$DIMEXO
 40
1.0
  9
$DIMDLI
 40
5.4802572297
  9
$DIMEXE
 40
1.0
  9
$DIMCEN
 40
1.2979556597
  9
$DIMLFAC
 40
1.0
  9
$DIMBLK
  1
_FILLED
  9
$DIMALT
 70
0
  9
$DIMALTF
 40
0.0393700787
  9
$DIMTXT
 40
1.4339787907
  9
$DIMTOL
 70
1
  9
$DIMLIM
 70
0
  9
$DIMTFAC
 40
1.0
  9
$DIMTP
 40
0.01
  9
$DIMTM
 40
0.01
  9
$DIMGAP
 40
0.625
  9
$DIMDSEP
 70
46
  9
$AUNITS
 70
0
  9
$PDMODE
 70
3
  9
$PDSIZE
 40
0.3125
  9
$HANDSEED
  5
302
  9
$TILEMODE
 70
1
  9
$MEASUREMENT
 70
1
  9
$INSUNITS
 70
4
  0
ENDSEC
  0
SECTION
  2
CLASSES
  0
CLASS
  1
ACDBDICTIONARYWDFLT
  2
AcDbDictionaryWithDefault
  3
AutoCAD 2000
 90
0
 91
1
280
0
281
0
  0
CLASS
  1
ACDBPLACEHOLDER
  2
AcDbPlaceHolder
  3
AutoCAD 2000
 90
0
 91
1
280
0
281
0
  0
CLASS
  1
LAYOUT
  2
AcDbLayout
  3
AutoCAD 2000
 90
0
 91
0
280
0
281
0
  0
ENDSEC
  0
SECTION
  2
TABLES
  0
TABLE
  2
VPORT
  5
8
100
AcDbSymbolTable
 70
2
  0
VPORT
  5
1F4
100
AcDbSymbolTableRecord
100
AcDbViewportTableRecord
  2
*ACTIVE
 70
0
 10
0.0
 20
0.0
 11
1.0
 21
1.0
 12
43.0193637201
 22
60.841671547
 13
0.0
 23
0.0
 14
1.0
 24
1.0
 15
0.0
 25
0.0
 16
0.0
 26
0.0
 36
1.0
 17
0.0
 27
0.0
 37
0.0
 40
121.683343094
 41
0.7070707071
 42
50.0
 43
0.0
 44
0.0
 50
0.0
 51
0.0
 71
0
 72
100
 73
1
 74
1
 75
0
 76
0
 77
0
 78
0
  0
ENDTAB
  0
TABLE
  2
LTYPE
  5
5
100
AcDbSymbolTable
 70
6
  0
LTYPE
  5
14
100
AcDbSymbolTableRecord
100
AcDbLinetypeTableRecord
  2
BYBLOCK
 70
0
  3

 72
65
 73
0
 40
0.0
  0
LTYPE
  5
15
100
AcDbSymbolTableRecord
100
AcDbLinetypeTableRecord
  2
BYLAYER
 70
0
  3

 72
65
 73
0
 40
0.0
  0
LTYPE
  5
16
100
AcDbSymbolTableRecord
100
AcDbLinetypeTableRecord
  2
CONTINUOUS
 70
64
  3
Solid line
 72
65
 73
0
 40
0.0
  0
LTYPE
  5
1F5
100
AcDbSymbolTableRecord
100
AcDbLinetypeTableRecord
  2
CENTER
 70
64
  3
____ _ ____ _ ____ _ ____ _ ____ _ ____ _ ____
 72
65
 73
4
 40
0.6
 49
0.375
 74
0
 49
-0.075
 74
0
 49
0.075
 74
0
 49
-0.075
 74
0
  0
LTYPE
  5
1F6
100
AcDbSymbolTableRecord
100
AcDbLinetypeTableRecord
  2
HIDDEN
 70
64
  3
- - - - - - - - - - - - - - - - - - - -
 72
65
 73
2
 40
0.2
 49
0.1
 74
0
 49
-0.1
 74
0
  0
LTYPE
  5
1F7
100
AcDbSymbolTableRecord
100
AcDbLinetypeTableRecord
  2
PHANTOM
 70
64
  3
_____ _ _ _____ _ _ _____ _ _ _____
 72
65
 73
6
 40
0.8
 49
0.45
 74
0
 49
-0.05
 74
0
 49
0.1
 74
0
 49
-0.05
 74
0
 49
0.1
 74
0
 49
-0.05
 74
0
  0
LTYPE
  5
1F8
100
AcDbSymbolTableRecord
100
AcDbLinetypeTableRecord
  2
DOT
 70
64
  3
. . . . . . . . . . . . . . . . . . . .
 72
65
 73
2
 40
0.2
 49
0.1
 74
0
 49
-0.1
 74
0
  0
LTYPE
  5
1F9
100
AcDbSymbolTableRecord
100
AcDbLinetypeTableRecord
  2
DASHED
 70
64
  3
- - - - - - - - - - - - - - - - - - - -
 72
65
 73
2
 40
0.2
 49
0.1
 74
0
 49
-0.1
 74
0
  0
ENDTAB
  0
TABLE
  2
LAYER
  5
2
100
AcDbSymbolTable
 70
36
  0
LAYER
  5
10
100
AcDbSymbolTableRecord
100
AcDbLayerTableRecord
  2
0
 70
0
 62
7
  6
CONTINUOUS
370
-3
390
F
  0
LAYER
  5
1FA
100
AcDbSymbolTableRecord
100
AcDbLayerTableRecord
  2
DEFAULT_1
 70
0
 62
7
  6
CENTER
370
-3
390
F
  0
LAYER
  5
1FB
100
AcDbSymbolTableRecord
100
AcDbLayerTableRecord
  2
DEFAULT_2
 70
0
 62
7
  6
HIDDEN
370
-3
390
F
  0
LAYER
  5
1FC
100
AcDbSymbolTableRecord
100
AcDbLayerTableRecord
  2
DEFAULT_3
 70
0
 62
7
  6
PHANTOM
370
-3
390
F
  0
LAYER
  5
1FD
100
AcDbSymbolTableRecord
100
AcDbLayerTableRecord
  2
00_COMPONENTS
 70
0
 62
7
  6
CONTINUOUS
370
-3
390
F
  0
LAYER
  5
1FE
100
AcDbSymbolTableRecord
100
AcDbLayerTableRecord
  2
01_1_DEFAULT_DATUMS
 70
0
 62
7
  6
CONTINUOUS
370
-3
390
F
  0
LAYER
  5
1FF
100
AcDbSymbolTableRecord
100
AcDbLayerTableRecord
  2
01_PLANES
 70
0
 62
7
  6
CONTINUOUS
370
-3
390
F
  0
LAYER
  5
200
100
AcDbSymbolTableRecord
100
AcDbLayerTableRecord
  2
02_COORD_SYS
 70
0
 62
7
  6
CONTINUOUS
370
-3
390
F
  0
LAYER
  5
201
100
AcDbSymbolTableRecord
100
AcDbLayerTableRecord
  2
03_AXES
 70
0
 62
7
  6
CONTINUOUS
370
-3
390
F
  0
LAYER
  5
202
100
AcDbSymbolTableRecord
100
AcDbLayerTableRecord
  2
04_POINTS
 70
0
 62
7
  6
CONTINUOUS
370
-3
390
F
  0
LAYER
  5
203
100
AcDbSymbolTableRecord
100
AcDbLayerTableRecord
  2
05_CURVES
 70
0
 62
7
  6
CONTINUOUS
370
-3
390
F
  0
LAYER
  5
204
100
AcDbSymbolTableRecord
100
AcDbLayerTableRecord
  2
06_SURFS
 70
0
 62
7
  6
CONTINUOUS
370
-3
390
F
  0
LAYER
  5
205
100
AcDbSymbolTableRecord
100
AcDbLayerTableRecord
  2
07_COSMETICS
 70
0
 62
7
  6
CONTINUOUS
370
-3
390
F
  0
LAYER
  5
206
100
AcDbSymbolTableRecord
100
AcDbLayerTableRecord
  2
10_NOTES
 70
0
 62
7
  6
CONTINUOUS
370
-3
390
F
  0
LAYER
  5
207
100
AcDbSymbolTableRecord
100
AcDbLayerTableRecord
  2
11_NOTES_PUB
 70
0
 62
7
  6
CONTINUOUS
370
-3
390
F
  0
LAYER
  5
208
100
AcDbSymbolTableRecord
100
AcDbLayerTableRecord
  2
13_REF_GTOL
 70
0
 62
7
  6
CONTINUOUS
370
-3
390
F
  0
LAYER
  5
209
100
AcDbSymbolTableRecord
100
AcDbLayerTableRecord
  2
16_MISC
 70
0
 62
7
  6
CONTINUOUS
370
-3
390
F
  0
LAYER
  5
20A
100
AcDbSymbolTableRecord
100
AcDbLayerTableRecord
  2
17_NO_PRINT
 70
0
 62
7
  6
CONTINUOUS
370
-3
390
F
  0
LAYER
  5
20B
100
AcDbSymbolTableRecord
100
AcDbLayerTableRecord
  2
18_DATUM_CAMS_JOINTS
 70
0
 62
7
  6
CONTINUOUS
370
-3
390
F
  0
LAYER
  5
20C
100
AcDbSymbolTableRecord
100
AcDbLayerTableRecord
  2
19_DATUM_FUNCTIONAL
 70
0
 62
7
  6
CONTINUOUS
370
-3
390
F
  0
LAYER
  5
20D
100
AcDbSymbolTableRecord
100
AcDbLayerTableRecord
  2
20_DATUM_KINEMATIC_SCHEME
 70
0
 62
7
  6
CONTINUOUS
370
-3
390
F
  0
ENDTAB
  0
TABLE
  2
STYLE
  5
3
100
AcDbSymbolTable
 70
1
  0
STYLE
  5
11
100
AcDbSymbolTableRecord
100
AcDbTextStyleTableRecord
  2
STANDARD
 70
0
 40
0.0
 41
1.0
 50
0.0
 71
0
 42
0.2
  3
ARIAL.TTF
  4

  0
STYLE
  5
20E
100
AcDbSymbolTableRecord
100
AcDbTextStyleTableRecord
  2
TEXTSTYLE_1
 70
0
 40
0.0
 41
0.8
 50
0.0
 71
0
 42
0.2
  3
gdt
  4

  0
ENDTAB
  0
TABLE
  2
VIEW
  5
6
100
AcDbSymbolTable
 70
0
  0
ENDTAB
  0
TABLE
  2
UCS
  5
7
100
AcDbSymbolTable
 70
0
  0
ENDTAB
  0
TABLE
  2
APPID
  5
9
100
AcDbSymbolTable
 70
1
  0
APPID
  5
20F
100
AcDbSymbolTableRecord
100
AcDbRegAppTableRecord
  2
ACAD
 70
0
  0
ENDTAB
  0
TABLE
  2
BLOCK_RECORD
  5
1
100
AcDbSymbolTable
 70
0
  0
BLOCK_RECORD
  5
210
100
AcDbSymbolTableRecord
100
AcDbBlockTableRecord
  2
*Model_Space
  0
BLOCK_RECORD
  5
211
100
AcDbSymbolTableRecord
100
AcDbBlockTableRecord
  2
*Paper_Space
  0
BLOCK_RECORD
  5
212
100
AcDbSymbolTableRecord
100
AcDbBlockTableRecord
  2
_FILLED
  0
ENDTAB
  0
TABLE
  2
DIMSTYLE
  5
A
100
AcDbSymbolTable
 70
1
100
AcDbDimStyleTable
 71
0
  0
DIMSTYLE
105
213
100
AcDbSymbolTableRecord
100
AcDbDimStyleTableRecord
  2
STANDARD
 70
0
  3

  4

 40
1.0
 41
1.0242705648
 42
1.0
 43
0.38
 44
1.0
 45
0.0
 46
0.0
 47
0.01
 48
0.01
140
1.4339787907
141
0.09
142
0.0
143
25.4
144
1.0
145
0.0
146
1.0
147
0.625
 71
1
 72
0
 73
0
 74
0
 75
0
 76
0
 77
1
 78
8
 79
2
170
0
171
1
172
0
173
0
174
0
175
0
176
0
177
0
178
0
270
2
179
2
271
2
272
2
273
2
274
2
275
0
280
0
281
0
282
0
283
1
284
8
285
0
286
0
287
3
288
0
340
11
278
46
341
212
342
212
343
212
344
212
  0
ENDTAB
  0
ENDSEC
  0
SECTION
  2
BLOCKS
  0
BLOCK
  5
20
100
AcDbEntity
  8
0
100
AcDbBlockBegin
  2
*Model_Space
 70
0
 10
0.0
 20
0.0
 30
0.0
  3
*Model_Space
  1

  0
ENDBLK
  5
21
100
AcDbEntity
  8
0
100
AcDbBlockEnd
  0
BLOCK
  5
1C
100
AcDbEntity
  8
0
100
AcDbBlockBegin
  2
*Paper_Space
 70
0
 10
0.0
 20
0.0
 30
0.0
  3
*Paper_Space
  1

  0
ENDBLK
  5
1D
100
AcDbEntity
  8
0
100
AcDbBlockEnd
  0
BLOCK
  5
214
100
AcDbEntity
  8
0
100
AcDbBlockBegin
  2
_FILLED
 70
64
 10
0.0
 20
0.0
  3
_FILLED
  1

  0
SOLID
  5
215
100
AcDbEntity
  8
0
  6
BYBLOCK
 62
0
100
AcDbTrace
 10
0.0
 20
0.0
 11
-1.0
 21
0.25
 12
-1.0
 22
-0.25
 13
-1.0
 23
-0.25
  0
ENDBLK
  5
216
100
AcDbEntity
  8
0
  6
BYBLOCK
 62
0
100
AcDbBlockEnd
  0
ENDSEC
  0
SECTION
  2
ENTITIES
  0
LINE
  5
217
100
AcDbEntity
  8
0
100
AcDbLine
 62
7
  6
BYLAYER
 10
38.2550994514
 20
60.6050232159
 11
38.2550994514
 21
60.7900758782
  0
LINE
  5
218
100
AcDbEntity
  8
0
100
AcDbLine
 62
7
  6
BYLAYER
 10
38.2550994514
 20
65.422387477
 11
38.2550994514
 21
66.4021903776
  0
LINE
  5
219
100
AcDbEntity
  8
0
100
AcDbLine
 62
7
  6
BYLAYER
 10
15.2782471705
 20
71.2264673052
 11
10.9648778471
 21
73.7167359078
  0
LINE
  5
21A
100
AcDbEntity
  8
0
100
AcDbLine
 62
7
  6
BYLAYER
 10
32.807413735
 20
62.5298099318
 11
24.3235755304
 21
67.04438433
  0
LINE
  5
21B
100
AcDbEntity
  8
0
100
AcDbLine
 62
7
  6
BYLAYER
 10
17.387440035
 20
70.4706293887
 11
19.720902128
 21
69.1234348987
  0
LINE
  5
21C
100
AcDbEntity
  8
0
100
AcDbLine
 62
7
  6
BYLAYER
 10
20.7108557432
 20
68.5518978424
 11
21.1351215783
 21
68.3069533897
  0
LINE
  5
21D
100
AcDbEntity
  8
0
100
AcDbLine
 62
7
  6
BYLAYER
 10
22.0543642209
 20
67.7762404088
 11
22.478630056
 21
67.5312959561
  0
LINE
  5
21E
100
AcDbEntity
  8
0
100
AcDbLine
 62
7
  6
BYLAYER
 10
23.4685836712
 20
66.9597588998
 11
23.8928495063
 21
66.7148144471
  0
LINE
  5
21F
100
AcDbEntity
  8
0
100
AcDbLine
 62
7
  6
BYLAYER
 10
19.9873219521
 20
69.2582943233
 11
20.1852881806
 21
69.1440010536
  0
LINE
  5
220
100
AcDbEntity
  8
0
100
AcDbLine
 62
7
  6
BYLAYER
 10
22.7450498802
 20
67.6661553806
 11
22.9388932399
 21
67.5542423965
  0
LINE
  5
221
100
AcDbEntity
  8
0
100
AcDbLine
 62
7
  6
BYLAYER
 10
33.2999162052
 20
61.8611118269
 11
35.2798234356
 21
60.7180377142
  0
LINE
  5
222
100
AcDbEntity
  8
0
100
AcDbLine
 62
7
  6
BYLAYER
 10
35.7023088702
 20
60.8782640557
 11
36.3871065634
 21
60.4829048674
  0
LINE
  5
223
100
AcDbEntity
  8
0
100
AcDbLine
 62
7
  6
BYLAYER
 10
74.5569348204
 20
39.8316755982
 11
37.0185407791
 21
61.5039872097
  0
LINE
  5
224
100
AcDbEntity
  8
0
100
AcDbLine
 62
7
  6
BYLAYER
 10
76.9068949479
 20
43.9020180161
 11
39.3685009065
 21
65.5743296277
  0
LINE
  5
225
100
AcDbEntity
  8
0
100
AcDbLine
 62
7
  6
BYLAYER
 10
39.2522486373
 20
67.0270791977
 11
39.9370463305
 21
66.6317200094
  0
LINE
  5
226
100
AcDbEntity
  8
0
100
AcDbLine
 62
7
  6
BYLAYER
 10
36.3024561266
 20
68.7532773446
 11
28.2227325091
 21
73.7980751092
  0
LINE
  5
227
100
AcDbEntity
  8
0
100
AcDbLine
 62
7
  6
BYLAYER
 10
37.1998500338
 20
68.61614818
 11
39.1797572642
 21
67.4730740674
  0
LINE
  5
228
100
AcDbEntity
  8
0
100
AcDbLine
 62
7
  6
BYLAYER
 10
24.1372515389
 20
76.4463458273
 11
24.3313675242
 21
76.3342754463
  0
LINE
  5
229
100
AcDbEntity
  8
0
100
AcDbLine
 62
7
  6
BYLAYER
 10
26.894979467
 20
74.8542068846
 11
27.0928075615
 21
74.7399933649
  0
LINE
  5
22A
100
AcDbEntity
  8
0
100
AcDbLine
 62
7
  6
BYLAYER
 10
21.7873653801
 20
78.0916960435
 11
24.120827473
 21
76.7445015536
  0
LINE
  5
22B
100
AcDbEntity
  8
0
100
AcDbLine
 62
7
  6
BYLAYER
 10
25.1107810882
 20
76.1729644973
 11
25.5350469233
 21
75.9280200446
  0
LINE
  5
22C
100
AcDbEntity
  8
0
100
AcDbLine
 62
7
  6
BYLAYER
 10
26.454289566
 20
75.3973070637
 11
26.8785554011
 21
75.152362611
  0
LINE
  5
22D
100
AcDbEntity
  8
0
100
AcDbLine
 62
7
  6
BYLAYER
 10
27.8685090163
 20
74.5808255546
 11
28.2927748514
 21
74.3358811019
  0
LINE
  5
22E
100
AcDbEntity
  8
0
100
AcDbLine
 62
7
  6
BYLAYER
 10
20.0781657288
 20
79.5403582014
 11
15.7647964054
 21
82.030626804
  0
ARC
  5
22F
100
AcDbEntity
  8
0
100
AcDbCircle
 62
7
  6
BYLAYER
 10
23.9836114455
 20
70.5659540468
 40
4.1840499185
100
AcDbArc
 50
179.0102679842
 51
179.9972222556
  0
ARC
  5
230
100
AcDbEntity
  8
0
100
AcDbCircle
 62
7
  6
BYLAYER
 10
23.8013207234
 20
70.6475136589
 40
4.0603384345
100
AcDbArc
 50
179.9958786506
 51
181.385317045
  0
ARC
  5
231
100
AcDbEntity
  8
0
100
AcDbCircle
 62
7
  6
BYLAYER
 10
21.9755834213
 20
70.2836809109
 40
2.1847994766
100
AcDbArc
 50
205.1536565456
 51
206.9483529726
  0
ARC
  5
232
100
AcDbEntity
  8
0
100
AcDbCircle
 62
7
  6
BYLAYER
 10
23.2942473972
 20
69.496085288
 40
2.1572366694
100
AcDbArc
 50
205.1471223985
 51
209.1194645907
  0
ARC
  5
233
100
AcDbEntity
  8
0
100
AcDbCircle
 62
7
  6
BYLAYER
 10
20.5259444513
 20
70.5190241359
 40
1.6111370089
100
AcDbArc
 50
240.021604662
 51
248.1336435035
  0
ARC
  5
234
100
AcDbEntity
  8
0
100
AcDbCircle
 62
7
  6
BYLAYER
 10
21.5169229876
 20
69.9468953276
 40
1.6111369855
100
AcDbArc
 50
231.8674311468
 51
239.9795172294
  0
ARC
  5
235
100
AcDbEntity
  8
0
100
AcDbCircle
 62
7
  6
BYLAYER
 10
22.8604314654
 20
69.171237894
 40
1.6111369855
100
AcDbArc
 50
231.8674311468
 51
239.9795172294
  0
ARC
  5
236
100
AcDbEntity
  8
0
100
AcDbCircle
 62
7
  6
BYLAYER
 10
21.9385202716
 20
69.6994342938
 40
1.6076232546
100
AcDbArc
 50
240.016992259
 51
247.2639337813
  0
ARC
  5
237
100
AcDbEntity
  8
0
100
AcDbCircle
 62
7
  6
BYLAYER
 10
23.2820287494
 20
68.9237768602
 40
1.6076232546
100
AcDbArc
 50
240.016992259
 51
247.2639337813
  0
ARC
  5
238
100
AcDbEntity
  8
0
100
AcDbCircle
 62
7
  6
BYLAYER
 10
24.2727808612
 20
68.3517787261
 40
1.6076231888
100
AcDbArc
 50
232.7371747452
 51
239.9841300902
  0
ARC
  5
239
100
AcDbEntity
  8
0
100
AcDbCircle
 62
7
  6
BYLAYER
 10
24.6847233395
 20
68.0562046343
 40
1.5589938126
100
AcDbArc
 50
223.5176296762
 51
228.9221478111
  0
ARC
  5
23A
100
AcDbEntity
  8
0
100
AcDbCircle
 62
7
  6
BYLAYER
 10
21.9270476022
 20
69.6482890728
 40
1.558987022
100
AcDbArc
 50
223.5147747127
 51
228.9193856805
  0
ARC
  5
23B
100
AcDbEntity
  8
0
100
AcDbCircle
 62
7
  6
BYLAYER
 10
23.27055608
 20
68.8726316392
 40
1.558987022
100
AcDbArc
 50
223.5147747127
 51
228.9193856805
  0
ARC
  5
23C
100
AcDbEntity
  8
0
100
AcDbCircle
 62
7
  6
BYLAYER
 10
24.6374240463
 20
68.0024978447
 40
1.4874291381
100
AcDbArc
 50
228.9362139836
 51
239.962297849
  0
ARC
  5
23D
100
AcDbEntity
  8
0
100
AcDbCircle
 62
7
  6
BYLAYER
 10
21.879480105
 20
69.594294847
 40
1.4870294249
100
AcDbArc
 50
228.9338347021
 51
239.9629081594
  0
ARC
  5
23E
100
AcDbEntity
  8
0
100
AcDbCircle
 62
7
  6
BYLAYER
 10
23.2229885828
 20
68.8186374134
 40
1.4870294249
100
AcDbArc
 50
228.9338347021
 51
239.9629081594
  0
ARC
  5
23F
100
AcDbEntity
  8
0
100
AcDbCircle
 62
7
  6
BYLAYER
 10
20.6695034255
 20
70.4388688427
 40
1.4134691931
100
AcDbArc
 50
231.4184473788
 51
239.7460552436
  0
ARC
  5
240
100
AcDbEntity
  8
0
100
AcDbCircle
 62
7
  6
BYLAYER
 10
23.4238001157
 20
68.8421640104
 40
1.4078000029
100
AcDbArc
 50
240.2281026477
 51
245.8890942758
  0
ARC
  5
241
100
AcDbEntity
  8
0
100
AcDbCircle
 62
7
  6
BYLAYER
 10
22.0802916379
 20
69.617821444
 40
1.4078000029
100
AcDbArc
 50
240.2281026477
 51
245.8890942758
  0
ARC
  5
242
100
AcDbEntity
  8
0
100
AcDbCircle
 62
7
  6
BYLAYER
 10
20.6645042763
 20
70.4312313512
 40
1.4043532618
100
AcDbArc
 50
239.7652406437
 51
243.6149555035
  0
ARC
  5
243
100
AcDbEntity
  8
0
100
AcDbCircle
 62
7
  6
BYLAYER
 10
21.8824234777
 20
73.5297085524
 40
5.0878948646
100
AcDbArc
 50
126.1371761285
 51
128.4513985727
  0
ARC
  5
244
100
AcDbEntity
  8
0
100
AcDbCircle
 62
7
  6
BYLAYER
 10
21.7044250079
 20
73.7721047121
 40
4.7871646508
100
AcDbArc
 50
123.5975578777
 51
126.1275186304
  0
ARC
  5
245
100
AcDbEntity
  8
0
100
AcDbCircle
 62
7
  6
BYLAYER
 10
21.4973949117
 20
74.0827501574
 40
4.4138528122
100
AcDbArc
 50
120.0459439138
 51
123.5904558703
  0
ARC
  5
246
100
AcDbEntity
  8
0
100
AcDbCircle
 62
7
  6
BYLAYER
 10
21.7529244669
 20
74.1270931272
 40
4.3274816225
100
AcDbArc
 50
120.0272312538
 51
122.5498280448
  0
ARC
  5
247
100
AcDbEntity
  8
0
100
AcDbCircle
 62
7
  6
BYLAYER
 10
21.2854698398
 20
74.4451063621
 40
3.9940793545
100
AcDbArc
 50
115.8513877815
 51
120.0169983692
  0
ARC
  5
248
100
AcDbEntity
  8
0
100
AcDbCircle
 62
7
  6
BYLAYER
 10
20.3348674111
 20
74.3219802195
 40
3.8057712518
100
AcDbArc
 50
127.9768571387
 51
128.3359423347
  0
ARC
  5
249
100
AcDbEntity
  8
0
100
AcDbCircle
 62
7
  6
BYLAYER
 10
17.3912818092
 20
79.9567510537
 40
2.6057710604
100
AcDbArc
 50
288.7813913634
 51
289.1700490773
  0
ARC
  5
24A
100
AcDbEntity
  8
0
100
AcDbCircle
 62
7
  6
BYLAYER
 10
13.5742100246
 20
73.3452775929
 40
2.6057109846
100
AcDbArc
 50
10.8299502534
 51
11.2186313827
  0
ARC
  5
24B
100
AcDbEntity
  8
0
100
AcDbCircle
 62
7
  6
BYLAYER
 10
24.6982311602
 20
74.4940286743
 40
1.6607959002
100
AcDbArc
 50
43.8331390685
 51
51.8639225551
  0
ARC
  5
24C
100
AcDbEntity
  8
0
100
AcDbCircle
 62
7
  6
BYLAYER
 10
24.7289753259
 20
74.5330129817
 40
1.6111474562
100
AcDbArc
 50
51.8677519657
 51
59.9795536019
  0
ARC
  5
24D
100
AcDbEntity
  8
0
100
AcDbCircle
 62
7
  6
BYLAYER
 10
24.3073632451
 20
74.780453957
 40
1.6076584947
100
AcDbArc
 50
60.0169289457
 51
67.2642450233
  0
ARC
  5
24E
100
AcDbEntity
  8
0
100
AcDbCircle
 62
7
  6
BYLAYER
 10
23.3166141923
 20
75.3524503237
 40
1.60765843
100
AcDbArc
 50
52.7368634235
 51
59.984193404
  0
ARC
  5
24F
100
AcDbEntity
  8
0
100
AcDbCircle
 62
7
  6
BYLAYER
 10
14.5859936838
 20
74.4034237866
 40
1.5948843935
100
AcDbArc
 50
339.3745101857
 51
339.7800001583
  0
ARC
  5
250
100
AcDbEntity
  8
0
100
AcDbCircle
 62
7
  6
BYLAYER
 10
16.9808264541
 20
78.5513717399
 40
1.5948607278
100
AcDbArc
 50
320.2201842787
 51
320.6257203698
  0
ARC
  5
251
100
AcDbEntity
  8
0
100
AcDbCircle
 62
7
  6
BYLAYER
 10
16.9883336088
 20
78.5451184773
 40
1.5850903307
100
AcDbArc
 50
319.7512775125
 51
320.2202680698
  0
ARC
  5
252
100
AcDbEntity
  8
0
100
AcDbCircle
 62
7
  6
BYLAYER
 10
14.6260685802
 20
74.3889128334
 40
1.5522638737
100
AcDbArc
 50
339.7713541547
 51
343.2966776943
  0
ARC
  5
253
100
AcDbEntity
  8
0
100
AcDbCircle
 62
7
  6
BYLAYER
 10
17.0306616285
 20
78.508509679
 40
1.5291305175
100
AcDbArc
 50
316.6810535101
 51
319.7735015323
  0
ARC
  5
254
100
AcDbEntity
  8
0
100
AcDbCircle
 62
7
  6
BYLAYER
 10
18.1290607749
 20
71.7544781024
 40
1.4826310211
100
AcDbArc
 50
227.4414651199
 51
239.9869363998
  0
ARC
  5
255
100
AcDbEntity
  8
0
100
AcDbCircle
 62
7
  6
BYLAYER
 10
24.3723875174
 20
74.8933989413
 40
1.4773125409
100
AcDbArc
 50
60.0122241641
 51
67.2500032164
  0
ARC
  5
256
100
AcDbEntity
  8
0
100
AcDbCircle
 62
7
  6
BYLAYER
 10
14.7412838167
 20
74.3539477907
 40
1.4318605827
100
AcDbArc
 50
343.3116837928
 51
347.464385607
  0
ARC
  5
257
100
AcDbEntity
  8
0
100
AcDbCircle
 62
7
  6
BYLAYER
 10
23.4572601603
 20
75.2690922686
 40
1.4094971184
100
AcDbArc
 50
53.3271519019
 51
59.7549410664
  0
ARC
  5
258
100
AcDbEntity
  8
0
100
AcDbCircle
 62
7
  6
BYLAYER
 10
17.117672589
 20
78.4250494727
 40
1.4085677976
100
AcDbArc
 50
312.5014355268
 51
316.7228073851
  0
ARC
  5
259
100
AcDbEntity
  8
0
100
AcDbCircle
 62
7
  6
BYLAYER
 10
17.7139161832
 20
78.7769849171
 40
1.3904443058
100
AcDbArc
 50
297.539116996
 51
300.0577347126
  0
ARC
  5
25A
100
AcDbEntity
  8
0
100
AcDbCircle
 62
7
  6
BYLAYER
 10
14.8833300824
 20
74.3216396235
 40
1.2861883401
100
AcDbArc
 50
347.4958957915
 51
351.9521739478
  0
ARC
  5
25B
100
AcDbEntity
  8
0
100
AcDbCircle
 62
7
  6
BYLAYER
 10
17.2172417884
 20
78.3147980002
 40
1.260014398
100
AcDbArc
 50
308.0016212948
 51
312.5504739318
  0
ARC
  5
25C
100
AcDbEntity
  8
0
100
AcDbCircle
 62
7
  6
BYLAYER
 10
15.1101937241
 20
73.8171270774
 40
1.0717927951
100
AcDbArc
 50
337.4537681052
 51
338.7294493658
  0
ARC
  5
25D
100
AcDbEntity
  8
0
100
AcDbCircle
 62
7
  6
BYLAYER
 10
16.387713681
 20
74.6692090788
 40
0.8721977411
100
AcDbArc
 50
249.5023305852
 51
253.0551786251
  0
ARC
  5
25E
100
AcDbEntity
  8
0
100
AcDbCircle
 62
7
  6
BYLAYER
 10
17.6515467815
 20
76.8582194416
 40
0.8721211117
100
AcDbArc
 50
46.9447701365
 51
50.4979476805
  0
ARC
  5
25F
100
AcDbEntity
  8
0
100
AcDbCircle
 62
7
  6
BYLAYER
 10
17.991126466
 20
78.1907621066
 40
0.7590996098
100
AcDbArc
 50
315.9027846975
 51
319.4565503036
  0
ARC
  5
260
100
AcDbEntity
  8
0
100
AcDbCircle
 62
7
  6
BYLAYER
 10
18.6715504385
 20
77.2041180218
 40
0.5641115259
100
AcDbArc
 50
124.0322635968
 51
127.7937604316
  0
ARC
  5
261
100
AcDbEntity
  8
0
100
AcDbCircle
 62
7
  6
BYLAYER
 10
18.5657761308
 20
77.4002604012
 40
0.3405162896
100
AcDbArc
 50
107.2559037558
 51
110.8135224122
  0
ARC
  5
262
100
AcDbEntity
  8
0
100
AcDbCircle
 62
7
  6
BYLAYER
 10
16.0545768511
 20
73.691158868
 40
0.2053958833
100
AcDbArc
 50
272.296843247
 51
276.0715842697
  0
ARC
  5
263
100
AcDbEntity
  8
0
100
AcDbCircle
 62
7
  6
BYLAYER
 10
18.3319445074
 20
77.6356896058
 40
0.2053911163
100
AcDbArc
 50
23.9290421038
 51
27.7042670969
  0
ARC
  5
264
100
AcDbEntity
  8
0
100
AcDbCircle
 62
7
  6
BYLAYER
 10
25.3271199233
 20
69.7902966132
 40
4.1840499185
100
AcDbArc
 50
179.0102679842
 51
179.9972222556
  0
ARC
  5
265
100
AcDbEntity
  8
0
100
AcDbCircle
 62
7
  6
BYLAYER
 10
27.756008208
 20
70.7475974275
 40
4.1746772838
100
AcDbArc
 50
120.0019528225
 51
120.859981111
  0
ARC
  5
266
100
AcDbEntity
  8
0
100
AcDbCircle
 62
7
  6
BYLAYER
 10
25.1448292011
 20
69.8718562253
 40
4.0603384344
100
AcDbArc
 50
179.9958786506
 51
181.385317045
  0
ARC
  5
267
100
AcDbEntity
  8
0
100
AcDbCircle
 62
7
  6
BYLAYER
 10
27.598874273
 20
70.8567404973
 40
4.0601672855
100
AcDbArc
 50
118.6144350577
 51
120.0039733761
  0
ARC
  5
268
100
AcDbEntity
  8
0
100
AcDbCircle
 62
7
  6
BYLAYER
 10
25.6016175468
 20
69.544316887
 40
3.7514391941
100
AcDbArc
 50
179.9810798011
 51
184.1043084483
  0
ARC
  5
269
100
AcDbEntity
  8
0
100
AcDbCircle
 62
7
  6
BYLAYER
 10
28.0776477251
 20
70.6876312671
 40
3.6803274239
100
AcDbArc
 50
115.8523065129
 51
120.0584389047
  0
ARC
  5
26A
100
AcDbEntity
  8
0
100
AcDbCircle
 62
7
  6
BYLAYER
 10
35.9758490862
 20
62.537024424
 40
2.0026042602
100
AcDbArc
 50
276.1561181965
 51
279.9825434723
  0
ARC
  5
26B
100
AcDbEntity
  8
0
100
AcDbCircle
 62
7
  6
BYLAYER
 10
24.8392578506
 20
68.027255042
 40
1.4097616497
100
AcDbArc
 50
231.4122511581
 51
243.4801470031
  0
ARC
  5
26C
100
AcDbEntity
  8
0
100
AcDbCircle
 62
7
  6
BYLAYER
 10
25.0129504572
 20
72.3146868608
 40
4.2037058937
100
AcDbArc
 50
120.0043925907
 51
121.2673159915
  0
ARC
  5
26D
100
AcDbEntity
  8
0
100
AcDbCircle
 62
7
  6
BYLAYER
 10
26.3564589349
 20
71.5390294274
 40
4.2037058935
100
AcDbArc
 50
120.0043925907
 51
121.2673159915
  0
ARC
  5
26E
100
AcDbEntity
  8
0
100
AcDbCircle
 62
7
  6
BYLAYER
 10
26.2989842466
 20
71.6379768898
 40
4.089277521
100
AcDbArc
 50
119.5465945776
 51
120.0003008058
  0
ARC
  5
26F
100
AcDbEntity
  8
0
100
AcDbCircle
 62
7
  6
BYLAYER
 10
27.0011314507
 20
72.6197791573
 40
2.1846506262
100
AcDbArc
 50
93.0528570784
 51
94.8411626835
  0
ARC
  5
270
100
AcDbEntity
  8
0
100
AcDbCircle
 62
7
  6
BYLAYER
 10
27.0632092444
 20
72.7406305055
 40
2.0463709989
100
AcDbArc
 50
92.7862500055
 51
93.6352662809
  0
ARC
  5
271
100
AcDbEntity
  8
0
100
AcDbCircle
 62
7
  6
BYLAYER
 10
27.0608770875
 20
72.7906129029
 40
1.9963343253
100
AcDbArc
 50
91.2171926084
 51
92.7891271765
  0
ARC
  5
272
100
AcDbEntity
  8
0
100
AcDbCircle
 62
7
  6
BYLAYER
 10
27.0634605761
 20
73.1852277603
 40
1.6111474776
100
AcDbArc
 50
60.0215682919
 51
68.133322668
  0
ARC
  5
273
100
AcDbEntity
  8
0
100
AcDbCircle
 62
7
  6
BYLAYER
 10
26.0724838037
 20
73.7573555481
 40
1.6111474562
100
AcDbArc
 50
51.8677519657
 51
59.9795536019
  0
ARC
  5
274
100
AcDbEntity
  8
0
100
AcDbCircle
 62
7
  6
BYLAYER
 10
25.6508717229
 20
74.0047965234
 40
1.6076584947
100
AcDbArc
 50
60.0169289457
 51
67.2642450233
  0
ARC
  5
275
100
AcDbEntity
  8
0
100
AcDbCircle
 62
7
  6
BYLAYER
 10
25.7021990083
 20
74.0838320564
 40
1.5138807215
100
AcDbArc
 50
67.2682371182
 51
73.0660856315
  0
ARC
  5
276
100
AcDbEntity
  8
0
100
AcDbCircle
 62
7
  6
BYLAYER
 10
27.1288877986
 20
73.2988619966
 40
1.4799986974
100
AcDbArc
 50
60.01746033
 51
68.5811502851
  0
ARC
  5
277
100
AcDbEntity
  8
0
100
AcDbCircle
 62
7
  6
BYLAYER
 10
25.7158959952
 20
74.1177415077
 40
1.4773125409
100
AcDbArc
 50
60.012224164
 51
67.2500032163
  0
ARC
  5
278
100
AcDbEntity
  8
0
100
AcDbCircle
 62
7
  6
BYLAYER
 10
26.2176408642
 20
73.6810460753
 40
1.4046271378
100
AcDbArc
 50
56.2202938051
 51
60.2204025654
  0
ARC
  5
279
100
AcDbEntity
  8
0
100
AcDbCircle
 62
7
  6
BYLAYER
 10
24.8742933409
 20
74.4569659063
 40
1.4043194515
100
AcDbArc
 50
56.5174868772
 51
60.2207850903
  0
SPLINE
  5
27A
100
AcDbEntity
  8
0
100
AcDbSpline
 62
7
  6
BYLAYER
 70
0
 71
3
 72
13
 73
9
 74
0
 42
0.0000001
 43
0.0000001
 44
0.0000000001
 40
0.0
 40
0.0
 40
0.0
 40
0.0
 40
0.2893724989
 40
0.5483073615
 40
0.6677369704
 40
0.7817623376
 40
0.8919031108
 40
1.0
 40
1.0
 40
1.0
 40
1.0
 10
35.2498831195
 20
68.4229894303
 30
0.0
 10
35.4210501818
 20
68.5218121899
 30
0.0
 10
35.7612475942
 20
68.6838234602
 30
0.0
 10
36.2091784446
 20
68.7917643977
 30
0.0
 10
36.5463149645
 20
68.8034797267
 30
0.0
 10
36.7804683703
 20
68.7773295112
 30
0.0
 10
37.0001531962
 20
68.7166592187
 30
0.0
 10
37.135898446
 20
68.6530448572
 30
0.0
 10
37.1998389596
 20
68.6161289987
 30
0.0
  0
SPLINE
  5
27B
100
AcDbEntity
  8
0
100
AcDbSpline
 62
7
  6
BYLAYER
 70
0
 71
3
 72
11
 73
7
 74
0
 42
0.0000001
 43
0.0000001
 44
0.0000000001
 40
0.0
 40
0.0
 40
0.0
 40
0.0
 40
0.2897026209
 40
0.5490908265
 40
0.782219764
 40
1.0
 40
1.0
 40
1.0
 40
1.0
 10
77.3936089016
 20
42.8262205688
 30
0.0
 10
77.3936089016
 20
42.9452908263
 30
0.0
 10
77.3755563262
 20
43.1717381441
 30
0.0
 10
77.2838529052
 20
43.4828668666
 30
0.0
 10
77.1294434618
 20
43.7353292716
 30
0.0
 10
76.9844055345
 20
43.8572512164
 30
0.0
 10
76.9068909393
 20
43.9020110819
 30
0.0
  0
SPLINE
  5
27C
100
AcDbEntity
  8
0
100
AcDbSpline
 62
7
  6
BYLAYER
 70
0
 71
3
 72
19
 73
15
 74
0
 42
0.0000001
 43
0.0000001
 44
0.0000000001
 40
0.0
 40
0.0
 40
0.0
 40
0.0
 40
0.0431840947
 40
0.0876262883
 40
0.1344118689
 40
0.1843451449
 40
0.2379231915
 40
0.2953450613
 40
0.356571648
 40
0.4213559446
 40
0.5597424993
 40
0.7061128352
 40
0.8548285081
 40
1.0
 40
1.0
 40
1.0
 40
1.0
 10
10.9648933634
 20
73.7167629368
 30
0.0
 10
10.8663614786
 20
73.7736390798
 30
0.0
 10
10.6783241317
 20
73.9110716007
 30
0.0
 10
10.4404646407
 20
74.1764509385
 30
0.0
 10
10.2483338194
 20
74.4972470096
 30
0.0
 10
10.1042373103
 20
74.8677992199
 30
0.0
 10
10.0097567243
 20
75.2824685782
 30
0.0
 10
9.9656654777
 20
75.7351135024
 30
0.0
 10
9.972469765
 20
76.2192162647
 30
0.0
 10
10.0508066401
 20
76.9122799104
 30
0.0
 10
10.2773404249
 20
77.8095777636
 30
0.0
 10
10.7210583229
 20
78.8659532744
 30
0.0
 10
11.3170472684
 20
79.8651647998
 30
0.0
 10
11.8056218415
 20
80.4701473677
 30
0.0
 10
12.0688029575
 20
80.7476518931
 30
0.0
  0
SPLINE
  5
27D
100
AcDbEntity
  8
0
100
AcDbSpline
 62
7
  6
BYLAYER
 70
0
 71
3
 72
11
 73
7
 74
0
 42
0.0000001
 43
0.0000001
 44
0.0000000001
 40
0.0
 40
0.0
 40
0.0
 40
0.0
 40
0.2325199132
 40
0.472691454
 40
0.7269780071
 40
1.0
 40
1.0
 40
1.0
 40
1.0
 10
15.278257801
 20
71.2264857193
 30
0.0
 10
15.3832463314
 20
71.1658824453
 30
0.0
 10
15.6116285525
 20
71.0668725922
 30
0.0
 10
15.986728198
 20
70.9959962638
 30
0.0
 10
16.3891307014
 20
71.0014659893
 30
0.0
 10
16.6605233844
 20
71.0533659483
 30
0.0
 10
16.798037944
 20
71.0901146155
 30
0.0
  0
SPLINE
  5
27E
100
AcDbEntity
  8
0
100
AcDbSpline
 62
7
  6
BYLAYER
 70
0
 71
3
 72
11
 73
7
 74
0
 42
0.0000001
 43
0.0000001
 44
0.0000000001
 40
0.0
 40
0.0
 40
0.0
 40
0.0
 40
0.272566657
 40
0.5267545067
 40
0.7671140759
 40
1.0
 40
1.0
 40
1.0
 40
1.0
 10
20.9502004638
 20
78.3142596876
 30
0.0
 10
20.9128260997
 20
78.4492299193
 30
0.0
 10
20.8215185984
 20
78.7054604026
 30
0.0
 10
20.6259246319
 20
79.050243169
 30
0.0
 10
20.3792060277
 20
79.3345023394
 30
0.0
 10
20.1817893629
 20
79.4805182458
 30
0.0
 10
20.0781550982
 20
79.5403397873
 30
0.0
  0
SPLINE
  5
27F
100
AcDbEntity
  8
0
100
AcDbSpline
 62
7
  6
BYLAYER
 70
0
 71
3
 72
9
 73
5
 74
0
 42
0.0000001
 43
0.0000001
 44
0.0000000001
 40
0.0
 40
0.0
 40
0.0
 40
0.0
 40
0.2393582799
 40
1.0
 40
1.0
 40
1.0
 40
1.0
 10
18.5569491605
 20
77.7378018235
 30
0.0
 10
18.5685205796
 20
77.7370631829
 30
0.0
 10
18.6169908372
 20
77.7360199161
 30
0.0
 10
18.665480778
 20
77.7428927509
 30
0.0
 10
18.7013191306
 20
77.7514548061
 30
0.0
  0
SPLINE
  5
280
100
AcDbEntity
  8
0
100
AcDbSpline
 62
7
  6
BYLAYER
 70
0
 71
3
 72
9
 73
5
 74
0
 42
0.0000001
 43
0.0000001
 44
0.0000000001
 40
0.0
 40
0.0
 40
0.0
 40
0.0
 40
0.2441445595
 40
1.0
 40
1.0
 40
1.0
 40
1.0
 10
18.7013191306
 20
77.7514548061
 30
0.0
 10
18.7076397683
 20
77.7529648545
 30
0.0
 10
18.7334251337
 20
77.7595792084
 30
0.0
 10
18.758776393
 20
77.7678571031
 30
0.0
 10
18.7776201421
 20
77.7749059548
 30
0.0
  0
SPLINE
  5
281
100
AcDbEntity
  8
0
100
AcDbSpline
 62
7
  6
BYLAYER
 70
0
 71
3
 72
9
 73
5
 74
0
 42
0.0000001
 43
0.0000001
 44
0.0000000001
 40
0.0
 40
0.0
 40
0.0
 40
0.0
 40
0.2583200868
 40
1.0
 40
1.0
 40
1.0
 40
1.0
 10
18.213683189
 20
77.5396183054
 30
0.0
 10
18.2222851275
 20
77.5500999982
 30
0.0
 10
18.2566280084
 20
77.589795222
 30
0.0
 10
18.2950799742
 20
77.6260416484
 30
0.0
 10
18.3258510483
 20
77.6498912212
 30
0.0
  0
SPLINE
  5
282
100
AcDbEntity
  8
0
100
AcDbSpline
 62
7
  6
BYLAYER
 70
0
 71
3
 72
9
 73
5
 74
0
 42
0.0000001
 43
0.0000001
 44
0.0000000001
 40
0.0
 40
0.0
 40
0.0
 40
0.0
 40
0.2623690272
 40
1.0
 40
1.0
 40
1.0
 40
1.0
 10
18.3558399789
 20
77.6716099675
 30
0.0
 10
18.3631420067
 20
77.6765319507
 30
0.0
 10
18.3914290888
 20
77.694589839
 30
0.0
 10
18.4216356437
 20
77.7097684628
 30
0.0
 10
18.4447813012
 20
77.7185552248
 30
0.0
  0
SPLINE
  5
283
100
AcDbEntity
  8
0
100
AcDbSpline
 62
7
  6
BYLAYER
 70
0
 71
3
 72
9
 73
5
 74
0
 42
0.0000001
 43
0.0000001
 44
0.0000000001
 40
0.0
 40
0.0
 40
0.0
 40
0.0
 40
0.2601577745
 40
1.0
 40
1.0
 40
1.0
 40
1.0
 10
18.4647653859
 20
77.7254498428
 30
0.0
 10
18.4699380074
 20
77.7270539789
 30
0.0
 10
18.4899673311
 20
77.732723074
 30
0.0
 10
18.510609844
 20
77.7363344207
 30
0.0
 10
18.525964801
 20
77.7375262464
 30
0.0
  0
SPLINE
  5
284
100
AcDbEntity
  8
0
100
AcDbSpline
 62
7
  6
BYLAYER
 70
0
 71
3
 72
9
 73
5
 74
0
 42
0.0000001
 43
0.0000001
 44
0.0000000001
 40
0.0
 40
0.0
 40
0.0
 40
0.0
 40
0.2551665881
 40
1.0
 40
1.0
 40
1.0
 40
1.0
 10
18.525964801
 20
77.7375262464
 30
0.0
 10
18.5285936019
 20
77.7377302895
 30
0.0
 10
18.5389079576
 20
77.7383599676
 30
0.0
 10
18.5492682211
 20
77.7382921223
 30
0.0
 10
18.5569491605
 20
77.7378018235
 30
0.0
  0
SPLINE
  5
285
100
AcDbEntity
  8
0
100
AcDbSpline
 62
7
  6
BYLAYER
 70
0
 71
3
 72
9
 73
5
 74
0
 42
0.0000001
 43
0.0000001
 44
0.0000000001
 40
0.0
 40
0.0
 40
0.0
 40
0.0
 40
0.232864475
 40
1.0
 40
1.0
 40
1.0
 40
1.0
 10
16.0786506374
 20
73.4452390365
 30
0.0
 10
16.0737337016
 20
73.4526252548
 30
0.0
 10
16.0547143028
 20
73.4857406076
 30
0.0
 10
16.0439147758
 20
73.52315041
 30
0.0
 10
16.0392355317
 20
73.5520046031
 30
0.0
  0
SPLINE
  5
286
100
AcDbEntity
  8
0
100
AcDbSpline
 62
7
  6
BYLAYER
 70
0
 71
3
 72
9
 73
5
 74
0
 42
0.0000001
 43
0.0000001
 44
0.0000000001
 40
0.0
 40
0.0
 40
0.0
 40
0.0
 40
0.2343911745
 40
1.0
 40
1.0
 40
1.0
 40
1.0
 10
16.0392355317
 20
73.5520046031
 30
0.0
 10
16.0375143166
 20
73.5626183415
 30
0.0
 10
16.0322289868
 20
73.6082314565
 30
0.0
 10
16.0344824021
 20
73.6545367725
 30
0.0
 10
16.0392355317
 20
73.6893349834
 30
0.0
  0
SPLINE
  5
287
100
AcDbEntity
  8
0
100
AcDbSpline
 62
7
  6
BYLAYER
 70
0
 71
3
 72
9
 73
5
 74
0
 42
0.0000001
 43
0.0000001
 44
0.0000000001
 40
0.0
 40
0.0
 40
0.0
 40
0.0
 40
0.2406953689
 40
1.0
 40
1.0
 40
1.0
 40
1.0
 10
16.0392355317
 20
73.6893349834
 30
0.0
 10
16.0409455039
 20
73.7018538871
 30
0.0
 10
16.0497269377
 20
73.7536298201
 30
0.0
 10
16.0646100307
 20
73.8043085311
 30
0.0
 10
16.0786506374
 20
73.841612922
 30
0.0
  0
SPLINE
  5
288
100
AcDbEntity
  8
0
100
AcDbSpline
 62
7
  6
BYLAYER
 70
0
 71
3
 72
9
 73
5
 74
0
 42
0.0000001
 43
0.0000001
 44
0.0000000001
 40
0.0
 40
0.0
 40
0.0
 40
0.0
 40
0.2559810441
 40
1.0
 40
1.0
 40
1.0
 40
1.0
 10
16.1568514647
 20
73.2355762522
 30
0.0
 10
16.1557280283
 20
73.2422965935
 30
0.0
 10
16.1509619897
 20
73.2684844587
 30
0.0
 10
16.1446561386
 20
73.2943994754
 30
0.0
 10
16.139010679
 20
73.3133817469
 30
0.0
  0
SPLINE
  5
289
100
AcDbEntity
  8
0
100
AcDbSpline
 62
7
  6
BYLAYER
 70
0
 71
3
 72
9
 73
5
 74
0
 42
0.0000001
 43
0.0000001
 44
0.0000000001
 40
0.0
 40
0.0
 40
0.0
 40
0.0
 40
0.2560305568
 40
1.0
 40
1.0
 40
1.0
 40
1.0
 10
16.139010679
 20
73.3133817469
 30
0.0
 10
16.137187664
 20
73.3195114454
 30
0.0
 10
16.1296776304
 20
73.3433339377
 30
0.0
 10
16.1205711561
 20
73.3666621083
 30
0.0
 10
16.112835969
 20
73.3835582752
 30
0.0
  0
SPLINE
  5
28A
100
AcDbEntity
  8
0
100
AcDbSpline
 62
7
  6
BYLAYER
 70
0
 71
3
 72
9
 73
5
 74
0
 42
0.0000001
 43
0.0000001
 44
0.0000000001
 40
0.0
 40
0.0
 40
0.0
 40
0.0
 40
0.255521732
 40
1.0
 40
1.0
 40
1.0
 40
1.0
 10
16.112835969
 20
73.3835582752
 30
0.0
 10
16.1103342591
 20
73.3890228242
 30
0.0
 10
16.1001495514
 20
73.4102247527
 30
0.0
 10
16.0883538313
 20
73.4306629038
 30
0.0
 10
16.0786506374
 20
73.4452390365
 30
0.0
  0
SPLINE
  5
28B
100
AcDbEntity
  8
0
100
AcDbSpline
 62
7
  6
BYLAYER
 70
0
 71
3
 72
15
 73
11
 74
0
 42
0.0000001
 43
0.0000001
 44
0.0000000001
 40
0.0
 40
0.0
 40
0.0
 40
0.0
 40
0.1565198158
 40
0.3051261866
 40
0.4442050233
 40
0.5730125229
 40
0.6914699381
 40
0.8005179058
 40
0.9022736616
 40
1.0
 40
1.0
 40
1.0
 40
1.0
 10
12.0688029575
 20
80.7476518931
 30
0.0
 10
12.2192862288
 20
80.906325089
 30
0.0
 10
12.5271123529
 20
81.2023994017
 30
0.0
 10
13.0168738898
 20
81.5854877727
 30
0.0
 10
13.5146921207
 20
81.8896589247
 30
0.0
 10
14.0102131083
 20
82.1083596998
 30
0.0
 10
14.4937175871
 20
82.2365760754
 30
0.0
 10
14.9556901163
 20
82.2703984262
 30
0.0
 10
15.3859149629
 20
82.2072601797
 30
0.0
 10
15.6465284497
 20
82.0988593304
 30
0.0
 10
15.764780889
 20
82.030599775
 30
0.0
  0
SPLINE
  5
28C
100
AcDbEntity
  8
0
100
AcDbSpline
 62
7
  6
BYLAYER
 70
0
 71
3
 72
12
 73
8
 74
0
 42
0.0000001
 43
0.0000001
 44
0.0000000001
 40
0.0
 40
0.0
 40
0.0
 40
0.0
 40
0.26643673
 40
0.5183856334
 40
0.7609660898
 40
0.8804707107
 40
1.0
 40
1.0
 40
1.0
 40
1.0
 10
19.5438978386
 20
78.0394904338
 30
0.0
 10
19.7304515002
 20
78.1296647774
 30
0.0
 10
20.1090687958
 20
78.2759180492
 30
0.0
 10
20.6977369126
 20
78.3723683918
 30
0.0
 10
21.1798675412
 20
78.3306258879
 30
0.0
 10
21.5386133738
 20
78.2191725996
 30
0.0
 10
21.7068623194
 20
78.1381734558
 30
0.0
 10
21.7873653801
 20
78.0916960435
 30
0.0
  0
SPLINE
  5
28D
100
AcDbEntity
  8
0
100
AcDbSpline
 62
7
  6
BYLAYER
 70
0
 71
3
 72
19
 73
15
 74
0
 42
0.0000001
 43
0.0000001
 44
0.0000000001
 40
0.0
 40
0.0
 40
0.0
 40
0.0
 40
0.0510092139
 40
0.1023611898
 40
0.1548778455
 40
0.2090389226
 40
0.2654732721
 40
0.3245734274
 40
0.3864943977
 40
0.4511219265
 40
0.5868749871
 40
0.7274518384
 40
0.8670171275
 40
1.0
 40
1.0
 40
1.0
 40
1.0
 10
17.387440035
 20
70.4706293887
 30
0.0
 10
17.2675353123
 20
70.5398548465
 30
0.0
 10
17.0417020773
 20
70.7063291638
 30
0.0
 10
16.7636120727
 20
71.0254738554
 30
0.0
 10
16.5498859023
 20
71.4003468565
 30
0.0
 10
16.4016234823
 20
71.8196643778
 30
0.0
 10
16.3162573776
 20
72.2738779985
 30
0.0
 10
16.2908962765
 20
72.7561073382
 30
0.0
 10
16.323216513
 20
73.2600024219
 30
0.0
 10
16.4421730664
 20
73.9629981011
 30
0.0
 10
16.7254791876
 20
74.8494744938
 30
0.0
 10
17.2406185743
 20
75.8590968465
 30
0.0
 10
17.9030912257
 20
76.7693764572
 30
0.0
 10
18.4358174926
 20
77.2897892358
 30
0.0
 10
18.7185131992
 20
77.5142218103
 30
0.0
  0
SPLINE
  5
28E
100
AcDbEntity
  8
0
100
AcDbSpline
 62
7
  6
BYLAYER
 70
0
 71
3
 72
9
 73
5
 74
0
 42
0.0000001
 43
0.0000001
 44
0.0000000001
 40
0.0
 40
0.0
 40
0.0
 40
0.0
 40
0.2527926067
 40
1.0
 40
1.0
 40
1.0
 40
1.0
 10
20.283518463
 20
68.9245956563
 30
0.0
 10
20.2526230975
 20
68.9296648282
 30
0.0
 10
20.130957001
 20
68.9529086196
 30
0.0
 10
20.0117653963
 20
68.989317346
 30
0.0
 10
19.9258879079
 20
69.0238002042
 30
0.0
  0
SPLINE
  5
28F
100
AcDbEntity
  8
0
100
AcDbSpline
 62
7
  6
BYLAYER
 70
0
 71
3
 72
9
 73
5
 74
0
 42
0.0000001
 43
0.0000001
 44
0.0000000001
 40
0.0
 40
0.0
 40
0.0
 40
0.0
 40
0.4909019571
 40
1.0
 40
1.0
 40
1.0
 40
1.0
 10
24.9286937845
 20
76.2631927055
 30
0.0
 10
24.8124761204
 20
76.3119145598
 30
0.0
 10
24.5633565754
 20
76.3835783285
 30
0.0
 10
24.3051695769
 20
76.3995077983
 30
0.0
 10
24.1745439209
 20
76.395460007
 30
0.0
  0
SPLINE
  5
290
100
AcDbEntity
  8
0
100
AcDbSpline
 62
7
  6
BYLAYER
 70
0
 71
3
 72
9
 73
5
 74
0
 42
0.0000001
 43
0.0000001
 44
0.0000000001
 40
0.0
 40
0.0
 40
0.0
 40
0.0
 40
0.4756904741
 40
1.0
 40
1.0
 40
1.0
 40
1.0
 10
24.1745439209
 20
76.395460007
 30
0.0
 10
23.9644414686
 20
76.388949411
 30
0.0
 10
23.5240021507
 20
76.3086745605
 30
0.0
 10
23.1157781962
 20
76.1314781716
 30
0.0
 10
22.911907551
 20
76.0214058623
 30
0.0
  0
SPLINE
  5
291
100
AcDbEntity
  8
0
100
AcDbSpline
 62
7
  6
BYLAYER
 70
0
 71
3
 72
15
 73
11
 74
0
 42
0.0000001
 43
0.0000001
 44
0.0000000001
 40
0.0
 40
0.0
 40
0.0
 40
0.0
 40
0.1138048258
 40
0.2363534149
 40
0.3654279924
 40
0.4980834052
 40
0.6310155731
 40
0.7608808029
 40
0.8846740697
 40
1.0
 40
1.0
 40
1.0
 40
1.0
 10
22.911907551
 20
76.0214058623
 30
0.0
 10
22.6951253917
 20
75.9043624653
 30
0.0
 10
22.2669085372
 20
75.6194383025
 30
0.0
 10
21.6778613245
 20
75.0880902865
 30
0.0
 10
21.1351283321
 20
74.4548280767
 30
0.0
 10
20.6585292247
 20
73.7434777787
 30
0.0
 10
20.2657170055
 20
72.9807344854
 30
0.0
 10
19.9714646371
 20
72.1950507602
 30
0.0
 10
19.7872124863
 20
71.4156073233
 30
0.0
 10
19.7409822994
 20
70.8974593948
 30
0.0
 10
19.7409822994
 20
70.6478057236
 30
0.0
  0
SPLINE
  5
292
100
AcDbEntity
  8
0
100
AcDbSpline
 62
7
  6
BYLAYER
 70
0
 71
3
 72
9
 73
5
 74
0
 42
0.0000001
 43
0.0000001
 44
0.0000000001
 40
0.0
 40
0.0
 40
0.0
 40
0.0
 40
0.2676962839
 40
1.0
 40
1.0
 40
1.0
 40
1.0
 10
19.7421690524
 20
70.5493509659
 30
0.0
 10
19.7448218671
 20
70.4399832516
 30
0.0
 10
19.771302284
 20
70.0325228554
 30
0.0
 10
19.870740036
 20
69.6259199963
 30
0.0
 10
19.9979659748
 20
69.3550378213
 30
0.0
  0
SPLINE
  5
293
100
AcDbEntity
  8
0
100
AcDbSpline
 62
7
  6
BYLAYER
 70
0
 71
3
 72
9
 73
5
 74
0
 42
0.0000001
 43
0.0000001
 44
0.0000000001
 40
0.0
 40
0.0
 40
0.0
 40
0.0
 40
0.5098653252
 40
1.0
 40
1.0
 40
1.0
 40
1.0
 10
20.028019535
 20
69.2935578571
 30
0.0
 10
20.0890910482
 20
69.1734546267
 30
0.0
 10
20.2314015695
 20
68.9483282924
 30
0.0
 10
20.4201759801
 20
68.759560462
 30
0.0
 10
20.5220731339
 20
68.6796005099
 30
0.0
  0
SPLINE
  5
294
100
AcDbEntity
  8
0
100
AcDbSpline
 62
7
  6
BYLAYER
 70
0
 71
3
 72
19
 73
15
 74
0
 42
0.0000001
 43
0.0000001
 44
0.0000000001
 40
0.0
 40
0.0
 40
0.0
 40
0.0
 40
0.0428391336
 40
0.0874443617
 40
0.1352563674
 40
0.1871941322
 40
0.2436725525
 40
0.3046646309
 40
0.4382678874
 40
0.5825425827
 40
0.7296386379
 40
0.8711662689
 40
0.9376087179
 40
1.0
 40
1.0
 40
1.0
 40
1.0
 10
74.556938829
 20
39.8316825325
 30
0.0
 10
74.6148711512
 20
39.7982302137
 30
0.0
 10
74.7425926863
 20
39.7451975327
 30
0.0
 10
74.9533892847
 20
39.7142551053
 30
0.0
 10
75.1797633704
 20
39.7309535773
 30
0.0
 10
75.4166749522
 20
39.7938839498
 30
0.0
 10
75.6594987386
 20
39.9011757248
 30
0.0
 10
75.9946833747
 20
40.1063613219
 30
0.0
 10
76.3939944032
 20
40.4599857454
 30
0.0
 10
76.8044085545
 20
40.9854375377
 30
0.0
 10
77.1275784588
 20
41.5826297179
 30
0.0
 10
77.3064010035
 20
42.1111536268
 30
0.0
 10
77.3803339055
 20
42.5274674152
 30
0.0
 10
77.3936089016
 20
42.7287911711
 30
0.0
 10
77.3936089016
 20
42.8262205688
 30
0.0
  0
SPLINE
  5
295
100
AcDbEntity
  8
0
100
AcDbSpline
 62
7
  6
BYLAYER
 70
0
 71
3
 72
9
 73
5
 74
0
 42
0.0000001
 43
0.0000001
 44
0.0000000001
 40
0.0
 40
0.0
 40
0.0
 40
0.0
 40
0.2553750037
 40
1.0
 40
1.0
 40
1.0
 40
1.0
 10
39.8498937201
 20
66.601519699
 30
0.0
 10
39.8427283299
 20
66.6225820722
 30
0.0
 10
39.8134077725
 20
66.7046202905
 30
0.0
 10
39.7789292339
 20
66.7848402596
 30
0.0
 10
39.7501911741
 20
66.842997825
 30
0.0
  0
SPLINE
  5
296
100
AcDbEntity
  8
0
100
AcDbSpline
 62
7
  6
BYLAYER
 70
0
 71
3
 72
9
 73
5
 74
0
 42
0.0000001
 43
0.0000001
 44
0.0000000001
 40
0.0
 40
0.0
 40
0.0
 40
0.0
 40
0.2581634493
 40
1.0
 40
1.0
 40
1.0
 40
1.0
 10
39.7501911741
 20
66.842997825
 30
0.0
 10
39.7339144224
 20
66.8759372879
 30
0.0
 10
39.6670718189
 20
67.0015898457
 30
0.0
 10
39.5842760748
 20
67.1189787454
 30
0.0
 10
39.5143363257
 20
67.1980673844
 30
0.0
  0
SPLINE
  5
297
100
AcDbEntity
  8
0
100
AcDbSpline
 62
7
  6
BYLAYER
 70
0
 71
3
 72
9
 73
5
 74
0
 42
0.0000001
 43
0.0000001
 44
0.0000000001
 40
0.0
 40
0.0
 40
0.0
 40
0.0
 40
0.5044259892
 40
1.0
 40
1.0
 40
1.0
 40
1.0
 10
39.5143363257
 20
67.1980673844
 30
0.0
 10
39.4659367012
 20
67.2527982132
 30
0.0
 10
39.3615320047
 20
67.3541782083
 30
0.0
 10
39.2419090657
 20
67.4371653413
 30
0.0
 10
39.1797461901
 20
67.473054886
 30
0.0
  0
SPLINE
  5
298
100
AcDbEntity
  8
0
100
AcDbSpline
 62
7
  6
BYLAYER
 70
0
 71
3
 72
9
 73
5
 74
0
 42
0.0000001
 43
0.0000001
 44
0.0000000001
 40
0.0
 40
0.0
 40
0.0
 40
0.0
 40
0.2482869737
 40
1.0
 40
1.0
 40
1.0
 40
1.0
 10
35.2798345098
 20
60.7180568956
 30
0.0
 10
35.3061486322
 20
60.7028645181
 30
0.0
 10
35.4142374913
 20
60.6453752543
 30
0.0
 10
35.5304306361
 20
60.6033167981
 30
0.0
 10
35.6196153835
 20
60.5807595075
 30
0.0
  0
SPLINE
  5
299
100
AcDbEntity
  8
0
100
AcDbSpline
 62
7
  6
BYLAYER
 70
0
 71
3
 72
9
 73
5
 74
0
 42
0.0000001
 43
0.0000001
 44
0.0000000001
 40
0.0
 40
0.0
 40
0.0
 40
0.0
 40
0.4864684904
 40
1.0
 40
1.0
 40
1.0
 40
1.0
 10
35.6196153835
 20
60.5807595075
 30
0.0
 10
35.7099010306
 20
60.557923769
 30
0.0
 10
35.9005278709
 20
60.5294974906
 30
0.0
 10
36.0928588894
 20
60.5354495563
 30
0.0
 10
36.1906042053
 20
60.5459684073
 30
0.0
  0
SPLINE
  5
29A
100
AcDbEntity
  8
0
100
AcDbSpline
 62
7
  6
BYLAYER
 70
0
 71
3
 72
13
 73
9
 74
0
 42
0.0000001
 43
0.0000001
 44
0.0000000001
 40
0.0
 40
0.0
 40
0.0
 40
0.0
 40
0.1080948818
 40
0.2182299211
 40
0.3322549832
 40
0.4517051297
 40
0.710597679
 40
1.0
 40
1.0
 40
1.0
 40
1.0
 10
33.2999272794
 20
61.8611310082
 30
0.0
 10
33.2359861774
 20
61.8980472065
 30
0.0
 10
33.1130228882
 20
61.9837975217
 30
0.0
 10
32.9506262809
 20
62.1437027891
 30
0.0
 10
32.8108848
 20
62.3334203375
 30
0.0
 10
32.6525062711
 20
62.6312625683
 30
0.0
 10
32.5219444435
 20
63.0731431655
 30
0.0
 10
32.492179586
 20
63.4487790247
 30
0.0
 10
32.4921781545
 20
63.6464512875
 30
0.0
  0
SPLINE
  5
29B
100
AcDbEntity
  8
0
100
AcDbSpline
 62
7
  6
BYLAYER
 70
0
 71
3
 72
10
 73
6
 74
0
 42
0.0000001
 43
0.0000001
 44
0.0000000001
 40
0.0
 40
0.0
 40
0.0
 40
0.0
 40
0.514329324
 40
0.758988423
 40
1.0
 40
1.0
 40
1.0
 40
1.0
 10
29.0757057626
 20
73.3668958117
 30
0.0
 10
28.9988681437
 20
73.5701398047
 30
0.0
 10
28.8427475609
 20
73.8585157831
 30
0.0
 10
28.5491672259
 20
74.1648629127
 30
0.0
 10
28.3809521016
 20
74.2849730945
 30
0.0
 10
28.2927748514
 20
74.3358811019
 30
0.0
  0
SPLINE
  5
29C
100
AcDbEntity
  8
0
100
AcDbSpline
 62
7
  6
BYLAYER
 70
0
 71
3
 72
11
 73
7
 74
0
 42
0.0000001
 43
0.0000001
 44
0.0000000001
 40
0.0
 40
0.0
 40
0.0
 40
0.0
 40
0.2398360519
 40
0.4836932259
 40
0.7359975638
 40
1.0
 40
1.0
 40
1.0
 40
1.0
 10
23.8928495063
 20
66.7148144471
 30
0.0
 10
23.9848389539
 20
66.6617055162
 30
0.0
 10
24.1816727356
 20
66.573034267
 30
0.0
 10
24.5010280293
 20
66.4989948763
 30
0.0
 10
24.838963542
 20
66.4833065633
 30
0.0
 10
25.0671116861
 20
66.5099287949
 30
0.0
 10
25.1820119214
 20
66.5315811788
 30
0.0
  0
SPLINE
  5
29D
100
AcDbEntity
  8
0
100
AcDbSpline
 62
7
  6
BYLAYER
 70
0
 71
3
 72
9
 73
5
 74
0
 42
0.0000001
 43
0.0000001
 44
0.0000000001
 40
0.0
 40
0.0
 40
0.0
 40
0.0
 40
0.4901328592
 40
1.0
 40
1.0
 40
1.0
 40
1.0
 10
27.6635293913
 20
74.6804580475
 30
0.0
 10
27.5433309913
 20
74.7287226649
 30
0.0
 10
27.2854597066
 20
74.7978182917
 30
0.0
 10
27.0193341275
 20
74.8084946059
 30
0.0
 10
26.8847830762
 20
74.8013293893
 30
0.0
  0
SPLINE
  5
29E
100
AcDbEntity
  8
0
100
AcDbSpline
 62
7
  6
BYLAYER
 70
0
 71
3
 72
9
 73
5
 74
0
 42
0.0000001
 43
0.0000001
 44
0.0000000001
 40
0.0
 40
0.0
 40
0.0
 40
0.0
 40
0.2341570661
 40
1.0
 40
1.0
 40
1.0
 40
1.0
 10
26.8167606434
 20
74.7966360116
 30
0.0
 10
26.7213539
 20
74.7885629474
 30
0.0
 10
26.3161035639
 20
74.7276575286
 30
0.0
 10
25.9293260128
 20
74.5709629595
 30
0.0
 10
25.6544072108
 20
74.4210084768
 30
0.0
  0
SPLINE
  5
29F
100
AcDbEntity
  8
0
100
AcDbSpline
 62
7
  6
BYLAYER
 70
0
 71
3
 72
18
 73
14
 74
0
 42
0.0000001
 43
0.0000001
 44
0.0000000001
 40
0.0
 40
0.0
 40
0.0
 40
0.0
 40
0.1216234678
 40
0.2535999756
 40
0.3915927122
 40
0.5302252921
 40
0.598107263
 40
0.6641474692
 40
0.7277917496
 40
0.7886013751
 40
0.846269712
 40
0.9006778205
 40
1.0
 40
1.0
 40
1.0
 40
1.0
 10
25.5685467915
 20
74.3728077184
 30
0.0
 10
25.2940284346
 20
74.2143154172
 30
0.0
 10
24.7582164246
 20
73.8188867647
 30
0.0
 10
24.0504167359
 20
73.0781802392
 30
0.0
 10
23.4363305226
 20
72.2035116842
 30
0.0
 10
23.0292340609
 20
71.3993198607
 30
0.0
 10
22.7813518244
 20
70.7329828912
 30
0.0
 10
22.6401523
 20
70.2372011533
 30
0.0
 10
22.5446671517
 20
69.7493280818
 30
0.0
 10
22.4964628628
 20
69.2764369945
 30
0.0
 10
22.4969248539
 20
68.8247402049
 30
0.0
 10
22.5607346772
 20
68.2771057915
 30
0.0
 10
22.6852359918
 20
67.8876356836
 30
0.0
 10
22.8076367153
 20
67.6595396426
 30
0.0
  0
SPLINE
  5
2A0
100
AcDbEntity
  8
0
100
AcDbSpline
 62
7
  6
BYLAYER
 70
0
 71
3
 72
9
 73
5
 74
0
 42
0.0000001
 43
0.0000001
 44
0.0000000001
 40
0.0
 40
0.0
 40
0.0
 40
0.0
 40
0.5090993778
 40
1.0
 40
1.0
 40
1.0
 40
1.0
 10
22.8076367153
 20
67.6595396426
 30
0.0
 10
22.8694542868
 20
67.5443414402
 30
0.0
 10
23.0123783899
 20
67.3286180247
 30
0.0
 10
23.1990681862
 20
67.1486369288
 30
0.0
 10
23.299409789
 20
67.0723252987
 30
0.0
  0
SPLINE
  5
2A1
100
AcDbEntity
  8
0
100
AcDbSpline
 62
7
  6
BYLAYER
 70
0
 71
3
 72
9
 73
5
 74
0
 42
0.0000001
 43
0.0000001
 44
0.0000000001
 40
0.0
 40
0.0
 40
0.0
 40
0.0
 40
0.2676962839
 40
1.0
 40
1.0
 40
1.0
 40
1.0
 10
21.0856775302
 20
69.7736935323
 30
0.0
 10
21.0883303448
 20
69.6643258181
 30
0.0
 10
21.1148107617
 20
69.2568654219
 30
0.0
 10
21.2142485138
 20
68.8502625627
 30
0.0
 10
21.3414744525
 20
68.5793803877
 30
0.0
  0
SPLINE
  5
2A2
100
AcDbEntity
  8
0
100
AcDbSpline
 62
7
  6
BYLAYER
 70
0
 71
3
 72
9
 73
5
 74
0
 42
0.0000001
 43
0.0000001
 44
0.0000000001
 40
0.0
 40
0.0
 40
0.0
 40
0.0
 40
0.5084217059
 40
1.0
 40
1.0
 40
1.0
 40
1.0
 10
21.409670441
 20
68.4463044804
 30
0.0
 10
21.4684565845
 20
68.3409155203
 30
0.0
 10
21.6025073242
 20
68.1431347416
 30
0.0
 10
21.7737909514
 20
67.9759723385
 30
0.0
 10
21.8655816117
 20
67.9039430763
 30
0.0
  0
SPLINE
  5
2A3
100
AcDbEntity
  8
0
100
AcDbSpline
 62
7
  6
BYLAYER
 70
0
 71
3
 72
9
 73
5
 74
0
 42
0.0000001
 43
0.0000001
 44
0.0000000001
 40
0.0
 40
0.0
 40
0.0
 40
0.0
 40
0.4920364869
 40
1.0
 40
1.0
 40
1.0
 40
1.0
 10
26.2722022623
 20
75.4875352719
 30
0.0
 10
26.1653821348
 20
75.5323174032
 30
0.0
 10
25.9379128906
 20
75.6001291573
 30
0.0
 10
25.7018345967
 20
75.6208114686
 30
0.0
 10
25.582257944
 20
75.6208040022
 30
0.0
  0
SPLINE
  5
2A4
100
AcDbEntity
  8
0
100
AcDbSpline
 62
7
  6
BYLAYER
 70
0
 71
3
 72
9
 73
5
 74
0
 42
0.0000001
 43
0.0000001
 44
0.0000000001
 40
0.0
 40
0.0
 40
0.0
 40
0.0
 40
0.4745103628
 40
1.0
 40
1.0
 40
1.0
 40
1.0
 10
25.582257944
 20
75.6208040022
 30
0.0
 10
25.3625100312
 20
75.6207902811
 30
0.0
 10
24.8984740863
 20
75.5455056622
 30
0.0
 10
24.46955469
 20
75.3613645682
 30
0.0
 10
24.2554160288
 20
75.2457484288
 30
0.0
  0
SPLINE
  5
2A5
100
AcDbEntity
  8
0
100
AcDbSpline
 62
7
  6
BYLAYER
 70
0
 71
3
 72
15
 73
11
 74
0
 42
0.0000001
 43
0.0000001
 44
0.0000000001
 40
0.0
 40
0.0
 40
0.0
 40
0.0
 40
0.1138048258
 40
0.2363534149
 40
0.3654279924
 40
0.4980834052
 40
0.6310155731
 40
0.7608808029
 40
0.8846740697
 40
1.0
 40
1.0
 40
1.0
 40
1.0
 10
24.2554160288
 20
75.2457484288
 30
0.0
 10
24.0386338695
 20
75.1287050317
 30
0.0
 10
23.610417015
 20
74.8437808689
 30
0.0
 10
23.0213698023
 20
74.3124328529
 30
0.0
 10
22.4786368099
 20
73.6791706431
 30
0.0
 10
22.0020377025
 20
72.9678203451
 30
0.0
 10
21.6092254833
 20
72.2050770518
 30
0.0
 10
21.3149731149
 20
71.4193933266
 30
0.0
 10
21.1307209641
 20
70.6399498897
 30
0.0
 10
21.0844907772
 20
70.1218019613
 30
0.0
 10
21.0844907772
 20
69.87214829
 30
0.0
  0
SPLINE
  5
2A6
100
AcDbEntity
  8
0
100
AcDbSpline
 62
7
  6
BYLAYER
 70
0
 71
3
 72
9
 73
5
 74
0
 42
0.0000001
 43
0.0000001
 44
0.0000000001
 40
0.0
 40
0.0
 40
0.0
 40
0.0
 40
0.252731801
 40
1.0
 40
1.0
 40
1.0
 40
1.0
 10
23.0267825018
 20
67.3348833336
 30
0.0
 10
22.9951017522
 20
67.3403530599
 30
0.0
 10
22.8703629783
 20
67.3653847104
 30
0.0
 10
22.7483697387
 20
67.404321169
 30
0.0
 10
22.6607037753
 20
67.4410739886
 30
0.0
  0
SPLINE
  5
2A7
100
AcDbEntity
  8
0
100
AcDbSpline
 62
7
  6
BYLAYER
 70
0
 71
3
 72
9
 73
5
 74
0
 42
0.0000001
 43
0.0000001
 44
0.0000000001
 40
0.0
 40
0.0
 40
0.0
 40
0.0
 40
0.2479778056
 40
1.0
 40
1.0
 40
1.0
 40
1.0
 10
27.0673330267
 20
75.0246641723
 30
0.0
 10
27.0914934943
 20
75.0057053503
 30
0.0
 10
27.1867584369
 20
74.9265201244
 30
0.0
 10
27.2730397975
 20
74.8366223284
 30
0.0
 10
27.3320543022
 20
74.7645711779
 30
0.0
  0
SPLINE
  5
2A8
100
AcDbEntity
  8
0
100
AcDbSpline
 62
7
  6
BYLAYER
 70
0
 71
3
 72
22
 73
18
 74
0
 42
0.0000001
 43
0.0000001
 44
0.0000000001
 40
0.0
 40
0.0
 40
0.0
 40
0.0
 40
0.0428188449
 40
0.0874286029
 40
0.1352520478
 40
0.1872034453
 40
0.2436907138
 40
0.3046811464
 40
0.3698009406
 40
0.4384225791
 40
0.5097237052
 40
0.5827535262
 40
0.7297248403
 40
0.8016947136
 40
0.8712743521
 40
0.9376393757
 40
1.0
 40
1.0
 40
1.0
 40
1.0
 10
25.5717614187
 20
75.6758389113
 30
0.0
 10
25.4680544077
 20
75.7351791169
 30
0.0
 10
25.2395561571
 20
75.8291534863
 30
0.0
 10
24.8627078497
 20
75.8831466206
 30
0.0
 10
24.4582135793
 20
75.8522885164
 30
0.0
 10
24.0350010977
 20
75.738973632
 30
0.0
 10
23.6013885714
 20
75.5465139625
 30
0.0
 10
23.165994302
 20
75.2793880417
 30
0.0
 10
22.7376021448
 20
74.9433767365
 30
0.0
 10
22.3251663067
 20
74.5455245034
 30
0.0
 10
21.9372665463
 20
74.0942269269
 30
0.0
 10
21.4630973688
 20
73.4330862386
 30
0.0
 10
21.0733866324
 20
72.7121920592
 30
0.0
 10
20.7848321959
 20
71.9597208392
 30
0.0
 10
20.6271517901
 20
71.4004056296
 30
0.0
 10
20.5302946553
 20
70.854666016
 30
0.0
 10
20.5066700795
 20
70.495227414
 30
0.0
 10
20.5066700795
 20
70.32121312
 30
0.0
  0
SPLINE
  5
2A9
100
AcDbEntity
  8
0
100
AcDbSpline
 62
7
  6
BYLAYER
 70
0
 71
3
 72
13
 73
9
 74
0
 42
0.0000001
 43
0.0000001
 44
0.0000000001
 40
0.0
 40
0.0
 40
0.0
 40
0.0
 40
0.2893744325
 40
0.5483108135
 40
0.6677408807
 40
0.7817663151
 40
0.8919059332
 40
1.0
 40
1.0
 40
1.0
 40
1.0
 10
23.4765061958
 20
75.4243235973
 30
0.0
 10
23.6586464407
 20
75.529481689
 30
0.0
 10
24.0206534752
 20
75.7018784045
 30
0.0
 10
24.497300467
 20
75.8167375512
 30
0.0
 10
24.8560494367
 20
75.8292005596
 30
0.0
 10
25.1052114809
 20
75.8013709183
 30
0.0
 10
25.3389749392
 20
75.7368107806
 30
0.0
 10
25.4834192841
 20
75.6691206837
 30
0.0
 10
25.5514566405
 20
75.6298394651
 30
0.0
  0
SPLINE
  5
2AA
100
AcDbEntity
  8
0
100
AcDbSpline
 62
7
  6
BYLAYER
 70
0
 71
3
 72
9
 73
5
 74
0
 42
0.0000001
 43
0.0000001
 44
0.0000000001
 40
0.0
 40
0.0
 40
0.0
 40
0.0
 40
0.5277364739
 40
1.0
 40
1.0
 40
1.0
 40
1.0
 10
18.4103513678
 20
77.5735259851
 30
0.0
 10
18.4338882458
 20
77.5871149268
 30
0.0
 10
18.4777823357
 20
77.6139201803
 30
0.0
 10
18.5193512554
 20
77.6450604806
 30
0.0
 10
18.5362815327
 20
77.6625214693
 30
0.0
  0
SPLINE
  5
2AB
100
AcDbEntity
  8
0
100
AcDbSpline
 62
7
  6
BYLAYER
 70
0
 71
3
 72
9
 73
5
 74
0
 42
0.0000001
 43
0.0000001
 44
0.0000000001
 40
0.0
 40
0.0
 40
0.0
 40
0.0
 40
0.2546329393
 40
1.0
 40
1.0
 40
1.0
 40
1.0
 10
18.246946504
 20
77.4954748097
 30
0.0
 10
18.2517379078
 20
77.4971408637
 30
0.0
 10
18.2704711122
 20
77.5039244652
 30
0.0
 10
18.2888794462
 20
77.5115869685
 30
0.0
 10
18.3024335114
 20
77.5176521351
 30
0.0
  0
SPLINE
  5
2AC
100
AcDbEntity
  8
0
100
AcDbSpline
 62
7
  6
BYLAYER
 70
0
 71
3
 72
9
 73
5
 74
0
 42
0.0000001
 43
0.0000001
 44
0.0000000001
 40
0.0
 40
0.0
 40
0.0
 40
0.0
 40
0.2546724278
 40
1.0
 40
1.0
 40
1.0
 40
1.0
 10
18.3024335114
 20
77.5176521351
 30
0.0
 10
18.3071176841
 20
77.5197482065
 30
0.0
 10
18.3254364354
 20
77.528144528
 30
0.0
 10
18.3434746052
 20
77.5371446211
 30
0.0
 10
18.3567937892
 20
77.5440843732
 30
0.0
  0
SPLINE
  5
2AD
100
AcDbEntity
  8
0
100
AcDbSpline
 62
7
  6
BYLAYER
 70
0
 71
3
 72
9
 73
5
 74
0
 42
0.0000001
 43
0.0000001
 44
0.0000000001
 40
0.0
 40
0.0
 40
0.0
 40
0.0
 40
0.2559335139
 40
1.0
 40
1.0
 40
1.0
 40
1.0
 10
18.5679763133
 20
77.6973287562
 30
0.0
 10
18.5709367825
 20
77.7007816861
 30
0.0
 10
18.5823939068
 20
77.714367655
 30
0.0
 10
18.5934470723
 20
77.7282915298
 30
0.0
 10
18.6014915732
 20
77.7387861613
 30
0.0
  0
SPLINE
  5
2AE
100
AcDbEntity
  8
0
100
AcDbSpline
 62
7
  6
BYLAYER
 70
0
 71
3
 72
9
 73
5
 74
0
 42
0.0000001
 43
0.0000001
 44
0.0000000001
 40
0.0
 40
0.0
 40
0.0
 40
0.0
 40
0.2458542163
 40
1.0
 40
1.0
 40
1.0
 40
1.0
 10
18.519681945
 20
77.7189972597
 30
0.0
 10
18.5216426117
 20
77.7145813477
 30
0.0
 10
18.5289947003
 20
77.6963477396
 30
0.0
 10
18.5339248445
 20
77.6771536371
 30
0.0
 10
18.5362815327
 20
77.6625214694
 30
0.0
  0
SPLINE
  5
2AF
100
AcDbEntity
  8
0
100
AcDbSpline
 62
7
  6
BYLAYER
 70
0
 71
3
 72
9
 73
5
 74
0
 42
0.0000001
 43
0.0000001
 44
0.0000000001
 40
0.0
 40
0.0
 40
0.0
 40
0.0
 40
0.2730699733
 40
1.0
 40
1.0
 40
1.0
 40
1.0
 10
25.6685463438
 20
74.3629028626
 30
0.0
 10
25.7740932481
 20
74.4238400325
 30
0.0
 10
26.1694698206
 20
74.62955929
 30
0.0
 10
26.609672978
 20
74.7623200304
 30
0.0
 10
26.9334594887
 20
74.7828839829
 30
0.0
  0
SPLINE
  5
2B0
100
AcDbEntity
  8
0
100
AcDbSpline
 62
7
  6
BYLAYER
 70
0
 71
3
 72
9
 73
5
 74
0
 42
0.0000001
 43
0.0000001
 44
0.0000000001
 40
0.0
 40
0.0
 40
0.0
 40
0.0
 40
0.5116557402
 40
1.0
 40
1.0
 40
1.0
 40
1.0
 10
27.0184701139
 20
74.786496764
 30
0.0
 10
27.131579685
 20
74.7888917185
 30
0.0
 10
27.3536657838
 20
74.7744537272
 30
0.0
 10
27.5688416892
 20
74.7160941462
 30
0.0
 10
27.6693582699
 20
74.6766456566
 30
0.0
  0
SPLINE
  5
2B1
100
AcDbEntity
  8
0
100
AcDbSpline
 62
7
  6
BYLAYER
 70
0
 71
3
 72
13
 73
9
 74
0
 42
0.0000001
 43
0.0000001
 44
0.0000000001
 40
0.0
 40
0.0
 40
0.0
 40
0.0
 40
0.2573868801
 40
0.519631408
 40
0.6478856292
 40
0.7716950222
 40
0.8894843651
 40
1.0
 40
1.0
 40
1.0
 40
1.0
 10
17.3052877008
 20
77.3701474465
 30
0.0
 10
17.0372546392
 20
77.0875269125
 30
0.0
 10
16.5507783936
 20
76.463533759
 30
0.0
 10
16.0846843047
 20
75.5953376172
 30
0.0
 10
15.8095487889
 20
74.8662865584
 30
0.0
 10
15.6613317376
 20
74.3256064773
 30
0.0
 10
15.5730571852
 20
73.7991704384
 30
0.0
 10
15.5548069839
 20
73.4531166208
 30
0.0
 10
15.5573477958
 20
73.2858909248
 30
0.0
  0
SPLINE
  5
2B2
100
AcDbEntity
  8
0
100
AcDbSpline
 62
7
  6
BYLAYER
 70
0
 71
3
 72
9
 73
5
 74
0
 42
0.0000001
 43
0.0000001
 44
0.0000000001
 40
0.0
 40
0.0
 40
0.0
 40
0.0
 40
0.2618690438
 40
1.0
 40
1.0
 40
1.0
 40
1.0
 10
15.5573477958
 20
73.2858909248
 30
0.0
 10
15.5582578773
 20
73.2259931389
 30
0.0
 10
15.5673066504
 20
72.997433667
 30
0.0
 10
15.5996354053
 20
72.7693862416
 30
0.0
 10
15.6397689688
 20
72.6053715701
 30
0.0
  0
SPLINE
  5
2B3
100
AcDbEntity
  8
0
100
AcDbSpline
 62
7
  6
BYLAYER
 70
0
 71
3
 72
11
 73
7
 74
0
 42
0.0000001
 43
0.0000001
 44
0.0000000001
 40
0.0
 40
0.0
 40
0.0
 40
0.0
 40
0.275703916
 40
0.5289923353
 40
0.7670340182
 40
1.0
 40
1.0
 40
1.0
 40
1.0
 10
15.6397689688
 20
72.6053715701
 30
0.0
 10
15.673822655
 20
72.4662036596
 30
0.0
 10
15.7619214442
 20
72.2037127938
 30
0.0
 10
15.9674980798
 20
71.8581246821
 30
0.0
 10
16.2368618585
 20
71.5892010037
 30
0.0
 10
16.4537719795
 20
71.4681196743
 30
0.0
 10
16.5664817644
 20
71.4239261041
 30
0.0
  0
SPLINE
  5
2B4
100
AcDbEntity
  8
0
100
AcDbSpline
 62
7
  6
BYLAYER
 70
0
 71
3
 72
9
 73
5
 74
0
 42
0.0000001
 43
0.0000001
 44
0.0000000001
 40
0.0
 40
0.0
 40
0.0
 40
0.0
 40
0.2592769174
 40
1.0
 40
1.0
 40
1.0
 40
1.0
 10
18.7776201421
 20
77.7749059548
 30
0.0
 10
18.8095654134
 20
77.7868556722
 30
0.0
 10
18.9337858323
 20
77.8301394476
 30
0.0
 10
19.062188173
 20
77.8618563362
 30
0.0
 10
19.1584373284
 20
77.8770434587
 30
0.0
  0
SPLINE
  5
2B5
100
AcDbEntity
  8
0
100
AcDbSpline
 62
7
  6
BYLAYER
 70
0
 71
3
 72
9
 73
5
 74
0
 42
0.0000001
 43
0.0000001
 44
0.0000000001
 40
0.0
 40
0.0
 40
0.0
 40
0.0
 40
0.2541029432
 40
1.0
 40
1.0
 40
1.0
 40
1.0
 10
19.1584373284
 20
77.8770434587
 30
0.0
 10
19.1721427228
 20
77.8792060284
 30
0.0
 10
19.2261806155
 20
77.887053903
 30
0.0
 10
19.2806189326
 20
77.892197629
 30
0.0
 10
19.3212908191
 20
77.8943488777
 30
0.0
  0
SPLINE
  5
2B6
100
AcDbEntity
  8
0
100
AcDbSpline
 62
7
  6
BYLAYER
 70
0
 71
3
 72
20
 73
16
 74
0
 42
0.0000001
 43
0.0000001
 44
0.0000000001
 40
0.0
 40
0.0
 40
0.0
 40
0.0
 40
0.0607684354
 40
0.125220833
 40
0.2623717375
 40
0.4056269894
 40
0.5479739239
 40
0.616692274
 40
0.6826928813
 40
0.7453268844
 40
0.8041122376
 40
0.8587834802
 40
0.9093474264
 40
0.9561669034
 40
1.0
 40
1.0
 40
1.0
 40
1.0
 10
26.0928121789
 20
74.1179584099
 30
0.0
 10
25.9464654776
 20
74.0334656069
 30
0.0
 10
25.655332451
 20
73.8408439749
 30
0.0
 10
25.090862517
 20
73.3770370179
 30
0.0
 10
24.439700645
 20
72.6656362276
 30
0.0
 10
23.7919417906
 20
71.6794319206
 30
0.0
 10
23.3823897017
 20
70.7780893131
 30
0.0
 10
23.1539900961
 20
70.0413924493
 30
0.0
 10
23.0387670612
 20
69.5039782571
 30
0.0
 10
22.979889056
 20
68.9852006741
 30
0.0
 10
22.9784545344
 20
68.4943995118
 30
0.0
 10
23.0346682529
 20
68.0403594589
 30
0.0
 10
23.1481828086
 20
67.6311565
 30
0.0
 10
23.3173676077
 20
67.2744086244
 30
0.0
 10
23.4702489485
 20
67.0710904784
 30
0.0
 10
23.5541994377
 20
66.9827162015
 30
0.0
  0
SPLINE
  5
2B7
100
AcDbEntity
  8
0
100
AcDbSpline
 62
7
  6
BYLAYER
 70
0
 71
3
 72
13
 73
9
 74
0
 42
0.0000001
 43
0.0000001
 44
0.0000000001
 40
0.0
 40
0.0
 40
0.0
 40
0.0
 40
0.1182395818
 40
0.2422075661
 40
0.4995758442
 40
0.7571627075
 40
0.8813903228
 40
1.0
 40
1.0
 40
1.0
 40
1.0
 10
16.1568514647
 20
74.1415737047
 30
0.0
 10
16.1772406355
 20
74.2870839686
 30
0.0
 10
16.2362107399
 20
74.5829330193
 30
0.0
 10
16.4177879467
 20
75.177411036
 30
0.0
 10
16.7550289906
 20
75.901091013
 30
0.0
 10
17.2101645661
 20
76.5574254232
 30
0.0
 10
17.6324865468
 20
77.0149449622
 30
0.0
 10
17.8586442972
 20
77.2157572114
 30
0.0
 10
17.9742570736
 20
77.3071793176
 30
0.0
  0
SPLINE
  5
2B8
100
AcDbEntity
  8
0
100
AcDbSpline
 62
7
  6
BYLAYER
 70
0
 71
3
 72
11
 73
7
 74
0
 42
0.0000001
 43
0.0000001
 44
0.0000000001
 40
0.0
 40
0.0
 40
0.0
 40
0.0
 40
0.2332372532
 40
0.4719874769
 40
0.7253950184
 40
1.0
 40
1.0
 40
1.0
 40
1.0
 10
20.5192047594
 20
78.3508011483
 30
0.0
 10
20.4270045152
 20
78.4199425073
 30
0.0
 10
20.2212085387
 20
78.5361865464
 30
0.0
 10
19.8706638412
 20
78.6267449885
 30
0.0
 10
19.4888323479
 20
78.632834783
 30
0.0
 10
19.2307882758
 20
78.5838942565
 30
0.0
 10
19.0999909596
 20
78.5478034252
 30
0.0
  0
SPLINE
  5
2B9
100
AcDbEntity
  8
0
100
AcDbSpline
 62
7
  6
BYLAYER
 70
0
 71
3
 72
9
 73
5
 74
0
 42
0.0000001
 43
0.0000001
 44
0.0000000001
 40
0.0
 40
0.0
 40
0.0
 40
0.0
 40
0.2376032557
 40
1.0
 40
1.0
 40
1.0
 40
1.0
 10
19.0999909596
 20
78.5478034252
 30
0.0
 10
19.0433534831
 20
78.5321754775
 30
0.0
 10
18.8073411114
 20
78.4579130868
 30
0.0
 10
18.5817797925
 20
78.3522356659
 30
0.0
 10
18.4175858543
 20
78.259598749
 30
0.0
  0
SPLINE
  5
2BA
100
AcDbEntity
  8
0
100
AcDbSpline
 62
7
  6
BYLAYER
 70
0
 71
3
 72
9
 73
5
 74
0
 42
0.0000001
 43
0.0000001
 44
0.0000000001
 40
0.0
 40
0.0
 40
0.0
 40
0.0
 40
0.4803589071
 40
1.0
 40
1.0
 40
1.0
 40
1.0
 10
18.4175858543
 20
78.259598749
 30
0.0
 10
18.2184322685
 20
78.1472378764
 30
0.0
 10
17.8249197503
 20
77.8751679506
 30
0.0
 10
17.4755065045
 20
77.5496302644
 30
0.0
 10
17.3052877008
 20
77.3701474465
 30
0.0
  0
SPLINE
  5
2BB
100
AcDbEntity
  8
0
100
AcDbSpline
 62
7
  6
BYLAYER
 70
0
 71
3
 72
15
 73
11
 74
0
 42
0.0000001
 43
0.0000001
 44
0.0000000001
 40
0.0
 40
0.0
 40
0.0
 40
0.0
 40
0.1209726038
 40
0.2364647688
 40
0.3498982362
 40
0.4650220352
 40
0.5853046193
 40
0.7134788746
 40
0.8514180476
 40
1.0
 40
1.0
 40
1.0
 40
1.0
 10
28.9012853205
 20
73.4920440002
 30
0.0
 10
28.8467043096
 20
73.589186669
 30
0.0
 10
28.7224800495
 20
73.7700979012
 30
0.0
 10
28.4870765161
 20
73.9938275222
 30
0.0
 10
28.2121187499
 20
74.1568530152
 30
0.0
 10
27.9035991795
 20
74.2554709298
 30
0.0
 10
27.5681054309
 20
74.2885764631
 30
0.0
 10
27.2118171775
 20
74.256456221
 30
0.0
 10
26.8406125731
 20
74.1606410409
 30
0.0
 10
26.5960123298
 20
74.0592676486
 30
0.0
 10
26.4728305083
 20
73.999635441
 30
0.0
  0
SPLINE
  5
2BC
100
AcDbEntity
  8
0
100
AcDbSpline
 62
7
  6
BYLAYER
 70
0
 71
3
 72
18
 73
14
 74
0
 42
0.0000001
 43
0.0000001
 44
0.0000000001
 40
0.0
 40
0.0
 40
0.0
 40
0.0
 40
0.0596190555
 40
0.1226909741
 40
0.256736542
 40
0.3971401122
 40
0.5378089063
 40
0.6726332526
 40
0.7362083795
 40
0.7964693656
 40
0.8530493428
 40
0.90578657
 40
1.0
 40
1.0
 40
1.0
 40
1.0
 10
26.2342341239
 20
73.8730097755
 30
0.0
 10
26.1025904111
 20
73.7970056962
 30
0.0
 10
25.8405257788
 20
73.6249077095
 30
0.0
 10
25.3306010512
 20
73.2131915112
 30
0.0
 10
24.7371413705
 20
72.5839239457
 30
0.0
 10
24.1346854768
 20
71.7091855779
 30
0.0
 10
23.6653490657
 20
70.7541442268
 30
0.0
 10
23.4046330045
 20
69.9254137807
 30
0.0
 10
23.2918024319
 20
69.2747662924
 30
0.0
 10
23.2571965971
 20
68.8153224782
 30
0.0
 10
23.2718760175
 20
68.3819786948
 30
0.0
 10
23.3530934368
 20
67.8690875731
 30
0.0
 10
23.4901927201
 20
67.5105922502
 30
0.0
 10
23.6194492715
 20
67.3081199189
 30
0.0
  0
SPLINE
  5
2BD
100
AcDbEntity
  8
0
100
AcDbSpline
 62
7
  6
BYLAYER
 70
0
 71
3
 72
9
 73
5
 74
0
 42
0.0000001
 43
0.0000001
 44
0.0000000001
 40
0.0
 40
0.0
 40
0.0
 40
0.0
 40
0.5087692193
 40
1.0
 40
1.0
 40
1.0
 40
1.0
 10
23.6194492715
 20
67.3081199189
 30
0.0
 10
23.6663631874
 20
67.2346321939
 30
0.0
 10
23.7695028694
 20
67.0967832475
 30
0.0
 10
23.8941582462
 20
66.977796381
 30
0.0
 10
23.9599719224
 20
66.9253094147
 30
0.0
  0
SPLINE
  5
2BE
100
AcDbEntity
  8
0
100
AcDbSpline
 62
7
  6
BYLAYER
 70
0
 71
3
 72
10
 73
6
 74
0
 42
0.0000001
 43
0.0000001
 44
0.0000000001
 40
0.0
 40
0.0
 40
0.0
 40
0.0
 40
0.2401557359
 40
0.4851278336
 40
1.0
 40
1.0
 40
1.0
 40
1.0
 10
24.2097881634
 20
66.7658289356
 30
0.0
 10
24.2719443248
 20
66.7348359683
 30
0.0
 10
24.4023942451
 20
66.6815099821
 30
0.0
 10
24.6837883953
 20
66.6116597438
 30
0.0
 10
24.9065968401
 20
66.6039445915
 30
0.0
 10
25.0550525391
 20
66.615497491
 30
0.0
  0
SPLINE
  5
2BF
100
AcDbEntity
  8
0
100
AcDbSpline
 62
7
  6
BYLAYER
 70
0
 71
3
 72
11
 73
7
 74
0
 42
0.0000001
 43
0.0000001
 44
0.0000000001
 40
0.0
 40
0.0
 40
0.0
 40
0.0
 40
0.2498363021
 40
0.5059313349
 40
0.7589918417
 40
1.0
 40
1.0
 40
1.0
 40
1.0
 10
16.3821722809
 20
78.2573832905
 30
0.0
 10
16.1304111603
 20
77.9919202841
 30
0.0
 10
15.6610981248
 20
77.4147951218
 30
0.0
 10
15.0815713402
 20
76.4626394251
 30
0.0
 10
14.6396178659
 20
75.4533894847
 30
0.0
 10
14.4455189419
 20
74.7528908199
 30
0.0
 10
14.3803540018
 20
74.4060259179
 30
0.0
  0
SPLINE
  5
2C0
100
AcDbEntity
  8
0
100
AcDbSpline
 62
7
  6
BYLAYER
 70
0
 71
3
 72
14
 73
10
 74
0
 42
0.0000001
 43
0.0000001
 44
0.0000000001
 40
0.0
 40
0.0
 40
0.0
 40
0.0
 40
0.3003975755
 40
0.4373583736
 40
0.5648839248
 40
0.6833556817
 40
0.7939271301
 40
0.8985651193
 40
1.0
 40
1.0
 40
1.0
 40
1.0
 10
14.3803540018
 20
74.4060259179
 30
0.0
 10
14.3154736306
 20
74.0606757406
 30
0.0
 10
14.2627229878
 20
73.5470957784
 30
0.0
 10
14.3085357946
 20
72.886585194
 30
0.0
 10
14.3968763735
 20
72.4459115103
 30
0.0
 10
14.5393756564
 20
72.0520289384
 30
0.0
 10
14.7344510134
 20
71.7113287624
 30
0.0
 10
14.9796778744
 20
71.4303446038
 30
0.0
 10
15.1754953498
 20
71.2858040177
 30
0.0
 10
15.278257801
 20
71.2264857193
 30
0.0
  0
SPLINE
  5
2C1
100
AcDbEntity
  8
0
100
AcDbSpline
 62
7
  6
BYLAYER
 70
0
 71
3
 72
13
 73
9
 74
0
 42
0.0000001
 43
0.0000001
 44
0.0000000001
 40
0.0
 40
0.0
 40
0.0
 40
0.0
 40
0.2899860896
 40
0.5486911
 40
0.6678535693
 40
0.7816355667
 40
0.891686946
 40
1.0
 40
1.0
 40
1.0
 40
1.0
 10
26.2342341239
 20
73.6280590504
 30
0.0
 10
26.4095039618
 20
73.7292505344
 30
0.0
 10
26.7577697742
 20
73.8943432836
 30
0.0
 10
27.2167751173
 20
74.0009522888
 30
0.0
 10
27.5609719807
 20
74.0074560219
 30
0.0
 10
27.7992649897
 20
73.975711143
 30
0.0
 10
28.0219589913
 20
73.9076290961
 30
0.0
 10
28.1585968332
 20
73.8380847874
 30
0.0
 10
28.2227193885
 20
73.7980529769
 30
0.0
  0
SPLINE
  5
2C2
100
AcDbEntity
  8
0
100
AcDbSpline
 62
7
  6
BYLAYER
 70
0
 71
3
 72
9
 73
5
 74
0
 42
0.0000001
 43
0.0000001
 44
0.0000000001
 40
0.0
 40
0.0
 40
0.0
 40
0.0
 40
0.237775911
 40
1.0
 40
1.0
 40
1.0
 40
1.0
 10
16.3159289951
 20
72.7236359804
 30
0.0
 10
16.2971511469
 20
72.7618476766
 30
0.0
 10
16.2250192844
 20
72.9258998759
 30
0.0
 10
16.1793552104
 20
73.1009599509
 30
0.0
 10
16.1568514647
 20
73.2355762522
 30
0.0
  0
SPLINE
  5
2C3
100
AcDbEntity
  8
0
100
AcDbSpline
 62
7
  6
BYLAYER
 70
0
 71
3
 72
15
 73
11
 74
0
 42
0.0000001
 43
0.0000001
 44
0.0000000001
 40
0.0
 40
0.0
 40
0.0
 40
0.0
 40
0.1141442414
 40
0.2373314682
 40
0.3669731264
 40
0.499999548
 40
0.6330224428
 40
0.7626725115
 40
0.8858446935
 40
1.0
 40
1.0
 40
1.0
 40
1.0
 10
35.0023947157
 20
68.2800978484
 30
0.0
 10
34.8305646436
 20
68.1808923021
 30
0.0
 10
34.4911428693
 20
67.9429371927
 30
0.0
 10
34.0240880948
 20
67.5060212203
 30
0.0
 10
33.5937135242
 20
66.9894770804
 30
0.0
 10
33.216156372
 20
66.4128151157
 30
0.0
 10
32.9055186425
 20
65.7974974966
 30
0.0
 10
32.6734094734
 20
65.1665142625
 30
0.0
 10
32.5285196675
 20
64.5435761118
 30
0.0
 10
32.4921746567
 20
64.1306545997
 30
0.0
 10
32.4921760937
 20
63.932223385
 30
0.0
  0
SPLINE
  5
2C4
100
AcDbEntity
  8
0
100
AcDbSpline
 62
7
  6
BYLAYER
 70
0
 71
3
 72
19
 73
15
 74
0
 42
0.0000001
 43
0.0000001
 44
0.0000000001
 40
0.0
 40
0.0
 40
0.0
 40
0.0
 40
0.0433548988
 40
0.0893737377
 40
0.1389455324
 40
0.1925511825
 40
0.2503019947
 40
0.3120205439
 40
0.377286732
 40
0.4455087126
 40
0.5877119683
 40
0.7320806447
 40
0.8715782073
 40
1.0
 40
1.0
 40
1.0
 40
1.0
 10
17.1262935482
 20
70.6623917351
 30
0.0
 10
17.0382731583
 20
70.7430096776
 30
0.0
 10
16.8759465769
 20
70.9310589403
 30
0.0
 10
16.6904339808
 20
71.2681843936
 30
0.0
 10
16.5595947606
 20
71.6595887965
 30
0.0
 10
16.4851621337
 20
72.0978426508
 30
0.0
 10
16.4676768897
 20
72.5752056613
 30
0.0
 10
16.5073631134
 20
73.0832222858
 30
0.0
 10
16.6032512898
 20
73.6128813377
 30
0.0
 10
16.8065234721
 20
74.3450541265
 30
0.0
 10
17.1876581992
 20
75.2494785652
 30
0.0
 10
17.8066370792
 20
76.251318463
 30
0.0
 10
18.5500637239
 20
77.1152048668
 30
0.0
 10
19.1265461645
 20
77.584650642
 30
0.0
 10
19.4245971019
 20
77.774830628
 30
0.0
  0
SPLINE
  5
2C5
100
AcDbEntity
  8
0
100
AcDbSpline
 62
7
  6
BYLAYER
 70
0
 71
3
 72
13
 73
9
 74
0
 42
0.0000001
 43
0.0000001
 44
0.0000000001
 40
0.0
 40
0.0
 40
0.0
 40
0.0
 40
0.1080968892
 40
0.2182376624
 40
0.3322630296
 40
0.4516926385
 40
0.7106275011
 40
1.0
 40
1.0
 40
1.0
 40
1.0
 10
24.1208149791
 20
76.7444799131
 30
0.0
 10
24.0486769637
 20
76.786128574
 30
0.0
 10
23.8955284768
 20
76.8578986228
 30
0.0
 10
23.6476789296
 20
76.926347158
 30
0.0
 10
23.3835058563
 20
76.9558499652
 30
0.0
 10
23.0031467058
 20
76.9426326709
 30
0.0
 10
22.4977888233
 20
76.8208531517
 30
0.0
 10
22.113976358
 20
76.6380712057
 30
0.0
 10
21.9208648005
 20
76.5265788615
 30
0.0
  0
SPLINE
  5
2C6
100
AcDbEntity
  8
0
100
AcDbSpline
 62
7
  6
BYLAYER
 70
0
 71
3
 72
15
 73
11
 74
0
 42
0.0000001
 43
0.0000001
 44
0.0000000001
 40
0.0
 40
0.0
 40
0.0
 40
0.0
 40
0.1141441531
 40
0.2373312038
 40
0.3669729364
 40
0.4999983967
 40
0.63302408
 40
0.7626664638
 40
0.8858545409
 40
1.0
 40
1.0
 40
1.0
 40
1.0
 10
23.3350842508
 20
75.7100973525
 30
0.0
 10
23.1221129337
 20
75.5871390392
 30
0.0
 10
22.7014238239
 20
75.2922104153
 30
0.0
 10
22.1225399848
 20
74.7506853401
 30
0.0
 10
21.589125554
 20
74.1104642982
 30
0.0
 10
21.1211537701
 20
73.3957357895
 30
0.0
 10
20.7361697278
 20
72.6330929485
 30
0.0
 10
20.4484310973
 20
71.8510269726
 30
0.0
 10
20.2688990489
 20
71.0789296548
 30
0.0
 10
20.2238273671
 20
70.5671329812
 30
0.0
 10
20.2238273671
 20
70.3212124401
 30
0.0
  0
SPLINE
  5
2C7
100
AcDbEntity
  8
0
100
AcDbSpline
 62
7
  6
BYLAYER
 70
0
 71
3
 72
22
 73
18
 74
0
 42
0.0000001
 43
0.0000001
 44
0.0000000001
 40
0.0
 40
0.0
 40
0.0
 40
0.0
 40
0.042818187
 40
0.0874062091
 40
0.135196125
 40
0.1871111637
 40
0.2435658543
 40
0.3045315072
 40
0.3696366203
 40
0.4382542336
 40
0.5095613664
 40
0.5826059426
 40
0.7296244287
 40
0.8016223046
 40
0.8712293591
 40
0.9376190803
 40
1.0
 40
1.0
 40
1.0
 40
1.0
 10
19.9873363009
 20
69.2583191764
 30
0.0
 10
19.8850266741
 20
69.3173874152
 30
0.0
 10
19.6910712719
 20
69.4658171027
 30
0.0
 10
19.4576677082
 20
69.7609516546
 30
0.0
 10
19.2832875438
 20
70.1218998271
 30
0.0
 10
19.1703197976
 20
70.5398166386
 30
0.0
 10
19.1200512645
 20
71.0059272477
 30
0.0
 10
19.1329121435
 20
71.5106266177
 30
0.0
 10
19.2083080625
 20
72.0435214635
 30
0.0
 10
19.3446407127
 20
72.593443089
 30
0.0
 10
19.5389635668
 20
73.1488727277
 30
0.0
 10
19.8703496461
 20
73.8820918701
 30
0.0
 10
20.2948285163
 20
74.5725716403
 30
0.0
 10
20.7964891488
 20
75.1920264144
 30
0.0
 10
21.1975235958
 20
75.60380655
 30
0.0
 10
21.6170422943
 20
75.9567361347
 30
0.0
 10
21.9132339296
 20
76.1547499366
 30
0.0
 10
22.0622867455
 20
76.2408051064
 30
0.0
  0
SPLINE
  5
2C8
100
AcDbEntity
  8
0
100
AcDbSpline
 62
7
  6
BYLAYER
 70
0
 71
3
 72
21
 73
17
 74
0
 42
0.0000001
 43
0.0000001
 44
0.0000000001
 40
0.0
 40
0.0
 40
0.0
 40
0.0
 40
0.0623891513
 40
0.1287860746
 40
0.1984006714
 40
0.2704070202
 40
0.4174476092
 40
0.5616795573
 40
0.6303077882
 40
0.6954229833
 40
0.7563978906
 40
0.8128610134
 40
0.8647834426
 40
0.9125799777
 40
0.9571745398
 40
1.0
 40
1.0
 40
1.0
 40
1.0
 10
37.2297903499
 20
67.2799153176
 30
0.0
 10
37.0897177162
 20
67.1990448276
 30
0.0
 10
36.8113741012
 20
67.0129656646
 30
0.0
 10
36.417133748
 20
66.6813011411
 30
0.0
 10
36.0402779959
 20
66.2943563735
 30
0.0
 10
35.5687719808
 20
65.7121455537
 30
0.0
 10
35.0731343645
 20
64.9057971789
 30
0.0
 10
34.7214715918
 20
64.0359630928
 30
0.0
 10
34.5477241091
 20
63.3355183628
 30
0.0
 10
34.476878742
 20
62.8346977673
 30
0.0
 10
34.4647888487
 20
62.3604013026
 30
0.0
 10
34.5120270973
 20
61.9223645202
 30
0.0
 10
34.6181891159
 20
61.5296216327
 30
0.0
 10
34.7820656007
 20
61.1904173046
 30
0.0
 10
35.0014068533
 20
60.9130546893
 30
0.0
 10
35.1836851854
 20
60.7735684118
 30
0.0
 10
35.2798345098
 20
60.7180568956
 30
0.0
  0
SPLINE
  5
2C9
100
AcDbEntity
  8
0
100
AcDbSpline
 62
7
  6
BYLAYER
 70
0
 71
3
 72
12
 73
8
 74
0
 42
0.0000001
 43
0.0000001
 44
0.0000000001
 40
0.0
 40
0.0
 40
0.0
 40
0.0
 40
0.2895510443
 40
0.5486456722
 40
0.7816276829
 40
0.891836414
 40
1.0
 40
1.0
 40
1.0
 40
1.0
 10
37.4772787537
 20
66.8512552075
 30
0.0
 10
37.6330846694
 20
66.9412092579
 30
0.0
 10
37.9430024257
 20
67.0886269704
 30
0.0
 10
38.4189866604
 20
67.2037833376
 30
0.0
 10
38.7990796363
 20
67.1936034033
 30
0.0
 10
39.0704577067
 20
67.1185586621
 30
0.0
 10
39.1940362945
 20
67.0606646346
 30
0.0
 10
39.2522385569
 20
67.0270617378
 30
0.0
  0
SPLINE
  5
2CA
100
AcDbEntity
  8
0
100
AcDbSpline
 62
7
  6
BYLAYER
 70
0
 71
3
 72
19
 73
15
 74
0
 42
0.0000001
 43
0.0000001
 44
0.0000000001
 40
0.0
 40
0.0
 40
0.0
 40
0.0
 40
0.0428391336
 40
0.0874443617
 40
0.1352563674
 40
0.1871941322
 40
0.2436725525
 40
0.3046646309
 40
0.4382678874
 40
0.5825425827
 40
0.7296386379
 40
0.8711662689
 40
0.9376087179
 40
1.0
 40
1.0
 40
1.0
 40
1.0
 10
76.9068909393
 20
43.9020110819
 30
0.0
 10
76.8489586172
 20
43.9354634006
 30
0.0
 10
76.7212370821
 20
43.9884960816
 30
0.0
 10
76.5104404837
 20
44.019438509
 30
0.0
 10
76.284066398
 20
44.0027400371
 30
0.0
 10
76.0471548162
 20
43.9398096645
 30
0.0
 10
75.8043310298
 20
43.8325178896
 30
0.0
 10
75.4691463937
 20
43.6273322925
 30
0.0
 10
75.0698353652
 20
43.2737078689
 30
0.0
 10
74.6594212139
 20
42.7482560767
 30
0.0
 10
74.3362513096
 20
42.1510638965
 30
0.0
 10
74.1574287648
 20
41.6225399876
 30
0.0
 10
74.0834958628
 20
41.2062261992
 30
0.0
 10
74.0702208667
 20
41.0049024432
 30
0.0
 10
74.0702208667
 20
40.9074730456
 30
0.0
  0
SPLINE
  5
2CB
100
AcDbEntity
  8
0
100
AcDbSpline
 62
7
  6
BYLAYER
 70
0
 71
3
 72
9
 73
5
 74
0
 42
0.0000001
 43
0.0000001
 44
0.0000000001
 40
0.0
 40
0.0
 40
0.0
 40
0.0
 40
0.2598210141
 40
1.0
 40
1.0
 40
1.0
 40
1.0
 10
24.2824339339
 20
75.1954641323
 30
0.0
 10
24.3325149112
 20
75.2238518542
 30
0.0
 10
24.5275396487
 20
75.3289861249
 30
0.0
 10
24.7319449251
 20
75.4172303556
 30
0.0
 10
24.8873250956
 20
75.4696908283
 30
0.0
  0
SPLINE
  5
2CC
100
AcDbEntity
  8
0
100
AcDbSpline
 62
7
  6
BYLAYER
 70
0
 71
3
 72
9
 73
5
 74
0
 42
0.0000001
 43
0.0000001
 44
0.0000000001
 40
0.0
 40
0.0
 40
0.0
 40
0.0
 40
0.2548904582
 40
1.0
 40
1.0
 40
1.0
 40
1.0
 10
24.8873250956
 20
75.4696908283
 30
0.0
 10
24.9095251866
 20
75.4771861687
 30
0.0
 10
24.9969653833
 20
75.5055595152
 30
0.0
 10
25.0857909164
 20
75.5297042529
 30
0.0
 10
25.1525565868
 20
75.5450007863
 30
0.0
  0
SPLINE
  5
2CD
100
AcDbEntity
  8
0
100
AcDbSpline
 62
7
  6
BYLAYER
 70
0
 71
3
 72
9
 73
5
 74
0
 42
0.0000001
 43
0.0000001
 44
0.0000000001
 40
0.0
 40
0.0
 40
0.0
 40
0.0
 40
0.5217705396
 40
1.0
 40
1.0
 40
1.0
 40
1.0
 10
25.1525565868
 20
75.5450007863
 30
0.0
 10
25.3219491415
 20
75.5838099358
 30
0.0
 10
25.6557864373
 20
75.6256628444
 30
0.0
 10
25.9907794567
 20
75.5784927886
 30
0.0
 10
26.1431447711
 20
75.5320729456
 30
0.0
  0
SPLINE
  5
2CE
100
AcDbEntity
  8
0
100
AcDbSpline
 62
7
  6
BYLAYER
 70
0
 71
3
 72
20
 73
16
 74
0
 42
0.0000001
 43
0.0000001
 44
0.0000000001
 40
0.0
 40
0.0
 40
0.0
 40
0.0
 40
0.0428318938
 40
0.0874331553
 40
0.1352368708
 40
0.1871671003
 40
0.2436387055
 40
0.304622773
 40
0.3697477503
 40
0.4383862911
 40
0.582639907
 40
0.7297025858
 40
0.871194578
 40
0.9376014761
 40
1.0
 40
1.0
 40
1.0
 40
1.0
 10
35.7023189505
 20
60.8782815157
 30
0.0
 10
35.6147984116
 20
60.9288112292
 30
0.0
 10
35.4488783918
 20
61.0557795081
 30
0.0
 10
35.2492216089
 20
61.3082506033
 30
0.0
 10
35.1000519949
 20
61.6170135308
 30
0.0
 10
35.0034173082
 20
61.9745102049
 30
0.0
 10
34.960418511
 20
62.3732362344
 30
0.0
 10
34.9714229065
 20
62.8049666267
 30
0.0
 10
35.0359124413
 20
63.2608459151
 30
0.0
 10
35.1940558122
 20
63.8984076581
 30
0.0
 10
35.5142519636
 20
64.6903636709
 30
0.0
 10
36.0512896091
 20
65.5639280451
 30
0.0
 10
36.6076934263
 20
66.1970208042
 30
0.0
 10
37.0963926831
 20
66.6082627346
 30
0.0
 10
37.349776741
 20
66.7776423256
 30
0.0
 10
37.4772787537
 20
66.8512552075
 30
0.0
  0
SPLINE
  5
2CF
100
AcDbEntity
  8
0
100
AcDbSpline
 62
7
  6
BYLAYER
 70
0
 71
3
 72
11
 73
7
 74
0
 42
0.0000001
 43
0.0000001
 44
0.0000000001
 40
0.0
 40
0.0
 40
0.0
 40
0.0
 40
0.2897026209
 40
0.5490908265
 40
0.782219764
 40
1.0
 40
1.0
 40
1.0
 40
1.0
 10
74.0702208667
 20
40.9074730456
 30
0.0
 10
74.0702208667
 20
40.7884027881
 30
0.0
 10
74.0882734422
 20
40.5619554702
 30
0.0
 10
74.1799768632
 20
40.2508267478
 30
0.0
 10
74.3343863065
 20
39.9983643427
 30
0.0
 10
74.4794242338
 20
39.8764423979
 30
0.0
 10
74.556938829
 20
39.8316825325
 30
0.0
  0
SPLINE
  5
2D0
100
AcDbEntity
  8
0
100
AcDbSpline
 62
7
  6
BYLAYER
 70
0
 71
3
 72
15
 73
11
 74
0
 42
0.0000001
 43
0.0000001
 44
0.0000000001
 40
0.0
 40
0.0
 40
0.0
 40
0.0
 40
0.1146176983
 40
0.2378014048
 40
0.367114189
 40
0.4996532813
 40
0.6322398236
 40
0.7616927284
 40
0.8850939046
 40
1.0
 40
1.0
 40
1.0
 40
1.0
 10
21.1436942368
 20
69.8625686418
 30
0.0
 10
21.1478396445
 20
70.1031942408
 30
0.0
 10
21.1981690632
 20
70.6021595787
 30
0.0
 10
21.3787429174
 20
71.3534730554
 30
0.0
 10
21.661047309
 20
72.1129939474
 30
0.0
 10
22.0349917549
 20
72.8538171809
 30
0.0
 10
22.4874827586
 20
73.5498000149
 30
0.0
 10
23.0024981388
 20
74.1764537994
 30
0.0
 10
23.5618330033
 20
74.7115321966
 30
0.0
 10
23.9683688148
 20
75.0069593437
 30
0.0
 10
24.1746027103
 20
75.1321682578
 30
0.0
  0
SPLINE
  5
2D1
100
AcDbEntity
  8
0
100
AcDbSpline
 62
7
  6
BYLAYER
 70
0
 71
3
 72
13
 73
9
 74
0
 42
0.0000001
 43
0.0000001
 44
0.0000000001
 40
0.0
 40
0.0
 40
0.0
 40
0.0
 40
0.1080968892
 40
0.2182376624
 40
0.3322630296
 40
0.4516926385
 40
0.7106275011
 40
1.0
 40
1.0
 40
1.0
 40
1.0
 10
39.1797461901
 20
67.473054886
 30
0.0
 10
39.1158056764
 20
67.5099707446
 30
0.0
 10
38.9800604267
 20
67.573585106
 30
0.0
 10
38.7603756007
 20
67.6342553985
 30
0.0
 10
38.5262221949
 20
67.660405614
 30
0.0
 10
38.189085675
 20
67.648690285
 30
0.0
 10
37.7411548246
 20
67.5407493475
 30
0.0
 10
37.4009574122
 20
67.3787380772
 30
0.0
 10
37.2297903499
 20
67.2799153176
 30
0.0
  0
SPLINE
  5
2D2
100
AcDbEntity
  8
0
100
AcDbSpline
 62
7
  6
BYLAYER
 70
0
 71
3
 72
15
 73
11
 74
0
 42
0.0000001
 43
0.0000001
 44
0.0000000001
 40
0.0
 40
0.0
 40
0.0
 40
0.0
 40
0.1141553065
 40
0.2373274885
 40
0.3669775572
 40
0.500000452
 40
0.6330268736
 40
0.7626685318
 40
0.8858557586
 40
1.0
 40
1.0
 40
1.0
 40
1.0
 10
32.4921781545
 20
63.6464512875
 30
0.0
 10
32.4921765758
 20
63.8644461431
 30
0.0
 10
32.5321048976
 20
64.3180782267
 30
0.0
 10
32.6912796139
 20
65.0024328148
 30
0.0
 10
32.9462727855
 20
65.6956256635
 30
0.0
 10
33.2875367701
 20
66.3716084
 30
0.0
 10
33.7023178668
 20
67.0051243613
 30
0.0
 10
34.1751237331
 20
67.5725953882
 30
0.0
 10
34.6882261615
 20
68.0525875833
 30
0.0
 10
35.0611120544
 20
68.3140030555
 30
0.0
 10
35.2498831195
 20
68.4229894303
 30
0.0
  0
SPLINE
  5
2D3
100
AcDbEntity
  8
0
100
AcDbSpline
 62
7
  6
BYLAYER
 70
0
 71
3
 72
12
 73
8
 74
0
 42
0.0000001
 43
0.0000001
 44
0.0000000001
 40
0.0
 40
0.0
 40
0.0
 40
0.0
 40
0.2868708446
 40
0.5464390694
 40
0.7814099998
 40
0.8921742572
 40
1.0
 40
1.0
 40
1.0
 40
1.0
 10
22.9108184157
 20
75.9550418052
 30
0.0
 10
23.0868043053
 20
76.0566466995
 30
0.0
 10
23.4371278738
 20
76.2262199298
 30
0.0
 10
23.9744727002
 20
76.3731531082
 30
0.0
 10
24.4081189783
 20
76.389542092
 30
0.0
 10
24.7255730082
 20
76.3341930777
 30
0.0
 10
24.8732444872
 20
76.2853206633
 30
0.0
 10
24.9436803943
 20
76.255778034
 30
0.0
  0
SPLINE
  5
2D4
100
AcDbEntity
  8
0
100
AcDbSpline
 62
7
  6
BYLAYER
 70
0
 71
3
 72
15
 73
11
 74
0
 42
0.0000001
 43
0.0000001
 44
0.0000000001
 40
0.0
 40
0.0
 40
0.0
 40
0.0
 40
0.1146176983
 40
0.2378014048
 40
0.367114189
 40
0.4996532813
 40
0.6322398236
 40
0.7616927284
 40
0.8850939046
 40
1.0
 40
1.0
 40
1.0
 40
1.0
 10
19.8001857591
 20
70.6382260754
 30
0.0
 10
19.8043311667
 20
70.8788516744
 30
0.0
 10
19.8546605854
 20
71.3778170123
 30
0.0
 10
20.0352344396
 20
72.129130489
 30
0.0
 10
20.3175388313
 20
72.888651381
 30
0.0
 10
20.6914832771
 20
73.6294746145
 30
0.0
 10
21.1439742809
 20
74.3254574485
 30
0.0
 10
21.6589896611
 20
74.952111233
 30
0.0
 10
22.2183245256
 20
75.4871896302
 30
0.0
 10
22.624860337
 20
75.7826167773
 30
0.0
 10
22.8310942325
 20
75.9078256914
 30
0.0
  0
SPLINE
  5
2D5
100
AcDbEntity
  8
0
100
AcDbSpline
 62
7
  6
BYLAYER
 70
0
 71
3
 72
21
 73
17
 74
0
 42
0.0000001
 43
0.0000001
 44
0.0000000001
 40
0.0
 40
0.0
 40
0.0
 40
0.0
 40
0.0428346845
 40
0.0872448474
 40
0.1347455729
 40
0.186341795
 40
0.2425086945
 40
0.3032552587
 40
0.3682315858
 40
0.4368162727
 40
0.5812189067
 40
0.728675848
 40
0.8009348454
 40
0.8707993641
 40
0.9374234364
 40
1.0
 40
1.0
 40
1.0
 40
1.0
 10
24.3235878022
 20
67.0444061629
 30
0.0
 10
24.2249969147
 20
67.0968789263
 30
0.0
 10
24.0373292153
 20
67.2306403885
 30
0.0
 10
23.8094429202
 20
67.5022630414
 30
0.0
 10
23.6376257145
 20
67.8377254102
 30
0.0
 10
23.5243677077
 20
68.2285224547
 30
0.0
 10
23.4709628719
 20
68.6662312598
 30
0.0
 10
23.4778645683
 20
69.1416728453
 30
0.0
 10
23.5446038216
 20
69.6449413265
 30
0.0
 10
23.7144210001
 20
70.3506147536
 30
0.0
 10
24.0642713099
 20
71.2286522786
 30
0.0
 10
24.5610766086
 20
72.0433180536
 30
0.0
 10
25.0352450423
 20
72.6320059376
 30
0.0
 10
25.4148044513
 20
73.0233218364
 30
0.0
 10
25.8121849851
 20
73.3585620375
 30
0.0
 10
26.0929340064
 20
73.5464798765
 30
0.0
 10
26.2342341239
 20
73.6280590504
 30
0.0
  0
SPLINE
  5
2D6
100
AcDbEntity
  8
0
100
AcDbSpline
 62
7
  6
BYLAYER
 70
0
 71
3
 72
9
 73
5
 74
0
 42
0.0000001
 43
0.0000001
 44
0.0000000001
 40
0.0
 40
0.0
 40
0.0
 40
0.0
 40
0.2518000182
 40
1.0
 40
1.0
 40
1.0
 40
1.0
 10
18.1459789348
 20
77.4623204038
 30
0.0
 10
18.1530748786
 20
77.4645447477
 30
0.0
 10
18.1812372454
 20
77.4734369317
 30
0.0
 10
18.2093116333
 20
77.4826117868
 30
0.0
 10
18.2302312309
 20
77.4897272016
 30
0.0
  0
SPLINE
  5
2D7
100
AcDbEntity
  8
0
100
AcDbSpline
 62
7
  6
BYLAYER
 70
0
 71
3
 72
9
 73
5
 74
0
 42
0.0000001
 43
0.0000001
 44
0.0000000001
 40
0.0
 40
0.0
 40
0.0
 40
0.0
 40
0.2480306893
 40
1.0
 40
1.0
 40
1.0
 40
1.0
 10
16.130130934
 20
73.852227334
 30
0.0
 10
16.1287062445
 20
73.8594125148
 30
0.0
 10
16.1228463513
 20
73.8883584854
 30
0.0
 10
16.1165826297
 20
73.9172214788
 30
0.0
 10
16.1117398162
 20
73.9388948466
 30
0.0
  0
SPLINE
  5
2D8
100
AcDbEntity
  8
0
100
AcDbSpline
 62
7
  6
BYLAYER
 70
0
 71
3
 72
9
 73
5
 74
0
 42
0.0000001
 43
0.0000001
 44
0.0000000001
 40
0.0
 40
0.0
 40
0.0
 40
0.0
 40
0.2458543506
 40
1.0
 40
1.0
 40
1.0
 40
1.0
 10
16.0763017623
 20
73.4869151482
 30
0.0
 10
16.0811064032
 20
73.4874251721
 30
0.0
 10
16.1005732613
 20
73.490175094
 30
0.0
 10
16.1196609385
 20
73.4955026918
 30
0.0
 10
16.1335111249
 20
73.5007779418
 30
0.0
  0
SPLINE
  5
2D9
100
AcDbEntity
  8
0
100
AcDbSpline
 62
7
  6
BYLAYER
 70
0
 71
3
 72
20
 73
16
 74
0
 42
0.0000001
 43
0.0000001
 44
0.0000000001
 40
0.0
 40
0.0
 40
0.0
 40
0.0
 40
0.0615673317
 40
0.1269764039
 40
0.2662588884
 40
0.4114105806
 40
0.5547739043
 40
0.6235124357
 40
0.6891505152
 40
0.7510442388
 40
0.8087486574
 40
0.8620992789
 40
0.9112758517
 40
0.9568838971
 40
1.0
 40
1.0
 40
1.0
 40
1.0
 10
22.0622867455
 20
76.2816302272
 30
0.0
 10
21.9171788477
 20
76.1978526434
 30
0.0
 10
21.6286513181
 20
76.0059968568
 30
0.0
 10
21.0706337906
 20
75.5421245531
 30
0.0
 10
20.430937711
 20
74.829247548
 30
0.0
 10
19.8036094
 20
73.8430739071
 30
0.0
 10
19.4175884506
 20
72.9451483993
 30
0.0
 10
19.213527283
 20
72.2163919299
 30
0.0
 10
19.1190646155
 20
71.6897264665
 30
0.0
 10
19.0829081306
 20
71.1858425671
 30
0.0
 10
19.1060501745
 20
70.714411106
 30
0.0
 10
19.1882453196
 20
70.2844750811
 30
0.0
 10
19.3287473069
 20
69.9042522873
 30
0.0
 10
19.5257929222
 20
69.5818061711
 30
0.0
 10
19.6962854051
 20
69.4070926096
 30
0.0
 10
19.7880245441
 20
69.3339298664
 30
0.0
  0
SPLINE
  5
2DA
100
AcDbEntity
  8
0
100
AcDbSpline
 62
7
  6
BYLAYER
 70
0
 71
3
 72
13
 73
9
 74
0
 42
0.0000001
 43
0.0000001
 44
0.0000000001
 40
0.0
 40
0.0
 40
0.0
 40
0.0
 40
0.1081167608
 40
0.2182446778
 40
0.3322403943
 40
0.4516393329
 40
0.7105532152
 40
1.0
 40
1.0
 40
1.0
 40
1.0
 10
24.1672231257
 20
76.4867271542
 30
0.0
 10
24.0983377919
 20
76.5268778117
 30
0.0
 10
23.9520278722
 20
76.5961359095
 30
0.0
 10
23.7150498236
 20
76.6624027704
 30
0.0
 10
23.4623480877
 20
76.6912779428
 30
0.0
 10
23.0983621265
 20
76.6793120709
 30
0.0
 10
22.6145514583
 20
76.56322956
 30
0.0
 10
22.2471463948
 20
76.3883583584
 30
0.0
 10
22.0622867455
 20
76.2816302272
 30
0.0
  0
SPLINE
  5
2DB
100
AcDbEntity
  8
0
100
AcDbSpline
 62
7
  6
BYLAYER
 70
0
 71
3
 72
13
 73
9
 74
0
 42
0.0000001
 43
0.0000001
 44
0.0000000001
 40
0.0
 40
0.0
 40
0.0
 40
0.0
 40
0.2893744325
 40
0.5483108135
 40
0.6677408807
 40
0.7817663151
 40
0.8919059332
 40
1.0
 40
1.0
 40
1.0
 40
1.0
 10
22.0622867455
 20
76.2408051064
 30
0.0
 10
22.2444269904
 20
76.3459631981
 30
0.0
 10
22.6064340249
 20
76.5183599136
 30
0.0
 10
23.0830810167
 20
76.6332190602
 30
0.0
 10
23.4418299864
 20
76.6456820687
 30
0.0
 10
23.6909920306
 20
76.6178524274
 30
0.0
 10
23.9247554889
 20
76.5532922896
 30
0.0
 10
24.0691998338
 20
76.4856021927
 30
0.0
 10
24.1372371902
 20
76.4463209741
 30
0.0
  0
SPLINE
  5
2DC
100
AcDbEntity
  8
0
100
AcDbSpline
 62
7
  6
BYLAYER
 70
0
 71
3
 72
22
 73
18
 74
0
 42
0.0000001
 43
0.0000001
 44
0.0000000001
 40
0.0
 40
0.0
 40
0.0
 40
0.0
 40
0.06238032
 40
0.1287678448
 40
0.1983725876
 40
0.2703687439
 40
0.4173885192
 40
0.4904339969
 40
0.5617416019
 40
0.6303601184
 40
0.6954660964
 40
0.7564323727
 40
0.8128875031
 40
0.8648025827
 40
0.9125923521
 40
0.9571806018
 40
1.0
 40
1.0
 40
1.0
 40
1.0
 10
21.9208648005
 20
76.5265788615
 30
0.0
 10
21.7628341368
 20
76.43534036
 30
0.0
 10
21.4488047493
 20
76.2254039451
 30
0.0
 10
21.004024104
 20
75.8512229026
 30
0.0
 10
20.5788403626
 20
75.4146518401
 30
0.0
 10
20.04695391
 20
74.7578930867
 30
0.0
 10
19.596900448
 20
74.0258166869
 30
0.0
 10
19.2455397918
 20
73.248422707
 30
0.0
 10
19.0395076274
 20
72.6595262998
 30
0.0
 10
18.8949542263
 20
72.0764710398
 30
0.0
 10
18.8150132889
 20
71.5114662522
 30
0.0
 10
18.8013765312
 20
70.9763568119
 30
0.0
 10
18.8546702186
 20
70.48216284
 30
0.0
 10
18.9744429292
 20
70.0390679754
 30
0.0
 10
19.1593291779
 20
69.65637599
 30
0.0
 10
19.4067911142
 20
69.3434540461
 30
0.0
 10
19.612438461
 20
69.1860849165
 30
0.0
 10
19.7209146219
 20
69.1234565393
 30
0.0
  0
SPLINE
  5
2DD
100
AcDbEntity
  8
0
100
AcDbSpline
 62
7
  6
BYLAYER
 70
0
 71
3
 72
9
 73
5
 74
0
 42
0.0000001
 43
0.0000001
 44
0.0000000001
 40
0.0
 40
0.0
 40
0.0
 40
0.0
 40
0.4960026128
 40
1.0
 40
1.0
 40
1.0
 40
1.0
 10
28.2927623575
 20
74.3358594614
 30
0.0
 10
28.22628588
 20
74.3742394509
 30
0.0
 10
28.085953525
 20
74.4411718555
 30
0.0
 10
27.9369839313
 20
74.4854937999
 30
0.0
 10
27.8608068002
 20
74.5022468654
 30
0.0
  0
SPLINE
  5
2DE
100
AcDbEntity
  8
0
100
AcDbSpline
 62
7
  6
BYLAYER
 70
0
 71
3
 72
11
 73
7
 74
0
 42
0.0000001
 43
0.0000001
 44
0.0000000001
 40
0.0
 40
0.0
 40
0.0
 40
0.0
 40
0.2204794207
 40
0.4583665624
 40
0.7178772057
 40
1.0
 40
1.0
 40
1.0
 40
1.0
 10
27.8608068002
 20
74.5022468654
 30
0.0
 10
27.7281745488
 20
74.5314156821
 30
0.0
 10
27.4439659747
 20
74.5570191824
 30
0.0
 10
27.0026680364
 20
74.5005350672
 30
0.0
 10
26.5431949389
 20
74.3538486363
 30
0.0
 10
26.2433019506
 20
74.2048432015
 30
0.0
 10
26.0928121789
 20
74.1179584099
 30
0.0
  0
SPLINE
  5
2DF
100
AcDbEntity
  8
0
100
AcDbSpline
 62
7
  6
BYLAYER
 70
0
 71
3
 72
15
 73
11
 74
0
 42
0.0000001
 43
0.0000001
 44
0.0000000001
 40
0.0
 40
0.0
 40
0.0
 40
0.0
 40
0.1141441531
 40
0.2373312038
 40
0.3669729364
 40
0.4999983967
 40
0.63302408
 40
0.7626664638
 40
0.8858545409
 40
1.0
 40
1.0
 40
1.0
 40
1.0
 10
24.6785927286
 20
74.9344399189
 30
0.0
 10
24.4656214115
 20
74.8114816056
 30
0.0
 10
24.0449323016
 20
74.5165529817
 30
0.0
 10
23.4660484626
 20
73.9750279065
 30
0.0
 10
22.9326340318
 20
73.3348068646
 30
0.0
 10
22.4646622478
 20
72.620078356
 30
0.0
 10
22.0796782055
 20
71.8574355149
 30
0.0
 10
21.7919395751
 20
71.075369539
 30
0.0
 10
21.6124075267
 20
70.3032722212
 30
0.0
 10
21.5673358448
 20
69.7914755476
 30
0.0
 10
21.5673358448
 20
69.5455550065
 30
0.0
  0
SPLINE
  5
2E0
100
AcDbEntity
  8
0
100
AcDbSpline
 62
7
  6
BYLAYER
 70
0
 71
3
 72
13
 73
9
 74
0
 42
0.0000001
 43
0.0000001
 44
0.0000000001
 40
0.0
 40
0.0
 40
0.0
 40
0.0
 40
0.1080961762
 40
0.2182368155
 40
0.3322623314
 40
0.4516920354
 40
0.7106271874
 40
1.0
 40
1.0
 40
1.0
 40
1.0
 10
25.5350366458
 20
75.9280022429
 30
0.0
 10
25.4628987979
 20
75.9696501104
 30
0.0
 10
25.3097492033
 20
76.0414164175
 30
0.0
 10
25.0619000643
 20
76.1098632652
 30
0.0
 10
24.7977271403
 20
76.1393680299
 30
0.0
 10
24.4173673733
 20
76.1261522787
 30
0.0
 10
23.9120090768
 20
76.0043715123
 30
0.0
 10
23.5281960355
 20
75.8215898279
 30
0.0
 10
23.3350842508
 20
75.7100973525
 30
0.0
  0
SPLINE
  5
2E1
100
AcDbEntity
  8
0
100
AcDbSpline
 62
7
  6
BYLAYER
 70
0
 71
3
 72
13
 73
9
 74
0
 42
0.0000001
 43
0.0000001
 44
0.0000000001
 40
0.0
 40
0.0
 40
0.0
 40
0.0
 40
0.2893724989
 40
0.5483073615
 40
0.6677369704
 40
0.7817623376
 40
0.8919031108
 40
1.0
 40
1.0
 40
1.0
 40
1.0
 10
19.5874027075
 20
77.8737733515
 30
0.0
 10
19.780514265
 20
77.9852656956
 30
0.0
 10
20.1643267303
 20
78.1680476416
 30
0.0
 10
20.6696846128
 20
78.2898271608
 30
0.0
 10
21.0500437634
 20
78.3030444551
 30
0.0
 10
21.3142168366
 20
78.2735416479
 30
0.0
 10
21.5620663838
 20
78.2050931128
 30
0.0
 10
21.7152148707
 20
78.1333230639
 30
0.0
 10
21.7873528861
 20
78.091674403
 30
0.0
  0
SPLINE
  5
2E2
100
AcDbEntity
  8
0
100
AcDbSpline
 62
7
  6
BYLAYER
 70
0
 71
3
 72
9
 73
5
 74
0
 42
0.0000001
 43
0.0000001
 44
0.0000000001
 40
0.0
 40
0.0
 40
0.0
 40
0.0
 40
0.4944765223
 40
1.0
 40
1.0
 40
1.0
 40
1.0
 10
20.7108660207
 20
68.5519156441
 30
0.0
 10
20.6322675523
 20
68.5972934685
 30
0.0
 10
20.4815573487
 20
68.7041299425
 30
0.0
 10
20.3529601848
 20
68.8365831015
 30
0.0
 10
20.2940881634
 20
68.9082984917
 30
0.0
  0
SPLINE
  5
2E3
100
AcDbEntity
  8
0
100
AcDbSpline
 62
7
  6
BYLAYER
 70
0
 71
3
 72
9
 73
5
 74
0
 42
0.0000001
 43
0.0000001
 44
0.0000000001
 40
0.0
 40
0.0
 40
0.0
 40
0.0
 40
0.2436616532
 40
1.0
 40
1.0
 40
1.0
 40
1.0
 10
20.2940881634
 20
68.9082984917
 30
0.0
 10
20.2722986288
 20
68.9348415752
 30
0.0
 10
20.1862279087
 20
69.0465110364
 30
0.0
 10
20.1137860247
 20
69.1684894348
 30
0.0
 10
20.0666219709
 20
69.2640846877
 30
0.0
  0
SPLINE
  5
2E4
100
AcDbEntity
  8
0
100
AcDbSpline
 62
7
  6
BYLAYER
 70
0
 71
3
 72
9
 73
5
 74
0
 42
0.0000001
 43
0.0000001
 44
0.0000000001
 40
0.0
 40
0.0
 40
0.0
 40
0.0
 40
0.2417935049
 40
1.0
 40
1.0
 40
1.0
 40
1.0
 10
20.0666219709
 20
69.2640846877
 30
0.0
 10
20.049713509
 20
69.2983558871
 30
0.0
 10
19.9837136698
 20
69.4420201098
 30
0.0
 10
19.9331824972
 20
69.592612099
 30
0.0
 10
19.902654557
 20
69.7084924608
 30
0.0
  0
SPLINE
  5
2E5
100
AcDbEntity
  8
0
100
AcDbSpline
 62
7
  6
BYLAYER
 70
0
 71
3
 72
9
 73
5
 74
0
 42
0.0000001
 43
0.0000001
 44
0.0000000001
 40
0.0
 40
0.0
 40
0.0
 40
0.0
 40
0.2432868845
 40
1.0
 40
1.0
 40
1.0
 40
1.0
 10
19.902654557
 20
69.7084924608
 30
0.0
 10
19.8942398427
 20
69.7404336966
 30
0.0
 10
19.8620584158
 20
69.8723528893
 30
0.0
 10
19.8393003191
 20
70.0065162954
 30
0.0
 10
19.8267327016
 20
70.1084836198
 30
0.0
  0
SPLINE
  5
2E6
100
AcDbEntity
  8
0
100
AcDbSpline
 62
7
  6
BYLAYER
 70
0
 71
3
 72
9
 73
5
 74
0
 42
0.0000001
 43
0.0000001
 44
0.0000000001
 40
0.0
 40
0.0
 40
0.0
 40
0.0
 40
0.2437069603
 40
1.0
 40
1.0
 40
1.0
 40
1.0
 10
19.8267327016
 20
70.1084836198
 30
0.0
 10
19.8221750679
 20
70.1454619656
 30
0.0
 10
19.8059859883
 20
70.2974989382
 30
0.0
 10
19.799561532
 20
70.4505340852
 30
0.0
 10
19.799561532
 20
70.5661568928
 30
0.0
  0
SPLINE
  5
2E7
100
AcDbEntity
  8
0
100
AcDbSpline
 62
7
  6
BYLAYER
 70
0
 71
3
 72
10
 73
6
 74
0
 42
0.0000001
 43
0.0000001
 44
0.0000000001
 40
0.0
 40
0.0
 40
0.0
 40
0.0
 40
0.2407745221
 40
0.4855504632
 40
1.0
 40
1.0
 40
1.0
 40
1.0
 10
23.4685961652
 20
66.9597805403
 30
0.0
 10
23.4010014317
 20
66.9988061514
 30
0.0
 10
23.2707419558
 20
67.0886246556
 30
0.0
 10
23.0353927161
 20
67.3129861718
 30
0.0
 10
22.898125188
 20
67.5223931896
 30
0.0
 10
22.8243539543
 20
67.6719576088
 30
0.0
  0
SPLINE
  5
2E8
100
AcDbEntity
  8
0
100
AcDbSpline
 62
7
  6
BYLAYER
 70
0
 71
3
 72
16
 73
12
 74
0
 42
0.0000001
 43
0.0000001
 44
0.0000000001
 40
0.0
 40
0.0
 40
0.0
 40
0.0
 40
0.0969951925
 40
0.1509678966
 40
0.2085237386
 40
0.3331788649
 40
0.4676384819
 40
0.6069811578
 40
0.7456655243
 40
0.8782117024
 40
1.0
 40
1.0
 40
1.0
 40
1.0
 10
22.8243539543
 20
67.6719576088
 30
0.0
 10
22.7137081368
 20
67.8962818694
 30
0.0
 10
22.6040934868
 20
68.2775181601
 30
0.0
 10
22.5524908151
 20
68.8130974046
 30
0.0
 10
22.5616795206
 20
69.4233853818
 30
0.0
 10
22.6970243854
 20
70.2335220195
 30
0.0
 10
23.0272877602
 20
71.2104146926
 30
0.0
 10
23.5107930967
 20
72.1618763958
 30
0.0
 10
24.1196088703
 20
73.032575223
 30
0.0
 10
24.818007926
 20
73.772062983
 30
0.0
 10
25.3450365875
 20
74.1701516799
 30
0.0
 10
25.6146417208
 20
74.3312380332
 30
0.0
  0
SPLINE
  5
2E9
100
AcDbEntity
  8
0
100
AcDbSpline
 62
7
  6
BYLAYER
 70
0
 71
3
 72
11
 73
7
 74
0
 42
0.0000001
 43
0.0000001
 44
0.0000000001
 40
0.0
 40
0.0
 40
0.0
 40
0.0
 40
0.2827158571
 40
0.5422936431
 40
0.7798766018
 40
1.0
 40
1.0
 40
1.0
 40
1.0
 10
20.2238273671
 20
70.3212124401
 30
0.0
 10
20.2238273671
 20
70.1441241926
 30
0.0
 10
20.2455051546
 20
69.8037953704
 30
0.0
 10
20.3522640216
 20
69.3247119487
 30
0.0
 10
20.5308076755
 20
68.9092183137
 30
0.0
 10
20.7015171917
 20
68.6748330337
 30
0.0
 10
20.796475136
 20
68.5748616493
 30
0.0
  0
SPLINE
  5
2EA
100
AcDbEntity
  8
0
100
AcDbSpline
 62
7
  6
BYLAYER
 70
0
 71
3
 72
22
 73
18
 74
0
 42
0.0000001
 43
0.0000001
 44
0.0000000001
 40
0.0
 40
0.0
 40
0.0
 40
0.0
 40
0.042818187
 40
0.0874062091
 40
0.135196125
 40
0.1871111637
 40
0.2435658543
 40
0.3045315072
 40
0.3696366203
 40
0.4382542336
 40
0.5095613664
 40
0.5826059426
 40
0.7296244287
 40
0.8016223046
 40
0.8712293591
 40
0.9376190803
 40
1.0
 40
1.0
 40
1.0
 40
1.0
 10
22.7450642289
 20
67.6661802338
 30
0.0
 10
22.6427546021
 20
67.7252484726
 30
0.0
 10
22.4487992
 20
67.8736781601
 30
0.0
 10
22.2153956363
 20
68.168812712
 30
0.0
 10
22.0410154718
 20
68.5297608844
 30
0.0
 10
21.9280477257
 20
68.9476776959
 30
0.0
 10
21.8777791926
 20
69.413788305
 30
0.0
 10
21.8906400715
 20
69.918487675
 30
0.0
 10
21.9660359906
 20
70.4513825209
 30
0.0
 10
22.1023686407
 20
71.0013041464
 30
0.0
 10
22.2966914949
 20
71.556733785
 30
0.0
 10
22.6280775742
 20
72.2899529275
 30
0.0
 10
23.0525564443
 20
72.9804326977
 30
0.0
 10
23.5542170769
 20
73.5998874717
 30
0.0
 10
23.9552515239
 20
74.0116676074
 30
0.0
 10
24.3747702223
 20
74.3645971921
 30
0.0
 10
24.6709618577
 20
74.562610994
 30
0.0
 10
24.8200146736
 20
74.6486661637
 30
0.0
  0
SPLINE
  5
2EB
100
AcDbEntity
  8
0
100
AcDbSpline
 62
7
  6
BYLAYER
 70
0
 71
3
 72
15
 73
11
 74
0
 42
0.0000001
 43
0.0000001
 44
0.0000000001
 40
0.0
 40
0.0
 40
0.0
 40
0.0
 40
0.0977252442
 40
0.1994805371
 40
0.3085308867
 40
0.4269905361
 40
0.5557979037
 40
0.6948760891
 40
0.8434812715
 40
1.0
 40
1.0
 40
1.0
 40
1.0
 10
20.0781550982
 20
79.5403397873
 30
0.0
 10
19.9599038583
 20
79.6085987892
 30
0.0
 10
19.6992913335
 20
79.7169968113
 30
0.0
 10
19.2690651149
 20
79.780139197
 30
0.0
 10
18.807086327
 20
79.7463093783
 30
0.0
 10
18.3235745261
 20
79.6180942187
 30
0.0
 10
17.8280526637
 20
79.3993873977
 30
0.0
 10
17.33023734
 20
79.0952155647
 30
0.0
 10
16.8404785074
 20
78.7121287359
 30
0.0
 10
16.5326547418
 20
78.4160556319
 30
0.0
 10
16.3821722809
 20
78.2573832905
 30
0.0
  0
SPLINE
  5
2EC
100
AcDbEntity
  8
0
100
AcDbSpline
 62
7
  6
BYLAYER
 70
0
 71
3
 72
11
 73
7
 74
0
 42
0.0000001
 43
0.0000001
 44
0.0000000001
 40
0.0
 40
0.0
 40
0.0
 40
0.0
 40
0.2827158571
 40
0.5422936431
 40
0.7798766018
 40
1.0
 40
1.0
 40
1.0
 40
1.0
 10
21.5673358448
 20
69.5455550065
 30
0.0
 10
21.5673358448
 20
69.368466759
 30
0.0
 10
21.5890136324
 20
69.0281379368
 30
0.0
 10
21.6957724994
 20
68.5490545151
 30
0.0
 10
21.8743161533
 20
68.1335608801
 30
0.0
 10
22.0450256694
 20
67.8991756002
 30
0.0
 10
22.1399836138
 20
67.7992042158
 30
0.0
  0
SPLINE
  5
2ED
100
AcDbEntity
  8
0
100
AcDbSpline
 62
7
  6
BYLAYER
 70
0
 71
3
 72
22
 73
18
 74
0
 42
0.0000001
 43
0.0000001
 44
0.0000000001
 40
0.0
 40
0.0
 40
0.0
 40
0.0
 40
0.042818187
 40
0.0874062091
 40
0.135196125
 40
0.1871111637
 40
0.2435658543
 40
0.3045315072
 40
0.3696366203
 40
0.4382542336
 40
0.5095613664
 40
0.5826059426
 40
0.7296244287
 40
0.8016223046
 40
0.8712293591
 40
0.9376190803
 40
1.0
 40
1.0
 40
1.0
 40
1.0
 10
21.4015557512
 20
68.4418376674
 30
0.0
 10
21.2992461244
 20
68.5009059061
 30
0.0
 10
21.1052907222
 20
68.6493355937
 30
0.0
 10
20.8718871585
 20
68.9444701456
 30
0.0
 10
20.6975069941
 20
69.305418318
 30
0.0
 10
20.5845392479
 20
69.7233351295
 30
0.0
 10
20.5342707148
 20
70.1894457386
 30
0.0
 10
20.5471315938
 20
70.6941451086
 30
0.0
 10
20.6225275128
 20
71.2270399545
 30
0.0
 10
20.758860163
 20
71.7769615799
 30
0.0
 10
20.9531830171
 20
72.3323912186
 30
0.0
 10
21.2845690964
 20
73.0656103611
 30
0.0
 10
21.7090479665
 20
73.7560901313
 30
0.0
 10
22.2107085991
 20
74.3755449053
 30
0.0
 10
22.6117430461
 20
74.787325041
 30
0.0
 10
23.0312617446
 20
75.1402546257
 30
0.0
 10
23.3274533799
 20
75.3382684276
 30
0.0
 10
23.4765061958
 20
75.4243235973
 30
0.0
  0
SPLINE
  5
2EE
100
AcDbEntity
  8
0
100
AcDbSpline
 62
7
  6
BYLAYER
 70
0
 71
3
 72
9
 73
5
 74
0
 42
0.0000001
 43
0.0000001
 44
0.0000000001
 40
0.0
 40
0.0
 40
0.0
 40
0.0
 40
0.2708665592
 40
1.0
 40
1.0
 40
1.0
 40
1.0
 10
21.8597992797
 20
69.2758171993
 30
0.0
 10
21.8669537612
 20
69.1775604236
 30
0.0
 10
21.9083686704
 20
68.8165762192
 30
0.0
 10
22.0167344948
 20
68.4594623744
 30
0.0
 10
22.1444888549
 20
68.2270699103
 30
0.0
  0
SPLINE
  5
2EF
100
AcDbEntity
  8
0
100
AcDbSpline
 62
7
  6
BYLAYER
 70
0
 71
3
 72
10
 73
6
 74
0
 42
0.0000001
 43
0.0000001
 44
0.0000000001
 40
0.0
 40
0.0
 40
0.0
 40
0.0
 40
0.5122812624
 40
0.7578105642
 40
1.0
 40
1.0
 40
1.0
 40
1.0
 10
22.1444888549
 20
68.2270699103
 30
0.0
 10
22.2143174
 20
68.1000478059
 30
0.0
 10
22.3406585122
 20
67.9227650704
 30
0.0
 10
22.5503548953
 20
67.7317151657
 30
0.0
 10
22.6652802569
 20
67.6542142396
 30
0.0
 10
22.7247594507
 20
67.6201807876
 30
0.0
  0
SPLINE
  5
2F0
100
AcDbEntity
  8
0
100
AcDbSpline
 62
7
  6
BYLAYER
 70
0
 71
3
 72
22
 73
18
 74
0
 42
0.0000001
 43
0.0000001
 44
0.0000000001
 40
0.0
 40
0.0
 40
0.0
 40
0.0
 40
0.0428188449
 40
0.0874286029
 40
0.1352520478
 40
0.1872034453
 40
0.2436907138
 40
0.3046811464
 40
0.3698009406
 40
0.4384225791
 40
0.5097237052
 40
0.5827535262
 40
0.7297248403
 40
0.8016947136
 40
0.8712743521
 40
0.9376393757
 40
1.0
 40
1.0
 40
1.0
 40
1.0
 10
26.9152698965
 20
74.9001814777
 30
0.0
 10
26.8115628855
 20
74.9595216833
 30
0.0
 10
26.5830646348
 20
75.0534960527
 30
0.0
 10
26.2062163274
 20
75.107489187
 30
0.0
 10
25.8017220571
 20
75.0766310829
 30
0.0
 10
25.3785095754
 20
74.9633161984
 30
0.0
 10
24.9448970492
 20
74.7708565289
 30
0.0
 10
24.5095027798
 20
74.5037306081
 30
0.0
 10
24.0811106226
 20
74.1677193029
 30
0.0
 10
23.6686747844
 20
73.7698670698
 30
0.0
 10
23.280775024
 20
73.3185694933
 30
0.0
 10
22.8066058466
 20
72.657428805
 30
0.0
 10
22.4168951102
 20
71.9365346256
 30
0.0
 10
22.1283406736
 20
71.1840634056
 30
0.0
 10
21.9706602679
 20
70.624748196
 30
0.0
 10
21.8738031331
 20
70.0790085824
 30
0.0
 10
21.8501785573
 20
69.7195699804
 30
0.0
 10
21.8501785573
 20
69.5455556864
 30
0.0
  0
SPLINE
  5
2F1
100
AcDbEntity
  8
0
100
AcDbSpline
 62
7
  6
BYLAYER
 70
0
 71
3
 72
10
 73
6
 74
0
 42
0.0000001
 43
0.0000001
 44
0.0000000001
 40
0.0
 40
0.0
 40
0.0
 40
0.0
 40
0.241910196
 40
0.4873189071
 40
1.0
 40
1.0
 40
1.0
 40
1.0
 10
22.0543744985
 20
67.7762582105
 30
0.0
 10
21.9914839437
 20
67.8125672711
 30
0.0
 10
21.8700345159
 20
67.8953066222
 30
0.0
 10
21.6488239009
 20
68.0993993671
 30
0.0
 10
21.516234475
 20
68.2886736555
 30
0.0
 10
21.4432590294
 20
68.4241747336
 30
0.0
  0
SPLINE
  5
2F2
100
AcDbEntity
  8
0
100
AcDbSpline
 62
7
  6
BYLAYER
 70
0
 71
3
 72
10
 73
6
 74
0
 42
0.0000001
 43
0.0000001
 44
0.0000000001
 40
0.0
 40
0.0
 40
0.0
 40
0.0
 40
0.2271027241
 40
0.5956481864
 40
1.0
 40
1.0
 40
1.0
 40
1.0
 10
21.4432590294
 20
68.4241747336
 30
0.0
 10
21.3925993588
 20
68.518239798
 30
0.0
 10
21.2795424428
 20
68.7759232655
 30
0.0
 10
21.1679416833
 20
69.2358795759
 30
0.0
 10
21.1430700097
 20
69.6002742222
 30
0.0
 10
21.1430700097
 20
69.7904994592
 30
0.0
  0
SPLINE
  5
2F3
100
AcDbEntity
  8
0
100
AcDbSpline
 62
7
  6
BYLAYER
 70
0
 71
3
 72
13
 73
9
 74
0
 42
0.0000001
 43
0.0000001
 44
0.0000000001
 40
0.0
 40
0.0
 40
0.0
 40
0.0
 40
0.2893744325
 40
0.5483108135
 40
0.6677408807
 40
0.7817663151
 40
0.8919059332
 40
1.0
 40
1.0
 40
1.0
 40
1.0
 10
24.8200146736
 20
74.6486661637
 30
0.0
 10
25.0021549185
 20
74.7538242554
 30
0.0
 10
25.364161953
 20
74.926220971
 30
0.0
 10
25.8408089448
 20
75.0410801176
 30
0.0
 10
26.1995579145
 20
75.053543126
 30
0.0
 10
26.4487199587
 20
75.0257134848
 30
0.0
 10
26.682483417
 20
74.961153347
 30
0.0
 10
26.8269277618
 20
74.8934632501
 30
0.0
 10
26.8949651183
 20
74.8541820315
 30
0.0
  0
SPLINE
  5
2F4
100
AcDbEntity
  8
0
100
AcDbSpline
 62
7
  6
BYLAYER
 70
0
 71
3
 72
9
 73
5
 74
0
 42
0.0000001
 43
0.0000001
 44
0.0000000001
 40
0.0
 40
0.0
 40
0.0
 40
0.0
 40
0.2591179025
 40
1.0
 40
1.0
 40
1.0
 40
1.0
 10
16.1335111249
 20
73.5007779418
 30
0.0
 10
16.1317020751
 20
73.4944205542
 30
0.0
 10
16.1243855058
 20
73.4699811543
 30
0.0
 10
16.1158244577
 20
73.4459238852
 30
0.0
 10
16.1089736483
 20
73.4283103357
 30
0.0
  0
SPLINE
  5
2F5
100
AcDbEntity
  8
0
100
AcDbSpline
 62
7
  6
BYLAYER
 70
0
 71
3
 72
9
 73
5
 74
0
 42
0.0000001
 43
0.0000001
 44
0.0000000001
 40
0.0
 40
0.0
 40
0.0
 40
0.0
 40
0.259257235
 40
1.0
 40
1.0
 40
1.0
 40
1.0
 10
16.133511125
 20
73.8348770343
 30
0.0
 10
16.135518865
 20
73.8243785269
 30
0.0
 10
16.1422180589
 20
73.7836795013
 30
0.0
 10
16.1452315906
 20
73.7424631903
 30
0.0
 10
16.1464838472
 20
73.7119492272
 30
0.0
  0
SPLINE
  5
2F6
100
AcDbEntity
  8
0
100
AcDbSpline
 62
7
  6
BYLAYER
 70
0
 71
3
 72
9
 73
5
 74
0
 42
0.0000001
 43
0.0000001
 44
0.0000000001
 40
0.0
 40
0.0
 40
0.0
 40
0.0
 40
0.2588763533
 40
1.0
 40
1.0
 40
1.0
 40
1.0
 10
16.1464838472
 20
73.7119492272
 30
0.0
 10
16.1468825943
 20
73.702232882
 30
0.0
 10
16.1480603063
 20
73.6646870614
 30
0.0
 10
16.1477372586
 20
73.6270868634
 30
0.0
 10
16.1464849374
 20
73.5992752109
 30
0.0
  0
SPLINE
  5
2F7
100
AcDbEntity
  8
0
100
AcDbSpline
 62
7
  6
BYLAYER
 70
0
 71
3
 72
9
 73
5
 74
0
 42
0.0000001
 43
0.0000001
 44
0.0000000001
 40
0.0
 40
0.0
 40
0.0
 40
0.0
 40
0.2666189574
 40
1.0
 40
1.0
 40
1.0
 40
1.0
 10
16.1464849374
 20
73.5992752109
 30
0.0
 10
16.1460873915
 20
73.5904464783
 30
0.0
 10
16.1441854704
 20
73.5573928745
 30
0.0
 10
16.1401644866
 20
73.5241592767
 30
0.0
 10
16.1335111249
 20
73.5007779418
 30
0.0
  0
SPLINE
  5
2F8
100
AcDbEntity
  8
0
100
AcDbSpline
 62
7
  6
BYLAYER
 70
0
 71
3
 72
13
 73
9
 74
0
 42
0.0000001
 43
0.0000001
 44
0.0000000001
 40
0.0
 40
0.0
 40
0.0
 40
0.0
 40
0.1080961762
 40
0.2182368155
 40
0.3322623314
 40
0.4516920354
 40
0.7106271874
 40
1.0
 40
1.0
 40
1.0
 40
1.0
 10
26.8785451236
 20
75.1523448093
 30
0.0
 10
26.8064072757
 20
75.1939926768
 30
0.0
 10
26.6532576811
 20
75.265758984
 30
0.0
 10
26.4054085421
 20
75.3342058316
 30
0.0
 10
26.1412356181
 20
75.3637105963
 30
0.0
 10
25.7608758511
 20
75.3504948451
 30
0.0
 10
25.2555175546
 20
75.2287140787
 30
0.0
 10
24.8717045133
 20
75.0459323943
 30
0.0
 10
24.6785927286
 20
74.9344399189
 30
0.0
  0
SPLINE
  5
2F9
100
AcDbEntity
  8
0
100
AcDbSpline
 62
7
  6
BYLAYER
 70
0
 71
3
 72
9
 73
5
 74
0
 42
0.0000001
 43
0.0000001
 44
0.0000000001
 40
0.0
 40
0.0
 40
0.0
 40
0.0
 40
0.2749793139
 40
1.0
 40
1.0
 40
1.0
 40
1.0
 10
20.5066700795
 20
70.32121312
 30
0.0
 10
20.5066700795
 20
70.1967111394
 30
0.0
 10
20.527762779
 20
69.7452665408
 30
0.0
 10
20.6428410161
 20
69.2903918568
 30
0.0
 10
20.8009803771
 20
69.0027273439
 30
0.0
  0
SPLINE
  5
2FA
100
AcDbEntity
  8
0
100
AcDbSpline
 62
7
  6
BYLAYER
 70
0
 71
3
 72
10
 73
6
 74
0
 42
0.0000001
 43
0.0000001
 44
0.0000000001
 40
0.0
 40
0.0
 40
0.0
 40
0.0
 40
0.5122812624
 40
0.7578105642
 40
1.0
 40
1.0
 40
1.0
 40
1.0
 10
20.8009803771
 20
69.0027273439
 30
0.0
 10
20.8708089223
 20
68.8757052395
 30
0.0
 10
20.9971500345
 20
68.698422504
 30
0.0
 10
21.2068464175
 20
68.5073725993
 30
0.0
 10
21.3217717791
 20
68.4298716732
 30
0.0
 10
21.3812509729
 20
68.3958382212
 30
0.0
  0
ELLIPSE
  5
2FB
100
AcDbEntity
  8
0
100
AcDbEllipse
 62
7
  6
BYLAYER
 10
38.2550994514
 20
63.5036067968
 30
0.0
 11
1.6418278998
 21
3.1501361943
 31
0.0
 40
0.546380517
 41
-2.3797836673
 42
-2.3272736848
  0
ELLIPSE
  5
2FC
100
AcDbEntity
  8
0
100
AcDbEllipse
 62
7
  6
BYLAYER
 10
38.2550994514
 20
63.5036067968
 30
0.0
 11
1.6418278998
 21
3.1501361943
 31
0.0
 40
0.546380517
 41
5.4343248531
 42
7.0449942935
  0
ELLIPSE
  5
2FD
100
AcDbEntity
  8
0
100
AcDbEllipse
 62
7
  6
BYLAYER
 10
38.2550994514
 20
63.5036067968
 30
0.0
 11
1.2719780858
 21
1.9780242172
 31
0.0
 40
0.606730174
 41
0.8144547303
 42
3.1706620237
  0
ELLIPSE
  5
2FE
100
AcDbEntity
  8
0
100
AcDbEllipse
 62
7
  6
BYLAYER
 10
38.2550994514
 20
63.5036067968
 30
0.0
 11
1.9214988105
 21
2.9880791366
 31
0.0
 40
0.606730174
 41
0.8144547303
 42
3.9560473839
  0
ELLIPSE
  5
2FF
100
AcDbEntity
  8
0
100
AcDbEllipse
 62
7
  6
BYLAYER
 10
38.2550994514
 20
63.5036067968
 30
0.0
 11
1.086843821
 21
2.0853014244
 31
0.0
 40
0.546380517
 41
-0.0235763739
 42
0.7618089863
  0
ENDSEC
  0
SECTION
  2
OBJECTS
  0
DICTIONARY
  5
C
100
AcDbDictionary
280
0
281
1
  3
ACAD_GROUP
350
D
  3
ACAD_MLINESTYLE
350
17
  3
ACAD_LAYOUT
350
1A
  3
ACAD_PLOTSETTINGS
350
19
  3
ACAD_PLOTSTYLENAME
350
E
  0
DICTIONARY
  5
D
102
{ACAD_REACTORS
330
C
102
}
100
AcDbDictionary
280
0
281
1
  0
ACDBDICTIONARYWDFLT
  5
E
102
{ACAD_REACTORS
330
C
102
}
100
AcDbDictionary
281
1
  3
Normal
350
F
100
AcDbDictionaryWithDefault
340
F
  0
DICTIONARY
  5
17
102
{ACAD_REACTORS
330
C
102
}
100
AcDbDictionary
280
0
281
1
  3
Standard
350
18
  0
DICTIONARY
  5
19
102
{ACAD_REACTORS
330
C
102
}
100
AcDbDictionary
281
1
  0
DICTIONARY
  5
1A
102
{ACAD_REACTORS
330
C
102
}
100
AcDbDictionary
281
1
  3
Model
350
300
  3
Layout1
350
301
  0
ACDBPLACEHOLDER
  5
F
102
{ACAD_REACTORS
330
E
102
}
  0
MLINESTYLE
  5
18
102
{ACAD_REACTORS
330
17
102
}
100
AcDbMlineStyle
  2
STANDARD
 70
0
  3

 62
256
 51
90.0
 52
90.0
 71
2
 49
0.5
 62
256
  6
BYLAYER
 49
-0.5
 62
256
  6
BYLAYER
  0
LAYOUT
  5
300
102
{ACAD_REACTORS
330
1A
102
}
100
AcDbPlotSettings
  1

  2
none_device
  4

  6

 40
0.0
 41
0.0
 42
0.0
 43
0.0
 44
210.0
 45
297.0
 46
0.0
 47
0.0
 48
0.0
 49
0.0
140
0.0
141
0.0
142
1.0
143
1.0
 70
1024
 72
1
 73
0
 74
0
  7

 75
0
147
1.0
148
0.0
149
0.0
100
AcDbLayout
  1
Model
 70
0
 71
0
 10
0.0
 20
0.0
 11
210.0
 21
297.0
 12
0.0
 22
0.0
 32
0.0
 14
0.0
 24
0.0
 34
0.0
 15
0.0
 25
0.0
 35
0.0
146
0.0
 13
0.0
 23
0.0
 33
0.0
 16
1.0
 26
0.0
 36
0.0
 17
0.0
 27
1.0
 37
0.0
 76
0
330
210
345
0
346
0
  0
LAYOUT
  5
301
102
{ACAD_REACTORS
330
1A
102
}
100
AcDbPlotSettings
  1

  2
none_device
  4

  6

 40
0.0
 41
0.0
 42
0.0
 43
0.0
 44
210.0
 45
297.0
 46
0.0
 47
0.0
 48
0.0
 49
0.0
140
0.0
141
0.0
142
1.0
143
1.0
 70
0
 72
1
 73
0
 74
0
  7

 75
0
147
1.0
148
0.0
149
0.0
100
AcDbLayout
  1
Layout1
 70
0
 71
1
 10
0.0
 20
0.0
 11
210.0
 21
297.0
 12
0.0
 22
0.0
 32
0.0
 14
0.0
 24
0.0
 34
0.0
 15
0.0
 25
0.0
 35
0.0
146
0.0
 13
0.0
 23
0.0
 33
0.0
 16
1.0
 26
0.0
 36
0.0
 17
0.0
 27
1.0
 37
0.0
 76
0
330
211
345
0
346
0
  0
ENDSEC
  0
EOF
