999
DXF file: C:\Users\sesa63760\Dev\_Creo\CAD\MCADID0004755_3D-CAD\drw0001_2.dxf
999
Pro/ENGINEER 2019471 by Parametric Technology Corporation
  0
SECTION
  2
HEADER
  9
$ACADVER
  1
AC1024
  9
$DWGCODEPAGE
  3
ANSI_1252
  9
$EXTMAX
 10
203.948845756
 20
288.4419389978
 30
0.0
  9
$EXTMIN
 10
0.0
 20
0.0
 30
0.0
  9
$LIMMIN
 10
0.0
 20
0.0
  9
$LIMMAX
 10
203.948845756
 20
288.4419389978
  9
$VIEWCTR
 10
101.974422878
 20
144.2209694989
  9
$VIEWSIZE
 40
288.4419389978
  9
$CLAYER
  8
0
  9
$LTSCALE
 40
18.8021412087
  9
$CELTYPE
  6
BYLAYER
  9
$DIMSCALE
 40
1.0
  9
$DIMASZ
 40
2.4279624495
  9
$DIMEXO
 40
1.0
  9
$DIMDLI
 40
12.9905702897
  9
$DIMEXE
 40
1.0
  9
$DIMCEN
 40
3.076714016
  9
$DIMLFAC
 40
1.0
  9
$DIMBLK
  1
_FILLED
  9
$DIMALT
 70
0
  9
$DIMALTF
 40
0.0393700787
  9
$DIMTXT
 40
3.3991474293
  9
$DIMTOL
 70
1
  9
$DIMLIM
 70
0
  9
$DIMTFAC
 40
1.0
  9
$DIMTP
 40
0.01
  9
$DIMTM
 40
0.01
  9
$DIMGAP
 40
0.625
  9
$DIMDSEP
 70
46
  9
$AUNITS
 70
0
  9
$PDMODE
 70
3
  9
$PDSIZE
 40
0.3125
  9
$HANDSEED
  5
351
  9
$TILEMODE
 70
1
  9
$MEASUREMENT
 70
1
  9
$INSUNITS
 70
4
  0
ENDSEC
  0
SECTION
  2
CLASSES
  0
CLASS
  1
ACDBDICTIONARYWDFLT
  2
AcDbDictionaryWithDefault
  3
AutoCAD 2000
 90
0
 91
1
280
0
281
0
  0
CLASS
  1
ACDBPLACEHOLDER
  2
AcDbPlaceHolder
  3
AutoCAD 2000
 90
0
 91
1
280
0
281
0
  0
CLASS
  1
LAYOUT
  2
AcDbLayout
  3
AutoCAD 2000
 90
0
 91
0
280
0
281
0
  0
ENDSEC
  0
SECTION
  2
TABLES
  0
TABLE
  2
VPORT
  5
8
100
AcDbSymbolTable
 70
2
  0
VPORT
  5
1F4
100
AcDbSymbolTableRecord
100
AcDbViewportTableRecord
  2
*ACTIVE
 70
0
 10
0.0
 20
0.0
 11
1.0
 21
1.0
 12
101.974422878
 22
144.2209694989
 13
0.0
 23
0.0
 14
1.0
 24
1.0
 15
0.0
 25
0.0
 16
0.0
 26
0.0
 36
1.0
 17
0.0
 27
0.0
 37
0.0
 40
288.4419389978
 41
0.7070707071
 42
50.0
 43
0.0
 44
0.0
 50
0.0
 51
0.0
 71
0
 72
100
 73
1
 74
1
 75
0
 76
0
 77
0
 78
0
  0
ENDTAB
  0
TABLE
  2
LTYPE
  5
5
100
AcDbSymbolTable
 70
6
  0
LTYPE
  5
14
100
AcDbSymbolTableRecord
100
AcDbLinetypeTableRecord
  2
BYBLOCK
 70
0
  3

 72
65
 73
0
 40
0.0
  0
LTYPE
  5
15
100
AcDbSymbolTableRecord
100
AcDbLinetypeTableRecord
  2
BYLAYER
 70
0
  3

 72
65
 73
0
 40
0.0
  0
LTYPE
  5
16
100
AcDbSymbolTableRecord
100
AcDbLinetypeTableRecord
  2
CONTINUOUS
 70
64
  3
Solid line
 72
65
 73
0
 40
0.0
  0
LTYPE
  5
1F5
100
AcDbSymbolTableRecord
100
AcDbLinetypeTableRecord
  2
CENTER
 70
64
  3
____ _ ____ _ ____ _ ____ _ ____ _ ____ _ ____
 72
65
 73
4
 40
0.6
 49
0.375
 74
0
 49
-0.075
 74
0
 49
0.075
 74
0
 49
-0.075
 74
0
  0
LTYPE
  5
1F6
100
AcDbSymbolTableRecord
100
AcDbLinetypeTableRecord
  2
HIDDEN
 70
64
  3
- - - - - - - - - - - - - - - - - - - -
 72
65
 73
2
 40
0.2
 49
0.1
 74
0
 49
-0.1
 74
0
  0
LTYPE
  5
1F7
100
AcDbSymbolTableRecord
100
AcDbLinetypeTableRecord
  2
PHANTOM
 70
64
  3
_____ _ _ _____ _ _ _____ _ _ _____
 72
65
 73
6
 40
0.8
 49
0.45
 74
0
 49
-0.05
 74
0
 49
0.1
 74
0
 49
-0.05
 74
0
 49
0.1
 74
0
 49
-0.05
 74
0
  0
LTYPE
  5
1F8
100
AcDbSymbolTableRecord
100
AcDbLinetypeTableRecord
  2
DOT
 70
64
  3
. . . . . . . . . . . . . . . . . . . .
 72
65
 73
2
 40
0.2
 49
0.1
 74
0
 49
-0.1
 74
0
  0
LTYPE
  5
1F9
100
AcDbSymbolTableRecord
100
AcDbLinetypeTableRecord
  2
DASHED
 70
64
  3
- - - - - - - - - - - - - - - - - - - -
 72
65
 73
2
 40
0.2
 49
0.1
 74
0
 49
-0.1
 74
0
  0
ENDTAB
  0
TABLE
  2
LAYER
  5
2
100
AcDbSymbolTable
 70
36
  0
LAYER
  5
10
100
AcDbSymbolTableRecord
100
AcDbLayerTableRecord
  2
0
 70
0
 62
7
  6
CONTINUOUS
370
-3
390
F
  0
LAYER
  5
1FA
100
AcDbSymbolTableRecord
100
AcDbLayerTableRecord
  2
DEFAULT_1
 70
0
 62
7
  6
CENTER
370
-3
390
F
  0
LAYER
  5
1FB
100
AcDbSymbolTableRecord
100
AcDbLayerTableRecord
  2
DEFAULT_2
 70
0
 62
7
  6
HIDDEN
370
-3
390
F
  0
LAYER
  5
1FC
100
AcDbSymbolTableRecord
100
AcDbLayerTableRecord
  2
DEFAULT_3
 70
0
 62
7
  6
PHANTOM
370
-3
390
F
  0
LAYER
  5
1FD
100
AcDbSymbolTableRecord
100
AcDbLayerTableRecord
  2
00_COMPONENTS
 70
0
 62
7
  6
CONTINUOUS
370
-3
390
F
  0
LAYER
  5
1FE
100
AcDbSymbolTableRecord
100
AcDbLayerTableRecord
  2
01_1_DEFAULT_DATUMS
 70
0
 62
7
  6
CONTINUOUS
370
-3
390
F
  0
LAYER
  5
1FF
100
AcDbSymbolTableRecord
100
AcDbLayerTableRecord
  2
01_PLANES
 70
0
 62
7
  6
CONTINUOUS
370
-3
390
F
  0
LAYER
  5
200
100
AcDbSymbolTableRecord
100
AcDbLayerTableRecord
  2
02_COORD_SYS
 70
0
 62
7
  6
CONTINUOUS
370
-3
390
F
  0
LAYER
  5
201
100
AcDbSymbolTableRecord
100
AcDbLayerTableRecord
  2
03_AXES
 70
0
 62
7
  6
CONTINUOUS
370
-3
390
F
  0
LAYER
  5
202
100
AcDbSymbolTableRecord
100
AcDbLayerTableRecord
  2
04_POINTS
 70
0
 62
7
  6
CONTINUOUS
370
-3
390
F
  0
LAYER
  5
203
100
AcDbSymbolTableRecord
100
AcDbLayerTableRecord
  2
05_CURVES
 70
0
 62
7
  6
CONTINUOUS
370
-3
390
F
  0
LAYER
  5
204
100
AcDbSymbolTableRecord
100
AcDbLayerTableRecord
  2
06_SURFS
 70
0
 62
7
  6
CONTINUOUS
370
-3
390
F
  0
LAYER
  5
205
100
AcDbSymbolTableRecord
100
AcDbLayerTableRecord
  2
07_COSMETICS
 70
0
 62
7
  6
CONTINUOUS
370
-3
390
F
  0
LAYER
  5
206
100
AcDbSymbolTableRecord
100
AcDbLayerTableRecord
  2
10_NOTES
 70
0
 62
7
  6
CONTINUOUS
370
-3
390
F
  0
LAYER
  5
207
100
AcDbSymbolTableRecord
100
AcDbLayerTableRecord
  2
11_NOTES_PUB
 70
0
 62
7
  6
CONTINUOUS
370
-3
390
F
  0
LAYER
  5
208
100
AcDbSymbolTableRecord
100
AcDbLayerTableRecord
  2
13_REF_GTOL
 70
0
 62
7
  6
CONTINUOUS
370
-3
390
F
  0
LAYER
  5
209
100
AcDbSymbolTableRecord
100
AcDbLayerTableRecord
  2
16_MISC
 70
0
 62
7
  6
CONTINUOUS
370
-3
390
F
  0
LAYER
  5
20A
100
AcDbSymbolTableRecord
100
AcDbLayerTableRecord
  2
17_NO_PRINT
 70
0
 62
7
  6
CONTINUOUS
370
-3
390
F
  0
LAYER
  5
20B
100
AcDbSymbolTableRecord
100
AcDbLayerTableRecord
  2
18_DATUM_CAMS_JOINTS
 70
0
 62
7
  6
CONTINUOUS
370
-3
390
F
  0
LAYER
  5
20C
100
AcDbSymbolTableRecord
100
AcDbLayerTableRecord
  2
19_DATUM_FUNCTIONAL
 70
0
 62
7
  6
CONTINUOUS
370
-3
390
F
  0
LAYER
  5
20D
100
AcDbSymbolTableRecord
100
AcDbLayerTableRecord
  2
20_DATUM_KINEMATIC_SCHEME
 70
0
 62
7
  6
CONTINUOUS
370
-3
390
F
  0
ENDTAB
  0
TABLE
  2
STYLE
  5
3
100
AcDbSymbolTable
 70
1
  0
STYLE
  5
11
100
AcDbSymbolTableRecord
100
AcDbTextStyleTableRecord
  2
STANDARD
 70
0
 40
0.0
 41
1.0
 50
0.0
 71
0
 42
0.2
  3
ARIAL.TTF
  4

  0
STYLE
  5
20E
100
AcDbSymbolTableRecord
100
AcDbTextStyleTableRecord
  2
TEXTSTYLE_1
 70
0
 40
0.0
 41
0.8
 50
0.0
 71
0
 42
0.2
  3
gdt
  4

  0
ENDTAB
  0
TABLE
  2
VIEW
  5
6
100
AcDbSymbolTable
 70
0
  0
ENDTAB
  0
TABLE
  2
UCS
  5
7
100
AcDbSymbolTable
 70
0
  0
ENDTAB
  0
TABLE
  2
APPID
  5
9
100
AcDbSymbolTable
 70
1
  0
APPID
  5
20F
100
AcDbSymbolTableRecord
100
AcDbRegAppTableRecord
  2
ACAD
 70
0
  0
ENDTAB
  0
TABLE
  2
BLOCK_RECORD
  5
1
100
AcDbSymbolTable
 70
0
  0
BLOCK_RECORD
  5
210
100
AcDbSymbolTableRecord
100
AcDbBlockTableRecord
  2
*Model_Space
  0
BLOCK_RECORD
  5
211
100
AcDbSymbolTableRecord
100
AcDbBlockTableRecord
  2
*Paper_Space
  0
BLOCK_RECORD
  5
212
100
AcDbSymbolTableRecord
100
AcDbBlockTableRecord
  2
_FILLED
  0
ENDTAB
  0
TABLE
  2
DIMSTYLE
  5
A
100
AcDbSymbolTable
 70
1
100
AcDbDimStyleTable
 71
0
  0
DIMSTYLE
105
213
100
AcDbSymbolTableRecord
100
AcDbDimStyleTableRecord
  2
STANDARD
 70
0
  3

  4

 40
1.0
 41
2.4279624495
 42
1.0
 43
0.38
 44
1.0
 45
0.0
 46
0.0
 47
0.01
 48
0.01
140
3.3991474293
141
0.09
142
0.0
143
25.4
144
1.0
145
0.0
146
1.0
147
0.625
 71
1
 72
0
 73
0
 74
0
 75
0
 76
0
 77
1
 78
8
 79
2
170
0
171
1
172
0
173
0
174
0
175
0
176
0
177
0
178
0
270
2
179
2
271
2
272
2
273
2
274
2
275
0
280
0
281
0
282
0
283
1
284
8
285
0
286
0
287
3
288
0
340
11
278
46
341
212
342
212
343
212
344
212
  0
ENDTAB
  0
ENDSEC
  0
SECTION
  2
BLOCKS
  0
BLOCK
  5
20
100
AcDbEntity
  8
0
100
AcDbBlockBegin
  2
*Model_Space
 70
0
 10
0.0
 20
0.0
 30
0.0
  3
*Model_Space
  1

  0
ENDBLK
  5
21
100
AcDbEntity
  8
0
100
AcDbBlockEnd
  0
BLOCK
  5
1C
100
AcDbEntity
  8
0
100
AcDbBlockBegin
  2
*Paper_Space
 70
0
 10
0.0
 20
0.0
 30
0.0
  3
*Paper_Space
  1

  0
ENDBLK
  5
1D
100
AcDbEntity
  8
0
100
AcDbBlockEnd
  0
BLOCK
  5
214
100
AcDbEntity
  8
0
100
AcDbBlockBegin
  2
_FILLED
 70
64
 10
0.0
 20
0.0
  3
_FILLED
  1

  0
SOLID
  5
215
100
AcDbEntity
  8
0
  6
BYBLOCK
 62
0
100
AcDbTrace
 10
0.0
 20
0.0
 11
-1.0
 21
0.25
 12
-1.0
 22
-0.25
 13
-1.0
 23
-0.25
  0
ENDBLK
  5
216
100
AcDbEntity
  8
0
  6
BYBLOCK
 62
0
100
AcDbBlockEnd
  0
ENDSEC
  0
SECTION
  2
ENTITIES
  0
LINE
  5
217
100
AcDbEntity
  8
0
100
AcDbLine
 62
7
  6
BYLAYER
 10
22.3616233137
 20
148.3413943355
 11
22.3616233137
 21
149.5413943355
  0
LINE
  5
218
100
AcDbEntity
  8
0
100
AcDbLine
 62
7
  6
BYLAYER
 10
182.1616233137
 20
129.4413943355
 11
170.6616233137
 21
129.4413943355
  0
LINE
  5
219
100
AcDbEntity
  8
0
100
AcDbLine
 62
7
  6
BYLAYER
 10
182.7616233137
 20
133.0413943355
 11
170.0616233137
 21
133.0413943355
  0
LWPOLYLINE
  5
21A
100
AcDbEntity
  8
0
100
AcDbPolyline
 62
7
  6
BYLAYER
 90
4
 70
0
 10
132.928974175
 20
145.8923808032
 10
133.2375572572
 20
145.9758818947
 10
133.5056478827
 20
146.2740137152
 10
133.5800020262
 20
146.5054180233
  0
LWPOLYLINE
  5
21B
100
AcDbEntity
  8
0
100
AcDbPolyline
 62
7
  6
BYLAYER
 90
4
 70
0
 10
134.2295704471
 20
145.8943882932
 10
134.536943652
 20
145.9770750583
 10
134.8063562086
 20
146.2752976902
 10
134.8804373942
 20
146.5068208792
  0
LWPOLYLINE
  5
21C
100
AcDbEntity
  8
0
100
AcDbPolyline
 62
7
  6
BYLAYER
 90
4
 70
0
 10
130.3297939543
 20
145.8913975661
 10
130.6329730091
 20
145.9719525671
 10
130.9033725266
 20
146.267927945
 10
130.9796145078
 20
146.5046800804
  0
LWPOLYLINE
  5
21D
100
AcDbEntity
  8
0
100
AcDbPolyline
 62
7
  6
BYLAYER
 90
4
 70
0
 10
136.8295653632
 20
145.8914201705
 10
137.1322726285
 20
145.9716978998
 10
137.4015271593
 20
146.2643714396
 10
137.4903447527
 20
146.5323098799
  0
LWPOLYLINE
  5
21E
100
AcDbEntity
  8
0
100
AcDbPolyline
 62
7
  6
BYLAYER
 90
4
 70
0
 10
131.6289913653
 20
145.8932648321
 10
131.9286051197
 20
145.9716699597
 10
132.200145918
 20
146.2629765236
 10
132.2802001182
 20
146.5040256251
  0
LINE
  5
21F
100
AcDbEntity
  8
0
100
AcDbLine
 62
7
  6
BYLAYER
 10
170.0616233137
 20
133.6413943355
 11
182.7616233137
 21
133.6413943355
  0
LINE
  5
220
100
AcDbEntity
  8
0
100
AcDbLine
 62
7
  6
BYLAYER
 10
182.7616233137
 20
134.8413943355
 11
170.0616233137
 21
134.8413943355
  0
LINE
  5
221
100
AcDbEntity
  8
0
100
AcDbLine
 62
7
  6
BYLAYER
 10
170.0616233137
 20
135.9913943355
 11
182.7616233137
 21
135.9913943355
  0
LINE
  5
222
100
AcDbEntity
  8
0
100
AcDbLine
 62
7
  6
BYLAYER
 10
183.1116233137
 20
137.2913943355
 11
169.7116233137
 21
137.2913943355
  0
LINE
  5
223
100
AcDbEntity
  8
0
100
AcDbLine
 62
7
  6
BYLAYER
 10
116.0472961664
 20
151.9016394136
 11
116.0472210628
 21
151.9015933872
  0
LWPOLYLINE
  5
224
100
AcDbEntity
  8
0
100
AcDbPolyline
 62
7
  6
BYLAYER
 90
4
 70
0
 10
123.8300119736
 20
145.8914643066
 10
124.1380444796
 20
145.9747635248
 10
124.4061024956
 20
146.2734191431
 10
124.4798199946
 20
146.5054522069
  0
LWPOLYLINE
  5
225
100
AcDbEntity
  8
0
100
AcDbPolyline
 62
7
  6
BYLAYER
 90
4
 70
0
 10
118.62894259
 20
145.8926587971
 10
118.9365674154
 20
145.9755927914
 10
119.206249992
 20
146.2754506034
 10
119.2796570003
 20
146.5071557754
  0
LWPOLYLINE
  5
226
100
AcDbEntity
  8
0
100
AcDbPolyline
 62
7
  6
BYLAYER
 90
4
 70
0
 10
119.9296792684
 20
145.894420577
 10
120.236971004
 20
145.9770594269
 10
120.508909478
 20
146.2805444336
 10
120.5797029903
 20
146.5100928125
  0
LWPOLYLINE
  5
227
100
AcDbEntity
  8
0
100
AcDbPolyline
 62
7
  6
BYLAYER
 90
4
 70
0
 10
122.5293721602
 20
145.8915140855
 10
122.8336570547
 20
145.9726621093
 10
123.1029146015
 20
146.2675415856
 10
123.1796740186
 20
146.5015652959
  0
LWPOLYLINE
  5
228
100
AcDbEntity
  8
0
100
AcDbPolyline
 62
7
  6
BYLAYER
 90
4
 70
0
 10
129.0304594744
 20
145.8934097453
 10
129.3341534748
 20
145.9740841424
 10
129.6053176047
 20
146.2712604209
 10
129.6798459814
 20
146.503669181
  0
LWPOLYLINE
  5
229
100
AcDbEntity
  8
0
100
AcDbPolyline
 62
7
  6
BYLAYER
 90
4
 70
0
 10
121.230525693
 20
145.8928800848
 10
121.5336825536
 20
145.9732884199
 10
121.8071859632
 20
146.2749810968
 10
121.8794738996
 20
146.5064651189
  0
LWPOLYLINE
  5
22A
100
AcDbEntity
  8
0
100
AcDbPolyline
 62
7
  6
BYLAYER
 90
4
 70
0
 10
127.7294360959
 20
145.894053801
 10
128.0318336878
 20
145.9739555193
 10
128.3069077145
 20
146.276500022
 10
128.3794546892
 20
146.5088605398
  0
LWPOLYLINE
  5
22B
100
AcDbEntity
  8
0
100
AcDbPolyline
 62
7
  6
BYLAYER
 90
4
 70
0
 10
125.1289568233
 20
145.892965466
 10
125.4292098735
 20
145.971741511
 10
125.6999413648
 20
146.2624889207
 10
125.7806718631
 20
146.5027831748
  0
LWPOLYLINE
  5
22C
100
AcDbEntity
  8
0
100
AcDbPolyline
 62
7
  6
BYLAYER
 90
4
 70
0
 10
136.1805087727
 20
151.9909121606
 10
135.8846878117
 20
151.9144966451
 10
135.6042555807
 20
151.6097328399
 10
135.5306058983
 20
151.3748122848
  0
LWPOLYLINE
  5
22D
100
AcDbEntity
  8
0
100
AcDbPolyline
 62
7
  6
BYLAYER
 90
4
 70
0
 10
137.4791609289
 20
151.9906520418
 10
137.1840056684
 20
151.9145804684
 10
136.9039706642
 20
151.611017405
 10
136.8298240457
 20
151.3760103153
  0
LWPOLYLINE
  5
22E
100
AcDbEntity
  8
0
100
AcDbPolyline
 62
7
  6
BYLAYER
 90
4
 70
0
 10
133.5791645609
 20
151.9891127968
 10
133.2862539019
 20
151.914340845
 10
133.0047116938
 20
151.6122088453
 10
132.930834653
 20
151.376991326
  0
LWPOLYLINE
  5
22F
100
AcDbEntity
  8
0
100
AcDbPolyline
 62
7
  6
BYLAYER
 90
3
 70
0
 10
126.4298143731
 20
145.8944129654
 10
126.5139526628
 20
145.9004111332
 10
126.9119331038
 20
146.1244609176
  0
LWPOLYLINE
  5
230
100
AcDbEntity
  8
0
100
AcDbPolyline
 62
7
  6
BYLAYER
 90
5
 70
0
 10
135.5305097405
 20
145.8931181645
 10
135.6063921009
 20
145.8980050835
 10
136.0034488525
 20
146.1125858994
 10
136.1579593795
 20
146.4081925232
 10
136.1792730353
 20
146.5031769303
  0
LINE
  5
231
100
AcDbEntity
  8
0
100
AcDbLine
 62
7
  6
BYLAYER
 10
184.4116233137
 20
139.4413943355
 11
168.4116233137
 21
139.4413943355
  0
LINE
  5
232
100
AcDbEntity
  8
0
100
AcDbLine
 62
7
  6
BYLAYER
 10
153.7616233137
 20
139.9413943355
 11
168.4116233137
 21
139.9413943355
  0
LINE
  5
233
100
AcDbEntity
  8
0
100
AcDbLine
 62
7
  6
BYLAYER
 10
148.5616233137
 20
141.4413943355
 11
150.7616233137
 21
141.4413943355
  0
LINE
  5
234
100
AcDbEntity
  8
0
100
AcDbLine
 62
7
  6
BYLAYER
 10
152.3616233137
 20
141.4413943355
 11
152.8616233137
 21
141.4413943355
  0
LWPOLYLINE
  5
235
100
AcDbEntity
  8
0
100
AcDbPolyline
 62
7
  6
BYLAYER
 90
6
 70
0
 10
116.0469137401
 20
151.9022342938
 10
115.7191822801
 20
151.6471332748
 10
115.1790281578
 20
151.0604561954
 10
114.6232995975
 20
150.3782264209
 10
114.0023874141
 20
149.7867459873
 10
113.3616182626
 20
149.5410250597
  0
LWPOLYLINE
  5
236
100
AcDbEntity
  8
0
100
AcDbPolyline
 62
7
  6
BYLAYER
 90
5
 70
0
 10
113.361646632
 20
148.3417636748
 10
114.3914563883
 20
148.6172141677
 10
115.4846568457
 20
149.5416344177
 10
115.9049330308
 20
150.0479392191
 10
116.070755079
 20
150.2401930249
  0
LWPOLYLINE
  5
237
100
AcDbEntity
  8
0
100
AcDbPolyline
 62
7
  6
BYLAYER
 90
4
 70
0
 10
128.380168343
 20
151.9884869133
 10
128.0827916903
 20
151.9113690893
 10
127.8029519782
 20
151.6066629678
 10
127.7299681365
 20
151.3723657208
  0
LWPOLYLINE
  5
238
100
AcDbEntity
  8
0
100
AcDbPolyline
 62
7
  6
BYLAYER
 90
4
 70
0
 10
130.979147852
 20
151.9907876772
 10
130.6894507851
 20
151.917622965
 10
130.4085631783
 20
151.620472396
 10
130.3294742619
 20
151.3785406422
  0
LWPOLYLINE
  5
239
100
AcDbEntity
  8
0
100
AcDbPolyline
 62
7
  6
BYLAYER
 90
4
 70
0
 10
124.4792559648
 20
151.9910286101
 10
124.1897467901
 20
151.9179437328
 10
123.9085818413
 20
151.6203500118
 10
123.8289757602
 20
151.375914661
  0
LWPOLYLINE
  5
23A
100
AcDbEntity
  8
0
100
AcDbPolyline
 62
7
  6
BYLAYER
 90
4
 70
0
 10
121.8803991056
 20
151.9910875949
 10
121.5916029534
 20
151.9184111833
 10
121.3121887535
 20
151.6262161325
 10
121.2295022578
 20
151.3786242156
  0
LWPOLYLINE
  5
23B
100
AcDbEntity
  8
0
100
AcDbPolyline
 62
7
  6
BYLAYER
 90
4
 70
0
 10
132.2794939709
 20
151.9885939216
 10
131.9903900796
 20
151.9158887727
 10
131.7058121205
 20
151.613796286
 10
131.6310497566
 20
151.3759942975
  0
LWPOLYLINE
  5
23C
100
AcDbEntity
  8
0
100
AcDbPolyline
 62
7
  6
BYLAYER
 90
4
 70
0
 10
125.7793566109
 20
151.9887157802
 10
125.4921982966
 20
151.9170194244
 10
125.2110873812
 20
151.6247489502
 10
125.1310202431
 20
151.3838132093
  0
LWPOLYLINE
  5
23D
100
AcDbEntity
  8
0
100
AcDbPolyline
 62
7
  6
BYLAYER
 90
4
 70
0
 10
127.0804902874
 20
151.9889879305
 10
126.7935216601
 20
151.9174063662
 10
126.5144686212
 20
151.6297522693
 10
126.4285103963
 20
151.3811477703
  0
LWPOLYLINE
  5
23E
100
AcDbEntity
  8
0
100
AcDbPolyline
 62
7
  6
BYLAYER
 90
4
 70
0
 10
123.1806427986
 20
151.9903792455
 10
122.904245826
 20
151.9241275217
 10
122.6224455997
 20
151.6454153147
 10
122.5284115214
 20
151.3870865218
  0
LWPOLYLINE
  5
23F
100
AcDbEntity
  8
0
100
AcDbPolyline
 62
7
  6
BYLAYER
 90
6
 70
0
 10
117.9793275418
 20
151.9911696988
 10
117.7282658584
 20
151.9367976739
 10
117.4411055876
 20
151.6801568888
 10
117.3758683586
 20
151.5444266853
 10
117.3049540593
 20
151.2846933458
 10
117.2663202662
 20
151.0628457926
  0
LINE
  5
240
100
AcDbEntity
  8
0
100
AcDbLine
 62
7
  6
BYLAYER
 10
176.4116233137
 20
144.8182887099
 11
153.7616233137
 21
144.8182887099
  0
LINE
  5
241
100
AcDbEntity
  8
0
100
AcDbLine
 62
7
  6
BYLAYER
 10
113.3616228461
 20
148.3413943355
 11
22.3616233137
 21
148.3413943355
  0
LINE
  5
242
100
AcDbEntity
  8
0
100
AcDbLine
 62
7
  6
BYLAYER
 10
22.3616233137
 20
149.5413943355
 11
113.3616238114
 21
149.5413943355
  0
LINE
  5
243
100
AcDbEntity
  8
0
100
AcDbLine
 62
7
  6
BYLAYER
 10
125.1290376453
 20
145.8929654311
 11
125.1289172032
 21
145.8929654666
  0
LINE
  5
244
100
AcDbEntity
  8
0
100
AcDbLine
 62
7
  6
BYLAYER
 10
129.0306291173
 20
145.8934097141
 11
129.0304992733
 21
145.8934097476
  0
LINE
  5
245
100
AcDbEntity
  8
0
100
AcDbLine
 62
7
  6
BYLAYER
 10
127.7296051125
 20
145.8940537643
 11
127.7294740583
 21
145.8940538035
  0
LINE
  5
246
100
AcDbEntity
  8
0
100
AcDbLine
 62
7
  6
BYLAYER
 10
131.6290802964
 20
145.893264792
 11
131.6289617721
 21
145.8932648322
  0
LINE
  5
247
100
AcDbEntity
  8
0
100
AcDbLine
 62
7
  6
BYLAYER
 10
122.5294925108
 20
145.8915140259
 11
122.5293715641
 21
145.8915140855
  0
LINE
  5
248
100
AcDbEntity
  8
0
100
AcDbLine
 62
7
  6
BYLAYER
 10
118.6290274852
 20
145.8926587104
 11
118.6288990641
 21
145.8926587978
  0
LINE
  5
249
100
AcDbEntity
  8
0
100
AcDbLine
 62
7
  6
BYLAYER
 10
121.2306712283
 20
145.8928800074
 11
121.2305537963
 21
145.8928800861
  0
LINE
  5
24A
100
AcDbEntity
  8
0
100
AcDbLine
 62
7
  6
BYLAYER
 10
119.9298134179
 20
145.8944204861
 11
119.9296833093
 21
145.8944205771
  0
LINE
  5
24B
100
AcDbEntity
  8
0
100
AcDbLine
 62
7
  6
BYLAYER
 10
135.5306668156
 20
145.8931180904
 11
135.5305533508
 21
145.8931181671
  0
LINE
  5
24C
100
AcDbEntity
  8
0
100
AcDbLine
 62
7
  6
BYLAYER
 10
134.2296840051
 20
145.8943882052
 11
134.2295546013
 21
145.894388293
  0
LINE
  5
24D
100
AcDbEntity
  8
0
100
AcDbLine
 62
7
  6
BYLAYER
 10
136.8296630665
 20
145.891420091
 11
136.8295521736
 21
145.8914201704
  0
LINE
  5
24E
100
AcDbEntity
  8
0
100
AcDbLine
 62
7
  6
BYLAYER
 10
123.8301470713
 20
145.8914641987
 11
123.8300263616
 21
145.8914643071
  0
LINE
  5
24F
100
AcDbEntity
  8
0
100
AcDbLine
 62
7
  6
BYLAYER
 10
130.3299134352
 20
145.8913974658
 11
130.3297890521
 21
145.891397566
  0
LINE
  5
250
100
AcDbEntity
  8
0
100
AcDbLine
 62
7
  6
BYLAYER
 10
126.4299565658
 20
145.8944128332
 11
126.4298224478
 21
145.8944129656
  0
LINE
  5
251
100
AcDbEntity
  8
0
100
AcDbLine
 62
7
  6
BYLAYER
 10
132.9290635297
 20
145.8923806731
 11
132.9289455021
 21
145.8923808032
  0
LINE
  5
252
100
AcDbEntity
  8
0
100
AcDbLine
 62
7
  6
BYLAYER
 10
113.3616238117
 20
149.5413943355
 11
113.3616233034
 21
149.0559950621
  0
LWPOLYLINE
  5
253
100
AcDbEntity
  8
0
100
AcDbPolyline
 62
7
  6
BYLAYER
 90
5
 70
0
 10
134.8803101962
 20
151.9886272708
 10
134.8128570651
 20
151.9847690551
 10
134.4088877148
 20
151.7712585965
 10
134.2466713447
 20
151.4567763917
 10
134.2297935953
 20
151.3780092872
  0
LWPOLYLINE
  5
254
100
AcDbEntity
  8
0
100
AcDbPolyline
 62
7
  6
BYLAYER
 90
5
 70
0
 10
119.2792429415
 20
151.9889234237
 10
119.2142829939
 20
151.9853367697
 10
118.8091493716
 20
151.7728916835
 10
118.647808281
 20
151.462112187
 10
118.6302548526
 20
151.3801102071
  0
LWPOLYLINE
  5
255
100
AcDbEntity
  8
0
100
AcDbPolyline
 62
7
  6
BYLAYER
 90
5
 70
0
 10
120.580401251
 20
151.9887696439
 10
120.5161238063
 20
151.9852652783
 10
120.1125486238
 20
151.7754712893
 10
119.9514301946
 20
151.4722150632
 10
119.9298177762
 20
151.3749941975
  0
LWPOLYLINE
  5
256
100
AcDbEntity
  8
0
100
AcDbPolyline
 62
7
  6
BYLAYER
 90
5
 70
0
 10
129.6806095743
 20
151.9906517441
 10
129.6175213397
 20
151.9872711181
 10
129.2142308538
 20
151.7786218333
 10
129.057358552
 20
151.4902317484
 10
129.0303498167
 20
151.3762730626
  0
LINE
  5
257
100
AcDbEntity
  8
0
100
AcDbLine
 62
7
  6
BYLAYER
 10
117.9793275418
 20
151.9911696988
 11
117.9792466116
 21
151.9911695642
  0
LINE
  5
258
100
AcDbEntity
  8
0
100
AcDbLine
 62
7
  6
BYLAYER
 10
123.1806427986
 20
151.9903792455
 11
123.1805292825
 21
151.9903790876
  0
LINE
  5
259
100
AcDbEntity
  8
0
100
AcDbLine
 62
7
  6
BYLAYER
 10
133.5791645609
 20
151.9891127968
 11
133.579030978
 21
151.9891126704
  0
LINE
  5
25A
100
AcDbEntity
  8
0
100
AcDbLine
 62
7
  6
BYLAYER
 10
130.979147852
 20
151.9907876772
 11
130.9790251787
 21
151.990787556
  0
LINE
  5
25B
100
AcDbEntity
  8
0
100
AcDbLine
 62
7
  6
BYLAYER
 10
127.0804902874
 20
151.9889879305
 11
127.0803669553
 21
151.9889878104
  0
LINE
  5
25C
100
AcDbEntity
  8
0
100
AcDbLine
 62
7
  6
BYLAYER
 10
125.7793566109
 20
151.9887157802
 11
125.7792353703
 21
151.9887156662
  0
LINE
  5
25D
100
AcDbEntity
  8
0
100
AcDbLine
 62
7
  6
BYLAYER
 10
128.380168343
 20
151.9884869133
 11
128.3800267513
 21
151.9884868123
  0
LINE
  5
25E
100
AcDbEntity
  8
0
100
AcDbLine
 62
7
  6
BYLAYER
 10
136.1805087727
 20
151.9909121606
 11
136.180379227
 21
151.9909120903
  0
LINE
  5
25F
100
AcDbEntity
  8
0
100
AcDbLine
 62
7
  6
BYLAYER
 10
129.6806095743
 20
151.9906517441
 11
129.6804895265
 21
151.9906516785
  0
LINE
  5
260
100
AcDbEntity
  8
0
100
AcDbLine
 62
7
  6
BYLAYER
 10
124.4792559648
 20
151.9910286101
 11
124.4791419253
 21
151.9910285376
  0
LINE
  5
261
100
AcDbEntity
  8
0
100
AcDbLine
 62
7
  6
BYLAYER
 10
120.580401251
 20
151.9887696439
 11
120.5802799079
 21
151.9887695997
  0
LINE
  5
262
100
AcDbEntity
  8
0
100
AcDbLine
 62
7
  6
BYLAYER
 10
134.8803101962
 20
151.9886272708
 11
134.8801840756
 21
151.9886272437
  0
LINE
  5
263
100
AcDbEntity
  8
0
100
AcDbLine
 62
7
  6
BYLAYER
 10
132.2794939709
 20
151.9885939216
 11
132.2793876816
 21
151.9885939078
  0
LINE
  5
264
100
AcDbEntity
  8
0
100
AcDbLine
 62
7
  6
BYLAYER
 10
119.2792429415
 20
151.9889234237
 11
119.2791266112
 21
151.9889233997
  0
LINE
  5
265
100
AcDbEntity
  8
0
100
AcDbLine
 62
7
  6
BYLAYER
 10
121.8803991056
 20
151.9910875949
 11
121.8803003224
 21
151.991087587
  0
LINE
  5
266
100
AcDbEntity
  8
0
100
AcDbLine
 62
7
  6
BYLAYER
 10
137.4791609289
 20
151.9906520418
 11
137.4790537085
 21
151.990652045
  0
LINE
  5
267
100
AcDbEntity
  8
0
100
AcDbLine
 62
7
  6
BYLAYER
 10
116.376547074
 20
151.9909368659
 11
116.3753672521
 21
151.9909665328
  0
LWPOLYLINE
  5
268
100
AcDbEntity
  8
0
100
AcDbPolyline
 62
7
  6
BYLAYER
 90
3
 70
0
 10
117.7735375722
 20
148.1402367245
 10
117.8364786312
 20
147.4748346263
 10
117.8987096172
 20
146.9432651495
  0
LWPOLYLINE
  5
269
100
AcDbEntity
  8
0
100
AcDbPolyline
 62
7
  6
BYLAYER
 90
4
 70
0
 10
118.9681125958
 20
149.3731861895
 10
119.0506870878
 20
148.4011950114
 10
119.1084834644
 20
147.7584842012
 10
119.1677197556
 20
147.1905567005
  0
LWPOLYLINE
  5
26A
100
AcDbEntity
  8
0
100
AcDbPolyline
 62
7
  6
BYLAYER
 90
11
 70
0
 10
119.1412727962
 20
146.7663438113
 10
119.1413816621
 20
146.7684672165
 10
119.1114738091
 20
146.9167803982
 10
119.0711623426
 20
147.1966741417
 10
119.0267061669
 20
147.588957713
 10
118.979464241
 20
148.080052685
 10
118.9289465818
 20
148.6571876024
 10
118.8743336514
 20
149.3012159453
 10
118.8169901023
 20
149.9535805202
 10
118.7589629191
 20
150.5416330584
 10
118.7011582408
 20
151.0102820619
  0
LINE
  5
26B
100
AcDbEntity
  8
0
100
AcDbLine
 62
7
  6
BYLAYER
 10
118.9838993958
 20
149.2003468918
 11
118.9260670356
 21
148.6850573396
  0
LINE
  5
26C
100
AcDbEntity
  8
0
100
AcDbLine
 62
7
  6
BYLAYER
 10
118.9837945293
 20
149.1891902434
 11
118.9263843245
 21
148.6874032729
  0
LWPOLYLINE
  5
26D
100
AcDbEntity
  8
0
100
AcDbPolyline
 62
7
  6
BYLAYER
 90
3
 70
0
 10
117.2663299013
 20
151.064106793
 10
117.2221518127
 20
150.733695428
 10
117.2125749444
 20
150.6463377943
  0
LINE
  5
26E
100
AcDbEntity
  8
0
100
AcDbLine
 62
7
  6
BYLAYER
 10
117.2661444063
 20
151.0628729147
 11
117.2663299013
 21
151.064106793
  0
LINE
  5
26F
100
AcDbEntity
  8
0
100
AcDbLine
 62
7
  6
BYLAYER
 10
138.2816233112
 20
151.8813943336
 11
138.0124156186
 21
151.6794885641
  0
LINE
  5
270
100
AcDbEntity
  8
0
100
AcDbLine
 62
7
  6
BYLAYER
 10
152.8616233137
 20
156.4413943355
 11
152.3616233137
 21
156.4413943355
  0
LINE
  5
271
100
AcDbEntity
  8
0
100
AcDbLine
 62
7
  6
BYLAYER
 10
150.7616233137
 20
156.4413943355
 11
148.5616233137
 21
156.4413943355
  0
LINE
  5
272
100
AcDbEntity
  8
0
100
AcDbLine
 62
7
  6
BYLAYER
 10
153.7616233137
 20
156.9153246347
 11
176.4116233137
 21
156.9153246347
  0
LINE
  5
273
100
AcDbEntity
  8
0
100
AcDbLine
 62
7
  6
BYLAYER
 10
184.4116233137
 20
157.9413943355
 11
153.7616233137
 21
157.9413943355
  0
LINE
  5
274
100
AcDbEntity
  8
0
100
AcDbLine
 62
7
  6
BYLAYER
 10
127.7294740583
 20
145.8940538035
 11
127.7116233274
 21
145.9052101372
  0
LWPOLYLINE
  5
275
100
AcDbEntity
  8
0
100
AcDbPolyline
 62
7
  6
BYLAYER
 90
3
 70
0
 10
127.2570393014
 20
146.1127726349
 10
127.4303770048
 20
145.972180743
 10
127.7296051125
 20
145.8940537643
  0
LWPOLYLINE
  5
276
100
AcDbEntity
  8
0
100
AcDbPolyline
 62
7
  6
BYLAYER
 90
3
 70
0
 10
116.9728653773
 20
151.5809893722
 10
116.6758892293
 20
151.9070153321
 10
116.376547074
 20
151.9909368659
  0
LWPOLYLINE
  5
277
100
AcDbEntity
  8
0
100
AcDbPolyline
 62
7
  6
BYLAYER
 90
8
 70
0
 10
120.4406559092
 20
146.7684724419
 10
120.4421363511
 20
146.7645004007
 10
120.4266070191
 20
146.8324658572
 10
120.3884741654
 20
147.0664902
 10
120.3436381667
 20
147.4316423179
 10
120.2945537624
 20
147.9163632734
 10
120.241146154
 20
148.5139508756
 10
120.1520882
 20
149.5606879145
  0
LWPOLYLINE
  5
278
100
AcDbEntity
  8
0
100
AcDbPolyline
 62
7
  6
BYLAYER
 90
7
 70
0
 10
118.7678865661
 20
151.1160980702
 10
118.7668330288
 20
151.1190291369
 10
118.7858666446
 20
151.0359058277
 10
118.8243871271
 20
150.793661623
 10
118.8688849985
 20
150.4244493249
 10
118.9169021585
 20
149.9460783228
 10
118.9681125958
 20
149.3731861895
  0
LINE
  5
279
100
AcDbEntity
  8
0
100
AcDbLine
 62
7
  6
BYLAYER
 10
115.9112594361
 20
151.0419918146
 11
115.9235814309
 21
151.0071992622
  0
LWPOLYLINE
  5
27A
100
AcDbEntity
  8
0
100
AcDbPolyline
 62
7
  6
BYLAYER
 90
7
 70
0
 10
117.7476347308
 20
146.8041437207
 10
117.7373261668
 20
146.8374482549
 10
117.6897208876
 20
147.0505817239
 10
117.6294780377
 20
147.4129197121
 10
117.5627215233
 20
147.9006406324
 10
117.4905965352
 20
148.4909967684
 10
117.3728504327
 20
149.4853231843
  0
LWPOLYLINE
  5
27B
100
AcDbEntity
  8
0
100
AcDbPolyline
 62
7
  6
BYLAYER
 90
6
 70
0
 10
115.9235814309
 20
151.0071992622
 10
115.981683397
 20
150.7712939759
 10
116.0562866064
 20
150.343789017
 10
116.1375485023
 20
149.7619441342
 10
116.2219499578
 20
149.0743093891
 10
116.3502394663
 20
147.9887451034
  0
LWPOLYLINE
  5
27C
100
AcDbEntity
  8
0
100
AcDbPolyline
 62
7
  6
BYLAYER
 90
7
 70
0
 10
117.4672860009
 20
151.1174522003
 10
117.4705398845
 20
151.1041894348
 10
117.5050294909
 20
150.9250703607
 10
117.5501939181
 20
150.5908985423
 10
117.599935656
 20
150.1230932233
 10
117.653450173
 20
149.5410655141
 10
117.7735375722
 20
148.1402367245
  0
LWPOLYLINE
  5
27D
100
AcDbEntity
  8
0
100
AcDbPolyline
 62
7
  6
BYLAYER
 90
5
 70
0
 10
119.22897571
 20
146.739172538
 10
119.2999292954
 20
146.4143500826
 10
119.4615942651
 20
146.108118277
 10
119.8656413511
 20
145.897915554
 10
119.9298134179
 20
145.8944204861
  0
LWPOLYLINE
  5
27E
100
AcDbEntity
  8
0
100
AcDbPolyline
 62
7
  6
BYLAYER
 90
3
 70
0
 10
117.1980338103
 20
150.7424756365
 10
117.0985797113
 20
151.2242564553
 10
116.9728653773
 20
151.5809893722
  0
LWPOLYLINE
  5
27F
100
AcDbEntity
  8
0
100
AcDbPolyline
 62
7
  6
BYLAYER
 90
5
 70
0
 10
118.7011582408
 20
151.0102820619
 10
118.6407501412
 20
151.3485768619
 10
118.5501646336
 20
151.6207431831
 10
118.2796570844
 20
151.9122083279
 10
117.9792602887
 20
151.991169564
  0
LWPOLYLINE
  5
280
100
AcDbEntity
  8
0
100
AcDbPolyline
 62
7
  6
BYLAYER
 90
5
 70
0
 10
117.8987096172
 20
146.9432651495
 10
117.9614332991
 20
146.566643182
 10
118.0533821547
 20
146.2729273825
 10
118.3333855411
 20
145.9689683251
 10
118.6290274852
 20
145.8926587104
  0
LINE
  5
281
100
AcDbEntity
  8
0
100
AcDbLine
 62
7
  6
BYLAYER
 10
119.1677197556
 20
147.1905567005
 11
119.22897571
 21
146.739172538
  0
LWPOLYLINE
  5
282
100
AcDbEntity
  8
0
100
AcDbPolyline
 62
7
  6
BYLAYER
 90
7
 70
0
 10
116.3502394663
 20
147.9887451034
 10
116.4357311351
 20
147.3359192992
 10
116.5194885125
 20
146.8212848154
 10
116.6090113252
 20
146.449136304
 10
116.7845137181
 20
146.1159777565
 10
117.1951041085
 20
145.8978344298
 10
117.2649542346
 20
145.8937479713
  0
LWPOLYLINE
  5
283
100
AcDbEntity
  8
0
100
AcDbPolyline
 62
7
  6
BYLAYER
 90
3
 70
0
 10
117.3728504327
 20
149.4853231843
 10
117.2883271039
 20
150.1455069014
 10
117.1980338103
 20
150.7424756365
  0
LWPOLYLINE
  5
284
100
AcDbEntity
  8
0
100
AcDbPolyline
 62
7
  6
BYLAYER
 90
7
 70
0
 10
125.6416835618
 20
146.7651597822
 10
125.6413699706
 20
146.768298115
 10
125.6132548997
 20
146.9062692548
 10
125.5747965453
 20
147.1684261573
 10
125.5325511582
 20
147.5330437317
 10
125.4876835386
 20
147.9902404239
 10
125.4403864083
 20
148.5235359211
  0
LWPOLYLINE
  5
285
100
AcDbEntity
  8
0
100
AcDbPolyline
 62
7
  6
BYLAYER
 90
3
 70
0
 10
125.5743135261
 20
148.1307503314
 10
125.639284945
 20
147.4492907838
 10
125.7016296772
 20
146.9213045874
  0
LWPOLYLINE
  5
286
100
AcDbEntity
  8
0
100
AcDbPolyline
 62
7
  6
BYLAYER
 90
3
 70
0
 10
124.0353381923
 20
149.7507220915
 10
123.9716637385
 20
150.4221570276
 10
123.9112262718
 20
150.937212385
  0
LWPOLYLINE
  5
287
100
AcDbEntity
  8
0
100
AcDbPolyline
 62
7
  6
BYLAYER
 90
3
 70
0
 10
120.1520882
 20
149.5606879145
 10
120.0907160818
 20
150.2312491585
 10
120.0317713143
 20
150.7779463227
  0
LWPOLYLINE
  5
288
100
AcDbEntity
  8
0
100
AcDbPolyline
 62
7
  6
BYLAYER
 90
3
 70
0
 10
120.3589255311
 20
148.3063350341
 10
120.415740924
 20
147.6840031552
 10
120.473911484
 20
147.136805072
  0
LWPOLYLINE
  5
289
100
AcDbEntity
  8
0
100
AcDbPolyline
 62
7
  6
BYLAYER
 90
4
 70
0
 10
121.5413594087
 20
148.5113443161
 10
121.4544186441
 20
149.5334281345
 10
121.3937180565
 20
150.2017580896
 10
121.3344976918
 20
150.7547160664
  0
LWPOLYLINE
  5
28A
100
AcDbEntity
  8
0
100
AcDbPolyline
 62
7
  6
BYLAYER
 90
5
 70
0
 10
122.8684601056
 20
149.3680329929
 10
122.9417340801
 20
148.5061164235
 10
122.9937239348
 20
147.9171627059
 10
123.0488169886
 20
147.3580317141
 10
123.107308737
 20
146.8805499272
  0
LWPOLYLINE
  5
28B
100
AcDbEntity
  8
0
100
AcDbPolyline
 62
7
  6
BYLAYER
 90
5
 70
0
 10
125.4403864083
 20
148.5235359211
 10
125.3637368955
 20
149.4250979035
 10
125.30816561
 20
150.0487517617
 10
125.2511523189
 20
150.6125547429
 10
125.1944869458
 20
151.0555665892
  0
LINE
  5
28C
100
AcDbEntity
  8
0
100
AcDbLine
 62
7
  6
BYLAYER
 10
125.4839472478
 20
149.2008367708
 11
125.4257123278
 21
148.6818664571
  0
LINE
  5
28D
100
AcDbEntity
  8
0
100
AcDbLine
 62
7
  6
BYLAYER
 10
126.7831258269
 20
149.1941047584
 11
126.7260148589
 21
148.6848153168
  0
LINE
  5
28E
100
AcDbEntity
  8
0
100
AcDbLine
 62
7
  6
BYLAYER
 10
122.8832511613
 20
149.1951619478
 11
122.8261932173
 21
148.6871128068
  0
LINE
  5
28F
100
AcDbEntity
  8
0
100
AcDbLine
 62
7
  6
BYLAYER
 10
124.1842070979
 20
149.2028970343
 11
124.1255572088
 21
148.6811728435
  0
LINE
  5
290
100
AcDbEntity
  8
0
100
AcDbLine
 62
7
  6
BYLAYER
 10
125.4835610983
 20
149.1893887646
 11
125.4263845248
 21
148.6877808932
  0
LINE
  5
291
100
AcDbEntity
  8
0
100
AcDbLine
 62
7
  6
BYLAYER
 10
122.8840308835
 20
149.1856015938
 11
122.8490023724
 21
148.8895503261
  0
LWPOLYLINE
  5
292
100
AcDbEntity
  8
0
100
AcDbPolyline
 62
7
  6
BYLAYER
 90
3
 70
0
 10
126.7835062461
 20
149.1918512407
 10
126.7768097674
 20
149.1376552263
 10
126.7256861559
 20
148.695504673
  0
LWPOLYLINE
  5
293
100
AcDbEntity
  8
0
100
AcDbPolyline
 62
7
  6
BYLAYER
 90
11
 70
0
 10
123.0414646437
 20
146.7667576935
 10
123.0416833578
 20
146.768214958
 10
123.014606008
 20
146.8984251638
 10
122.9763359277
 20
147.1554624618
 10
122.9328037889
 20
147.5308325856
 10
122.8849749964
 20
148.0203450459
 10
122.8327132815
 20
148.6129285465
 10
122.7757607285
 20
149.2840063822
 10
122.7162287237
 20
149.9623102051
 10
122.657251553
 20
150.5577313972
 10
122.5998541188
 20
151.0182756961
  0
LWPOLYLINE
  5
294
100
AcDbEntity
  8
0
100
AcDbPolyline
 62
7
  6
BYLAYER
 90
3
 70
0
 10
126.9119331038
 20
146.1244609176
 10
127.0680048079
 20
146.4424710088
 10
127.0792907099
 20
146.4975171932
  0
LWPOLYLINE
  5
295
100
AcDbEntity
  8
0
100
AcDbPolyline
 62
7
  6
BYLAYER
 90
7
 70
0
 10
135.6686516116
 20
151.1151453818
 10
135.6677666299
 20
151.1154707105
 10
135.6949280213
 20
150.9846338819
 10
135.7322095314
 20
150.7350672797
 10
135.7736314205
 20
150.3820842721
 10
135.8176439448
 20
149.938182583
 10
135.8641910433
 20
149.4174890931
  0
LINE
  5
296
100
AcDbEntity
  8
0
100
AcDbLine
 62
7
  6
BYLAYER
 10
127.2454732092
 20
146.1266800013
 11
127.2570467205
 21
146.1127848045
  0
LINE
  5
297
100
AcDbEntity
  8
0
100
AcDbLine
 62
7
  6
BYLAYER
 10
127.2074893505
 20
146.1786471524
 11
127.2454732092
 21
146.1266800013
  0
LWPOLYLINE
  5
298
100
AcDbEntity
  8
0
100
AcDbPolyline
 62
7
  6
BYLAYER
 90
7
 70
0
 10
121.7400515131
 20
146.7713772212
 10
121.7418578858
 20
146.7667253945
 10
121.7270069813
 20
146.8312339655
 10
121.6879824876
 20
147.0685893781
 10
121.6424064806
 20
147.442593131
 10
121.5936229842
 20
147.9274018141
 10
121.5413594087
 20
148.5113443161
  0
LWPOLYLINE
  5
299
100
AcDbEntity
  8
0
100
AcDbPolyline
 62
7
  6
BYLAYER
 90
8
 70
0
 10
120.0674980278
 20
151.1188082497
 10
120.0663494818
 20
151.1220315851
 10
120.0867939503
 20
151.0302198414
 10
120.1280656015
 20
150.7653416202
 10
120.1747077871
 20
150.3712646782
 10
120.2244130164
 20
149.8659554897
 10
120.2766225667
 20
149.2732517685
 10
120.3589255311
 20
148.3063350341
  0
LWPOLYLINE
  5
29A
100
AcDbEntity
  8
0
100
AcDbPolyline
 62
7
  6
BYLAYER
 90
11
 70
0
 10
121.3665693065
 20
151.1203898166
 10
121.3699278364
 20
151.1070704258
 10
121.4000894874
 20
150.9544912408
 10
121.4394689719
 20
150.6787283124
 10
121.4831449851
 20
150.2912730529
 10
121.5298103352
 20
149.8060042378
 10
121.5794191768
 20
149.2402872257
 10
121.6318839827
 20
148.6217965095
 10
121.6866751484
 20
147.9941628712
 10
121.7434530562
 20
147.4081140702
 10
121.8025093003
 20
146.9149712726
  0
LWPOLYLINE
  5
29B
100
AcDbEntity
  8
0
100
AcDbPolyline
 62
7
  6
BYLAYER
 90
7
 70
0
 10
122.6667594557
 20
151.1204397011
 10
122.6692403314
 20
151.1102691643
 10
122.6980371585
 20
150.9665558291
 10
122.7363066948
 20
150.7030628298
 10
122.778304486
 20
150.3379822217
 10
122.8223989275
 20
149.8872033945
 10
122.8684601056
 20
149.3680329929
  0
LWPOLYLINE
  5
29C
100
AcDbEntity
  8
0
100
AcDbPolyline
 62
7
  6
BYLAYER
 90
7
 70
0
 10
124.3422740227
 20
146.7652378701
 10
124.3395672167
 20
146.7765420167
 10
124.3062752269
 20
146.947335946
 10
124.261494797
 20
147.2743415992
 10
124.2117168799
 20
147.7387820905
 10
124.1582243154
 20
148.3182845509
 10
124.0353381923
 20
149.7507220915
  0
LWPOLYLINE
  5
29D
100
AcDbEntity
  8
0
100
AcDbPolyline
 62
7
  6
BYLAYER
 90
5
 70
0
 10
119.9737580257
 20
151.1846738627
 10
119.9052894576
 20
151.4812347824
 10
119.7492528812
 20
151.7730069802
 10
119.350799587
 20
151.9845683766
 10
119.2791598625
 20
151.9889234
  0
LWPOLYLINE
  5
29E
100
AcDbEntity
  8
0
100
AcDbPolyline
 62
7
  6
BYLAYER
 90
5
 70
0
 10
120.534486698
 20
146.7065478753
 10
120.605239568
 20
146.3991418759
 10
120.7679865152
 20
146.1005991061
 10
121.1691503337
 20
145.8960942721
 10
121.2306712283
 20
145.8928800074
  0
LWPOLYLINE
  5
29F
100
AcDbEntity
  8
0
100
AcDbPolyline
 62
7
  6
BYLAYER
 90
5
 70
0
 10
121.276376745
 20
151.1683124831
 10
121.2084376411
 20
151.4731348181
 10
121.0516546599
 20
151.7713112165
 10
120.6558981533
 20
151.9839155185
 10
120.5802484472
 20
151.9887696013
  0
LWPOLYLINE
  5
2A0
100
AcDbEntity
  8
0
100
AcDbPolyline
 62
7
  6
BYLAYER
 90
11
 70
0
 10
123.9679559242
 20
151.1156790377
 10
123.9691106216
 20
151.1098298761
 10
123.9987399385
 20
150.9635047489
 10
124.0379224176
 20
150.6914146465
 10
124.0810352042
 20
150.3108459285
 10
124.1270279193
 20
149.8362108966
 10
124.175979782
 20
149.2810973692
 10
124.2281745484
 20
148.665628903
 10
124.2835149036
 20
148.0284115229
 10
124.3413148187
 20
147.4285186761
 10
124.4011952919
 20
146.9252571595
  0
LWPOLYLINE
  5
2A1
100
AcDbEntity
  8
0
100
AcDbPolyline
 62
7
  6
BYLAYER
 90
5
 70
0
 10
122.5998541188
 20
151.0182756961
 10
122.5399918303
 20
151.3524186164
 10
122.4494108923
 20
151.6235902607
 10
122.1722169936
 20
151.9167249854
 10
121.8802860992
 20
151.9910875875
  0
LWPOLYLINE
  5
2A2
100
AcDbEntity
  8
0
100
AcDbPolyline
 62
7
  6
BYLAYER
 90
5
 70
0
 10
123.107308737
 20
146.8805499272
 10
123.1691388409
 20
146.5328762316
 10
123.2623428406
 20
146.2558705164
 10
123.540793858
 20
145.9644626928
 10
123.8301470713
 20
145.8914641987
  0
LWPOLYLINE
  5
2A3
100
AcDbEntity
  8
0
100
AcDbPolyline
 62
7
  6
BYLAYER
 90
5
 70
0
 10
121.8025093003
 20
146.9149712726
 10
121.8648064425
 20
146.5518934535
 10
121.9573518095
 20
146.2652601358
 10
122.2349864722
 20
145.9672859475
 10
122.5294925108
 20
145.8915140259
  0
LWPOLYLINE
  5
2A4
100
AcDbEntity
  8
0
100
AcDbPolyline
 62
7
  6
BYLAYER
 90
5
 70
0
 10
125.7016296772
 20
146.9213045874
 10
125.7637234108
 20
146.5546797855
 10
125.8586204813
 20
146.2641024368
 10
126.1387993562
 20
145.968180409
 10
126.4299565658
 20
145.8944128332
  0
LWPOLYLINE
  5
2A5
100
AcDbEntity
  8
0
100
AcDbPolyline
 62
7
  6
BYLAYER
 90
5
 70
0
 10
124.4011952919
 20
146.9252571595
 10
124.4635970898
 20
146.5563597733
 10
124.5549623682
 20
146.2696550175
 10
124.8301181895
 20
145.9710436795
 10
125.1290376453
 20
145.8929654311
  0
LWPOLYLINE
  5
2A6
100
AcDbEntity
  8
0
100
AcDbPolyline
 62
7
  6
BYLAYER
 90
5
 70
0
 10
123.9112262718
 20
150.937212385
 10
123.8506006471
 20
151.3044819522
 10
123.7618228722
 20
151.5977383727
 10
123.4903995925
 20
151.9061025137
 10
123.1804892886
 20
151.99037909
  0
LINE
  5
2A7
100
AcDbEntity
  8
0
100
AcDbLine
 62
7
  6
BYLAYER
 10
120.0317713143
 20
150.7779463227
 11
119.9737580257
 21
151.1846738627
  0
LINE
  5
2A8
100
AcDbEntity
  8
0
100
AcDbLine
 62
7
  6
BYLAYER
 10
120.473911484
 20
147.136805072
 11
120.534486698
 21
146.7065478753
  0
LINE
  5
2A9
100
AcDbEntity
  8
0
100
AcDbLine
 62
7
  6
BYLAYER
 10
121.3344976918
 20
150.7547160664
 11
121.276376745
 21
151.1683124831
  0
LWPOLYLINE
  5
2AA
100
AcDbEntity
  8
0
100
AcDbPolyline
 62
7
  6
BYLAYER
 90
3
 70
0
 10
127.9380301668
 20
149.7208955352
 10
127.8762702207
 20
150.3769420759
 10
127.8138666623
 20
150.9174332886
  0
LWPOLYLINE
  5
2AB
100
AcDbEntity
  8
0
100
AcDbPolyline
 62
7
  6
BYLAYER
 90
3
 70
0
 10
126.6518546726
 20
149.5634349155
 10
126.5905680286
 20
150.2328646414
 10
126.5317785488
 20
150.7777174653
  0
LWPOLYLINE
  5
2AC
100
AcDbEntity
  8
0
100
AcDbPolyline
 62
7
  6
BYLAYER
 90
4
 70
0
 10
128.0678445004
 20
149.3758387481
 10
128.1523477311
 20
148.3819062211
 10
128.2114345111
 20
147.7285770566
 10
128.2711679267
 20
147.1602697248
  0
LWPOLYLINE
  5
2AD
100
AcDbEntity
  8
0
100
AcDbPolyline
 62
7
  6
BYLAYER
 90
4
 70
0
 10
129.3375497863
 20
148.5555146359
 10
129.2561008374
 20
149.5141412481
 10
129.1981611148
 20
150.1555343773
 10
129.1384770736
 20
150.7213120952
  0
LWPOLYLINE
  5
2AE
100
AcDbEntity
  8
0
100
AcDbPolyline
 62
7
  6
BYLAYER
 90
5
 70
0
 10
129.3682956373
 20
149.3699287281
 10
129.4409792918
 20
148.5150448986
 10
129.4922883984
 20
147.9327295445
 10
129.5463375687
 20
147.3810795148
 10
129.6042533291
 20
146.9021916858
  0
LWPOLYLINE
  5
2AF
100
AcDbEntity
  8
0
100
AcDbPolyline
 62
7
  6
BYLAYER
 90
4
 70
0
 10
130.6711011548
 20
149.3380551802
 10
130.7530876128
 20
148.3740678554
 10
130.8102531313
 20
147.7394940471
 10
130.8692211553
 20
147.177177931
  0
LWPOLYLINE
  5
2B0
100
AcDbEntity
  8
0
100
AcDbPolyline
 62
7
  6
BYLAYER
 90
5
 70
0
 10
126.7490280873
 20
149.5919085151
 10
126.8331048751
 20
148.6066169402
 10
126.8957001367
 20
147.8958183106
 10
126.9595885038
 20
147.2606435108
 10
127.0210500534
 20
146.7881669349
  0
LWPOLYLINE
  5
2B1
100
AcDbEntity
  8
0
100
AcDbPolyline
 62
7
  6
BYLAYER
 90
5
 70
0
 10
130.6442802312
 20
148.4782962743
 10
130.571985387
 20
149.3282309372
 10
130.5208533952
 20
149.9119257967
 10
130.4662137867
 20
150.4742476157
 10
130.4074376012
 20
150.9648394174
  0
LINE
  5
2B2
100
AcDbEntity
  8
0
100
AcDbLine
 62
7
  6
BYLAYER
 10
131.983261978
 20
149.1948416704
 11
131.9264859367
 21
148.6886800913
  0
LINE
  5
2B3
100
AcDbEntity
  8
0
100
AcDbLine
 62
7
  6
BYLAYER
 10
129.3836702519
 20
149.1987510674
 11
129.3256264935
 21
148.6818224053
  0
LINE
  5
2B4
100
AcDbEntity
  8
0
100
AcDbLine
 62
7
  6
BYLAYER
 10
129.3832073189
 20
149.1952960924
 11
129.3258394509
 21
148.6931818841
  0
LINE
  5
2B5
100
AcDbEntity
  8
0
100
AcDbLine
 62
7
  6
BYLAYER
 10
131.9839614822
 20
149.1859727548
 11
131.9256715171
 21
148.6960064499
  0
LWPOLYLINE
  5
2B6
100
AcDbEntity
  8
0
100
AcDbPolyline
 62
7
  6
BYLAYER
 90
7
 70
0
 10
130.8413144705
 20
146.7675425552
 10
130.8415344902
 20
146.7690136759
 10
130.8141242103
 20
146.9009569272
 10
130.7760333754
 20
147.1575056364
 10
130.7341200761
 20
147.5185883031
 10
130.6901090769
 20
147.9649648573
 10
130.6442802312
 20
148.4782962743
  0
LINE
  5
2B7
100
AcDbEntity
  8
0
100
AcDbLine
 62
7
  6
BYLAYER
 10
137.3616233137
 20
146.6913943355
 11
138.2816233112
 21
146.0013943374
  0
LWPOLYLINE
  5
2B8
100
AcDbEntity
  8
0
100
AcDbPolyline
 62
7
  6
BYLAYER
 90
8
 70
0
 10
126.9403632907
 20
146.7694558235
 10
126.9419270411
 20
146.7653015294
 10
126.9269383892
 20
146.8307170322
 10
126.8888079754
 20
147.0639485632
 10
126.8437589795
 20
147.4306396551
 10
126.794461536
 20
147.9174720872
 10
126.740880583
 20
148.516963398
 10
126.6518546726
 20
149.5634349155
  0
LWPOLYLINE
  5
2B9
100
AcDbEntity
  8
0
100
AcDbPolyline
 62
7
  6
BYLAYER
 90
7
 70
0
 10
129.5414754858
 20
146.7675987862
 10
129.5426933726
 20
146.7642782652
 10
129.5236983413
 20
146.8473770859
 10
129.4834695443
 20
147.1017068357
 10
129.4376714867
 20
147.4864466788
 10
129.3888421689
 20
147.9783073861
 10
129.3375497863
 20
148.5555146359
  0
LWPOLYLINE
  5
2BA
100
AcDbEntity
  8
0
100
AcDbPolyline
 62
7
  6
BYLAYER
 90
7
 70
0
 10
130.4672482848
 20
151.1174512183
 10
130.4661473431
 20
151.1204925809
 10
130.4855752249
 20
151.0361027641
 10
130.5255180999
 20
150.7861285639
 10
130.5709759011
 20
150.4059056237
 10
130.6195875863
 20
149.9167791459
 10
130.6711011548
 20
149.3380551802
  0
LWPOLYLINE
  5
2BB
100
AcDbEntity
  8
0
100
AcDbPolyline
 62
7
  6
BYLAYER
 90
7
 70
0
 10
127.8672203602
 20
151.1193304584
 10
127.8664175728
 20
151.1216445756
 10
127.8863070078
 20
151.03313195
 10
127.9242377613
 20
150.7936621419
 10
127.9680388301
 20
150.4325735191
 10
128.0158066458
 20
149.9585568865
 10
128.0678445004
 20
149.3758387481
  0
LWPOLYLINE
  5
2BC
100
AcDbEntity
  8
0
100
AcDbPolyline
 62
7
  6
BYLAYER
 90
7
 70
0
 10
125.2682058149
 20
151.1154273811
 10
125.2714685191
 20
151.1021469706
 10
125.304831738
 20
150.9269854195
 10
125.3496762274
 20
150.5938194093
 10
125.399463268
 20
150.1279357095
 10
125.4530751062
 20
149.5463394994
 10
125.5743135261
 20
148.1307503314
  0
LWPOLYLINE
  5
2BD
100
AcDbEntity
  8
0
100
AcDbPolyline
 62
7
  6
BYLAYER
 90
7
 70
0
 10
129.1668230819
 20
151.1200819655
 10
129.1692037277
 20
151.1102155853
 10
129.1980765089
 20
150.9663365901
 10
129.2363331021
 20
150.7030632711
 10
129.2783645262
 20
150.3373926978
 10
129.3224330607
 20
149.8867066047
 10
129.3682956373
 20
149.3699287281
  0
LWPOLYLINE
  5
2BE
100
AcDbEntity
  8
0
100
AcDbPolyline
 62
7
  6
BYLAYER
 90
5
 70
0
 10
126.4740773771
 20
151.182890782
 10
126.4058907599
 20
151.4795633535
 10
126.2528315741
 20
151.768812012
 10
125.8605978777
 20
151.9831064548
 10
125.779253912
 20
151.9887156661
  0
LWPOLYLINE
  5
2BF
100
AcDbEntity
  8
0
100
AcDbPolyline
 62
7
  6
BYLAYER
 90
7
 70
0
 10
128.2429076587
 20
146.7638210118
 10
128.2244398448
 20
146.8441740571
 10
128.1871419151
 20
147.0745577585
 10
128.1439982548
 20
147.4279627729
 10
128.097652701
 20
147.8848057254
 10
128.0483512136
 20
148.4306640882
 10
127.9380301668
 20
149.7208955352
  0
LWPOLYLINE
  5
2C0
100
AcDbEntity
  8
0
100
AcDbPolyline
 62
7
  6
BYLAYER
 90
6
 70
0
 10
126.5678360008
 20
151.1179750244
 10
126.5704541678
 20
151.1064654112
 10
126.6046146883
 20
150.9268302785
 10
126.6491010806
 20
150.598756227
 10
126.6977281389
 20
150.1467303008
 10
126.7490280873
 20
149.5919085151
  0
LWPOLYLINE
  5
2C1
100
AcDbEntity
  8
0
100
AcDbPolyline
 62
7
  6
BYLAYER
 90
5
 70
0
 10
128.3311626076
 20
146.7256269968
 10
128.4007799604
 20
146.413138771
 10
128.557626176
 20
146.1127372609
 10
128.9632950305
 20
145.8972546176
 10
129.0306291173
 20
145.8934097141
  0
LWPOLYLINE
  5
2C2
100
AcDbEntity
  8
0
100
AcDbPolyline
 62
7
  6
BYLAYER
 90
5
 70
0
 10
129.0788712353
 20
151.1538750099
 10
129.0113665479
 20
151.4632829259
 10
128.8627971195
 20
151.7575916458
 10
128.4619676329
 20
151.9827954035
 10
128.3800160433
 20
151.9884868127
  0
LWPOLYLINE
  5
2C3
100
AcDbEntity
  8
0
100
AcDbPolyline
 62
7
  6
BYLAYER
 90
5
 70
0
 10
130.9290910487
 20
146.7398084454
 10
130.9971772827
 20
146.4229456421
 10
131.1592635445
 20
146.1091225798
 10
131.5641438542
 20
145.8968500304
 10
131.6290802964
 20
145.893264792
  0
LWPOLYLINE
  5
2C4
100
AcDbEntity
  8
0
100
AcDbPolyline
 62
7
  6
BYLAYER
 90
3
 70
0
 10
127.0210500534
 20
146.7881669349
 10
127.0854530864
 20
146.4667638803
 10
127.2074893505
 20
146.1786471524
  0
LWPOLYLINE
  5
2C5
100
AcDbEntity
  8
0
100
AcDbPolyline
 62
7
  6
BYLAYER
 90
5
 70
0
 10
125.1944869458
 20
151.0555665892
 10
125.1357540349
 20
151.3699923835
 10
125.0493394962
 20
151.6222891361
 10
124.7830677572
 20
151.9101308861
 10
124.479171034
 20
151.9910285377
  0
LWPOLYLINE
  5
2C6
100
AcDbEntity
  8
0
100
AcDbPolyline
 62
7
  6
BYLAYER
 90
5
 70
0
 10
129.6042533291
 20
146.9021916858
 10
129.66678512
 20
146.5431980791
 10
129.7607574403
 20
146.2587894057
 10
130.0396331072
 20
145.9649134986
 10
130.3299134352
 20
145.8913974658
  0
LWPOLYLINE
  5
2C7
100
AcDbEntity
  8
0
100
AcDbPolyline
 62
7
  6
BYLAYER
 90
5
 70
0
 10
130.4074376012
 20
150.9648394174
 10
130.3456535355
 20
151.3274572984
 10
130.2562823009
 20
151.6096319881
 10
129.9843689104
 20
151.9097618649
 10
129.6804534006
 20
151.9906516805
  0
LWPOLYLINE
  5
2C8
100
AcDbEntity
  8
0
100
AcDbPolyline
 62
7
  6
BYLAYER
 90
5
 70
0
 10
127.8138666623
 20
150.9174332886
 10
127.7510584031
 20
151.3033863174
 10
127.6599484378
 20
151.6013773849
 10
127.3886410853
 20
151.9057320003
 10
127.0803402073
 20
151.9889878117
  0
LINE
  5
2C9
100
AcDbEntity
  8
0
100
AcDbLine
 62
7
  6
BYLAYER
 10
126.5317785488
 20
150.7777174653
 11
126.4740773771
 21
151.182890782
  0
LINE
  5
2CA
100
AcDbEntity
  8
0
100
AcDbLine
 62
7
  6
BYLAYER
 10
128.2711679267
 20
147.1602697248
 11
128.3311626076
 21
146.7256269968
  0
LINE
  5
2CB
100
AcDbEntity
  8
0
100
AcDbLine
 62
7
  6
BYLAYER
 10
129.1384770736
 20
150.7213120952
 11
129.0788712353
 21
151.1538750099
  0
LINE
  5
2CC
100
AcDbEntity
  8
0
100
AcDbLine
 62
7
  6
BYLAYER
 10
130.8692211553
 20
147.177177931
 11
130.9290910487
 21
146.7398084454
  0
LWPOLYLINE
  5
2CD
100
AcDbEntity
  8
0
100
AcDbPolyline
 62
7
  6
BYLAYER
 90
3
 70
0
 10
132.1069396558
 20
147.7742647415
 10
132.1624216147
 20
147.2353722663
 10
132.2175180245
 20
146.8130287161
  0
LWPOLYLINE
  5
2CE
100
AcDbEntity
  8
0
100
AcDbPolyline
 62
7
  6
BYLAYER
 90
3
 70
0
 10
133.3545127668
 20
148.3569225499
 10
133.4126429366
 20
147.7149870902
 10
133.4719464764
 20
147.1545990991
  0
LINE
  5
2CF
100
AcDbEntity
  8
0
100
AcDbLine
 62
7
  6
BYLAYER
 10
131.9819233849
 20
148.0528345143
 11
131.9317322843
 21
148.6244992474
  0
LINE
  5
2D0
100
AcDbEntity
  8
0
100
AcDbLine
 62
7
  6
BYLAYER
 10
132.0366632594
 20
148.5652196247
 11
132.1069396558
 21
147.7742647415
  0
LINE
  5
2D1
100
AcDbEntity
  8
0
100
AcDbLine
 62
7
  6
BYLAYER
 10
133.271514874
 20
149.3336219426
 11
133.3545127668
 21
148.3569225499
  0
LWPOLYLINE
  5
2D2
100
AcDbEntity
  8
0
100
AcDbPolyline
 62
7
  6
BYLAYER
 90
4
 70
0
 10
134.5657454803
 20
149.4001069903
 10
134.6512141449
 20
148.3951269839
 10
134.7134608287
 20
147.7075712645
 10
134.7757305782
 20
147.1217571645
  0
LWPOLYLINE
  5
2D3
100
AcDbEntity
  8
0
100
AcDbPolyline
 62
7
  6
BYLAYER
 90
5
 70
0
 10
135.8641910433
 20
149.4174890931
 10
135.9395919164
 20
148.5313633594
 10
135.9933376987
 20
147.9212096462
 10
136.0496849419
 20
147.3497670493
 10
136.1077892285
 20
146.8776804952
  0
LWPOLYLINE
  5
2D4
100
AcDbEntity
  8
0
100
AcDbPolyline
 62
7
  6
BYLAYER
 90
5
 70
0
 10
131.9317322843
 20
148.6244992474
 10
131.8782674421
 20
149.25529749
 10
131.821386637
 20
149.9054693182
 10
131.7626804109
 20
150.5066924467
 10
131.7040606051
 20
150.9905133931
  0
LWPOLYLINE
  5
2D5
100
AcDbEntity
  8
0
100
AcDbPolyline
 62
7
  6
BYLAYER
 90
5
 70
0
 10
133.2607615993
 20
148.288775151
 10
133.1848907356
 20
149.177691402
 10
133.1217959408
 20
149.9019289454
 10
133.0614815337
 20
150.5167528862
 10
133.0031355122
 20
150.9964835486
  0
LWPOLYLINE
  5
2D6
100
AcDbEntity
  8
0
100
AcDbPolyline
 62
7
  6
BYLAYER
 90
4
 70
0
 10
134.5468426165
 20
148.4479819784
 10
134.4629010946
 20
149.4354912357
 10
134.4033550092
 20
150.0999956192
 10
134.3429129075
 20
150.6839997268
  0
LINE
  5
2D7
100
AcDbEntity
  8
0
100
AcDbLine
 62
7
  6
BYLAYER
 10
134.583109885
 20
149.1939167343
 11
134.5262497502
 21
148.6867754919
  0
LINE
  5
2D8
100
AcDbEntity
  8
0
100
AcDbLine
 62
7
  6
BYLAYER
 10
135.8832033595
 20
149.1945281416
 11
135.82585964
 21
148.6839228668
  0
LINE
  5
2D9
100
AcDbEntity
  8
0
100
AcDbLine
 62
7
  6
BYLAYER
 10
134.5838489758
 20
149.1878813464
 11
134.5256455338
 21
148.6959340377
  0
LWPOLYLINE
  5
2DA
100
AcDbEntity
  8
0
100
AcDbPolyline
 62
7
  6
BYLAYER
 90
3
 70
0
 10
135.8833846384
 20
149.1933589366
 10
135.8800870595
 20
149.1668805507
 10
135.8256867482
 20
148.6951646377
  0
LINE
  5
2DB
100
AcDbEntity
  8
0
100
AcDbLine
 62
7
  6
BYLAYER
 10
137.4903447527
 20
146.5323098799
 11
137.5002148883
 21
146.5874506546
  0
LINE
  5
2DC
100
AcDbEntity
  8
0
100
AcDbLine
 62
7
  6
BYLAYER
 10
137.3410065898
 20
146.7681205018
 11
137.3414153285
 21
146.7693553746
  0
LWPOLYLINE
  5
2DD
100
AcDbEntity
  8
0
100
AcDbPolyline
 62
7
  6
BYLAYER
 90
4
 70
0
 10
138.0124156186
 20
151.6794885641
 10
137.9405474133
 20
151.7841214935
 10
137.5483715853
 20
151.9865727347
 10
137.4790916682
 20
151.9906520456
  0
LWPOLYLINE
  5
2DE
100
AcDbEntity
  8
0
100
AcDbPolyline
 62
7
  6
BYLAYER
 90
11
 70
0
 10
136.0392646326
 20
146.7732950317
 10
136.0411873854
 20
146.7698893287
 10
136.0132197551
 20
146.9046585436
 10
135.9743606578
 20
147.1709117405
 10
135.9311475859
 20
147.5478389848
 10
135.8846177502
 20
148.0240630342
 10
135.8345926701
 20
148.5900428774
 10
135.7809076214
 20
149.2237186371
 10
135.7244248464
 20
149.873318776
 10
135.6661248768
 20
150.4739598038
 10
135.6073073695
 20
150.9657221025
  0
LWPOLYLINE
  5
2DF
100
AcDbEntity
  8
0
100
AcDbPolyline
 62
7
  6
BYLAYER
 90
7
 70
0
 10
134.740983878
 20
146.7674453877
 10
134.7423389944
 20
146.7637733166
 10
134.7258409359
 20
146.836426231
 10
134.6880959188
 20
147.0693108084
 10
134.6447672226
 20
147.4213640894
 10
134.5976706224
 20
147.883322973
 10
134.5468426165
 20
148.4479819784
  0
LWPOLYLINE
  5
2E0
100
AcDbEntity
  8
0
100
AcDbPolyline
 62
7
  6
BYLAYER
 90
7
 70
0
 10
134.3682240167
 20
151.1167614499
 10
134.3668539822
 20
151.1205096785
 10
134.383505921
 20
151.0473224736
 10
134.4214821981
 20
150.8134842443
 10
134.4659442236
 20
150.4517575242
 10
134.5142103968
 20
149.9755540005
 10
134.5657454803
 20
149.4001069903
  0
LWPOLYLINE
  5
2E1
100
AcDbEntity
  8
0
100
AcDbPolyline
 62
7
  6
BYLAYER
 90
7
 70
0
 10
133.0678345382
 20
151.1161128626
 10
133.0667776773
 20
151.1190494963
 10
133.0862171085
 20
151.0340032472
 10
133.1259910192
 20
150.7820037625
 10
133.1712960847
 20
150.4022298912
 10
133.2198088506
 20
149.9148979038
 10
133.271514874
 20
149.3336219426
  0
LWPOLYLINE
  5
2E2
100
AcDbEntity
  8
0
100
AcDbPolyline
 62
7
  6
BYLAYER
 90
7
 70
0
 10
133.444325647
 20
146.758268366
 10
133.4432232417
 20
146.7620025797
 10
133.4195073693
 20
146.8713639006
 10
133.3837286316
 20
147.1009967856
 10
133.3437264762
 20
147.4293905642
 10
133.3021810759
 20
147.8359050557
 10
133.2607615993
 20
148.288775151
  0
LWPOLYLINE
  5
2E3
100
AcDbEntity
  8
0
100
AcDbPolyline
 62
7
  6
BYLAYER
 90
5
 70
0
 10
132.2452213099
 20
146.6483247029
 10
132.3087028127
 20
146.3864426444
 10
132.4662944476
 20
146.1004954665
 10
132.8720860342
 20
145.8951456505
 10
132.9290635297
 20
145.8923806731
  0
LWPOLYLINE
  5
2E4
100
AcDbEntity
  8
0
100
AcDbPolyline
 62
7
  6
BYLAYER
 90
8
 70
0
 10
131.7687222851
 20
151.1142970842
 10
131.7731017313
 20
151.0957337496
 10
131.8104013657
 20
150.8907465281
 10
131.8332891991
 20
150.7261738106
 10
131.8828284974
 20
150.292944159
 10
131.9361592381
 20
149.7368827388
 10
131.9924364094
 20
149.0883011466
 10
132.0366830392
 20
148.5651937808
  0
LWPOLYLINE
  5
2E5
100
AcDbEntity
  8
0
100
AcDbPolyline
 62
7
  6
BYLAYER
 90
5
 70
0
 10
134.8362631457
 20
146.6961998815
 10
134.9064257391
 20
146.3954064917
 10
135.0706594067
 20
146.0978176788
 10
135.4705830166
 20
145.8961822996
 10
135.5306668156
 20
145.8931180904
  0
LWPOLYLINE
  5
2E6
100
AcDbEntity
  8
0
100
AcDbPolyline
 62
7
  6
BYLAYER
 90
6
 70
0
 10
132.1423649355
 20
146.7632727362
 10
132.1404102515
 20
146.7717647711
 10
132.1116343341
 20
146.9156809342
 10
132.0725710384
 20
147.1859293681
 10
132.0289529129
 20
147.5674200765
 10
131.9819233849
 20
148.0528345143
  0
LWPOLYLINE
  5
2E7
100
AcDbEntity
  8
0
100
AcDbPolyline
 62
7
  6
BYLAYER
 90
5
 70
0
 10
133.5315613478
 20
146.7237741721
 10
133.6010584206
 20
146.4105020699
 10
133.7607952874
 20
146.1088850542
 10
134.165510731
 20
145.8978856581
 10
134.2296840051
 20
145.8943882052
  0
LWPOLYLINE
  5
2E8
100
AcDbEntity
  8
0
100
AcDbPolyline
 62
7
  6
BYLAYER
 90
5
 70
0
 10
134.2821425195
 20
151.1350287496
 10
134.2129268468
 20
151.4562972686
 10
134.0607619025
 20
151.7594677402
 10
133.6621396775
 20
151.9832628066
 10
133.5790702466
 20
151.9891126707
  0
LWPOLYLINE
  5
2E9
100
AcDbEntity
  8
0
100
AcDbPolyline
 62
7
  6
BYLAYER
 90
5
 70
0
 10
136.1077892285
 20
146.8776804952
 10
136.168792573
 20
146.5342658449
 10
136.2637879918
 20
146.252474416
 10
136.5444661886
 20
145.9622766135
 10
136.8296630665
 20
145.891420091
  0
LWPOLYLINE
  5
2EA
100
AcDbEntity
  8
0
100
AcDbPolyline
 62
7
  6
BYLAYER
 90
5
 70
0
 10
131.7040606051
 20
150.9905133931
 10
131.642883371
 20
151.339443374
 10
131.5555276247
 20
151.6092623062
 10
131.288790306
 20
151.906592891
 10
130.9790549666
 20
151.990787556
  0
LWPOLYLINE
  5
2EB
100
AcDbEntity
  8
0
100
AcDbPolyline
 62
7
  6
BYLAYER
 90
5
 70
0
 10
133.0031355122
 20
150.9964835486
 10
132.9429182697
 20
151.3411222577
 10
132.8464925619
 20
151.6273528115
 10
132.5695164489
 20
151.9153668074
 10
132.2794009477
 20
151.9885939077
  0
LWPOLYLINE
  5
2EC
100
AcDbEntity
  8
0
100
AcDbPolyline
 62
7
  6
BYLAYER
 90
5
 70
0
 10
135.6073073695
 20
150.9657221025
 10
135.5463992471
 20
151.3256435541
 10
135.4538178347
 20
151.6138731494
 10
135.1808269254
 20
151.9096841536
 10
134.8801573954
 20
151.9886272449
  0
LINE
  5
2ED
100
AcDbEntity
  8
0
100
AcDbLine
 62
7
  6
BYLAYER
 10
132.2175180245
 20
146.8130287161
 11
132.2452213099
 21
146.6483247029
  0
LINE
  5
2EE
100
AcDbEntity
  8
0
100
AcDbLine
 62
7
  6
BYLAYER
 10
134.7757305782
 20
147.1217571645
 11
134.8362631457
 21
146.6961998815
  0
LINE
  5
2EF
100
AcDbEntity
  8
0
100
AcDbLine
 62
7
  6
BYLAYER
 10
133.4719464764
 20
147.1545990991
 11
133.5315613478
 21
146.7237741721
  0
LINE
  5
2F0
100
AcDbEntity
  8
0
100
AcDbLine
 62
7
  6
BYLAYER
 10
134.3429129075
 20
150.6839997268
 11
134.2821425195
 21
151.1350287496
  0
LINE
  5
2F1
100
AcDbEntity
  8
0
100
AcDbLine
 62
7
  6
BYLAYER
 10
137.3616233137
 20
146.6913943355
 11
137.3616233137
 21
151.1913943355
  0
LINE
  5
2F2
100
AcDbEntity
  8
0
100
AcDbLine
 62
7
  6
BYLAYER
 10
138.2816233112
 20
151.8813943336
 11
138.2816233112
 21
146.0017770387
  0
LINE
  5
2F3
100
AcDbEntity
  8
0
100
AcDbLine
 62
7
  6
BYLAYER
 10
138.3616233137
 20
145.5812236006
 11
138.3616233137
 21
152.3015650704
  0
LINE
  5
2F4
100
AcDbEntity
  8
0
100
AcDbLine
 62
7
  6
BYLAYER
 10
137.5616233074
 20
151.7541130658
 11
137.4791609289
 21
151.9906520418
  0
LWPOLYLINE
  5
2F5
100
AcDbEntity
  8
0
100
AcDbPolyline
 62
7
  6
BYLAYER
 90
10
 70
0
 10
137.3414153285
 20
146.7693553746
 10
137.3124265686
 20
146.9109032141
 10
137.2735065889
 20
147.1772317282
 10
137.2303415147
 20
147.5544022614
 10
137.1839992245
 20
148.0310238629
 10
137.1344002996
 20
148.5931603242
 10
137.0813424245
 20
149.2183265627
 10
137.0254788655
 20
149.8607423164
 10
136.9673875533
 20
150.4631271292
 10
136.9081610728
 20
150.9598109041
  0
LWPOLYLINE
  5
2F6
100
AcDbEntity
  8
0
100
AcDbPolyline
 62
7
  6
BYLAYER
 90
5
 70
0
 10
136.9081610728
 20
150.9598109041
 10
136.8470222998
 20
151.3209702527
 10
136.7580548846
 20
151.6056952062
 10
136.4879181965
 20
151.9079366549
 10
136.1803606352
 20
151.9909120911
  0
LINE
  5
2F7
100
AcDbEntity
  8
0
100
AcDbLine
 62
7
  6
BYLAYER
 10
145.9422485853
 20
144.1913943355
 11
145.9422485853
 21
153.6913943355
  0
LINE
  5
2F8
100
AcDbEntity
  8
0
100
AcDbLine
 62
7
  6
BYLAYER
 10
147.4616233137
 20
142.5413943355
 11
147.4616233137
 21
155.3413943355
  0
LINE
  5
2F9
100
AcDbEntity
  8
0
100
AcDbLine
 62
7
  6
BYLAYER
 10
148.5616233137
 20
141.4413943355
 11
148.5616233137
 21
156.4413943355
  0
LINE
  5
2FA
100
AcDbEntity
  8
0
100
AcDbLine
 62
7
  6
BYLAYER
 10
150.7616233137
 20
156.4413943355
 11
150.7616233137
 21
141.44150318
  0
LINE
  5
2FB
100
AcDbEntity
  8
0
100
AcDbLine
 62
7
  6
BYLAYER
 10
150.9616233137
 20
156.2413943133
 11
150.9616233137
 21
141.6415002997
  0
LINE
  5
2FC
100
AcDbEntity
  8
0
100
AcDbLine
 62
7
  6
BYLAYER
 10
152.1616233137
 20
141.6413943579
 11
152.1616233137
 21
156.2411805252
  0
LINE
  5
2FD
100
AcDbEntity
  8
0
100
AcDbLine
 62
7
  6
BYLAYER
 10
152.3616233137
 20
141.4413943355
 11
152.3616233137
 21
156.4411746903
  0
LINE
  5
2FE
100
AcDbEntity
  8
0
100
AcDbLine
 62
7
  6
BYLAYER
 10
152.8616233137
 20
156.4413943355
 11
152.8616233137
 21
141.4413943355
  0
LINE
  5
2FF
100
AcDbEntity
  8
0
100
AcDbLine
 62
7
  6
BYLAYER
 10
153.7616233137
 20
139.9414019127
 11
153.7616233137
 21
157.9413099521
  0
LINE
  5
300
100
AcDbEntity
  8
0
100
AcDbLine
 62
7
  6
BYLAYER
 10
168.4116233137
 20
139.9413943355
 11
168.4116233137
 21
139.4413943355
  0
LINE
  5
301
100
AcDbEntity
  8
0
100
AcDbLine
 62
7
  6
BYLAYER
 10
169.7116233137
 20
139.4413943355
 11
169.7116233137
 21
137.2913943355
  0
LINE
  5
302
100
AcDbEntity
  8
0
100
AcDbLine
 62
7
  6
BYLAYER
 10
170.0616233137
 20
135.9913943355
 11
170.0616233137
 21
134.8413943355
  0
LINE
  5
303
100
AcDbEntity
  8
0
100
AcDbLine
 62
7
  6
BYLAYER
 10
170.0616233137
 20
133.6413943355
 11
170.0616233137
 21
133.0413943355
  0
LINE
  5
304
100
AcDbEntity
  8
0
100
AcDbLine
 62
7
  6
BYLAYER
 10
170.6616233137
 20
133.0413943355
 11
170.6616233137
 21
129.4413943355
  0
LINE
  5
305
100
AcDbEntity
  8
0
100
AcDbLine
 62
7
  6
BYLAYER
 10
170.8116233137
 20
134.8413943355
 11
170.8116233137
 21
133.6413943355
  0
LINE
  5
306
100
AcDbEntity
  8
0
100
AcDbLine
 62
7
  6
BYLAYER
 10
170.9116233137
 20
137.2913943355
 11
170.9116233137
 21
135.9913943355
  0
LINE
  5
307
100
AcDbEntity
  8
0
100
AcDbLine
 62
7
  6
BYLAYER
 10
176.4116233137
 20
156.9153246347
 11
176.4116233137
 21
144.8182887099
  0
LINE
  5
308
100
AcDbEntity
  8
0
100
AcDbLine
 62
7
  6
BYLAYER
 10
181.9116233137
 20
135.9913943355
 11
181.9116233137
 21
137.2913943355
  0
LINE
  5
309
100
AcDbEntity
  8
0
100
AcDbLine
 62
7
  6
BYLAYER
 10
182.0116233137
 20
133.6413943355
 11
182.0116233137
 21
134.8413943355
  0
LINE
  5
30A
100
AcDbEntity
  8
0
100
AcDbLine
 62
7
  6
BYLAYER
 10
182.1616233137
 20
129.4413943355
 11
182.1616233137
 21
133.0413943355
  0
LINE
  5
30B
100
AcDbEntity
  8
0
100
AcDbLine
 62
7
  6
BYLAYER
 10
182.7616233137
 20
133.0413943355
 11
182.7616233137
 21
133.6413943355
  0
LINE
  5
30C
100
AcDbEntity
  8
0
100
AcDbLine
 62
7
  6
BYLAYER
 10
182.7616233137
 20
134.8413943355
 11
182.7616233137
 21
135.9913943355
  0
LINE
  5
30D
100
AcDbEntity
  8
0
100
AcDbLine
 62
7
  6
BYLAYER
 10
183.1116233137
 20
137.2913943355
 11
183.1116233137
 21
139.4413943355
  0
LINE
  5
30E
100
AcDbEntity
  8
0
100
AcDbLine
 62
7
  6
BYLAYER
 10
184.4116233137
 20
139.4413943355
 11
184.4116233137
 21
157.9413943355
  0
ARC
  5
30F
100
AcDbEntity
  8
0
100
AcDbCircle
 62
7
  6
BYLAYER
 10
96.3389902376
 20
148.2906899201
 40
20.4602011638
100
AcDbArc
 50
7.2852757886
 51
7.4293067829
  0
ARC
  5
310
100
AcDbEntity
  8
0
100
AcDbCircle
 62
7
  6
BYLAYER
 10
142.3453749428
 20
151.9413943355
 40
4.0
100
AcDbArc
 50
25.9444797723
 51
174.8339373416
  0
ARC
  5
311
100
AcDbEntity
  8
0
100
AcDbCircle
 62
7
  6
BYLAYER
 10
142.3453749428
 20
145.9413943355
 40
4.0
100
AcDbArc
 50
185.1660626584
 51
334.0555202277
  0
ARC
  5
312
100
AcDbEntity
  8
0
100
AcDbCircle
 62
7
  6
BYLAYER
 10
140.8089154094
 20
149.7814562706
 40
3.5205857419
100
AcDbArc
 50
168.2427540063
 51
168.6255217179
  0
ARC
  5
313
100
AcDbEntity
  8
0
100
AcDbCircle
 62
7
  6
BYLAYER
 10
140.0756777068
 20
149.9361827344
 40
2.7712044272
100
AcDbArc
 50
167.0690094469
 51
168.2855864726
  0
ARC
  5
314
100
AcDbEntity
  8
0
100
AcDbCircle
 62
7
  6
BYLAYER
 10
122.7893093854
 20
146.6054166189
 40
1.7376235456
100
AcDbArc
 50
83.9754573146
 51
87.6516817062
  0
ARC
  5
315
100
AcDbEntity
  8
0
100
AcDbCircle
 62
7
  6
BYLAYER
 10
148.5616233137
 20
155.3413943355
 40
1.1
100
AcDbArc
 50
90.0
 51
180.0
  0
ARC
  5
316
100
AcDbEntity
  8
0
100
AcDbCircle
 62
7
  6
BYLAYER
 10
148.5616233137
 20
142.5413943355
 40
1.1
100
AcDbArc
 50
180.0
 51
270.0
  0
ARC
  5
317
100
AcDbEntity
  8
0
100
AcDbCircle
 62
7
  6
BYLAYER
 10
146.6616233137
 20
154.0413943355
 40
0.8
100
AcDbArc
 50
205.9444797724
 51
360.0
  0
ARC
  5
318
100
AcDbEntity
  8
0
100
AcDbCircle
 62
7
  6
BYLAYER
 10
146.6616233137
 20
143.8413943355
 40
0.8
100
AcDbArc
 50
0.0
 51
154.0555202276
  0
ARC
  5
319
100
AcDbEntity
  8
0
100
AcDbCircle
 62
7
  6
BYLAYER
 10
116.3766739743
 20
151.4076697696
 40
0.6215100392
100
AcDbArc
 50
212.4126870804
 51
222.7962124184
  0
ARC
  5
31A
100
AcDbEntity
  8
0
100
AcDbCircle
 62
7
  6
BYLAYER
 10
151.5616233137
 20
155.9413943355
 40
0.6
100
AcDbArc
 50
180.0
 51
360.0
  0
ARC
  5
31B
100
AcDbEntity
  8
0
100
AcDbCircle
 62
7
  6
BYLAYER
 10
151.5616233137
 20
141.9413943355
 40
0.6
100
AcDbArc
 50
0.0
 51
180.0
  0
ARC
  5
31C
100
AcDbEntity
  8
0
100
AcDbCircle
 62
7
  6
BYLAYER
 10
127.6916883765
 20
146.4862475135
 40
0.5730648336
100
AcDbArc
 50
220.6710021648
 51
225.8946090695
  0
ARC
  5
31D
100
AcDbEntity
  8
0
100
AcDbCircle
 62
7
  6
BYLAYER
 10
116.3616163508
 20
151.4211023698
 40
0.5700300441
100
AcDbArc
 50
88.6177131355
 51
89.9970709083
  0
ARC
  5
31E
100
AcDbEntity
  8
0
100
AcDbCircle
 62
7
  6
BYLAYER
 10
117.6737235776
 20
151.0019841505
 40
0.412102217
100
AcDbArc
 50
171.5046876099
 51
179.9632063129
  0
ARC
  5
31F
100
AcDbEntity
  8
0
100
AcDbCircle
 62
7
  6
BYLAYER
 10
152.3616233137
 20
156.2413943355
 40
0.2
100
AcDbArc
 50
90.0
 51
180.0
  0
ARC
  5
320
100
AcDbEntity
  8
0
100
AcDbCircle
 62
7
  6
BYLAYER
 10
152.3616233137
 20
141.6413943355
 40
0.2
100
AcDbArc
 50
180.0
 51
270.0
  0
ARC
  5
321
100
AcDbEntity
  8
0
100
AcDbCircle
 62
7
  6
BYLAYER
 10
150.7616233137
 20
156.2413943355
 40
0.2
100
AcDbArc
 50
0.0
 51
90.0
  0
ARC
  5
322
100
AcDbEntity
  8
0
100
AcDbCircle
 62
7
  6
BYLAYER
 10
150.7616233137
 20
141.6413943355
 40
0.2
100
AcDbArc
 50
270.0
 51
360.0
  0
ARC
  5
323
100
AcDbEntity
  8
0
100
AcDbCircle
 62
7
  6
BYLAYER
 10
138.1616233137
 20
152.0413943355
 40
0.2
100
AcDbArc
 50
306.8698976458
 51
359.9999983275
  0
ARC
  5
324
100
AcDbEntity
  8
0
100
AcDbCircle
 62
7
  6
BYLAYER
 10
138.1616233137
 20
145.8413943355
 40
0.2
100
AcDbArc
 50
0.0000016725
 51
53.1301023542
  0
ARC
  5
325
100
AcDbEntity
  8
0
100
AcDbCircle
 62
7
  6
BYLAYER
 10
116.360873359
 20
151.9584371926
 40
0.0326735734
100
AcDbArc
 50
84.9432869167
 51
88.6772885691
  0
SPLINE
  5
326
100
AcDbEntity
  8
0
100
AcDbSpline
 62
7
  6
BYLAYER
 70
0
 71
3
 72
9
 73
5
 74
0
 42
0.0000001
 43
0.0000001
 44
0.0000000001
 40
0.0
 40
0.0
 40
0.0
 40
0.0
 40
0.4906552842
 40
1.0
 40
1.0
 40
1.0
 40
1.0
 10
136.9746842313
 20
151.0878427849
 30
0.0
 10
136.9954761235
 20
150.9979105264
 30
0.0
 10
137.0880008358
 20
150.8228271122
 30
0.0
 10
137.254416899
 20
150.7179897144
 30
0.0
 10
137.3446020709
 20
150.6856140175
 30
0.0
  0
SPLINE
  5
327
100
AcDbEntity
  8
0
100
AcDbSpline
 62
7
  6
BYLAYER
 70
0
 71
3
 72
9
 73
5
 74
0
 42
0.0000001
 43
0.0000001
 44
0.0000000001
 40
0.0
 40
0.0
 40
0.0
 40
0.0
 40
0.4998429175
 40
1.0
 40
1.0
 40
1.0
 40
1.0
 10
116.87083613
 20
151.7080573197
 30
0.0
 10
116.819417798
 20
151.7913007537
 30
0.0
 10
116.6716627255
 20
151.9334327997
 30
0.0
 10
116.4744182962
 20
151.9883724988
 30
0.0
 10
116.3765470736
 20
151.9909368513
 30
0.0
  0
SPLINE
  5
328
100
AcDbEntity
  8
0
100
AcDbSpline
 62
7
  6
BYLAYER
 70
0
 71
3
 72
9
 73
5
 74
0
 42
0.0000001
 43
0.0000001
 44
0.0000000001
 40
0.0
 40
0.0
 40
0.0
 40
0.0
 40
0.499198357
 40
1.0
 40
1.0
 40
1.0
 40
1.0
 10
116.361645491
 20
151.991102064
 30
0.0
 10
116.306743373
 20
151.9911353635
 30
0.0
 10
116.196188173
 20
151.9757271553
 30
0.0
 10
116.0943007621
 20
151.9304065236
 30
0.0
 10
116.047333314
 20
151.9016368277
 30
0.0
  0
SPLINE
  5
329
100
AcDbEntity
  8
0
100
AcDbSpline
 62
7
  6
BYLAYER
 70
0
 71
3
 72
11
 73
7
 74
0
 42
0.0000001
 43
0.0000001
 44
0.0000000001
 40
0.0
 40
0.0
 40
0.0
 40
0.0
 40
0.2496442604
 40
0.4997746757
 40
0.7498375434
 40
1.0
 40
1.0
 40
1.0
 40
1.0
 10
116.0472581825
 20
151.9015907988
 30
0.0
 10
115.9806940733
 20
151.86080415
 30
0.0
 10
115.862840574
 20
151.7510477245
 30
0.0
 10
115.7623690914
 20
151.5326236216
 30
0.0
 10
115.7546198879
 20
151.2919738426
 30
0.0
 10
115.811337181
 20
151.1413678512
 30
0.0
 10
115.8519894465
 20
151.0745318475
 30
0.0
  0
SPLINE
  5
32A
100
AcDbEntity
  8
0
100
AcDbSpline
 62
7
  6
BYLAYER
 70
0
 71
3
 72
13
 73
9
 74
0
 42
0.0000001
 43
0.0000001
 44
0.0000000001
 40
0.0
 40
0.0
 40
0.0
 40
0.0
 40
0.2595019038
 40
0.5122053127
 40
0.6360865779
 40
0.7583085444
 40
0.8792141416
 40
1.0
 40
1.0
 40
1.0
 40
1.0
 10
137.5616233451
 20
151.7541105407
 30
0.0
 10
137.4738705801
 20
151.754109172
 30
0.0
 10
137.2989993977
 20
151.7174131085
 30
0.0
 10
137.1173598479
 20
151.5891431805
 30
0.0
 10
137.0208351707
 20
151.4491010471
 30
0.0
 10
136.9744545815
 20
151.3328289712
 30
0.0
 10
136.9564802886
 20
151.2098729943
 30
0.0
 10
136.965483811
 20
151.1276378437
 30
0.0
 10
136.9746842313
 20
151.0878427849
 30
0.0
  0
SPLINE
  5
32B
100
AcDbEntity
  8
0
100
AcDbSpline
 62
7
  6
BYLAYER
 70
0
 71
3
 72
29
 73
25
 74
0
 42
0.0000001
 43
0.0000001
 44
0.0000000001
 40
0.0
 40
0.0
 40
0.0
 40
0.0
 40
0.0040502293
 40
0.0074055717
 40
0.011813574
 40
0.0239461419
 40
0.0406208256
 40
0.0871932334
 40
0.149411748
 40
0.2247129129
 40
0.3104978322
 40
0.4037683956
 40
0.5007805988
 40
0.5977046825
 40
0.6907199848
 40
0.7763722371
 40
0.8516926417
 40
0.9137576165
 40
0.9597414952
 40
0.9761726464
 40
0.9882039195
 40
0.992595837
 40
0.9959478864
 40
1.0
 40
1.0
 40
1.0
 40
1.0
 10
119.9296792545
 20
145.894420577
 30
0.0
 10
119.9213668725
 20
145.8944638782
 30
0.0
 10
119.9087954741
 20
145.9076919059
 30
0.0
 10
119.8980117527
 20
145.9284537505
 30
0.0
 10
119.8828543351
 20
145.966880879
 30
0.0
 10
119.8657460208
 20
146.0327367265
 30
0.0
 10
119.8360427949
 20
146.1847498265
 30
0.0
 10
119.8024406924
 20
146.44011738
 30
0.0
 10
119.7632725535
 20
146.8159225449
 30
0.0
 10
119.7238719252
 20
147.2725424772
 30
0.0
 10
119.6840980385
 20
147.7930574555
 30
0.0
 10
119.6443516641
 20
148.3582517474
 30
0.0
 10
119.6044937755
 20
148.9463519221
 30
0.0
 10
119.5646485827
 20
149.5339279557
 30
0.0
 10
119.5248300138
 20
150.0981377583
 30
0.0
 10
119.4850442451
 20
150.6178927294
 30
0.0
 10
119.4457085493
 20
151.0739679128
 30
0.0
 10
119.4067353208
 20
151.448302066
 30
0.0
 10
119.3729784031
 20
151.7016187574
 30
0.0
 10
119.3431481012
 20
151.8516549426
 30
0.0
 10
119.3260570017
 20
151.9167450709
 30
0.0
 10
119.3109310894
 20
151.9549187984
 30
0.0
 10
119.3001470935
 20
151.9756302665
 30
0.0
 10
119.2875924512
 20
151.9888913993
 30
0.0
 10
119.2792761508
 20
151.9889234252
 30
0.0
  0
SPLINE
  5
32C
100
AcDbEntity
  8
0
100
AcDbSpline
 62
7
  6
BYLAYER
 70
0
 71
3
 72
31
 73
27
 74
0
 42
0.0000001
 43
0.0000001
 44
0.0000000001
 40
0.0
 40
0.0
 40
0.0
 40
0.0
 40
0.0041287296
 40
0.0076132239
 40
0.012177776
 40
0.0246028713
 40
0.0413774643
 40
0.0623678577
 40
0.0874129321
 40
0.1489725471
 40
0.224255384
 40
0.3100889479
 40
0.4029916168
 40
0.4994760089
 40
0.596026711
 40
0.6890656353
 40
0.7750075426
 40
0.8502815707
 40
0.9119829308
 40
0.93718192
 40
0.9583413682
 40
0.9752699282
 40
0.9878037915
 40
0.9923967108
 40
0.995888318
 40
1.0
 40
1.0
 40
1.0
 40
1.0
 10
136.8295653492
 20
145.8914201705
 30
0.0
 10
136.8210870037
 20
145.8914612458
 30
0.0
 10
136.8086285563
 20
145.9058229983
 30
0.0
 10
136.7979869968
 20
145.9273210876
 30
0.0
 10
136.7829343824
 20
145.9671635157
 30
0.0
 10
136.7659491508
 20
146.0341785888
 30
0.0
 10
136.746181787
 20
146.1354871504
 30
0.0
 10
136.7264073317
 20
146.2629205397
 30
0.0
 10
136.6977439173
 20
146.4820356221
 30
0.0
 10
136.6633866246
 20
146.8127289033
 30
0.0
 10
136.6241488241
 20
147.2683231972
 30
0.0
 10
136.5845975722
 20
147.7884610789
 30
0.0
 10
136.5448429357
 20
148.3522343445
 30
0.0
 10
136.5050127811
 20
148.9380620195
 30
0.0
 10
136.4651979603
 20
149.5241711918
 30
0.0
 10
136.4254573616
 20
150.0885853908
 30
0.0
 10
136.3859450042
 20
150.6092119982
 30
0.0
 10
136.3466270144
 20
151.0652970798
 30
0.0
 10
136.3122439036
 20
151.3965786082
 30
0.0
 10
136.2836283815
 20
151.6166607204
 30
0.0
 10
136.2638640294
 20
151.745088228
 30
0.0
 10
136.2441012554
 20
151.8472953121
 30
0.0
 10
136.2271490046
 20
151.9149445186
 30
0.0
 10
136.2120781367
 20
151.9550851663
 30
0.0
 10
136.2014924461
 20
151.9766846919
 30
0.0
 10
136.1889336193
 20
151.9908769168
 30
0.0
 10
136.1804902556
 20
151.9909121605
 30
0.0
  0
SPLINE
  5
32D
100
AcDbEntity
  8
0
100
AcDbSpline
 62
7
  6
BYLAYER
 70
0
 71
3
 72
29
 73
25
 74
0
 42
0.0000001
 43
0.0000001
 44
0.0000000001
 40
0.0
 40
0.0
 40
0.0
 40
0.0
 40
0.0040686415
 40
0.0074449641
 40
0.0118643377
 40
0.0239372569
 40
0.0403556407
 40
0.0860224952
 40
0.1478663897
 40
0.2231800488
 40
0.3088382729
 40
0.4017024829
 40
0.4984684308
 40
0.5954140757
 40
0.6887508339
 40
0.774697895
 40
0.8499646371
 40
0.9121297004
 40
0.9588898972
 40
0.9758033184
 40
0.9881113032
 40
0.9925644564
 40
0.9959435875
 40
1.0
 40
1.0
 40
1.0
 40
1.0
 10
121.230525679
 20
145.8928800848
 30
0.0
 10
121.2221740265
 20
145.8929204499
 30
0.0
 10
121.2096488149
 20
145.9064082568
 30
0.0
 10
121.1988888524
 20
145.9272591112
 30
0.0
 10
121.1837882486
 20
145.9656702518
 30
0.0
 10
121.166718051
 20
146.0308835078
 30
0.0
 10
121.1369739538
 20
146.1803654697
 30
0.0
 10
121.1029929116
 20
146.432547803
 30
0.0
 10
121.0641051569
 20
146.8058411869
 30
0.0
 10
121.0248326078
 20
147.2615427547
 30
0.0
 10
120.9851063941
 20
147.7810822375
 30
0.0
 10
120.9452579049
 20
148.3447651215
 30
0.0
 10
120.9054121097
 20
148.9316717654
 30
0.0
 10
120.8655632362
 20
149.51955034
 30
0.0
 10
120.8258217396
 20
150.0851771476
 30
0.0
 10
120.7861585462
 20
150.6061927987
 30
0.0
 10
120.7467162176
 20
151.0630407448
 30
0.0
 10
120.7075164308
 20
151.4391225932
 30
0.0
 10
120.6737689421
 20
151.6952743795
 30
0.0
 10
120.6442638007
 20
151.8486114302
 30
0.0
 10
120.6272188032
 20
151.915461152
 30
0.0
 10
120.6120359682
 20
151.9544389319
 30
0.0
 10
120.6012862885
 20
151.9753735823
 30
0.0
 10
120.5886961878
 20
151.988737384
 30
0.0
 10
120.5803696028
 20
151.9887696442
 30
0.0
  0
SPLINE
  5
32E
100
AcDbEntity
  8
0
100
AcDbSpline
 62
7
  6
BYLAYER
 70
0
 71
3
 72
9
 73
5
 74
0
 42
0.0000001
 43
0.0000001
 44
0.0000000001
 40
0.0
 40
0.0
 40
0.0
 40
0.0
 40
0.5179182839
 40
1.0
 40
1.0
 40
1.0
 40
1.0
 10
117.529352134
 20
150.5824267945
 30
0.0
 10
117.4514533564
 20
150.6256317496
 30
0.0
 10
117.3168955028
 20
150.7450960112
 30
0.0
 10
117.2616287471
 20
150.91933442
 30
0.0
 10
117.2616214456
 20
151.0022487905
 30
0.0
  0
LINE
  5
32F
100
AcDbEntity
  8
0
100
AcDbLine
 62
7
  6
BYLAYER
 10
121.5840283942
 20
149.201744889
 11
121.5254566312
 21
148.6803808006
  0
SPLINE
  5
330
100
AcDbEntity
  8
0
100
AcDbSpline
 62
7
  6
BYLAYER
 70
0
 71
3
 72
13
 73
9
 74
0
 42
0.0000001
 43
0.0000001
 44
0.0000000001
 40
0.0
 40
0.0
 40
0.0
 40
0.0
 40
0.2496947388
 40
0.3752702318
 40
0.5006355982
 40
0.6261643811
 40
0.751420061
 40
1.0
 40
1.0
 40
1.0
 40
1.0
 10
127.7116233002
 20
145.9052106966
 30
0.0
 10
127.8121239177
 20
145.9052123905
 30
0.0
 10
127.9660781887
 20
145.9462712137
 30
0.0
 10
128.1304326425
 20
146.0654983639
 30
0.0
 10
128.2267609573
 20
146.1848586568
 30
0.0
 10
128.2900577466
 20
146.3240989348
 30
0.0
 10
128.3270273231
 20
146.52339738
 30
0.0
 10
128.2927225931
 20
146.678815055
 30
0.0
 10
128.2481540286
 20
146.7683920009
 30
0.0
  0
SPLINE
  5
331
100
AcDbEntity
  8
0
100
AcDbSpline
 62
7
  6
BYLAYER
 70
0
 71
3
 72
16
 73
12
 74
0
 42
0.0000001
 43
0.0000001
 44
0.0000000001
 40
0.0
 40
0.0
 40
0.0
 40
0.0
 40
0.0087413283
 40
0.0243918657
 40
0.0801917068
 40
0.168198901
 40
0.2864281945
 40
0.4326165873
 40
0.6037161256
 40
0.7946559317
 40
1.0
 40
1.0
 40
1.0
 40
1.0
 10
122.5293721459
 20
145.8915140855
 30
0.0
 10
122.5227349522
 20
145.8915470282
 30
0.0
 10
122.5069293412
 20
145.9058882853
 30
0.0
 10
122.4836531681
 20
145.9608508134
 30
0.0
 10
122.454821903
 20
146.0802732693
 30
0.0
 10
122.423739937
 20
146.2760175169
 30
0.0
 10
122.3911030192
 20
146.5419990794
 30
0.0
 10
122.3583441225
 20
146.8709487186
 30
0.0
 10
122.3254232583
 20
147.2554888959
 30
0.0
 10
122.2923378738
 20
147.6850188438
 30
0.0
 10
122.2707936673
 20
147.9851484918
 30
0.0
 10
122.2598507299
 20
148.140681401
 30
0.0
  0
SPLINE
  5
332
100
AcDbEntity
  8
0
100
AcDbSpline
 62
7
  6
BYLAYER
 70
0
 71
3
 72
20
 73
16
 74
0
 42
0.0000001
 43
0.0000001
 44
0.0000000001
 40
0.0
 40
0.0
 40
0.0
 40
0.0
 40
0.1777989049
 40
0.3570825352
 40
0.5288407102
 40
0.6840452735
 40
0.7526248865
 40
0.8138611529
 40
0.867188843
 40
0.9121041692
 40
0.9481207735
 40
0.9747966897
 40
0.9845348068
 40
0.9918691471
 40
1.0
 40
1.0
 40
1.0
 40
1.0
 10
122.2598507299
 20
148.140681401
 30
0.0
 10
122.2437014596
 20
148.3702123656
 30
0.0
 10
122.2122249039
 20
148.8312578462
 30
0.0
 10
122.1659767914
 20
149.5140924733
 30
0.0
 10
122.1198559079
 20
150.1676268275
 30
0.0
 10
122.0803278739
 20
150.6779988177
 30
0.0
 10
122.0477319615
 20
151.0454235975
 30
0.0
 10
122.0243056445
 20
151.2812740445
 30
0.0
 10
122.0009372727
 20
151.486377427
 30
0.0
 10
121.9778481393
 20
151.6585150674
 30
0.0
 10
121.9547391575
 20
151.7961307716
 30
0.0
 10
121.9349896381
 20
151.8872666221
 30
0.0
 10
121.9173455355
 20
151.9420598679
 30
0.0
 10
121.9052927373
 20
151.9704270805
 30
0.0
 10
121.8909075183
 20
151.991050333
 30
0.0
 10
121.8803850446
 20
151.9910875949
 30
0.0
  0
SPLINE
  5
333
100
AcDbEntity
  8
0
100
AcDbSpline
 62
7
  6
BYLAYER
 70
0
 71
3
 72
13
 73
9
 74
0
 42
0.0000001
 43
0.0000001
 44
0.0000000001
 40
0.0
 40
0.0
 40
0.0
 40
0.0
 40
0.0357575576
 40
0.0992077945
 40
0.1928611395
 40
0.3152083529
 40
0.631081773
 40
1.0
 40
1.0
 40
1.0
 40
1.0
 10
132.0366636562
 20
148.5652149665
 30
0.0
 10
132.0372894964
 20
148.5578839648
 30
0.0
 10
132.0544371048
 20
148.5418959503
 30
0.0
 10
132.0903417872
 20
148.5277871555
 30
0.0
 10
132.1464139036
 20
148.5123451768
 30
0.0
 10
132.2540509403
 20
148.4936220212
 30
0.0
 10
132.4198557549
 20
148.4787073285
 30
0.0
 10
132.5607127058
 20
148.4745057572
 30
0.0
 10
132.6366233001
 20
148.4745059261
 30
0.0
  0
SPLINE
  5
334
100
AcDbEntity
  8
0
100
AcDbSpline
 62
7
  6
BYLAYER
 70
0
 71
3
 72
11
 73
7
 74
0
 42
0.0000001
 43
0.0000001
 44
0.0000000001
 40
0.0
 40
0.0
 40
0.0
 40
0.0
 40
0.2413398505
 40
0.4881196728
 40
0.742101626
 40
1.0
 40
1.0
 40
1.0
 40
1.0
 10
138.1508621677
 20
151.3033923143
 30
0.0
 10
138.1376753613
 20
151.3662549211
 30
0.0
 10
138.087009982
 20
151.4894680102
 30
0.0
 10
137.9499725618
 20
151.6373182789
 30
0.0
 10
137.7672466543
 20
151.7312066921
 30
0.0
 10
137.6302610974
 20
151.7541192155
 30
0.0
 10
137.5616233406
 20
151.754118298
 30
0.0
  0
SPLINE
  5
335
100
AcDbEntity
  8
0
100
AcDbSpline
 62
7
  6
BYLAYER
 70
0
 71
3
 72
29
 73
25
 74
0
 42
0.0000001
 43
0.0000001
 44
0.0000000001
 40
0.0
 40
0.0
 40
0.0
 40
0.0
 40
0.0040643014
 40
0.0074337193
 40
0.011844664
 40
0.0239011986
 40
0.0403119212
 40
0.0860265169
 40
0.147925474
 40
0.2232424785
 40
0.3088944245
 40
0.4017835499
 40
0.4985881682
 40
0.5955572499
 40
0.6888902527
 40
0.7748021567
 40
0.8500753899
 40
0.9122630248
 40
0.9590025737
 40
0.9758714536
 40
0.9881331003
 40
0.9925736632
 40
0.9959457958
 40
1.0
 40
1.0
 40
1.0
 40
1.0
 10
135.5305097263
 20
145.8931181645
 30
0.0
 10
135.5221673748
 20
145.8931571593
 30
0.0
 10
135.5096354984
 20
145.9065834927
 30
0.0
 10
135.4988683363
 20
145.9273936961
 30
0.0
 10
135.4837622428
 20
145.965726658
 30
0.0
 10
135.4666866524
 20
146.0308700883
 30
0.0
 10
135.4369194556
 20
146.1803883035
 30
0.0
 10
135.4029766998
 20
146.432763247
 30
0.0
 10
135.3640871961
 20
146.8062555661
 30
0.0
 10
135.3247957417
 20
147.2620415065
 30
0.0
 10
135.2850560232
 20
147.7816001046
 30
0.0
 10
135.2452086692
 20
148.3453740113
 30
0.0
 10
135.2053646919
 20
148.9324316359
 30
0.0
 10
135.1655125968
 20
149.5204018163
 30
0.0
 10
135.1257723926
 20
150.0859698093
 30
0.0
 10
135.086082628
 20
150.606891545
 30
0.0
 10
135.0466424497
 20
151.0637053594
 30
0.0
 10
135.0074515278
 20
151.4397863606
 30
0.0
 10
134.9737283755
 20
151.6958426551
 30
0.0
 10
134.9442016295
 20
151.848935332
 30
0.0
 10
134.9271278
 20
151.9155579598
 30
0.0
 10
134.9119507136
 20
151.9543863918
 30
0.0
 10
134.9011914345
 20
151.9752717644
 30
0.0
 10
134.8886050696
 20
151.9885924569
 30
0.0
 10
134.8802834255
 20
151.9886272709
 30
0.0
  0
SPLINE
  5
336
100
AcDbEntity
  8
0
100
AcDbSpline
 62
7
  6
BYLAYER
 70
0
 71
3
 72
29
 73
25
 74
0
 42
0.0000001
 43
0.0000001
 44
0.0000000001
 40
0.0
 40
0.0
 40
0.0
 40
0.0
 40
0.0040730171
 40
0.0074906345
 40
0.0120082511
 40
0.0244949712
 40
0.0415101627
 40
0.0882495877
 40
0.150286862
 40
0.2255539507
 40
0.3115968989
 40
0.4048911119
 40
0.5017104668
 40
0.5983275643
 40
0.6911474845
 40
0.7768454682
 40
0.852134596
 40
0.9137603783
 40
0.9593861567
 40
0.9758802483
 40
0.9880459319
 40
0.9925066146
 40
0.9959145352
 40
1.0
 40
1.0
 40
1.0
 40
1.0
 10
131.6289913511
 20
145.8932648321
 30
0.0
 10
131.6206290473
 20
145.893302735
 30
0.0
 10
131.6080386071
 20
145.906921267
 30
0.0
 10
131.5973309225
 20
145.9281192803
 30
0.0
 10
131.5821669785
 20
145.9677529996
 30
0.0
 10
131.5652316624
 20
146.0353555926
 30
0.0
 10
131.5357219773
 20
146.1892687697
 30
0.0
 10
131.5019289922
 20
146.4453633233
 30
0.0
 10
131.4626837918
 20
146.8212129669
 30
0.0
 10
131.4232892823
 20
147.2780909181
 30
0.0
 10
131.3837076916
 20
147.7993273242
 30
0.0
 10
131.3439615991
 20
148.3649161817
 30
0.0
 10
131.3041276458
 20
148.9522591735
 30
0.0
 10
131.2642711967
 20
149.5386246773
 30
0.0
 10
131.2244486225
 20
150.1021058449
 30
0.0
 10
131.1847684414
 20
150.6216929107
 30
0.0
 10
131.1455900641
 20
151.0770743303
 30
0.0
 10
131.1066115404
 20
151.4498537925
 30
0.0
 10
131.0725792489
 20
151.7016874535
 30
0.0
 10
131.042921101
 20
151.8514910496
 30
0.0
 10
131.0258767745
 20
151.917152084
 30
0.0
 10
131.0107944257
 20
151.9559642476
 30
0.0
 10
131.0000741123
 20
151.9770004319
 30
0.0
 10
130.9875657139
 20
151.9907587308
 30
0.0
 10
130.9791778174
 20
151.9907876785
 30
0.0
  0
SPLINE
  5
337
100
AcDbEntity
  8
0
100
AcDbSpline
 62
7
  6
BYLAYER
 70
0
 71
3
 72
29
 73
25
 74
0
 42
0.0000001
 43
0.0000001
 44
0.0000000001
 40
0.0
 40
0.0
 40
0.0
 40
0.0
 40
0.0072590996
 40
0.0185710507
 40
0.0339913122
 40
0.0534745474
 40
0.0769455265
 40
0.1043103321
 40
0.169665183
 40
0.2467804046
 40
0.3327339574
 40
0.424592993
 40
0.5192404449
 40
0.6132427897
 40
0.7031351779
 40
0.7854621234
 40
0.8572614454
 40
0.9163872947
 40
0.9607992864
 40
0.9768794751
 40
0.9886058733
 40
0.9928529068
 40
0.9960824239
 40
1.0
 40
1.0
 40
1.0
 40
1.0
 10
127.7116324395
 20
145.9052091974
 30
0.0
 10
127.7027511274
 20
145.9171072136
 30
0.0
 10
127.6880019918
 20
145.9528316768
 30
0.0
 10
127.6692436499
 20
146.0195418722
 30
0.0
 10
127.6502421333
 20
146.1123204283
 30
0.0
 10
127.6309345416
 20
146.2301094852
 30
0.0
 10
127.6115179817
 20
146.3726496621
 30
0.0
 10
127.583929202
 20
146.6086922185
 30
0.0
 10
127.550721762
 20
146.9545022837
 30
0.0
 10
127.5122982221
 20
147.4201223438
 30
0.0
 10
127.4736608402
 20
147.9401050341
 30
0.0
 10
127.4349115826
 20
148.4960265316
 30
0.0
 10
127.3961821794
 20
149.0684505747
 30
0.0
 10
127.3574591956
 20
149.636843079
 30
0.0
 10
127.3188535081
 20
150.1799856096
 30
0.0
 10
127.2803230488
 20
150.6775980777
 30
0.0
 10
127.2420096478
 20
151.1121003709
 30
0.0
 10
127.2039307869
 20
151.4687154019
 30
0.0
 10
127.1711233041
 20
151.7112338049
 30
0.0
 10
127.1424714753
 20
151.8563021398
 30
0.0
 10
127.1259329846
 20
151.9196331631
 30
0.0
 10
127.1112012339
 20
151.9565196592
 30
0.0
 10
127.100706973
 20
151.9764486445
 30
0.0
 10
127.0884760721
 20
151.9889611144
 30
0.0
 10
127.0804633893
 20
151.9889879307
 30
0.0
  0
SPLINE
  5
338
100
AcDbEntity
  8
0
100
AcDbSpline
 62
7
  6
BYLAYER
 70
0
 71
3
 72
21
 73
17
 74
0
 42
0.0000001
 43
0.0000001
 44
0.0000000001
 40
0.0
 40
0.0
 40
0.0
 40
0.0
 40
0.0093302366
 40
0.0175967962
 40
0.0286455719
 40
0.0425644676
 40
0.0592971603
 40
0.1007666876
 40
0.1521098534
 40
0.2123163517
 40
0.2803539236
 40
0.3551246529
 40
0.5186247777
 40
0.6893906444
 40
0.8539553402
 40
1.0
 40
1.0
 40
1.0
 40
1.0
 10
117.264986478
 20
145.8937479695
 30
0.0
 10
117.2492793832
 20
145.8936816836
 30
0.0
 10
117.2267662859
 20
145.9227298923
 30
0.0
 10
117.2078690606
 20
145.9644939719
 30
0.0
 10
117.1893545387
 20
146.0182917195
 30
0.0
 10
117.1713514966
 20
146.0858408443
 30
0.0
 10
117.1447996405
 20
146.2044915014
 30
0.0
 10
117.112797328
 20
146.3860890932
 30
0.0
 10
117.0755861854
 20
146.6410411842
 30
0.0
 10
117.0378004614
 20
146.9410051776
 30
0.0
 10
116.9994369259
 20
147.2806249351
 30
0.0
 10
116.9462143958
 20
147.7935377366
 30
0.0
 10
116.8808957889
 20
148.4790424808
 30
0.0
 10
116.8028329205
 20
149.3151770936
 30
0.0
 10
116.7233055139
 20
150.1216476147
 30
0.0
 10
116.6651994575
 20
150.6413645281
 30
0.0
 10
116.6340174998
 20
150.8852419213
 30
0.0
  0
SPLINE
  5
339
100
AcDbEntity
  8
0
100
AcDbSpline
 62
7
  6
BYLAYER
 70
0
 71
3
 72
14
 73
10
 74
0
 42
0.0000001
 43
0.0000001
 44
0.0000000001
 40
0.0
 40
0.0
 40
0.0
 40
0.0
 40
0.4047341798
 40
0.7094076713
 40
0.821552621
 40
0.9062839017
 40
0.9385171014
 40
0.9643252703
 40
1.0
 40
1.0
 40
1.0
 40
1.0
 10
116.6274311579
 20
150.9362516153
 30
0.0
 10
116.6081505996
 20
151.084091771
 30
0.0
 10
116.5714969551
 20
151.3428186832
 30
0.0
 10
116.5166269244
 20
151.6407636877
 30
0.0
 10
116.4686912869
 20
151.8193286819
 30
0.0
 10
116.4403962419
 20
151.8989576773
 30
0.0
 10
116.4159809901
 20
151.9459364335
 30
0.0
 10
116.3967418118
 20
151.9739778622
 30
0.0
 10
116.376843715
 20
151.989826219
 30
0.0
 10
116.3637532654
 20
151.9909835986
 30
0.0
  0
LINE
  5
33A
100
AcDbEntity
  8
0
100
AcDbLine
 62
7
  6
BYLAYER
 10
130.6841350664
 20
149.2022184628
 11
130.6254500961
 21
148.68014134
  0
SPLINE
  5
33B
100
AcDbEntity
  8
0
100
AcDbSpline
 62
7
  6
BYLAYER
 70
0
 71
3
 72
31
 73
27
 74
0
 42
0.0000001
 43
0.0000001
 44
0.0000000001
 40
0.0
 40
0.0
 40
0.0
 40
0.0
 40
0.0041224151
 40
0.0075915535
 40
0.0121340016
 40
0.0245005882
 40
0.0412073036
 40
0.0621316999
 40
0.0871237447
 40
0.1486587189
 40
0.2239408548
 40
0.3097402774
 40
0.4026122745
 40
0.4991057814
 40
0.5957095996
 40
0.6888127324
 40
0.77479648
 40
0.8500713915
 40
0.9118452358
 40
0.9370987552
 40
0.9583106457
 40
0.9752789051
 40
0.9878293302
 40
0.9924189969
 40
0.9958989711
 40
1.0
 40
1.0
 40
1.0
 40
1.0
 10
130.3297939403
 20
145.8913975661
 30
0.0
 10
130.3213287132
 20
145.8914436929
 30
0.0
 10
130.3088718121
 20
145.9057020012
 30
0.0
 10
130.2982081507
 20
145.9271065543
 30
0.0
 10
130.2831525604
 20
145.9667282687
 30
0.0
 10
130.2661556168
 20
146.0334315447
 30
0.0
 10
130.2463829501
 20
146.1343326926
 30
0.0
 10
130.2266025613
 20
146.2613760178
 30
0.0
 10
130.1979121812
 20
146.4801866386
 30
0.0
 10
130.1635770673
 20
146.8107164627
 30
0.0
 10
130.1243397695
 20
147.2661808776
 30
0.0
 10
130.0847692666
 20
147.7861747641
 30
0.0
 10
130.04499894
 20
148.3498238635
 30
0.0
 10
130.0051589168
 20
148.935707132
 30
0.0
 10
129.965342633
 20
149.5220677409
 30
0.0
 10
129.9255975766
 20
150.0868008341
 30
0.0
 10
129.8860893242
 20
150.6076403823
 30
0.0
 10
129.8467229909
 20
151.0639518996
 30
0.0
 10
129.8123390925
 20
151.3954921208
 30
0.0
 10
129.7837311948
 20
151.6159429342
 30
0.0
 10
129.763966906
 20
151.7446741296
 30
0.0
 10
129.7442059484
 20
151.8471046731
 30
0.0
 10
129.7272579124
 20
151.914872224
 30
0.0
 10
129.7121821347
 20
151.9550069514
 30
0.0
 10
129.7015815417
 20
151.9765634171
 30
0.0
 10
129.6889948546
 20
151.9906197546
 30
0.0
 10
129.6805734791
 20
151.9906517446
 30
0.0
  0
SPLINE
  5
33C
100
AcDbEntity
  8
0
100
AcDbSpline
 62
7
  6
BYLAYER
 70
0
 71
3
 72
29
 73
25
 74
0
 42
0.0000001
 43
0.0000001
 44
0.0000000001
 40
0.0
 40
0.0
 40
0.0
 40
0.0
 40
0.0040512332
 40
0.0074104351
 40
0.0118261535
 40
0.0239904535
 40
0.0407225207
 40
0.0873585325
 40
0.1495777938
 40
0.2248722889
 40
0.3106927371
 40
0.4039892292
 40
0.5009963074
 40
0.5978903593
 40
0.6908647665
 40
0.7765122259
 40
0.8518319827
 40
0.9138535873
 40
0.9597468998
 40
0.9761634625
 40
0.9881954413
 40
0.9925904238
 40
0.9959456973
 40
1.0
 40
1.0
 40
1.0
 40
1.0
 10
134.229570433
 20
145.8943882932
 30
0.0
 10
134.2212557512
 20
145.8944312984
 30
0.0
 10
134.2086811984
 20
145.9076791042
 30
0.0
 10
134.1979023894
 20
145.9284704282
 30
0.0
 10
134.182739795
 20
145.966994351
 30
0.0
 10
134.165633193
 20
146.0330570773
 30
0.0
 10
134.1359860774
 20
146.1854050857
 30
0.0
 10
134.1023534061
 20
146.44102405
 30
0.0
 10
134.0631761438
 20
146.8169599583
 30
0.0
 10
134.0237614907
 20
147.273652211
 30
0.0
 10
133.9840077951
 20
147.7942967736
 30
0.0
 10
133.9442654048
 20
148.3596233817
 30
0.0
 10
133.9044079967
 20
148.9477215315
 30
0.0
 10
133.8645642333
 20
149.535158133
 30
0.0
 10
133.8247341321
 20
150.0992274736
 30
0.0
 10
133.7849600679
 20
150.6189030852
 30
0.0
 10
133.7456341818
 20
151.0748911266
 30
0.0
 10
133.7066937667
 20
151.4489634053
 30
0.0
 10
133.6728809223
 20
151.7019714522
 30
0.0
 10
133.6430630595
 20
151.8517965778
 30
0.0
 10
133.6259760721
 20
151.9168644914
 30
0.0
 10
133.6108552803
 20
151.955059049
 30
0.0
 10
133.6000753752
 20
151.9757871368
 30
0.0
 10
133.5875247169
 20
151.9890818428
 30
0.0
 10
133.5792036817
 20
151.9891127988
 30
0.0
  0
SPLINE
  5
33D
100
AcDbEntity
  8
0
100
AcDbSpline
 62
7
  6
BYLAYER
 70
0
 71
3
 72
29
 73
25
 74
0
 42
0.0000001
 43
0.0000001
 44
0.0000000001
 40
0.0
 40
0.0
 40
0.0
 40
0.0
 40
0.0040600767
 40
0.0074224951
 40
0.0118251903
 40
0.0238678355
 40
0.0402784379
 40
0.0860769626
 40
0.1480434457
 40
0.223364854
 40
0.3090136946
 40
0.4019429545
 40
0.498794665
 40
0.5957863745
 40
0.6891046601
 40
0.7749685205
 40
0.8502498918
 40
0.9124557944
 40
0.9591496732
 40
0.9759508713
 40
0.9881583909
 40
0.992584494
 40
0.9959486123
 40
1.0
 40
1.0
 40
1.0
 40
1.0
 10
129.0304594605
 20
145.8934097453
 30
0.0
 10
129.022126243
 20
145.8934498877
 30
0.0
 10
129.0095883041
 20
145.9068117382
 30
0.0
 10
128.9988127347
 20
145.9275820365
 30
0.0
 10
128.9837000744
 20
145.9658413987
 30
0.0
 10
128.9666179676
 20
146.0309363025
 30
0.0
 10
128.9368235782
 20
146.1805855817
 30
0.0
 10
128.9029418903
 20
146.4332708433
 30
0.0
 10
128.8640339953
 20
146.8070597429
 30
0.0
 10
128.824723124
 20
147.2629613903
 30
0.0
 10
128.7849658747
 20
147.7825750831
 30
0.0
 10
128.7451249398
 20
148.3464915909
 30
0.0
 10
128.7052819909
 20
148.9337429353
 30
0.0
 10
128.6654267546
 20
149.5217936575
 30
0.0
 10
128.6256868657
 20
150.0872481005
 30
0.0
 10
128.5859635989
 20
150.6080258442
 30
0.0
 10
128.5465338558
 20
151.0647713792
 30
0.0
 10
128.5073499943
 20
151.4407905468
 30
0.0
 10
128.4736713162
 20
151.6966455737
 30
0.0
 10
128.4440916884
 20
151.8493695178
 30
0.0
 10
128.4269955525
 20
151.9156965868
 30
0.0
 10
128.4118253295
 20
151.9543519774
 30
0.0
 10
128.4010562037
 20
151.9751798552
 30
0.0
 10
128.3884729046
 20
151.9884519278
 30
0.0
 10
128.3801574981
 20
151.9884869132
 30
0.0
  0
SPLINE
  5
33E
100
AcDbEntity
  8
0
100
AcDbSpline
 62
7
  6
BYLAYER
 70
0
 71
3
 72
23
 73
19
 74
0
 42
0.0000001
 43
0.0000001
 44
0.0000000001
 40
0.0
 40
0.0
 40
0.0
 40
0.0
 40
0.079246317
 40
0.1584556245
 40
0.2375011375
 40
0.316100001
 40
0.471352704
 40
0.6221534991
 40
0.6946185114
 40
0.7638793183
 40
0.8278310052
 40
0.8843070059
 40
0.9314316219
 40
0.9675385198
 40
0.9810231092
 40
0.9911859802
 40
0.9976561952
 40
1.0
 40
1.0
 40
1.0
 40
1.0
 10
113.3616233034
 20
149.055995061
 30
0.0
 10
113.448687971
 20
149.0561361411
 30
0.0
 10
113.6232899626
 20
149.0761336129
 30
0.0
 10
113.8722282428
 20
149.1592856403
 30
0.0
 10
114.1020667392
 20
149.283395393
 30
0.0
 10
114.3819288717
 20
149.484161673
 30
0.0
 10
114.6881992423
 20
149.7778301639
 30
0.0
 10
114.9586272858
 20
150.0939397386
 30
0.0
 10
115.1596600296
 20
150.3447070345
 30
0.0
 10
115.2994924098
 20
150.5222046245
 30
0.0
 10
115.4315694742
 20
150.6834798122
 30
0.0
 10
115.5554670594
 20
150.8197442998
 30
0.0
 10
115.6649691928
 20
150.9274665912
 30
0.0
 10
115.7459633942
 20
150.9963763399
 30
0.0
 10
115.7978632242
 20
151.0365966674
 30
0.0
 10
115.8248442201
 20
151.0557710028
 30
0.0
 10
115.8416114057
 20
151.0681393044
 30
0.0
 10
115.8501131902
 20
151.0729169988
 30
0.0
 10
115.8520752315
 20
151.0745847074
 30
0.0
  0
SPLINE
  5
33F
100
AcDbEntity
  8
0
100
AcDbSpline
 62
7
  6
BYLAYER
 70
0
 71
3
 72
19
 73
15
 74
0
 42
0.0000001
 43
0.0000001
 44
0.0000000001
 40
0.0
 40
0.0
 40
0.0
 40
0.0
 40
0.1855266921
 40
0.3684159058
 40
0.5400403165
 40
0.6929454723
 40
0.8206259088
 40
0.8729974859
 40
0.9166666753
 40
0.9510489683
 40
0.9760915978
 40
0.9851658572
 40
0.9920241193
 40
1.0
 40
1.0
 40
1.0
 40
1.0
 10
132.6366324395
 20
148.4745086212
 30
0.0
 10
132.6216242114
 20
148.6933068004
 30
0.0
 10
132.5923029161
 20
149.1278255313
 30
0.0
 10
132.5487372656
 20
149.7647226894
 30
0.0
 10
132.5052355999
 20
150.3629703804
 30
0.0
 10
132.4618814966
 20
150.89577893
 30
0.0
 10
132.4243924634
 20
151.2876043195
 30
0.0
 10
132.3930648933
 20
151.5502431446
 30
0.0
 10
132.3714334365
 20
151.7028567428
 30
0.0
 10
132.3496731124
 20
151.8229628526
 30
0.0
 10
132.330966708
 20
151.9014740284
 30
0.0
 10
132.3142972645
 20
151.9476598833
 30
0.0
 10
132.302682517
 20
151.9720763054
 30
0.0
 10
132.2889353302
 20
151.9885603776
 30
0.0
 10
132.2795070493
 20
151.988593922
 30
0.0
  0
SPLINE
  5
340
100
AcDbEntity
  8
0
100
AcDbSpline
 62
7
  6
BYLAYER
 70
0
 71
3
 72
9
 73
5
 74
0
 42
0.0000001
 43
0.0000001
 44
0.0000000001
 40
0.0
 40
0.0
 40
0.0
 40
0.0
 40
0.4997414891
 40
1.0
 40
1.0
 40
1.0
 40
1.0
 10
127.2928465064
 20
146.0747521112
 30
0.0
 10
127.3478859698
 20
146.0214290654
 30
0.0
 10
127.4804602628
 20
145.9363104754
 30
0.0
 10
127.6349105401
 20
145.9052078872
 30
0.0
 10
127.7116233001
 20
145.905208997
 30
0.0
  0
LINE
  5
341
100
AcDbEntity
  8
0
100
AcDbLine
 62
7
  6
BYLAYER
 10
133.2255991128
 20
148.6809645831
 11
133.2122142966
 21
148.5633163569
  0
LINE
  5
342
100
AcDbEntity
  8
0
100
AcDbLine
 62
7
  6
BYLAYER
 10
133.2122142966
 20
148.5633163569
 11
133.198283642
 21
148.4426134785
  0
SPLINE
  5
343
100
AcDbEntity
  8
0
100
AcDbSpline
 62
7
  6
BYLAYER
 70
0
 71
3
 72
18
 73
14
 74
0
 42
0.0000001
 43
0.0000001
 44
0.0000000001
 40
0.0
 40
0.0
 40
0.0
 40
0.0
 40
0.0084031274
 40
0.0152000382
 40
0.0240988095
 40
0.0483927561
 40
0.0812686539
 40
0.1715386701
 40
0.2920420828
 40
0.4396224748
 40
0.6106409934
 40
0.7994945423
 40
1.0
 40
1.0
 40
1.0
 40
1.0
 10
132.928974161
 20
145.8923808032
 30
0.0
 10
132.9216584205
 20
145.8924199063
 30
0.0
 10
132.9103305969
 20
145.9032703748
 30
0.0
 10
132.9005054762
 20
145.921103752
 30
0.0
 10
132.8869597428
 20
145.9535640643
 30
0.0
 10
132.8716308483
 20
146.0089370224
 30
0.0
 10
132.8450588045
 20
146.1346477938
 30
0.0
 10
132.8145178004
 20
146.3446514934
 30
0.0
 10
132.7791614606
 20
146.6546418352
 30
0.0
 10
132.7436302986
 20
147.0352963443
 30
0.0
 10
132.7079301452
 20
147.4756483356
 30
0.0
 10
132.6720872669
 20
147.9622032512
 30
0.0
 10
132.6485714335
 20
148.3003666084
 30
0.0
 10
132.6366141739
 20
148.4745186129
 30
0.0
  0
SPLINE
  5
344
100
AcDbEntity
  8
0
100
AcDbSpline
 62
7
  6
BYLAYER
 70
0
 71
3
 72
21
 73
17
 74
0
 42
0.0000001
 43
0.0000001
 44
0.0000000001
 40
0.0
 40
0.0
 40
0.0
 40
0.0
 40
0.0015404128
 40
0.0055825026
 40
0.0121240389
 40
0.0211465655
 40
0.046551587
 40
0.0815574297
 40
0.1256835429
 40
0.1783993394
 40
0.2391345912
 40
0.3071104894
 40
0.4613926996
 40
0.6339656493
 40
0.8166777601
 40
1.0
 40
1.0
 40
1.0
 40
1.0
 10
113.3616459427
 20
148.3414020869
 30
0.0
 10
113.3619500379
 20
148.3416074473
 30
0.0
 10
113.3617624023
 20
148.3432464073
 30
0.0
 10
113.3622251312
 20
148.3458489356
 30
0.0
 10
113.3621861763
 20
148.3506708005
 30
0.0
 10
113.3624047686
 20
148.3603389559
 30
0.0
 10
113.3622799795
 20
148.376945646
 30
0.0
 10
113.3620061691
 20
148.4018141292
 30
0.0
 10
113.3616114292
 20
148.4332312667
 30
0.0
 10
113.3613300178
 20
148.4707628285
 30
0.0
 10
113.3613216249
 20
148.5139822949
 30
0.0
 10
113.3615415046
 20
148.5813933337
 30
0.0
 10
113.3618081265
 20
148.6754463843
 30
0.0
 10
113.3616261323
 20
148.7968306025
 30
0.0
 10
113.3615747306
 20
148.9251325388
 30
0.0
 10
113.3616137617
 20
149.012325774
 30
0.0
 10
113.3616233034
 20
149.0559950621
 30
0.0
  0
SPLINE
  5
345
100
AcDbEntity
  8
0
100
AcDbSpline
 62
7
  6
BYLAYER
 70
0
 71
3
 72
30
 73
26
 74
0
 42
0.0000001
 43
0.0000001
 44
0.0000000001
 40
0.0
 40
0.0
 40
0.0
 40
0.0
 40
0.0041126945
 40
0.0075647421
 40
0.0120839401
 40
0.0243918649
 40
0.0410336487
 40
0.0618982325
 40
0.0868467715
 40
0.1483812591
 40
0.223667083
 40
0.3094396368
 40
0.4022926457
 40
0.4988113198
 40
0.5954766738
 40
0.6886433908
 40
0.7746604776
 40
0.8499320337
 40
0.9117756246
 40
0.9583267447
 40
0.9753208844
 40
0.9878712029
 40
0.9924485054
 40
0.9959100132
 40
1.0
 40
1.0
 40
1.0
 40
1.0
 10
123.8300119595
 20
145.8914643066
 30
0.0
 10
123.8215669247
 20
145.8915095643
 30
0.0
 10
123.8090976584
 20
145.9056299906
 30
0.0
 10
123.7984166745
 20
145.926933007
 30
0.0
 10
123.7833539209
 20
145.9663230744
 30
0.0
 10
123.7663462169
 20
146.0327190817
 30
0.0
 10
123.7465665258
 20
146.133229045
 30
0.0
 10
123.7267795555
 20
146.2599195946
 30
0.0
 10
123.6980607119
 20
146.478505066
 30
0.0
 10
123.6637543878
 20
146.8089463761
 30
0.0
 10
123.6245042323
 20
147.2643474629
 30
0.0
 10
123.5849138512
 20
147.7842386104
 30
0.0
 10
123.5451239582
 20
148.3478279001
 30
0.0
 10
123.505275606
 20
148.9338336217
 30
0.0
 10
123.4654511589
 20
149.5204864346
 30
0.0
 10
123.425712987
 20
150.0855307875
 30
0.0
 10
123.3861586099
 20
150.6065438424
 30
0.0
 10
123.3468767086
 20
151.0630576897
 30
0.0
 10
123.307619516
 20
151.4381917902
 30
0.0
 10
123.2737689436
 20
151.6934734269
 30
0.0
 10
123.2442765212
 20
151.8471222024
 30
0.0
 10
123.2273195786
 20
151.9149222376
 30
0.0
 10
123.2122374835
 20
151.9549795743
 30
0.0
 10
123.2016021606
 20
151.9764440317
 30
0.0
 10
123.1890013888
 20
151.9903566096
 30
0.0
 10
123.180602892
 20
151.9903792464
 30
0.0
  0
SPLINE
  5
346
100
AcDbEntity
  8
0
100
AcDbSpline
 62
7
  6
BYLAYER
 70
0
 71
3
 72
9
 73
5
 74
0
 42
0.0000001
 43
0.0000001
 44
0.0000000001
 40
0.0
 40
0.0
 40
0.0
 40
0.0
 40
0.2561699667
 40
1.0
 40
1.0
 40
1.0
 40
1.0
 10
117.6801785215
 20
149.2293621669
 30
0.0
 10
117.6684320847
 20
149.1332458897
 30
0.0
 10
117.6227834031
 20
148.7580221807
 30
0.0
 10
117.5764418647
 20
148.3828325751
 30
0.0
 10
117.5365963553
 20
148.1045050058
 30
0.0
  0
SPLINE
  5
347
100
AcDbEntity
  8
0
100
AcDbSpline
 62
7
  6
BYLAYER
 70
0
 71
3
 72
29
 73
25
 74
0
 42
0.0000001
 43
0.0000001
 44
0.0000000001
 40
0.0
 40
0.0
 40
0.0
 40
0.0
 40
0.0040798231
 40
0.0075130968
 40
0.01205614
 40
0.0245819629
 40
0.0416037267
 40
0.0882962209
 40
0.1502734122
 40
0.2255457576
 40
0.3115941592
 40
0.4048519241
 40
0.5016180647
 40
0.5981922511
 40
0.6910155358
 40
0.7767346555
 40
0.8520176814
 40
0.913590665
 40
0.9592572238
 40
0.9757954274
 40
0.9880055254
 40
0.9924847192
 40
0.9959065537
 40
1.0
 40
1.0
 40
1.0
 40
1.0
 10
125.128956809
 20
145.892965466
 30
0.0
 10
125.1205800223
 20
145.893003855
 30
0.0
 10
125.1079899553
 20
145.9067279763
 30
0.0
 10
125.0972995748
 20
145.9280297842
 30
0.0
 10
125.0821697068
 20
145.9678626288
 30
0.0
 10
125.0652334302
 20
146.0356099983
 30
0.0
 10
125.0357289505
 20
146.1895358178
 30
0.0
 10
125.0019156795
 20
146.4454313116
 30
0.0
 10
124.962662404
 20
146.8210956186
 30
0.0
 10
124.9233028385
 20
147.2779023292
 30
0.0
 10
124.8837364292
 20
147.7991189997
 30
0.0
 10
124.8439919325
 20
148.3645692599
 30
0.0
 10
124.8041626295
 20
148.951675766
 30
0.0
 10
124.764305241
 20
149.5378862489
 30
0.0
 10
124.7244986822
 20
150.1013651669
 30
0.0
 10
124.6848338243
 20
150.621023252
 30
0.0
 10
124.6456852913
 20
151.0763571287
 30
0.0
 10
124.6066584584
 20
151.4491190365
 30
0.0
 10
124.5726341054
 20
151.7010308964
 30
0.0
 10
124.543004633
 20
151.8511234196
 30
0.0
 10
124.5259696693
 20
151.9170109625
 30
0.0
 10
124.5108940697
 20
151.9560058269
 30
0.0
 10
124.5001884537
 20
151.9771252335
 30
0.0
 10
124.4876899471
 20
151.9909990563
 30
0.0
 10
124.4792851527
 20
151.9910286113
 30
0.0
  0
SPLINE
  5
348
100
AcDbEntity
  8
0
100
AcDbSpline
 62
7
  6
BYLAYER
 70
0
 71
3
 72
14
 73
10
 74
0
 42
0.0000001
 43
0.0000001
 44
0.0000000001
 40
0.0
 40
0.0
 40
0.0
 40
0.0
 40
0.3732190553
 40
0.6910061621
 40
0.8128559718
 40
0.9050250518
 40
0.9394987836
 40
0.9662521149
 40
1.0
 40
1.0
 40
1.0
 40
1.0
 10
132.6366233002
 20
148.4745257508
 30
0.0
 10
132.7136841303
 20
148.4745259505
 30
0.0
 10
132.8563540947
 20
148.4789645447
 30
0.0
 10
133.023757422
 20
148.4938815763
 30
0.0
 10
133.1318928059
 20
148.5137217045
 30
0.0
 10
133.1814413475
 20
148.5270230749
 30
0.0
 10
133.210845658
 20
148.5396858393
 30
0.0
 10
133.2273666352
 20
148.549086789
 30
0.0
 10
133.2371596661
 20
148.5605681666
 30
0.0
 10
133.2365647196
 20
148.5675108546
 30
0.0
  0
SPLINE
  5
349
100
AcDbEntity
  8
0
100
AcDbSpline
 62
7
  6
BYLAYER
 70
0
 71
3
 72
27
 73
23
 74
0
 42
0.0000001
 43
0.0000001
 44
0.0000000001
 40
0.0
 40
0.0
 40
0.0
 40
0.0
 40
0.0040502475
 40
0.0074025797
 40
0.0118034017
 40
0.0239029418
 40
0.0405102948
 40
0.0869867782
 40
0.1491954698
 40
0.2662375586
 40
0.403473757
 40
0.5492049515
 40
0.6905008891
 40
0.7556026967
 40
0.8152893031
 40
0.868350645
 40
0.9135825377
 40
0.9497957802
 40
0.9761399656
 40
0.9925442467
 40
0.9971935941
 40
1.0
 40
1.0
 40
1.0
 40
1.0
 10
126.4298143591
 20
145.8944129654
 30
0.0
 10
126.4215018339
 20
145.8944597963
 30
0.0
 10
126.4089368844
 20
145.9076784727
 30
0.0
 10
126.3981478853
 20
145.9284163949
 30
0.0
 10
126.382997424
 20
145.9667497988
 30
0.0
 10
126.3658902587
 20
146.032379307
 30
0.0
 10
126.3361259618
 20
146.183972132
 30
0.0
 10
126.3025325423
 20
146.4389911049
 30
0.0
 10
126.2545758067
 20
146.8998027534
 30
0.0
 10
126.201690158
 20
147.5472478746
 30
0.0
 10
126.1434696409
 20
148.3661489131
 30
0.0
 10
126.0851680812
 20
149.2349476308
 30
0.0
 10
126.0353983759
 20
149.9559373231
 30
0.0
 10
125.9941058017
 20
150.5004869466
 30
0.0
 10
125.964071024
 20
150.8642603265
 30
0.0
 10
125.9341865524
 20
151.1871493861
 30
0.0
 10
125.9045926071
 20
151.4615556386
 30
0.0
 10
125.8754020188
 20
151.6810904813
 30
0.0
 10
125.8469131558
 20
151.8402333734
 30
0.0
 10
125.8211321106
 20
151.935154409
 30
0.0
 10
125.7990556752
 20
151.9785608566
 30
0.0
 10
125.7851348206
 20
151.9886969062
 30
0.0
 10
125.7793750332
 20
151.9887157808
 30
0.0
  0
SPLINE
  5
34A
100
AcDbEntity
  8
0
100
AcDbSpline
 62
7
  6
BYLAYER
 70
0
 71
3
 72
10
 73
6
 74
0
 42
0.0000001
 43
0.0000001
 44
0.0000000001
 40
0.0
 40
0.0
 40
0.0
 40
0.0
 40
0.1616608926
 40
0.3825022302
 40
1.0
 40
1.0
 40
1.0
 40
1.0
 10
137.4500927346
 20
150.7723345315
 30
0.0
 10
137.4424944269
 20
150.7625523454
 30
0.0
 10
137.4284458403
 20
150.7365102085
 30
0.0
 10
137.4010507481
 20
150.6649596257
 30
0.0
 10
137.3853512635
 20
150.6024253358
 30
0.0
 10
137.3747501967
 20
150.556315432
 30
0.0
  0
SPLINE
  5
34B
100
AcDbEntity
  8
0
100
AcDbSpline
 62
7
  6
BYLAYER
 70
0
 71
3
 72
10
 73
6
 74
0
 42
0.0000001
 43
0.0000001
 44
0.0000000001
 40
0.0
 40
0.0
 40
0.0
 40
0.0
 40
0.1924973117
 40
0.4366531658
 40
1.0
 40
1.0
 40
1.0
 40
1.0
 10
137.3574770644
 20
150.4757885521
 30
0.0
 10
137.3346480169
 20
150.3623447024
 30
0.0
 10
137.2932601637
 20
150.1029839908
 30
0.0
 10
137.2164783056
 20
149.5067808625
 30
0.0
 10
137.1643776807
 20
149.0241190819
 30
0.0
 10
137.1263060075
 20
148.6876149092
 30
0.0
  0
SPLINE
  5
34C
100
AcDbEntity
  8
0
100
AcDbSpline
 62
7
  6
BYLAYER
 70
0
 71
3
 72
29
 73
25
 74
0
 42
0.0000001
 43
0.0000001
 44
0.0000000001
 40
0.0
 40
0.0
 40
0.0
 40
0.0
 40
0.0040894287
 40
0.0075416252
 40
0.0121104998
 40
0.0246651276
 40
0.0416864284
 40
0.0883284467
 40
0.1502564958
 40
0.2255533676
 40
0.3116113918
 40
0.4048398463
 40
0.5015646527
 40
0.5981151507
 40
0.6909572049
 40
0.7766998783
 40
0.8519643174
 40
0.9134716699
 40
0.9591651185
 40
0.9757367013
 40
0.9879799841
 40
0.9924724446
 40
0.9959035837
 40
1.0
 40
1.0
 40
1.0
 40
1.0
 10
118.6289425758
 20
145.8926587971
 30
0.0
 10
118.6205456585
 20
145.8927031094
 30
0.0
 10
118.6079585247
 20
145.9065558272
 30
0.0
 10
118.5972899425
 20
145.9279756756
 30
0.0
 10
118.5821947552
 20
145.9679924194
 30
0.0
 10
118.5652409959
 20
146.0358439329
 30
0.0
 10
118.5357439363
 20
146.1897384939
 30
0.0
 10
118.5019028669
 20
146.4454318796
 30
0.0
 10
118.4626418665
 20
146.8209628484
 30
0.0
 10
118.4233192844
 20
147.2777650535
 30
0.0
 10
118.3837569968
 20
147.7990194159
 30
0.0
 10
118.3440106319
 20
148.3643734442
 30
0.0
 10
118.3041802803
 20
148.9513164513
 30
0.0
 10
118.264320189
 20
149.5374621945
 30
0.0
 10
118.2245271705
 20
150.1010098736
 30
0.0
 10
118.1848748265
 20
150.620745028
 30
0.0
 10
118.1457488337
 20
151.0759796235
 30
0.0
 10
118.1066678948
 20
151.4486385729
 30
0.0
 10
118.0726548741
 20
151.7005500988
 30
0.0
 10
118.0430459512
 20
151.8508530582
 30
0.0
 10
118.0260196815
 20
151.91690973
 30
0.0
 10
118.0109458314
 20
151.9560378486
 30
0.0
 10
118.0002568652
 20
151.9772087337
 30
0.0
 10
117.9877526552
 20
151.9911587213
 30
0.0
 10
117.9793412802
 20
151.9911696991
 30
0.0
  0
SPLINE
  5
34D
100
AcDbEntity
  8
0
100
AcDbSpline
 62
7
  6
BYLAYER
 70
0
 71
3
 72
11
 73
7
 74
0
 42
0.0000001
 43
0.0000001
 44
0.0000000001
 40
0.0
 40
0.0
 40
0.0
 40
0.0
 40
0.3800847211
 40
0.7033337895
 40
0.9220643706
 40
1.0
 40
1.0
 40
1.0
 40
1.0
 10
176.4116233137
 20
156.9153246347
 30
0.0
 10
177.4358475466
 20
156.9153246347
 30
0.0
 10
179.3325403156
 20
157.0109502252
 30
0.0
 10
181.7951472947
 20
157.3598500464
 30
0.0
 10
183.4311945574
 20
157.7009487008
 30
0.0
 10
184.2080009934
 20
157.8899995834
 30
0.0
 10
184.4116233137
 20
157.9413943355
 30
0.0
  0
SPLINE
  5
34E
100
AcDbEntity
  8
0
100
AcDbSpline
 62
7
  6
BYLAYER
 70
0
 71
3
 72
18
 73
14
 74
0
 42
0.0000001
 43
0.0000001
 44
0.0000000001
 40
0.0
 40
0.0
 40
0.0
 40
0.0
 40
0.0447129892
 40
0.0893041567
 40
0.1776634783
 40
0.2646032457
 40
0.3497289434
 40
0.4326811016
 40
0.5130467209
 40
0.6638841555
 40
0.796762353
 40
0.9037988946
 40
1.0
 40
1.0
 40
1.0
 40
1.0
 10
176.4116233137
 20
144.8182887099
 30
0.0
 10
176.2694105987
 20
144.8182887099
 30
0.0
 10
175.9851536947
 20
144.8034770681
 30
0.0
 10
175.425874106
 20
144.7174643824
 30
0.0
 10
174.7523893926
 20
144.5168244876
 30
0.0
 10
173.9956848871
 20
144.1763766348
 30
0.0
 10
173.2881390721
 20
143.7782989696
 30
0.0
 10
172.6241081819
 20
143.3493782203
 30
0.0
 10
171.8083867436
 20
142.771982023
 30
0.0
 10
170.893059676
 20
142.0619442639
 30
0.0
 10
169.9358771852
 20
141.2691066872
 30
0.0
 10
169.1253404984
 20
140.5720045151
 30
0.0
 10
168.6403427146
 20
140.1446261153
 30
0.0
 10
168.4116233137
 20
139.9413943355
 30
0.0
  0
ENDSEC
  0
SECTION
  2
OBJECTS
  0
DICTIONARY
  5
C
100
AcDbDictionary
280
0
281
1
  3
ACAD_GROUP
350
D
  3
ACAD_MLINESTYLE
350
17
  3
ACAD_LAYOUT
350
1A
  3
ACAD_PLOTSETTINGS
350
19
  3
ACAD_PLOTSTYLENAME
350
E
  0
DICTIONARY
  5
D
102
{ACAD_REACTORS
330
C
102
}
100
AcDbDictionary
280
0
281
1
  0
ACDBDICTIONARYWDFLT
  5
E
102
{ACAD_REACTORS
330
C
102
}
100
AcDbDictionary
281
1
  3
Normal
350
F
100
AcDbDictionaryWithDefault
340
F
  0
DICTIONARY
  5
17
102
{ACAD_REACTORS
330
C
102
}
100
AcDbDictionary
280
0
281
1
  3
Standard
350
18
  0
DICTIONARY
  5
19
102
{ACAD_REACTORS
330
C
102
}
100
AcDbDictionary
281
1
  0
DICTIONARY
  5
1A
102
{ACAD_REACTORS
330
C
102
}
100
AcDbDictionary
281
1
  3
Model
350
34F
  3
Layout1
350
350
  0
ACDBPLACEHOLDER
  5
F
102
{ACAD_REACTORS
330
E
102
}
  0
MLINESTYLE
  5
18
102
{ACAD_REACTORS
330
17
102
}
100
AcDbMlineStyle
  2
STANDARD
 70
0
  3

 62
256
 51
90.0
 52
90.0
 71
2
 49
0.5
 62
256
  6
BYLAYER
 49
-0.5
 62
256
  6
BYLAYER
  0
LAYOUT
  5
34F
102
{ACAD_REACTORS
330
1A
102
}
100
AcDbPlotSettings
  1

  2
none_device
  4

  6

 40
0.0
 41
0.0
 42
0.0
 43
0.0
 44
210.0
 45
297.0
 46
0.0
 47
0.0
 48
0.0
 49
0.0
140
0.0
141
0.0
142
1.0
143
1.0
 70
1024
 72
1
 73
0
 74
0
  7

 75
0
147
1.0
148
0.0
149
0.0
100
AcDbLayout
  1
Model
 70
0
 71
0
 10
0.0
 20
0.0
 11
210.0
 21
297.0
 12
0.0
 22
0.0
 32
0.0
 14
0.0
 24
0.0
 34
0.0
 15
0.0
 25
0.0
 35
0.0
146
0.0
 13
0.0
 23
0.0
 33
0.0
 16
1.0
 26
0.0
 36
0.0
 17
0.0
 27
1.0
 37
0.0
 76
0
330
210
345
0
346
0
  0
LAYOUT
  5
350
102
{ACAD_REACTORS
330
1A
102
}
100
AcDbPlotSettings
  1

  2
none_device
  4

  6

 40
0.0
 41
0.0
 42
0.0
 43
0.0
 44
210.0
 45
297.0
 46
0.0
 47
0.0
 48
0.0
 49
0.0
140
0.0
141
0.0
142
1.0
143
1.0
 70
0
 72
1
 73
0
 74
0
  7

 75
0
147
1.0
148
0.0
149
0.0
100
AcDbLayout
  1
Layout1
 70
0
 71
1
 10
0.0
 20
0.0
 11
210.0
 21
297.0
 12
0.0
 22
0.0
 32
0.0
 14
0.0
 24
0.0
 34
0.0
 15
0.0
 25
0.0
 35
0.0
146
0.0
 13
0.0
 23
0.0
 33
0.0
 16
1.0
 26
0.0
 36
0.0
 17
0.0
 27
1.0
 37
0.0
 76
0
330
211
345
0
346
0
  0
ENDSEC
  0
EOF
