999
DXF file: C:\Users\sesa63760\Dev\_Creo\CAD\MCADID0004740_3D-CAD\drw0001_4.dxf
999
Pro/ENGINEER 2019471 by Parametric Technology Corporation
  0
SECTION
  2
HEADER
  9
$ACADVER
  1
AC1024
  9
$DWGCODEPAGE
  3
ANSI_1252
  9
$EXTMAX
 10
116.1587457307
 20
164.2816546763
 30
0.0
  9
$EXTMIN
 10
0.0
 20
0.0
 30
0.0
  9
$LIMMIN
 10
0.0
 20
0.0
  9
$LIMMAX
 10
116.1587457307
 20
164.2816546763
  9
$VIEWCTR
 10
58.0793728653
 20
82.1408273381
  9
$VIEWSIZE
 40
164.2816546763
  9
$CLAYER
  8
0
  9
$LTSCALE
 40
10.7087300826
  9
$CELTYPE
  6
BYLAYER
  9
$DIMSCALE
 40
1.0
  9
$DIMASZ
 40
1.3828422111
  9
$DIMEXO
 40
1.0
  9
$DIMDLI
 40
7.3987589662
  9
$DIMEXE
 40
1.0
  9
$DIMCEN
 40
1.7523376499
  9
$DIMLFAC
 40
1.0
  9
$DIMBLK
  1
_FILLED
  9
$DIMALT
 70
0
  9
$DIMALTF
 40
0.0393700787
  9
$DIMTXT
 40
1.9359790955
  9
$DIMTOL
 70
1
  9
$DIMLIM
 70
0
  9
$DIMTFAC
 40
1.0
  9
$DIMTP
 40
0.01
  9
$DIMTM
 40
0.01
  9
$DIMGAP
 40
0.625
  9
$DIMDSEP
 70
46
  9
$AUNITS
 70
0
  9
$PDMODE
 70
3
  9
$PDSIZE
 40
0.3125
  9
$HANDSEED
  5
360
  9
$TILEMODE
 70
1
  9
$MEASUREMENT
 70
1
  9
$INSUNITS
 70
4
  0
ENDSEC
  0
SECTION
  2
CLASSES
  0
CLASS
  1
ACDBDICTIONARYWDFLT
  2
AcDbDictionaryWithDefault
  3
AutoCAD 2000
 90
0
 91
1
280
0
281
0
  0
CLASS
  1
ACDBPLACEHOLDER
  2
AcDbPlaceHolder
  3
AutoCAD 2000
 90
0
 91
1
280
0
281
0
  0
CLASS
  1
LAYOUT
  2
AcDbLayout
  3
AutoCAD 2000
 90
0
 91
0
280
0
281
0
  0
ENDSEC
  0
SECTION
  2
TABLES
  0
TABLE
  2
VPORT
  5
8
100
AcDbSymbolTable
 70
2
  0
VPORT
  5
1F4
100
AcDbSymbolTableRecord
100
AcDbViewportTableRecord
  2
*ACTIVE
 70
0
 10
0.0
 20
0.0
 11
1.0
 21
1.0
 12
58.0793728653
 22
82.1408273381
 13
0.0
 23
0.0
 14
1.0
 24
1.0
 15
0.0
 25
0.0
 16
0.0
 26
0.0
 36
1.0
 17
0.0
 27
0.0
 37
0.0
 40
164.2816546763
 41
0.7070707071
 42
50.0
 43
0.0
 44
0.0
 50
0.0
 51
0.0
 71
0
 72
100
 73
1
 74
1
 75
0
 76
0
 77
0
 78
0
  0
ENDTAB
  0
TABLE
  2
LTYPE
  5
5
100
AcDbSymbolTable
 70
6
  0
LTYPE
  5
14
100
AcDbSymbolTableRecord
100
AcDbLinetypeTableRecord
  2
BYBLOCK
 70
0
  3

 72
65
 73
0
 40
0.0
  0
LTYPE
  5
15
100
AcDbSymbolTableRecord
100
AcDbLinetypeTableRecord
  2
BYLAYER
 70
0
  3

 72
65
 73
0
 40
0.0
  0
LTYPE
  5
16
100
AcDbSymbolTableRecord
100
AcDbLinetypeTableRecord
  2
CONTINUOUS
 70
64
  3
Solid line
 72
65
 73
0
 40
0.0
  0
LTYPE
  5
1F5
100
AcDbSymbolTableRecord
100
AcDbLinetypeTableRecord
  2
CENTER
 70
64
  3
____ _ ____ _ ____ _ ____ _ ____ _ ____ _ ____
 72
65
 73
4
 40
0.6
 49
0.375
 74
0
 49
-0.075
 74
0
 49
0.075
 74
0
 49
-0.075
 74
0
  0
LTYPE
  5
1F6
100
AcDbSymbolTableRecord
100
AcDbLinetypeTableRecord
  2
HIDDEN
 70
64
  3
- - - - - - - - - - - - - - - - - - - -
 72
65
 73
2
 40
0.2
 49
0.1
 74
0
 49
-0.1
 74
0
  0
LTYPE
  5
1F7
100
AcDbSymbolTableRecord
100
AcDbLinetypeTableRecord
  2
PHANTOM
 70
64
  3
_____ _ _ _____ _ _ _____ _ _ _____
 72
65
 73
6
 40
0.8
 49
0.45
 74
0
 49
-0.05
 74
0
 49
0.1
 74
0
 49
-0.05
 74
0
 49
0.1
 74
0
 49
-0.05
 74
0
  0
LTYPE
  5
1F8
100
AcDbSymbolTableRecord
100
AcDbLinetypeTableRecord
  2
DOT
 70
64
  3
. . . . . . . . . . . . . . . . . . . .
 72
65
 73
2
 40
0.2
 49
0.1
 74
0
 49
-0.1
 74
0
  0
LTYPE
  5
1F9
100
AcDbSymbolTableRecord
100
AcDbLinetypeTableRecord
  2
DASHED
 70
64
  3
- - - - - - - - - - - - - - - - - - - -
 72
65
 73
2
 40
0.2
 49
0.1
 74
0
 49
-0.1
 74
0
  0
ENDTAB
  0
TABLE
  2
LAYER
  5
2
100
AcDbSymbolTable
 70
36
  0
LAYER
  5
10
100
AcDbSymbolTableRecord
100
AcDbLayerTableRecord
  2
0
 70
0
 62
7
  6
CONTINUOUS
370
-3
390
F
  0
LAYER
  5
1FA
100
AcDbSymbolTableRecord
100
AcDbLayerTableRecord
  2
DEFAULT_1
 70
0
 62
7
  6
CENTER
370
-3
390
F
  0
LAYER
  5
1FB
100
AcDbSymbolTableRecord
100
AcDbLayerTableRecord
  2
DEFAULT_2
 70
0
 62
7
  6
HIDDEN
370
-3
390
F
  0
LAYER
  5
1FC
100
AcDbSymbolTableRecord
100
AcDbLayerTableRecord
  2
DEFAULT_3
 70
0
 62
7
  6
PHANTOM
370
-3
390
F
  0
LAYER
  5
1FD
100
AcDbSymbolTableRecord
100
AcDbLayerTableRecord
  2
00_COMPONENTS
 70
0
 62
7
  6
CONTINUOUS
370
-3
390
F
  0
LAYER
  5
1FE
100
AcDbSymbolTableRecord
100
AcDbLayerTableRecord
  2
01_1_DEFAULT_DATUMS
 70
0
 62
7
  6
CONTINUOUS
370
-3
390
F
  0
LAYER
  5
1FF
100
AcDbSymbolTableRecord
100
AcDbLayerTableRecord
  2
01_PLANES
 70
0
 62
7
  6
CONTINUOUS
370
-3
390
F
  0
LAYER
  5
200
100
AcDbSymbolTableRecord
100
AcDbLayerTableRecord
  2
02_COORD_SYS
 70
0
 62
7
  6
CONTINUOUS
370
-3
390
F
  0
LAYER
  5
201
100
AcDbSymbolTableRecord
100
AcDbLayerTableRecord
  2
03_AXES
 70
0
 62
7
  6
CONTINUOUS
370
-3
390
F
  0
LAYER
  5
202
100
AcDbSymbolTableRecord
100
AcDbLayerTableRecord
  2
04_POINTS
 70
0
 62
7
  6
CONTINUOUS
370
-3
390
F
  0
LAYER
  5
203
100
AcDbSymbolTableRecord
100
AcDbLayerTableRecord
  2
05_CURVES
 70
0
 62
7
  6
CONTINUOUS
370
-3
390
F
  0
LAYER
  5
204
100
AcDbSymbolTableRecord
100
AcDbLayerTableRecord
  2
06_SURFS
 70
0
 62
7
  6
CONTINUOUS
370
-3
390
F
  0
LAYER
  5
205
100
AcDbSymbolTableRecord
100
AcDbLayerTableRecord
  2
07_COSMETICS
 70
0
 62
7
  6
CONTINUOUS
370
-3
390
F
  0
LAYER
  5
206
100
AcDbSymbolTableRecord
100
AcDbLayerTableRecord
  2
10_NOTES
 70
0
 62
7
  6
CONTINUOUS
370
-3
390
F
  0
LAYER
  5
207
100
AcDbSymbolTableRecord
100
AcDbLayerTableRecord
  2
11_NOTES_PUB
 70
0
 62
7
  6
CONTINUOUS
370
-3
390
F
  0
LAYER
  5
208
100
AcDbSymbolTableRecord
100
AcDbLayerTableRecord
  2
13_REF_GTOL
 70
0
 62
7
  6
CONTINUOUS
370
-3
390
F
  0
LAYER
  5
209
100
AcDbSymbolTableRecord
100
AcDbLayerTableRecord
  2
16_MISC
 70
0
 62
7
  6
CONTINUOUS
370
-3
390
F
  0
LAYER
  5
20A
100
AcDbSymbolTableRecord
100
AcDbLayerTableRecord
  2
17_NO_PRINT
 70
0
 62
7
  6
CONTINUOUS
370
-3
390
F
  0
LAYER
  5
20B
100
AcDbSymbolTableRecord
100
AcDbLayerTableRecord
  2
18_DATUM_CAMS_JOINTS
 70
0
 62
7
  6
CONTINUOUS
370
-3
390
F
  0
LAYER
  5
20C
100
AcDbSymbolTableRecord
100
AcDbLayerTableRecord
  2
19_DATUM_FUNCTIONAL
 70
0
 62
7
  6
CONTINUOUS
370
-3
390
F
  0
LAYER
  5
20D
100
AcDbSymbolTableRecord
100
AcDbLayerTableRecord
  2
20_DATUM_KINEMATIC_SCHEME
 70
0
 62
7
  6
CONTINUOUS
370
-3
390
F
  0
ENDTAB
  0
TABLE
  2
STYLE
  5
3
100
AcDbSymbolTable
 70
1
  0
STYLE
  5
11
100
AcDbSymbolTableRecord
100
AcDbTextStyleTableRecord
  2
STANDARD
 70
0
 40
0.0
 41
1.0
 50
0.0
 71
0
 42
0.2
  3
ARIAL.TTF
  4

  0
STYLE
  5
20E
100
AcDbSymbolTableRecord
100
AcDbTextStyleTableRecord
  2
TEXTSTYLE_1
 70
0
 40
0.0
 41
0.8
 50
0.0
 71
0
 42
0.2
  3
gdt
  4

  0
ENDTAB
  0
TABLE
  2
VIEW
  5
6
100
AcDbSymbolTable
 70
0
  0
ENDTAB
  0
TABLE
  2
UCS
  5
7
100
AcDbSymbolTable
 70
0
  0
ENDTAB
  0
TABLE
  2
APPID
  5
9
100
AcDbSymbolTable
 70
1
  0
APPID
  5
20F
100
AcDbSymbolTableRecord
100
AcDbRegAppTableRecord
  2
ACAD
 70
0
  0
ENDTAB
  0
TABLE
  2
BLOCK_RECORD
  5
1
100
AcDbSymbolTable
 70
0
  0
BLOCK_RECORD
  5
210
100
AcDbSymbolTableRecord
100
AcDbBlockTableRecord
  2
*Model_Space
  0
BLOCK_RECORD
  5
211
100
AcDbSymbolTableRecord
100
AcDbBlockTableRecord
  2
*Paper_Space
  0
BLOCK_RECORD
  5
212
100
AcDbSymbolTableRecord
100
AcDbBlockTableRecord
  2
_FILLED
  0
ENDTAB
  0
TABLE
  2
DIMSTYLE
  5
A
100
AcDbSymbolTable
 70
1
100
AcDbDimStyleTable
 71
0
  0
DIMSTYLE
105
213
100
AcDbSymbolTableRecord
100
AcDbDimStyleTableRecord
  2
STANDARD
 70
0
  3

  4

 40
1.0
 41
1.3828422111
 42
1.0
 43
0.38
 44
1.0
 45
0.0
 46
0.0
 47
0.01
 48
0.01
140
1.9359790955
141
0.09
142
0.0
143
25.4
144
1.0
145
0.0
146
1.0
147
0.625
 71
1
 72
0
 73
0
 74
0
 75
0
 76
0
 77
1
 78
8
 79
2
170
0
171
1
172
0
173
0
174
0
175
0
176
0
177
0
178
0
270
2
179
2
271
2
272
2
273
2
274
2
275
0
280
0
281
0
282
0
283
1
284
8
285
0
286
0
287
3
288
0
340
11
278
46
341
212
342
212
343
212
344
212
  0
ENDTAB
  0
ENDSEC
  0
SECTION
  2
BLOCKS
  0
BLOCK
  5
20
100
AcDbEntity
  8
0
100
AcDbBlockBegin
  2
*Model_Space
 70
0
 10
0.0
 20
0.0
 30
0.0
  3
*Model_Space
  1

  0
ENDBLK
  5
21
100
AcDbEntity
  8
0
100
AcDbBlockEnd
  0
BLOCK
  5
1C
100
AcDbEntity
  8
0
100
AcDbBlockBegin
  2
*Paper_Space
 70
0
 10
0.0
 20
0.0
 30
0.0
  3
*Paper_Space
  1

  0
ENDBLK
  5
1D
100
AcDbEntity
  8
0
100
AcDbBlockEnd
  0
BLOCK
  5
214
100
AcDbEntity
  8
0
100
AcDbBlockBegin
  2
_FILLED
 70
64
 10
0.0
 20
0.0
  3
_FILLED
  1

  0
SOLID
  5
215
100
AcDbEntity
  8
0
  6
BYBLOCK
 62
0
100
AcDbTrace
 10
0.0
 20
0.0
 11
-1.0
 21
0.25
 12
-1.0
 22
-0.25
 13
-1.0
 23
-0.25
  0
ENDBLK
  5
216
100
AcDbEntity
  8
0
  6
BYBLOCK
 62
0
100
AcDbBlockEnd
  0
ENDSEC
  0
SECTION
  2
ENTITIES
  0
LINE
  5
217
100
AcDbEntity
  8
0
100
AcDbLine
 62
7
  6
BYLAYER
 10
61.3374663905
 20
11.7631294964
 11
57.8374663905
 21
11.7631294964
  0
LINE
  5
218
100
AcDbEntity
  8
0
100
AcDbLine
 62
7
  6
BYLAYER
 10
65.6374663905
 20
11.9131294964
 11
53.5374663905
 21
11.9131294964
  0
LINE
  5
219
100
AcDbEntity
  8
0
100
AcDbLine
 62
7
  6
BYLAYER
 10
65.9374663905
 20
12.9131294964
 11
53.2374663905
 21
12.9131294964
  0
LINE
  5
21A
100
AcDbEntity
  8
0
100
AcDbLine
 62
7
  6
BYLAYER
 10
53.2374663905
 20
13.7131294964
 11
65.9374663905
 21
13.7131294964
  0
LINE
  5
21B
100
AcDbEntity
  8
0
100
AcDbLine
 62
7
  6
BYLAYER
 10
65.9374663905
 20
14.9131294964
 11
53.2374663905
 21
14.9131294964
  0
LINE
  5
21C
100
AcDbEntity
  8
0
100
AcDbLine
 62
7
  6
BYLAYER
 10
53.2374663905
 20
16.0631294964
 11
65.9374663905
 21
16.0631294964
  0
LINE
  5
21D
100
AcDbEntity
  8
0
100
AcDbLine
 62
7
  6
BYLAYER
 10
66.2874663905
 20
17.4031294964
 11
52.8874663905
 21
17.4031294964
  0
LINE
  5
21E
100
AcDbEntity
  8
0
100
AcDbLine
 62
7
  6
BYLAYER
 10
67.5874663905
 20
19.5131294964
 11
51.5874663905
 21
19.5131294964
  0
LINE
  5
21F
100
AcDbEntity
  8
0
100
AcDbLine
 62
7
  6
BYLAYER
 10
51.5874663905
 20
20.5131294964
 11
67.5874663905
 21
20.5131294964
  0
LINE
  5
220
100
AcDbEntity
  8
0
100
AcDbLine
 62
7
  6
BYLAYER
 10
67.0874663905
 20
21.0131294964
 11
52.0874663905
 21
21.0131294964
  0
LINE
  5
221
100
AcDbEntity
  8
0
100
AcDbLine
 62
7
  6
BYLAYER
 10
52.0874663905
 20
21.5131294964
 11
67.0872467453
 21
21.5131294964
  0
LINE
  5
222
100
AcDbEntity
  8
0
100
AcDbLine
 62
7
  6
BYLAYER
 10
52.2874664129
 20
21.7131294964
 11
66.8872525802
 21
21.7131294964
  0
LINE
  5
223
100
AcDbEntity
  8
0
100
AcDbLine
 62
7
  6
BYLAYER
 10
66.8874663683
 20
22.9131294964
 11
52.2875723547
 21
22.9131294964
  0
LINE
  5
224
100
AcDbEntity
  8
0
100
AcDbLine
 62
7
  6
BYLAYER
 10
67.0874663905
 20
23.1131294964
 11
52.087575235
 21
23.1131294964
  0
LINE
  5
225
100
AcDbEntity
  8
0
100
AcDbLine
 62
7
  6
BYLAYER
 10
52.0874663905
 20
25.3131294964
 11
67.0874663905
 21
25.3131294964
  0
LINE
  5
226
100
AcDbEntity
  8
0
100
AcDbLine
 62
7
  6
BYLAYER
 10
53.1874663905
 20
26.4131294964
 11
65.9874663905
 21
26.4131294964
  0
LINE
  5
227
100
AcDbEntity
  8
0
100
AcDbLine
 62
7
  6
BYLAYER
 10
54.8374663905
 20
27.9325042249
 11
64.3374663905
 21
27.9325042249
  0
LWPOLYLINE
  5
228
100
AcDbEntity
  8
0
100
AcDbPolyline
 62
7
  6
BYLAYER
 90
11
 70
0
 10
61.7652290469
 20
37.8828324456
 10
61.7538883223
 20
37.8800632156
 10
61.5957825995
 20
37.8488397694
 10
61.3048597362
 20
37.8077679143
 10
60.9027878876
 20
37.7630873363
 10
60.4071895211
 20
37.7158826371
 10
59.8382703649
 20
37.666219893
 10
59.2237278895
 20
37.6141011875
 10
58.6025815496
 20
37.5596689003
 10
58.0211717586
 20
37.5028014195
 10
57.5382676382
 20
37.4439854407
  0
LWPOLYLINE
  5
229
100
AcDbEntity
  8
0
100
AcDbPolyline
 62
7
  6
BYLAYER
 90
5
 70
0
 10
61.8261243179
 20
39.27518516
 10
62.1249479203
 20
39.3436192203
 10
62.4161853194
 20
39.4980431887
 10
62.6297634079
 20
39.8939663528
 10
62.6347245066
 20
39.9704528163
  0
LINE
  5
22A
100
AcDbEntity
  8
0
100
AcDbLine
 62
7
  6
BYLAYER
 10
57.4143052011
 20
37.5084625798
 11
57.5702054146
 21
37.5397952261
  0
LWPOLYLINE
  5
22B
100
AcDbEntity
  8
0
100
AcDbPolyline
 62
7
  6
BYLAYER
 90
5
 70
0
 10
57.5382676382
 20
37.4439854407
 10
57.1875043021
 20
37.3826485461
 10
56.9093115104
 20
37.2915446293
 10
56.6127641262
 20
37.0135060007
 10
56.5377948765
 20
36.72045795
  0
LWPOLYLINE
  5
22C
100
AcDbEntity
  8
0
100
AcDbPolyline
 62
7
  6
BYLAYER
 90
5
 70
0
 10
61.59894862
 20
37.9406969101
 10
61.9665004894
 20
38.0023123053
 10
62.2514927484
 20
38.0916511744
 10
62.5522077812
 20
38.3616450674
 10
62.6351469452
 20
38.6693805432
  0
LWPOLYLINE
  5
22D
100
AcDbEntity
  8
0
100
AcDbPolyline
 62
7
  6
BYLAYER
 90
9
 70
0
 10
57.5702054146
 20
37.5397952261
 10
57.8563118607
 20
37.5803907228
 10
58.2515500978
 20
37.6246031511
 10
58.7360279517
 20
37.6711483523
 10
59.2916794009
 20
37.7199015877
 10
59.8931410877
 20
37.7708422092
 10
60.5083757676
 20
37.824345528
 10
61.0972734438
 20
37.8811820072
 10
61.59894862
 20
37.9406969101
  0
LINE
  5
22E
100
AcDbEntity
  8
0
100
AcDbLine
 62
7
  6
BYLAYER
 10
61.4166213465
 20
39.2171133653
 11
61.8261243179
 21
39.27518516
  0
LINE
  5
22F
100
AcDbEntity
  8
0
100
AcDbLine
 62
7
  6
BYLAYER
 10
57.7936510936
 20
38.7771501515
 11
57.3534014036
 21
38.7153470335
  0
LWPOLYLINE
  5
230
100
AcDbEntity
  8
0
100
AcDbPolyline
 62
7
  6
BYLAYER
 90
7
 70
0
 10
60.5204856839
 20
36.525529361
 10
61.128323706
 20
36.5843950506
 10
61.6238799919
 20
36.64405256
 10
61.9812791977
 20
36.7059161397
 10
62.2647201995
 20
36.7980684017
 10
62.5585780457
 20
37.0696546878
 10
62.6373808244
 20
37.3697025148
  0
LWPOLYLINE
  5
231
100
AcDbEntity
  8
0
100
AcDbPolyline
 62
7
  6
BYLAYER
 90
3
 70
0
 10
60.2412491127
 20
39.100661402
 10
60.8775942779
 20
39.1590507933
 10
61.4166213465
 20
39.2171133653
  0
LINE
  5
232
100
AcDbEntity
  8
0
100
AcDbLine
 62
7
  6
BYLAYER
 10
59.8669614361
 20
36.4686133956
 11
60.5204856839
 21
36.525529361
  0
LWPOLYLINE
  5
233
100
AcDbEntity
  8
0
100
AcDbPolyline
 62
7
  6
BYLAYER
 90
4
 70
0
 10
60.0524027045
 20
38.9845642236
 10
59.060321322
 20
38.9001676666
 10
58.3833494713
 20
38.8391460061
 10
57.7936510936
 20
38.7771501515
  0
LINE
  5
234
100
AcDbEntity
  8
0
100
AcDbLine
 62
7
  6
BYLAYER
 10
56.2272956556
 20
35.5131294964
 11
62.9476371254
 21
35.5131294964
  0
LINE
  5
235
100
AcDbEntity
  8
0
100
AcDbLine
 62
7
  6
BYLAYER
 10
62.5274663886
 20
35.593129499
 11
56.6478490937
 21
35.593129499
  0
LINE
  5
236
100
AcDbEntity
  8
0
100
AcDbLine
 62
7
  6
BYLAYER
 10
60.3781071419
 20
36.5131294964
 11
61.8374663905
 21
36.5131294964
  0
LWPOLYLINE
  5
237
100
AcDbEntity
  8
0
100
AcDbPolyline
 62
7
  6
BYLAYER
 90
11
 70
0
 10
61.7673226303
 20
41.7838511716
 10
61.7328008148
 20
41.7749345621
 10
61.5543566119
 20
41.7420148417
 10
61.2544778125
 20
41.7016589283
 10
60.8515949102
 20
41.657991119
 10
60.3651094396
 20
41.6120905848
 10
59.8116085754
 20
41.5639032286
 10
59.2126712588
 20
41.5131623835
 10
58.6040259782
 20
41.4598576819
 10
58.0321953694
 20
41.4039377692
 10
57.5462585969
 20
41.3450533937
  0
LWPOLYLINE
  5
238
100
AcDbEntity
  8
0
100
AcDbPolyline
 62
7
  6
BYLAYER
 90
5
 70
0
 10
57.3534014036
 20
38.7153470335
 10
57.0456633612
 20
38.6446472579
 10
56.744813614
 20
38.4803924695
 10
56.5417205921
 20
38.080291005
 10
56.5385391218
 20
38.0190890095
  0
LWPOLYLINE
  5
239
100
AcDbEntity
  8
0
100
AcDbPolyline
 62
7
  6
BYLAYER
 90
3
 70
0
 10
61.8069953846
 20
40.5721383916
 10
62.1259914709
 20
40.6441484627
 10
62.2648298007
 20
40.6986928247
  0
LWPOLYLINE
  5
23A
100
AcDbEntity
  8
0
100
AcDbPolyline
 62
7
  6
BYLAYER
 90
5
 70
0
 10
57.3721807323
 20
42.6184488392
 10
57.0580561058
 20
42.5493133806
 10
56.7499362139
 20
42.3853277775
 10
56.5431834542
 20
41.9826070903
 10
56.5399063299
 20
41.9205173396
  0
LWPOLYLINE
  5
23B
100
AcDbEntity
  8
0
100
AcDbPolyline
 62
7
  6
BYLAYER
 90
5
 70
0
 10
57.3853618662
 20
40.0208382113
 10
57.0643836661
 20
39.9509289325
 10
56.7559642067
 20
39.7895464742
 10
56.5441211194
 20
39.3853504538
 10
56.5404690743
 20
39.3197464792
  0
LWPOLYLINE
  5
23C
100
AcDbEntity
  8
0
100
AcDbPolyline
 62
7
  6
BYLAYER
 90
7
 70
0
 10
57.4108610583
 20
42.7075403636
 10
57.4165621226
 20
42.7086807794
 10
57.5528314674
 20
42.7365873491
 10
57.8102005561
 20
42.7745339957
 10
58.170914359
 20
42.8163225451
 10
58.6159250841
 20
42.8601168787
 10
59.1263985666
 20
42.9056351714
  0
LWPOLYLINE
  5
23D
100
AcDbEntity
  8
0
100
AcDbPolyline
 62
7
  6
BYLAYER
 90
10
 70
0
 10
57.4112998131
 20
41.4081301043
 10
57.5641367896
 20
41.4385708386
 10
57.8388948318
 20
41.4780274096
 10
58.2233153669
 20
41.5217939677
 10
58.7094173851
 20
41.5688085672
 10
59.2800508274
 20
41.6188429523
 10
59.9060665355
 20
41.6718689451
 10
60.5479432545
 20
41.7280271627
 10
61.1460178392
 20
41.7863910625
 10
61.6326773076
 20
41.8451083216
  0
LWPOLYLINE
  5
23E
100
AcDbEntity
  8
0
100
AcDbPolyline
 62
7
  6
BYLAYER
 90
8
 70
0
 10
57.4104210587
 20
40.1077737325
 10
57.4163683292
 20
40.108928764
 10
57.5572387913
 20
40.1373425056
 10
57.8208118799
 20
40.1757632704
 10
58.1836224914
 20
40.2176744607
 10
58.6306332016
 20
40.2615478834
 10
59.1413284539
 20
40.3069337271
 10
60.2565705564
 20
40.4020821014
  0
LWPOLYLINE
  5
23F
100
AcDbEntity
  8
0
100
AcDbPolyline
 62
7
  6
BYLAYER
 90
7
 70
0
 10
61.7635677831
 20
44.3821192522
 10
61.75850912
 20
44.3812303108
 10
61.618374185
 20
44.3526738051
 10
61.3544966723
 20
44.3140525164
 10
60.9857006345
 20
44.271638738
 10
60.529951221
 20
44.2270825919
 10
60.0047266616
 20
44.1804824257
  0
LWPOLYLINE
  5
240
100
AcDbEntity
  8
0
100
AcDbPolyline
 62
7
  6
BYLAYER
 90
5
 70
0
 10
61.6326773076
 20
41.8451083216
 10
61.9840258458
 20
41.9064610562
 10
62.2589164628
 20
41.9961140616
 10
62.5542534997
 20
42.2648460741
 10
62.6362437292
 20
42.5708041288
  0
LWPOLYLINE
  5
241
100
AcDbEntity
  8
0
100
AcDbPolyline
 62
7
  6
BYLAYER
 90
5
 70
0
 10
57.5462585969
 20
41.3450533937
 10
57.1865485761
 20
41.282670979
 10
56.8981540618
 20
41.1860888566
 10
56.608648203
 20
40.9035158675
 10
56.5391451116
 20
40.6207192701
  0
LWPOLYLINE
  5
242
100
AcDbEntity
  8
0
100
AcDbPolyline
 62
7
  6
BYLAYER
 90
5
 70
0
 10
61.6329699163
 20
44.4454280488
 10
61.9838221546
 20
44.5060519238
 10
62.2595240138
 20
44.5955867759
 10
62.5547157089
 20
44.8665655471
 10
62.6349144743
 20
45.1694699588
  0
LWPOLYLINE
  5
243
100
AcDbEntity
  8
0
100
AcDbPolyline
 62
7
  6
BYLAYER
 90
5
 70
0
 10
61.5959314781
 20
43.1401849813
 10
61.9659801425
 20
43.2025393262
 10
62.2515204445
 20
43.291690882
 10
62.5529922991
 20
43.5598342296
 10
62.6372285001
 20
43.8695432972
  0
LINE
  5
244
100
AcDbEntity
  8
0
100
AcDbLine
 62
7
  6
BYLAYER
 10
61.3581768787
 20
40.5099849586
 11
61.8069953846
 21
40.5721383916
  0
LINE
  5
245
100
AcDbEntity
  8
0
100
AcDbLine
 62
7
  6
BYLAYER
 10
57.8024468826
 20
42.6780354752
 11
57.3721807323
 21
42.6184488392
  0
LINE
  5
246
100
AcDbEntity
  8
0
100
AcDbLine
 62
7
  6
BYLAYER
 10
57.8294767682
 20
40.0812068008
 11
57.3853618662
 21
40.0208382113
  0
LWPOLYLINE
  5
247
100
AcDbEntity
  8
0
100
AcDbPolyline
 62
7
  6
BYLAYER
 90
3
 70
0
 10
60.2565705564
 20
40.4020821014
 10
60.8210779347
 20
40.4535666777
 10
61.3581768787
 20
40.5099849586
  0
LWPOLYLINE
  5
248
100
AcDbEntity
  8
0
100
AcDbPolyline
 62
7
  6
BYLAYER
 90
3
 70
0
 10
58.9953329098
 20
42.7945426045
 10
58.35983076
 20
42.7370309835
 10
57.8024468826
 20
42.6780354752
  0
LWPOLYLINE
  5
249
100
AcDbEntity
  8
0
100
AcDbPolyline
 62
7
  6
BYLAYER
 90
4
 70
0
 10
60.0368722816
 20
40.2831603122
 10
59.0547741718
 20
40.1997204709
 10
58.4031183279
 20
40.1411105875
 10
57.8294767682
 20
40.0812068008
  0
LWPOLYLINE
  5
24A
100
AcDbEntity
  8
0
100
AcDbPolyline
 62
7
  6
BYLAYER
 90
5
 70
0
 10
60.0047266616
 20
44.1804824257
 10
59.1316944889
 20
44.1062385901
 10
58.5395043866
 20
44.0538707253
 10
57.9859350158
 20
43.9990038835
 10
57.5186598528
 20
43.941193136
  0
LWPOLYLINE
  5
24B
100
AcDbEntity
  8
0
100
AcDbPolyline
 62
7
  6
BYLAYER
 90
5
 70
0
 10
59.1263985666
 20
42.9056351714
 10
59.9700476847
 20
42.97739836
 10
60.5477607083
 20
43.0279929861
 10
61.1039193765
 20
43.0818171476
 10
61.5959314781
 20
43.1401849813
  0
LWPOLYLINE
  5
24C
100
AcDbEntity
  8
0
100
AcDbPolyline
 62
7
  6
BYLAYER
 90
11
 70
0
 10
57.4162233901
 20
44.0092126546
 10
57.419205995
 20
44.0093959528
 10
57.5700629708
 20
44.0398010154
 10
57.8602938402
 20
44.0808663701
 10
58.2628043816
 20
44.1257489182
 10
58.7580059601
 20
44.1731573983
 10
59.3258866073
 20
44.2228250683
 10
59.9389479623
 20
44.2747268278
 10
60.5634317315
 20
44.3293313417
 10
61.1512223379
 20
44.3869347364
 10
61.6329699163
 20
44.4454280488
  0
LINE
  5
24D
100
AcDbEntity
  8
0
100
AcDbLine
 62
7
  6
BYLAYER
 10
67.5874663905
 20
20.5131294964
 11
67.0874663905
 21
21.0131294964
  0
LWPOLYLINE
  5
24E
100
AcDbEntity
  8
0
100
AcDbPolyline
 62
7
  6
BYLAYER
 90
5
 70
0
 10
57.3337302857
 20
47.8120739618
 10
57.0392920024
 20
47.7428728043
 10
56.7476735637
 20
47.5820990779
 10
56.5433892488
 20
47.179943158
 10
56.5402886609
 20
47.1195028499
  0
LWPOLYLINE
  5
24F
100
AcDbEntity
  8
0
100
AcDbPolyline
 62
7
  6
BYLAYER
 90
6
 70
0
 10
61.7644336617
 20
45.6820790909
 10
61.7544123448
 20
45.6797466364
 10
61.6050479084
 20
45.6503494307
 10
61.3321037866
 20
45.6113751021
 10
60.9473107095
 20
45.5676620484
 10
60.4513402924
 20
45.5197920816
  0
LWPOLYLINE
  5
250
100
AcDbEntity
  8
0
100
AcDbPolyline
 62
7
  6
BYLAYER
 90
5
 70
0
 10
57.3915372896
 20
46.5218113886
 10
57.0707349309
 20
46.4529272557
 10
56.7533771699
 20
46.2874370228
 10
56.5441115379
 20
45.8856081553
 10
56.5404469011
 20
45.8199075293
  0
LINE
  5
251
100
AcDbEntity
  8
0
100
AcDbLine
 62
7
  6
BYLAYER
 10
57.4157539165
 20
46.6092972784
 11
57.5919805366
 21
46.6433731355
  0
LWPOLYLINE
  5
252
100
AcDbEntity
  8
0
100
AcDbPolyline
 62
7
  6
BYLAYER
 90
5
 70
0
 10
57.5097536272
 20
45.2401305712
 10
57.171896485
 20
45.1790854127
 10
56.9005165276
 20
45.0860978661
 10
56.6112165687
 20
44.8074578888
 10
56.5388435054
 20
44.5190656008
  0
LWPOLYLINE
  5
253
100
AcDbEntity
  8
0
100
AcDbPolyline
 62
7
  6
BYLAYER
 90
5
 70
0
 10
57.5186598528
 20
43.941193136
 10
57.1756032802
 20
43.8799076881
 10
56.8980557444
 20
43.7858540718
 10
56.6086690059
 20
43.5059171702
 10
56.5376189528
 20
43.2203233525
  0
LWPOLYLINE
  5
254
100
AcDbEntity
  8
0
100
AcDbPolyline
 62
7
  6
BYLAYER
 90
5
 70
0
 10
61.6145788301
 20
48.3425769873
 10
61.9730083108
 20
48.4040445233
 10
62.2610342196
 20
48.4970587345
 10
62.5583605848
 20
48.7716657634
 10
62.6365432342
 20
49.0707661612
  0
LWPOLYLINE
  5
255
100
AcDbEntity
  8
0
100
AcDbPolyline
 62
7
  6
BYLAYER
 90
5
 70
0
 10
61.5909371885
 20
45.739622559
 10
61.9572753725
 20
45.8004531481
 10
62.2524815118
 20
45.8919567972
 10
62.5558082686
 20
46.167017468
 10
62.63568796
 20
46.4692652745
  0
LWPOLYLINE
  5
256
100
AcDbEntity
  8
0
100
AcDbPolyline
 62
7
  6
BYLAYER
 90
5
 70
0
 10
61.5886527303
 20
47.0391608701
 10
61.960938196
 20
47.1010117233
 10
62.2564146641
 20
47.1947907558
 10
62.5558875842
 20
47.470126361
 10
62.6344979059
 20
47.7702216342
  0
LINE
  5
257
100
AcDbEntity
  8
0
100
AcDbLine
 62
7
  6
BYLAYER
 10
57.5985426532
 20
46.5523370608
 11
57.3915372896
 21
46.5218113886
  0
LINE
  5
258
100
AcDbEntity
  8
0
100
AcDbLine
 62
7
  6
BYLAYER
 10
57.7350006186
 20
47.8699298451
 11
57.3337302857
 21
47.8120739618
  0
LWPOLYLINE
  5
259
100
AcDbEntity
  8
0
100
AcDbPolyline
 62
7
  6
BYLAYER
 90
5
 70
0
 10
57.5919805366
 20
46.6433731355
 10
57.9202876241
 20
46.6880502857
 10
58.3806820998
 20
46.737620544
 10
58.9535790448
 20
46.7906759454
 10
60.3698800655
 20
46.9119526504
  0
LWPOLYLINE
  5
25A
100
AcDbEntity
  8
0
100
AcDbPolyline
 62
7
  6
BYLAYER
 90
8
 70
0
 10
57.4165393555
 20
45.3098542294
 10
57.4216935597
 20
45.3104895614
 10
57.5807503278
 20
45.3414615057
 10
57.8728940681
 20
45.3822522655
 10
58.2726031743
 20
45.4267854497
 10
58.7709388529
 20
45.4744216867
 10
59.3524028716
 20
45.525086118
 10
59.8027234075
 20
45.5631548725
  0
LWPOLYLINE
  5
25B
100
AcDbEntity
  8
0
100
AcDbPolyline
 62
7
  6
BYLAYER
 90
3
 70
0
 10
58.8033761246
 20
46.6778095395
 10
58.130417659
 20
46.6140994735
 10
57.5985426532
 20
46.5523370608
  0
LWPOLYLINE
  5
25C
100
AcDbEntity
  8
0
100
AcDbPolyline
 62
7
  6
BYLAYER
 90
3
 70
0
 10
60.3698800655
 20
46.9119526504
 10
61.0566958943
 20
46.9770563793
 10
61.5886527303
 20
47.0391608701
  0
LWPOLYLINE
  5
25D
100
AcDbEntity
  8
0
100
AcDbPolyline
 62
7
  6
BYLAYER
 90
3
 70
0
 10
58.8944720516
 20
47.9858093144
 10
58.2644106305
 20
47.9276077505
 10
57.7350006186
 20
47.8699298451
  0
LWPOLYLINE
  5
25E
100
AcDbEntity
  8
0
100
AcDbPolyline
 62
7
  6
BYLAYER
 90
4
 70
0
 10
59.8027396747
 20
45.5631386702
 10
60.4103546775
 20
45.6155498603
 10
61.0761136151
 20
45.6789380881
 10
61.5909371885
 20
45.739622559
  0
LINE
  5
25F
100
AcDbEntity
  8
0
100
AcDbLine
 62
7
  6
BYLAYER
 10
60.4513402924
 20
45.5197920816
 11
59.8111466132
 21
45.4639364063
  0
LWPOLYLINE
  5
260
100
AcDbEntity
  8
0
100
AcDbPolyline
 62
7
  6
BYLAYER
 90
5
 70
0
 10
59.8111466132
 20
45.4639364063
 10
59.2060425175
 20
45.4126773841
 10
58.5575547267
 20
45.3555062475
 10
57.9748709333
 20
45.2976791661
 10
57.5097536272
 20
45.2401305712
  0
LINE
  5
261
100
AcDbEntity
  8
0
100
AcDbLine
 62
7
  6
BYLAYER
 10
60.1592593186
 20
46.7938002879
 11
58.8033761246
 21
46.6778095395
  0
LWPOLYLINE
  5
262
100
AcDbEntity
  8
0
100
AcDbPolyline
 62
7
  6
BYLAYER
 90
10
 70
0
 10
57.4134100807
 20
47.9089573744
 10
57.41649568
 20
47.9090526039
 10
57.5841241604
 20
47.9418556698
 10
57.9115203625
 20
47.9870250873
 10
58.3796905692
 20
48.037632497
 10
58.9720919417
 20
48.092248073
 10
59.6645476995
 20
48.1514148795
 10
60.4115599894
 20
48.2157472171
 10
61.0932388619
 20
48.2808115727
 10
61.6145788301
 20
48.3425769873
  0
LINE
  5
263
100
AcDbEntity
  8
0
100
AcDbLine
 62
7
  6
BYLAYER
 10
59.8407241906
 20
48.0665228524
 11
59.3348738935
 21
48.1232526267
  0
LINE
  5
264
100
AcDbEntity
  8
0
100
AcDbLine
 62
7
  6
BYLAYER
 10
59.8338088966
 20
48.0658263195
 11
59.3436980428
 21
48.1239999157
  0
LINE
  5
265
100
AcDbEntity
  8
0
100
AcDbLine
 62
7
  6
BYLAYER
 10
57.4138356923
 20
50.5080338061
 11
57.4148816149
 21
50.5083275626
  0
LWPOLYLINE
  5
266
100
AcDbEntity
  8
0
100
AcDbPolyline
 62
7
  6
BYLAYER
 90
6
 70
0
 10
57.1436266509
 20
51.6723817387
 10
57.0985568224
 20
51.6605381216
 10
56.842947819
 20
51.5538819133
 10
56.704216999
 20
51.4398401046
 10
56.5401007936
 20
51.0560721917
 10
56.5389432626
 20
51.0191779192
  0
LWPOLYLINE
  5
267
100
AcDbEntity
  8
0
100
AcDbPolyline
 62
7
  6
BYLAYER
 90
10
 70
0
 10
61.7671718659
 20
53.4830692212
 10
61.7482096046
 20
53.4782848122
 10
61.5629278168
 20
53.4435818418
 10
61.2267242319
 20
53.398478379
 10
60.7583646467
 20
53.3486458752
 10
60.1766587736
 20
53.2953582579
 10
59.4940097084
 20
53.2370952948
 10
58.7499241059
 20
53.1729446073
 10
58.0722090671
 20
53.1080959688
 10
57.5562934217
 20
53.0467480631
  0
LINE
  5
268
100
AcDbEntity
  8
0
100
AcDbLine
 62
7
  6
BYLAYER
 10
57.1436396621
 20
51.6723673646
 11
57.1421982569
 21
51.6720075997
  0
LWPOLYLINE
  5
269
100
AcDbEntity
  8
0
100
AcDbPolyline
 62
7
  6
BYLAYER
 90
5
 70
0
 10
57.35182128
 20
50.4148578546
 10
57.0475828108
 20
50.3455421794
 10
56.7464367884
 20
50.1833515845
 10
56.5408556224
 20
49.7828701412
 10
56.5375021671
 20
49.7201113452
  0
LWPOLYLINE
  5
26A
100
AcDbEntity
  8
0
100
AcDbPolyline
 62
7
  6
BYLAYER
 90
5
 70
0
 10
57.3743456561
 20
49.1187785719
 10
57.0610789079
 20
49.0502313291
 10
56.7588641687
 20
48.8933822225
 10
56.543329401
 20
48.4863483482
 10
56.5396554662
 20
48.4206033211
  0
LWPOLYLINE
  5
26B
100
AcDbEntity
  8
0
100
AcDbPolyline
 62
7
  6
BYLAYER
 90
5
 70
0
 10
61.7989157478
 20
49.670934088
 10
62.1029375587
 20
49.736751475
 10
62.4083882139
 20
49.8891160246
 10
62.631290223
 20
50.2872892111
 10
62.6370169286
 20
50.3694118027
  0
LWPOLYLINE
  5
26C
100
AcDbEntity
  8
0
100
AcDbPolyline
 62
7
  6
BYLAYER
 90
5
 70
0
 10
61.7767037793
 20
52.2671863149
 10
62.101499293
 20
52.335990424
 10
62.4098249982
 20
52.4911618739
 10
62.6299412443
 20
52.889442404
 10
62.6353526007
 20
52.9693197055
  0
LWPOLYLINE
  5
26D
100
AcDbEntity
  8
0
100
AcDbPolyline
 62
7
  6
BYLAYER
 90
8
 70
0
 10
57.4148816149
 20
50.5083275626
 10
57.6106787538
 20
50.5461074027
 10
58.164448452
 20
50.6156545746
 10
58.9420016424
 20
50.6895578839
 10
59.7885367871
 20
50.7619510304
 10
60.5614037698
 20
50.8292498733
 10
61.1944545954
 20
50.8914903842
 10
61.6702557255
 20
50.9507056318
  0
LINE
  5
26E
100
AcDbEntity
  8
0
100
AcDbLine
 62
7
  6
BYLAYER
 10
57.5027153198
 20
51.7388165982
 11
57.1421982569
 21
51.6720075997
  0
LWPOLYLINE
  5
26F
100
AcDbEntity
  8
0
100
AcDbPolyline
 62
7
  6
BYLAYER
 90
5
 70
0
 10
61.6702557255
 20
50.9507056318
 10
62.0056818475
 20
51.0114999724
 10
62.28188026
 20
51.1067522871
 10
62.5638771308
 20
51.3794761357
 10
62.6374493041
 20
51.6698597669
  0
LWPOLYLINE
  5
270
100
AcDbEntity
  8
0
100
AcDbPolyline
 62
7
  6
BYLAYER
 90
5
 70
0
 10
57.5562934217
 20
53.0467480631
 10
57.2004664347
 20
52.9855184767
 10
56.912011941
 20
52.891946835
 10
56.6127191159
 20
52.611284638
 10
56.5383087039
 20
52.319131801
  0
LWPOLYLINE
  5
271
100
AcDbEntity
  8
0
100
AcDbPolyline
 62
7
  6
BYLAYER
 90
5
 70
0
 10
61.5420531893
 20
53.5329184005
 10
61.9464190007
 20
53.5979694562
 10
62.2471880123
 20
53.6905225932
 10
62.5504740161
 20
53.9604780629
 10
62.6346052087
 20
54.2703678706
  0
LINE
  5
272
100
AcDbEntity
  8
0
100
AcDbLine
 62
7
  6
BYLAYER
 10
57.7815165173
 20
50.4757368369
 11
57.35182128
 21
50.4148578546
  0
LINE
  5
273
100
AcDbEntity
  8
0
100
AcDbLine
 62
7
  6
BYLAYER
 10
61.3699793054
 20
49.6114103888
 11
61.7989157478
 21
49.670934088
  0
LINE
  5
274
100
AcDbEntity
  8
0
100
AcDbLine
 62
7
  6
BYLAYER
 10
57.8086110386
 20
49.1787826558
 11
57.3743456561
 21
49.1187785719
  0
LINE
  5
275
100
AcDbEntity
  8
0
100
AcDbLine
 62
7
  6
BYLAYER
 10
61.3165515678
 20
52.2052851139
 11
61.7767037793
 21
52.2671863149
  0
LWPOLYLINE
  5
276
100
AcDbEntity
  8
0
100
AcDbPolyline
 62
7
  6
BYLAYER
 90
4
 70
0
 10
59.1400955358
 20
49.4068246754
 10
60.1255231512
 20
49.4907335494
 10
60.7955315698
 20
49.5510298339
 10
61.3699793054
 20
49.6114103888
  0
LWPOLYLINE
  5
277
100
AcDbEntity
  8
0
100
AcDbPolyline
 62
7
  6
BYLAYER
 90
4
 70
0
 10
60.0501683497
 20
50.6844055756
 10
59.0466330534
 20
50.5989275676
 10
58.3659459069
 20
50.5375450196
 10
57.7815165173
 20
50.4757368369
  0
LWPOLYLINE
  5
278
100
AcDbEntity
  8
0
100
AcDbPolyline
 62
7
  6
BYLAYER
 90
4
 70
0
 10
59.1180307424
 20
53.3050019805
 10
60.2145702444
 20
53.3983375092
 10
60.9476726876
 20
53.4659788877
 10
61.5420531893
 20
53.5329184005
  0
LWPOLYLINE
  5
279
100
AcDbEntity
  8
0
100
AcDbPolyline
 62
7
  6
BYLAYER
 90
4
 70
0
 10
59.9738953827
 20
49.3777615328
 10
59.0089280781
 20
49.2957088031
 10
58.3722356443
 20
49.2382265113
 10
57.8086110386
 20
49.1787826558
  0
LWPOLYLINE
  5
27A
100
AcDbEntity
  8
0
100
AcDbPolyline
 62
7
  6
BYLAYER
 90
4
 70
0
 10
59.0468840711
 20
51.9987897773
 10
60.0297334212
 20
52.0824799424
 10
60.7128075018
 20
52.1431436671
 10
61.3165515678
 20
52.2052851139
  0
LINE
  5
27B
100
AcDbEntity
  8
0
100
AcDbLine
 62
7
  6
BYLAYER
 10
59.8404919618
 20
53.2665931785
 11
59.3296751161
 21
53.3238859289
  0
LINE
  5
27C
100
AcDbEntity
  8
0
100
AcDbLine
 62
7
  6
BYLAYER
 10
59.8400353656
 20
53.2666280095
 11
59.3414304103
 21
53.3240578715
  0
LWPOLYLINE
  5
27D
100
AcDbEntity
  8
0
100
AcDbPolyline
 62
7
  6
BYLAYER
 90
7
 70
0
 10
61.7625724327
 20
56.0821546165
 10
61.7499058422
 20
56.0790689717
 10
61.5709120386
 20
56.0446092657
 10
61.2318530075
 20
55.9989902283
 10
60.7585920053
 20
55.9488064643
 10
60.1742784785
 20
55.895155117
 10
58.744001962
 20
55.7724791976
  0
LWPOLYLINE
  5
27E
100
AcDbEntity
  8
0
100
AcDbPolyline
 62
7
  6
BYLAYER
 90
11
 70
0
 10
57.4089797431
 20
54.4072576621
 10
57.4187796177
 20
54.4095938049
 10
57.5658824103
 20
54.4388185504
 10
57.839090421
 20
54.4780822721
 10
58.2208170983
 20
54.5215633189
 10
58.7024873228
 20
54.5681595661
 10
59.2676641699
 20
54.6177747451
 10
59.8916569657
 20
54.6706596308
 10
60.5382531157
 20
54.7271580713
 10
61.142651472
 20
54.7859992265
 10
61.6312889936
 20
54.8449391899
  0
LWPOLYLINE
  5
27F
100
AcDbEntity
  8
0
100
AcDbPolyline
 62
7
  6
BYLAYER
 90
10
 70
0
 10
61.7604630121
 20
54.7810692435
 10
61.7498456451
 20
54.7786376881
 10
61.5699041085
 20
54.7444527569
 10
61.2293000281
 20
54.6988394483
 10
60.7570036542
 20
54.6486076016
 10
60.1718506218
 20
54.5948777336
 10
59.4826863086
 20
54.5361037555
 10
58.7360840903
 20
54.4718039491
 10
58.0648544864
 20
54.4072588444
 10
57.5548719721
 20
54.3464240327
  0
LWPOLYLINE
  5
280
100
AcDbEntity
  8
0
100
AcDbPolyline
 62
7
  6
BYLAYER
 90
6
 70
0
 10
57.4149801719
 20
53.1090815579
 10
57.4244839146
 20
53.1111385021
 10
57.6144269145
 20
53.1468952313
 10
57.9788278046
 20
53.1949290116
 10
58.4875683869
 20
53.2480488036
 10
59.1180307424
 20
53.3050019805
  0
LWPOLYLINE
  5
281
100
AcDbEntity
  8
0
100
AcDbPolyline
 62
7
  6
BYLAYER
 90
5
 70
0
 10
61.6312889936
 20
54.8449391899
 10
61.9830018409
 20
54.9063026163
 10
62.2533341635
 20
54.9933010883
 10
62.5517364853
 20
55.2594411585
 10
62.6368167332
 20
55.5707163908
  0
LWPOLYLINE
  5
282
100
AcDbEntity
  8
0
100
AcDbPolyline
 62
7
  6
BYLAYER
 90
5
 70
0
 10
57.5548719721
 20
54.3464240327
 10
57.1976894252
 20
54.2853208209
 10
56.9057993845
 20
54.1888453263
 10
56.6113051305
 20
53.9053263776
 10
56.5404099864
 20
53.6196336622
  0
LWPOLYLINE
  5
283
100
AcDbEntity
  8
0
100
AcDbPolyline
 62
7
  6
BYLAYER
 90
5
 70
0
 10
57.5673586995
 20
55.6480038381
 10
57.20942093
 20
55.5877225977
 10
56.9152370415
 20
55.4944871035
 10
56.6133016135
 20
55.2119630456
 10
56.5393770417
 20
54.9206835956
  0
LWPOLYLINE
  5
284
100
AcDbEntity
  8
0
100
AcDbPolyline
 62
7
  6
BYLAYER
 90
8
 70
0
 10
60.0566717434
 20
56.0591237426
 10
60.6668866509
 20
56.127994511
 10
61.2360401481
 20
56.2018458585
 10
61.7133309628
 20
56.2808938306
 10
62.0859270441
 20
56.3756701341
 10
62.4302828007
 20
56.56965964
 10
62.6349904268
 20
57.0008044802
 10
62.6361551728
 20
57.0381859864
  0
LWPOLYLINE
  5
285
100
AcDbEntity
  8
0
100
AcDbPolyline
 62
7
  6
BYLAYER
 90
3
 70
0
 10
58.744001962
 20
55.7724791976
 10
58.075275588
 20
55.7084919785
 10
57.5673586995
 20
55.6480038381
  0
LINE
  5
286
100
AcDbEntity
  8
0
100
AcDbLine
 62
7
  6
BYLAYER
 10
59.5877393717
 20
58.1130878085
 11
59.587790523
 21
58.1130841506
  0
LINE
  5
287
100
AcDbEntity
  8
0
100
AcDbLine
 62
7
  6
BYLAYER
 10
59.8390473215
 20
54.5667039995
 11
59.3323443643
 21
54.6235402192
  0
LWPOLYLINE
  5
288
100
AcDbEntity
  8
0
100
AcDbPolyline
 62
7
  6
BYLAYER
 90
3
 70
0
 10
59.8344567363
 20
54.5661037817
 10
59.7180273337
 20
54.5803201042
 10
59.34278869
 20
54.6241417283
  0
LWPOLYLINE
  5
289
100
AcDbEntity
  8
0
100
AcDbPolyline
 62
7
  6
BYLAYER
 90
5
 70
0
 10
59.58772865
 20
58.112666318
 10
58.9917611311
 20
58.2193013599
 10
58.3862543742
 20
58.5369895461
 10
58.1738203144
 20
58.7299649105
 10
57.9043352023
 20
59.1796211781
  0
LINE
  5
28A
100
AcDbEntity
  8
0
100
AcDbLine
 62
7
  6
BYLAYER
 10
61.8374663905
 20
36.5131294964
 11
62.5274663886
 21
35.593129499
  0
LINE
  5
28B
100
AcDbEntity
  8
0
100
AcDbLine
 62
7
  6
BYLAYER
 10
53.5374663905
 20
11.9131294964
 11
53.2374663905
 21
12.9131294964
  0
LINE
  5
28C
100
AcDbEntity
  8
0
100
AcDbLine
 62
7
  6
BYLAYER
 10
56.5374693812
 20
60.5131210677
 11
56.5485094655
 21
60.5131294858
  0
LWPOLYLINE
  5
28D
100
AcDbEntity
  8
0
100
AcDbPolyline
 62
7
  6
BYLAYER
 90
11
 70
0
 10
61.7598251139
 20
52.1807940867
 10
61.7593448431
 20
52.1815179372
 10
61.6164232526
 20
52.1523007577
 10
61.3331634934
 20
52.1112964736
 10
60.9216104744
 20
52.0650204493
 10
60.6720809209
 20
52.0404234359
 10
60.0980359729
 20
51.9885425158
 10
59.445363733
 20
51.9329106968
 10
58.7543341407
 20
51.873348255
 10
58.082741285
 20
51.8093129806
 10
57.5027153198
 20
51.7388165982
  0
LWPOLYLINE
  5
28E
100
AcDbEntity
  8
0
100
AcDbPolyline
 62
7
  6
BYLAYER
 90
4
 70
0
 10
56.5404691899
 20
39.3198906438
 10
56.6262006664
 20
39.0072258864
 10
56.9278528658
 20
38.7401094094
 10
57.1534909328
 20
38.6694195774
  0
LWPOLYLINE
  5
28F
100
AcDbEntity
  8
0
100
AcDbPolyline
 62
7
  6
BYLAYER
 90
4
 70
0
 10
56.5385392052
 20
38.019240984
 10
56.6195351844
 20
37.7150898346
 10
56.9207233725
 20
37.4427197875
 10
57.1505914996
 20
37.3705601635
  0
LWPOLYLINE
  5
290
100
AcDbEntity
  8
0
100
AcDbPolyline
 62
7
  6
BYLAYER
 90
4
 70
0
 10
56.5377949098
 20
36.720548868
 10
56.6150913456
 20
36.4231530748
 10
56.9038098223
 20
36.1517536908
 10
57.0334584158
 20
36.1077855301
  0
LWPOLYLINE
  5
291
100
AcDbEntity
  8
0
100
AcDbPolyline
 62
7
  6
BYLAYER
 90
4
 70
0
 10
56.780909739
 20
58.7574878866
 10
56.8282617189
 20
58.6394117589
 10
57.5501706692
 20
57.6709657626
 10
58.5845059746
 20
57.1022347223
  0
LINE
  5
292
100
AcDbEntity
  8
0
100
AcDbLine
 62
7
  6
BYLAYER
 10
57.9039863278
 20
59.1805477812
 11
57.9043352023
 21
59.1796211781
  0
LINE
  5
293
100
AcDbEntity
  8
0
100
AcDbLine
 62
7
  6
BYLAYER
 10
56.780909739
 20
58.7574878866
 11
56.7817368254
 21
58.7552851028
  0
LINE
  5
294
100
AcDbEntity
  8
0
100
AcDbLine
 62
7
  6
BYLAYER
 10
61.2906062459
 20
41.706520879
 11
61.2566763786
 21
41.7997424233
  0
LINE
  5
295
100
AcDbEntity
  8
0
100
AcDbLine
 62
7
  6
BYLAYER
 10
60.8353690121
 20
42.9572748994
 11
60.8007193985
 21
43.0524739304
  0
LWPOLYLINE
  5
296
100
AcDbEntity
  8
0
100
AcDbPolyline
 62
7
  6
BYLAYER
 90
4
 70
0
 10
56.5399064311
 20
41.9206170826
 10
56.6220333188
 20
41.6142823543
 10
56.9218568476
 20
41.343410195
 10
57.151433427
 20
41.2709110617
  0
LWPOLYLINE
  5
297
100
AcDbEntity
  8
0
100
AcDbPolyline
 62
7
  6
BYLAYER
 90
4
 70
0
 10
56.5402887407
 20
47.1196403071
 10
56.6205209584
 20
46.8166456013
 10
56.9166908521
 20
46.5451581972
 10
57.1505031695
 20
46.4700554526
  0
LWPOLYLINE
  5
298
100
AcDbEntity
  8
0
100
AcDbPolyline
 62
7
  6
BYLAYER
 90
4
 70
0
 10
56.540446966
 20
45.8200241229
 10
56.6204835456
 20
45.5173564707
 10
56.9231934119
 20
45.2423973233
 10
57.151116377
 20
45.1719651696
  0
LWPOLYLINE
  5
299
100
AcDbEntity
  8
0
100
AcDbPolyline
 62
7
  6
BYLAYER
 90
4
 70
0
 10
56.5375022245
 20
49.7202167347
 10
56.6167331121
 20
49.4193829977
 10
56.9090036309
 20
49.1489465371
 10
57.1494624045
 20
49.0695709017
  0
LWPOLYLINE
  5
29A
100
AcDbEntity
  8
0
100
AcDbPolyline
 62
7
  6
BYLAYER
 90
4
 70
0
 10
56.5391452051
 20
40.6207906159
 10
56.6183962977
 20
40.3196660368
 10
56.9178754737
 20
40.0453005639
 10
57.1539003412
 20
39.9704257276
  0
LWPOLYLINE
  5
29B
100
AcDbEntity
  8
0
100
AcDbPolyline
 62
7
  6
BYLAYER
 90
4
 70
0
 10
56.5388435657
 20
44.5192230068
 10
56.6179860119
 20
44.2183531094
 10
56.9146455151
 20
43.9456047294
 10
57.1477697667
 20
43.8704756368
  0
LWPOLYLINE
  5
29C
100
AcDbEntity
  8
0
100
AcDbPolyline
 62
7
  6
BYLAYER
 90
4
 70
0
 10
56.5396555032
 20
48.420694971
 10
56.6189500121
 20
48.1194391049
 10
56.9112058266
 20
47.8485593632
 10
57.1513381042
 20
47.7692067438
  0
LWPOLYLINE
  5
29D
100
AcDbEntity
  8
0
100
AcDbPolyline
 62
7
  6
BYLAYER
 90
4
 70
0
 10
56.5383088198
 20
52.3192857968
 10
56.5441036818
 20
52.2366566927
 10
56.7702379394
 20
51.8361624447
 10
57.0795976557
 20
51.6844352304
  0
LWPOLYLINE
  5
29E
100
AcDbEntity
  8
0
100
AcDbPolyline
 62
7
  6
BYLAYER
 90
5
 70
0
 10
56.5389434703
 20
51.0193329393
 10
56.5446760538
 20
50.9371238036
 10
56.7701917503
 20
50.5365567422
 10
57.0760368127
 20
50.385305802
 10
57.1518247291
 20
50.3692919667
  0
LWPOLYLINE
  5
29F
100
AcDbEntity
  8
0
100
AcDbPolyline
 62
7
  6
BYLAYER
 90
5
 70
0
 10
56.5404101053
 20
53.6197779857
 10
56.5458232505
 20
53.5398627893
 10
56.7667076795
 20
53.1407888607
 10
57.0628151788
 20
52.9892430173
 10
57.1518110189
 20
52.9697351652
  0
LWPOLYLINE
  5
2A0
100
AcDbEntity
  8
0
100
AcDbPolyline
 62
7
  6
BYLAYER
 90
5
 70
0
 10
56.5393771123
 20
54.9207605754
 10
56.5446559139
 20
54.8418795853
 10
56.7579310681
 20
54.4484735349
 10
57.0665657636
 20
54.2886937244
 10
57.1515819216
 20
54.2700813691
  0
LWPOLYLINE
  5
2A1
100
AcDbEntity
  8
0
100
AcDbPolyline
 62
7
  6
BYLAYER
 90
5
 70
0
 10
56.5376190205
 20
43.2204063016
 10
56.5425284475
 20
43.144406238
 10
56.7524520378
 20
42.7517817985
 10
57.0502187545
 20
42.5937013766
 10
57.1532733454
 20
42.570269673
  0
LINE
  5
2A2
100
AcDbEntity
  8
0
100
AcDbLine
 62
7
  6
BYLAYER
 10
51.5874663905
 20
20.5131294964
 11
51.5874663905
 21
19.5131294964
  0
LINE
  5
2A3
100
AcDbEntity
  8
0
100
AcDbLine
 62
7
  6
BYLAYER
 10
52.0874663905
 20
25.3131294964
 11
52.0874663905
 21
23.1131294964
  0
LINE
  5
2A4
100
AcDbEntity
  8
0
100
AcDbLine
 62
7
  6
BYLAYER
 10
52.0874663905
 20
21.5131294964
 11
52.0874663905
 21
21.0131294964
  0
LINE
  5
2A5
100
AcDbEntity
  8
0
100
AcDbLine
 62
7
  6
BYLAYER
 10
52.8874663905
 20
17.4031294964
 11
52.8874663905
 21
19.5131294964
  0
LINE
  5
2A6
100
AcDbEntity
  8
0
100
AcDbLine
 62
7
  6
BYLAYER
 10
53.2374663905
 20
16.0631294964
 11
53.2374663905
 21
14.9131294964
  0
LINE
  5
2A7
100
AcDbEntity
  8
0
100
AcDbLine
 62
7
  6
BYLAYER
 10
53.2374663905
 20
13.7131294964
 11
53.2374663905
 21
12.9131294964
  0
LINE
  5
2A8
100
AcDbEntity
  8
0
100
AcDbLine
 62
7
  6
BYLAYER
 10
53.9874663905
 20
14.9131294964
 11
53.9874663905
 21
13.7131294964
  0
LINE
  5
2A9
100
AcDbEntity
  8
0
100
AcDbLine
 62
7
  6
BYLAYER
 10
54.0874663905
 20
17.4031294964
 11
54.0874663905
 21
16.0631294964
  0
LWPOLYLINE
  5
2AA
100
AcDbEntity
  8
0
100
AcDbPolyline
 62
7
  6
BYLAYER
 90
4
 70
0
 10
57.9039831117
 20
59.1805563229
 10
57.8202848878
 20
59.4708951683
 10
57.7647689776
 20
59.8380946072
 10
57.7370967077
 20
60.5131416705
  0
LWPOLYLINE
  5
2AB
100
AcDbEntity
  8
0
100
AcDbPolyline
 62
7
  6
BYLAYER
 90
4
 70
0
 10
62.6373808531
 20
37.369582814
 10
62.5602303156
 20
37.6666538345
 10
62.2609326323
 20
37.943304622
 10
62.0226500954
 20
38.0199139845
  0
LWPOLYLINE
  5
2AC
100
AcDbEntity
  8
0
100
AcDbPolyline
 62
7
  6
BYLAYER
 90
4
 70
0
 10
62.6372285838
 20
43.8693942447
 10
62.5602869316
 20
44.1661369341
 10
62.2591227461
 20
44.4440492484
 10
62.0236937298
 20
44.5190003152
  0
LWPOLYLINE
  5
2AD
100
AcDbEntity
  8
0
100
AcDbPolyline
 62
7
  6
BYLAYER
 90
4
 70
0
 10
62.6349145336
 20
45.1693196287
 10
62.5608353561
 20
45.4610426288
 10
62.2647051681
 20
45.7408857845
 10
62.0215981105
 20
45.8203909626
  0
LWPOLYLINE
  5
2AE
100
AcDbEntity
  8
0
100
AcDbPolyline
 62
7
  6
BYLAYER
 90
4
 70
0
 10
62.6344979666
 20
47.7701076687
 10
62.5615698082
 20
48.0596593078
 10
62.259090663
 20
48.3441588688
 10
62.0205904961
 20
48.4194105696
  0
LWPOLYLINE
  5
2AF
100
AcDbEntity
  8
0
100
AcDbPolyline
 62
7
  6
BYLAYER
 90
4
 70
0
 10
62.6347140204
 20
41.2699940557
 10
62.5619370533
 20
41.5591931052
 10
62.2596419395
 20
41.8438356212
 10
62.022566633
 20
41.9190307737
  0
LWPOLYLINE
  5
2B0
100
AcDbEntity
  8
0
100
AcDbPolyline
 62
7
  6
BYLAYER
 90
4
 70
0
 10
62.6365433002
 20
49.0706948593
 10
62.5638528173
 20
49.3595282202
 10
62.2667779044
 20
49.6411337757
 10
62.025104603
 20
49.7199014939
  0
LWPOLYLINE
  5
2B1
100
AcDbEntity
  8
0
100
AcDbPolyline
 62
7
  6
BYLAYER
 90
4
 70
0
 10
62.6374493424
 20
51.6697500571
 10
62.5654201043
 20
51.9572332571
 10
62.2754647383
 20
52.2362516413
 10
62.027593519
 20
52.3203343551
  0
LWPOLYLINE
  5
2B2
100
AcDbEntity
  8
0
100
AcDbPolyline
 62
7
  6
BYLAYER
 90
4
 70
0
 10
62.6362438373
 20
42.5707200485
 10
62.5647708559
 20
42.8572767482
 10
62.271323462
 20
43.1388983111
 10
62.0248995286
 20
43.2209351705
  0
LWPOLYLINE
  5
2B3
100
AcDbEntity
  8
0
100
AcDbPolyline
 62
7
  6
BYLAYER
 90
4
 70
0
 10
62.6356880423
 20
46.4691217939
 10
62.5651948427
 20
46.7539386905
 10
62.2699339959
 20
47.0383030395
 10
62.0217075557
 20
47.1202988489
  0
LWPOLYLINE
  5
2B4
100
AcDbEntity
  8
0
100
AcDbPolyline
 62
7
  6
BYLAYER
 90
4
 70
0
 10
56.5378360061
 20
60.5131199665
 10
56.5785516636
 20
59.6497345807
 10
56.6608516056
 20
59.1582346688
 10
56.781738973
 20
58.7552793987
  0
LINE
  5
2B5
100
AcDbEntity
  8
0
100
AcDbLine
 62
7
  6
BYLAYER
 10
56.4098961581
 20
19.5131294964
 11
56.4098961581
 21
17.4031294964
  0
LINE
  5
2B6
100
AcDbEntity
  8
0
100
AcDbLine
 62
7
  6
BYLAYER
 10
56.5148176222
 20
17.4031294964
 11
56.5148176222
 21
19.5131294964
  0
LINE
  5
2B7
100
AcDbEntity
  8
0
100
AcDbLine
 62
7
  6
BYLAYER
 10
56.5374663905
 20
60.51312101
 11
56.5374663905
 21
151.5131294964
  0
LINE
  5
2B8
100
AcDbEntity
  8
0
100
AcDbLine
 62
7
  6
BYLAYER
 10
56.5390649442
 20
19.5131294964
 11
56.5390649442
 21
17.4031294964
  0
LINE
  5
2B9
100
AcDbEntity
  8
0
100
AcDbLine
 62
7
  6
BYLAYER
 10
56.6597470384
 20
19.5131294964
 11
56.6597470384
 21
17.4031294964
  0
LINE
  5
2BA
100
AcDbEntity
  8
0
100
AcDbLine
 62
7
  6
BYLAYER
 10
56.852030991
 20
19.5131294964
 11
56.852030991
 21
17.4031294964
  0
LINE
  5
2BB
100
AcDbEntity
  8
0
100
AcDbLine
 62
7
  6
BYLAYER
 10
57.061079719
 20
17.4031294964
 11
57.061079719
 21
19.5131294964
  0
LINE
  5
2BC
100
AcDbEntity
  8
0
100
AcDbLine
 62
7
  6
BYLAYER
 10
57.470920435
 20
19.5131294964
 11
57.470920435
 21
17.4031294964
  0
LINE
  5
2BD
100
AcDbEntity
  8
0
100
AcDbLine
 62
7
  6
BYLAYER
 10
57.5874663905
 20
37.4499776712
 11
57.5874663905
 21
37.5422443771
  0
LINE
  5
2BE
100
AcDbEntity
  8
0
100
AcDbLine
 62
7
  6
BYLAYER
 10
57.5874663905
 20
38.748205537
 11
57.5874663905
 21
38.8408453887
  0
LINE
  5
2BF
100
AcDbEntity
  8
0
100
AcDbLine
 62
7
  6
BYLAYER
 10
57.5874663905
 20
40.0483103025
 11
57.5874663905
 21
40.1417487502
  0
LINE
  5
2C0
100
AcDbEntity
  8
0
100
AcDbLine
 62
7
  6
BYLAYER
 10
57.6634708425
 20
17.4031294964
 11
57.6634708425
 21
19.5131294964
  0
LINE
  5
2C1
100
AcDbEntity
  8
0
100
AcDbLine
 62
7
  6
BYLAYER
 10
57.7374663905
 20
60.513143597
 11
57.7374663905
 21
151.5131294964
  0
LINE
  5
2C2
100
AcDbEntity
  8
0
100
AcDbLine
 62
7
  6
BYLAYER
 10
57.8374663905
 20
11.9131294964
 11
57.8374663905
 21
11.7631294964
  0
LINE
  5
2C3
100
AcDbEntity
  8
0
100
AcDbLine
 62
7
  6
BYLAYER
 10
58.0447921077
 20
19.5131294964
 11
58.0447921077
 21
17.4031294964
  0
LINE
  5
2C4
100
AcDbEntity
  8
0
100
AcDbLine
 62
7
  6
BYLAYER
 10
58.1894851983
 20
17.4031294964
 11
58.1894851983
 21
19.5131294964
  0
LINE
  5
2C5
100
AcDbEntity
  8
0
100
AcDbLine
 62
7
  6
BYLAYER
 10
58.3566427576
 20
19.5131294964
 11
58.3566427576
 21
17.4031294964
  0
LINE
  5
2C6
100
AcDbEntity
  8
0
100
AcDbLine
 62
7
  6
BYLAYER
 10
58.5184950299
 20
19.5131294964
 11
58.5184950299
 21
17.4031294964
  0
LINE
  5
2C7
100
AcDbEntity
  8
0
100
AcDbLine
 62
7
  6
BYLAYER
 10
58.7248411281
 20
19.5131294964
 11
58.7248411281
 21
17.4031294964
  0
LINE
  5
2C8
100
AcDbEntity
  8
0
100
AcDbLine
 62
7
  6
BYLAYER
 10
58.9168336135
 20
17.4031294964
 11
58.9168336135
 21
19.5131294964
  0
LINE
  5
2C9
100
AcDbEntity
  8
0
100
AcDbLine
 62
7
  6
BYLAYER
 10
59.2155098988
 20
19.5131294964
 11
59.2155098988
 21
17.4031294964
  0
LINE
  5
2CA
100
AcDbEntity
  8
0
100
AcDbLine
 62
7
  6
BYLAYER
 10
59.3900799677
 20
17.4031294964
 11
59.3900799677
 21
19.5131294964
  0
LINE
  5
2CB
100
AcDbEntity
  8
0
100
AcDbLine
 62
7
  6
BYLAYER
 10
59.7848527836
 20
19.5131294964
 11
59.7848527836
 21
17.4031294964
  0
LINE
  5
2CC
100
AcDbEntity
  8
0
100
AcDbLine
 62
7
  6
BYLAYER
 10
59.9594228823
 20
17.4031294964
 11
59.9594228823
 21
19.5131294964
  0
LINE
  5
2CD
100
AcDbEntity
  8
0
100
AcDbLine
 62
7
  6
BYLAYER
 10
56.5396554662
 20
48.4206033211
 11
56.5396555034
 21
48.4207270482
  0
LINE
  5
2CE
100
AcDbEntity
  8
0
100
AcDbLine
 62
7
  6
BYLAYER
 10
56.5377948765
 20
36.72045795
 11
56.5377949097
 21
36.7205694143
  0
LINE
  5
2CF
100
AcDbEntity
  8
0
100
AcDbLine
 62
7
  6
BYLAYER
 10
56.5375021671
 20
49.7201113452
 11
56.5375022244
 21
49.7202239323
  0
LINE
  5
2D0
100
AcDbEntity
  8
0
100
AcDbLine
 62
7
  6
BYLAYER
 10
56.5404469011
 20
45.8199075293
 11
56.5404469659
 21
45.8200324991
  0
LINE
  5
2D1
100
AcDbEntity
  8
0
100
AcDbLine
 62
7
  6
BYLAYER
 10
56.5388435054
 20
44.5190656008
 11
56.5388435683
 21
44.5191794443
  0
LINE
  5
2D2
100
AcDbEntity
  8
0
100
AcDbLine
 62
7
  6
BYLAYER
 10
56.5393770417
 20
54.9206835956
 11
56.539377113
 21
54.920802958
  0
LINE
  5
2D3
100
AcDbEntity
  8
0
100
AcDbLine
 62
7
  6
BYLAYER
 10
56.5376189528
 20
43.2203233525
 11
56.5376190205
 21
43.2204290088
  0
LINE
  5
2D4
100
AcDbEntity
  8
0
100
AcDbLine
 62
7
  6
BYLAYER
 10
56.5402886609
 20
47.1195028499
 11
56.5402887415
 21
47.1196206957
  0
LINE
  5
2D5
100
AcDbEntity
  8
0
100
AcDbLine
 62
7
  6
BYLAYER
 10
56.5385391218
 20
38.0190890095
 11
56.5385392071
 21
38.0192055714
  0
LINE
  5
2D6
100
AcDbEntity
  8
0
100
AcDbLine
 62
7
  6
BYLAYER
 10
56.5383087039
 20
52.319131801
 11
56.5383088209
 21
52.3192633797
  0
LINE
  5
2D7
100
AcDbEntity
  8
0
100
AcDbLine
 62
7
  6
BYLAYER
 10
56.5399063299
 20
41.9205173396
 11
56.5399064311
 21
41.9206405215
  0
LINE
  5
2D8
100
AcDbEntity
  8
0
100
AcDbLine
 62
7
  6
BYLAYER
 10
56.5391451116
 20
40.6207192701
 11
56.5391452055
 21
40.620829068
  0
LINE
  5
2D9
100
AcDbEntity
  8
0
100
AcDbLine
 62
7
  6
BYLAYER
 10
56.5404690743
 20
39.3197464792
 11
56.5404691901
 21
39.3198848734
  0
LINE
  5
2DA
100
AcDbEntity
  8
0
100
AcDbLine
 62
7
  6
BYLAYER
 10
56.5404099864
 20
53.6196336622
 11
56.5404101062
 21
53.6197578402
  0
LINE
  5
2DB
100
AcDbEntity
  8
0
100
AcDbLine
 62
7
  6
BYLAYER
 10
56.5389432626
 20
51.0191779192
 11
56.5389434748
 21
51.0192743954
  0
LWPOLYLINE
  5
2DC
100
AcDbEntity
  8
0
100
AcDbPolyline
 62
7
  6
BYLAYER
 90
8
 70
0
 10
62.6361191268
 20
57.0380960325
 10
62.5564932601
 20
57.3435784419
 10
62.2454704545
 20
57.6342580236
 10
61.9171931685
 20
57.7517734133
 10
61.4770793852
 20
57.8458040025
 10
60.8885255788
 20
57.9397092363
 10
60.1689883744
 20
58.0376635585
 10
59.587790523
 20
58.1130841506
  0
LWPOLYLINE
  5
2DD
100
AcDbEntity
  8
0
100
AcDbPolyline
 62
7
  6
BYLAYER
 90
5
 70
0
 10
62.6368168696
 20
55.5706265524
 10
62.5643235672
 20
55.8590534466
 10
62.2680035921
 20
56.1404866778
 10
61.9887531905
 20
56.2324133754
 10
61.7130099323
 20
56.2808406622
  0
LWPOLYLINE
  5
2DE
100
AcDbEntity
  8
0
100
AcDbPolyline
 62
7
  6
BYLAYER
 90
4
 70
0
 10
62.63460535
 20
54.27025483
 10
62.5625445469
 20
54.5581328101
 10
62.2706438733
 20
54.8385996418
 10
62.026211602
 20
54.9202084014
  0
LWPOLYLINE
  5
2DF
100
AcDbEntity
  8
0
100
AcDbPolyline
 62
7
  6
BYLAYER
 90
4
 70
0
 10
62.6353527081
 20
52.9691642961
 10
62.5636040064
 20
53.2564316734
 10
62.2744592064
 20
53.5359767084
 10
62.0233562269
 20
53.6216447066
  0
LWPOLYLINE
  5
2E0
100
AcDbEntity
  8
0
100
AcDbPolyline
 62
7
  6
BYLAYER
 90
5
 70
0
 10
62.6370170169
 20
50.3692477582
 10
62.6333516754
 20
50.4349344395
 10
62.4204097277
 20
50.8395498125
 10
62.1279688872
 20
50.9951039214
 10
62.026214226
 20
51.0185809565
  0
LWPOLYLINE
  5
2E1
100
AcDbEntity
  8
0
100
AcDbPolyline
 62
7
  6
BYLAYER
 90
4
 70
0
 10
62.6347245702
 20
39.970363328
 10
62.6312148161
 20
40.0346267844
 10
62.422798826
 20
40.4369151649
 10
62.10462298
 20
40.602978721
  0
LWPOLYLINE
  5
2E2
100
AcDbEntity
  8
0
100
AcDbPolyline
 62
7
  6
BYLAYER
 90
5
 70
0
 10
62.6351470496
 20
38.6692168452
 10
62.6320091344
 20
38.7300314298
 10
62.4277394244
 20
39.1317794814
 10
62.1352498794
 20
39.2928319084
 10
62.0207677828
 20
39.3197607641
  0
LINE
  5
2E3
100
AcDbEntity
  8
0
100
AcDbLine
 62
7
  6
BYLAYER
 10
62.63460535
 20
54.27025483
 11
62.6346052088
 21
54.2703825558
  0
LINE
  5
2E4
100
AcDbEntity
  8
0
100
AcDbLine
 62
7
  6
BYLAYER
 10
62.6368168696
 20
55.5706265524
 11
62.636816733
 21
55.5707501815
  0
LINE
  5
2E5
100
AcDbEntity
  8
0
100
AcDbLine
 62
7
  6
BYLAYER
 10
62.6351470496
 20
38.6692168452
 11
62.6351469428
 21
38.6693405841
  0
LINE
  5
2E6
100
AcDbEntity
  8
0
100
AcDbLine
 62
7
  6
BYLAYER
 10
62.6362438373
 20
42.5707200485
 11
62.636243729
 21
42.5708360149
  0
LINE
  5
2E7
100
AcDbEntity
  8
0
100
AcDbLine
 62
7
  6
BYLAYER
 10
62.6353527081
 20
52.9691642961
 11
62.6353525989
 21
52.9692864879
  0
LINE
  5
2E8
100
AcDbEntity
  8
0
100
AcDbLine
 62
7
  6
BYLAYER
 10
62.6356880423
 20
46.4691217939
 11
62.6356879587
 21
46.4692370935
  0
LINE
  5
2E9
100
AcDbEntity
  8
0
100
AcDbLine
 62
7
  6
BYLAYER
 10
62.6370170169
 20
50.3692477582
 11
62.6370169268
 21
50.3693795445
  0
LINE
  5
2EA
100
AcDbEntity
  8
0
100
AcDbLine
 62
7
  6
BYLAYER
 10
62.6347245702
 20
39.970363328
 11
62.6347245064
 21
39.9704835944
  0
LINE
  5
2EB
100
AcDbEntity
  8
0
100
AcDbLine
 62
7
  6
BYLAYER
 10
62.6372285838
 20
43.8693942447
 11
62.6372284994
 21
43.8695260948
  0
LINE
  5
2EC
100
AcDbEntity
  8
0
100
AcDbLine
 62
7
  6
BYLAYER
 10
62.6349145336
 20
45.1693196287
 11
62.6349144729
 21
45.1694414523
  0
LINE
  5
2ED
100
AcDbEntity
  8
0
100
AcDbLine
 62
7
  6
BYLAYER
 10
62.6365433002
 20
49.0706948593
 11
62.6365432336
 21
49.0708056717
  0
LINE
  5
2EE
100
AcDbEntity
  8
0
100
AcDbLine
 62
7
  6
BYLAYER
 10
62.6344979666
 20
47.7701076687
 11
62.634497906
 21
47.7702267275
  0
LINE
  5
2EF
100
AcDbEntity
  8
0
100
AcDbLine
 62
7
  6
BYLAYER
 10
62.6374493424
 20
51.6697500571
 11
62.637449304
 21
51.6698529926
  0
LINE
  5
2F0
100
AcDbEntity
  8
0
100
AcDbLine
 62
7
  6
BYLAYER
 10
62.6373808531
 20
37.369582814
 11
62.6373808244
 21
37.3697020883
  0
LINE
  5
2F1
100
AcDbEntity
  8
0
100
AcDbLine
 62
7
  6
BYLAYER
 10
60.2580991675
 20
19.5131294964
 11
60.2580991675
 21
17.4031294964
  0
LINE
  5
2F2
100
AcDbEntity
  8
0
100
AcDbLine
 62
7
  6
BYLAYER
 10
60.450091653
 20
19.5131294964
 11
60.450091653
 21
17.4031294964
  0
LINE
  5
2F3
100
AcDbEntity
  8
0
100
AcDbLine
 62
7
  6
BYLAYER
 10
60.6564377512
 20
19.5131294964
 11
60.6564377512
 21
17.4031294964
  0
LINE
  5
2F4
100
AcDbEntity
  8
0
100
AcDbLine
 62
7
  6
BYLAYER
 10
60.8182900235
 20
17.4031294964
 11
60.8182900235
 21
19.5131294964
  0
LINE
  5
2F5
100
AcDbEntity
  8
0
100
AcDbLine
 62
7
  6
BYLAYER
 10
60.9854475828
 20
19.5131294964
 11
60.9854475828
 21
17.4031294964
  0
LINE
  5
2F6
100
AcDbEntity
  8
0
100
AcDbLine
 62
7
  6
BYLAYER
 10
61.130140651
 20
17.4031294964
 11
61.130140651
 21
19.5131294964
  0
LINE
  5
2F7
100
AcDbEntity
  8
0
100
AcDbLine
 62
7
  6
BYLAYER
 10
61.3374663905
 20
11.9131294964
 11
61.3374663905
 21
11.7631294964
  0
LINE
  5
2F8
100
AcDbEntity
  8
0
100
AcDbLine
 62
7
  6
BYLAYER
 10
61.5114619049
 20
19.5131294964
 11
61.5114619049
 21
17.4031294964
  0
LINE
  5
2F9
100
AcDbEntity
  8
0
100
AcDbLine
 62
7
  6
BYLAYER
 10
61.5874663905
 20
40.5417375047
 11
61.5874663905
 21
40.4488343656
  0
LINE
  5
2FA
100
AcDbEntity
  8
0
100
AcDbLine
 62
7
  6
BYLAYER
 10
61.5874663905
 20
39.2413409754
 11
61.5874663905
 21
39.1490886273
  0
LINE
  5
2FB
100
AcDbEntity
  8
0
100
AcDbLine
 62
7
  6
BYLAYER
 10
61.5874663905
 20
37.9393347463
 11
61.5874663905
 21
37.8476657052
  0
LINE
  5
2FC
100
AcDbEntity
  8
0
100
AcDbLine
 62
7
  6
BYLAYER
 10
61.5874663905
 20
36.6396689111
 11
61.5874663905
 21
36.5131294964
  0
LINE
  5
2FD
100
AcDbEntity
  8
0
100
AcDbLine
 62
7
  6
BYLAYER
 10
61.7040123461
 20
17.4031294964
 11
61.7040123461
 21
19.5131294964
  0
LINE
  5
2FE
100
AcDbEntity
  8
0
100
AcDbLine
 62
7
  6
BYLAYER
 10
62.113853062
 20
19.5131294964
 11
62.113853062
 21
17.4031294964
  0
LINE
  5
2FF
100
AcDbEntity
  8
0
100
AcDbLine
 62
7
  6
BYLAYER
 10
62.32290179
 20
19.5131294964
 11
62.32290179
 21
17.4031294964
  0
LINE
  5
300
100
AcDbEntity
  8
0
100
AcDbLine
 62
7
  6
BYLAYER
 10
62.5151857426
 20
19.5131294964
 11
62.5151857426
 21
17.4031294964
  0
LINE
  5
301
100
AcDbEntity
  8
0
100
AcDbLine
 62
7
  6
BYLAYER
 10
62.6358678369
 20
17.4031294964
 11
62.6358678369
 21
19.5131294964
  0
LINE
  5
302
100
AcDbEntity
  8
0
100
AcDbLine
 62
7
  6
BYLAYER
 10
62.6601151588
 20
19.5131294964
 11
62.6601151588
 21
17.4031294964
  0
LINE
  5
303
100
AcDbEntity
  8
0
100
AcDbLine
 62
7
  6
BYLAYER
 10
62.7650363952
 20
17.4031294964
 11
62.7650363952
 21
19.5131294964
  0
LINE
  5
304
100
AcDbEntity
  8
0
100
AcDbLine
 62
7
  6
BYLAYER
 10
62.6347140204
 20
41.2699940557
 11
62.6347140754
 21
41.2700757631
  0
LINE
  5
305
100
AcDbEntity
  8
0
100
AcDbLine
 62
7
  6
BYLAYER
 10
62.6361191268
 20
57.0380960325
 11
62.636119294
 21
57.0382382035
  0
LINE
  5
306
100
AcDbEntity
  8
0
100
AcDbLine
 62
7
  6
BYLAYER
 10
59.587790523
 20
58.1130841506
 11
59.5837335499
 21
58.0227633636
  0
LINE
  5
307
100
AcDbEntity
  8
0
100
AcDbLine
 62
7
  6
BYLAYER
 10
65.0874663905
 20
17.4031294964
 11
65.0874663905
 21
16.0631294964
  0
LINE
  5
308
100
AcDbEntity
  8
0
100
AcDbLine
 62
7
  6
BYLAYER
 10
65.1874663905
 20
14.9131294964
 11
65.1874663905
 21
13.7131294964
  0
LINE
  5
309
100
AcDbEntity
  8
0
100
AcDbLine
 62
7
  6
BYLAYER
 10
65.9374663905
 20
16.0631294964
 11
65.9374663905
 21
14.9131294964
  0
LINE
  5
30A
100
AcDbEntity
  8
0
100
AcDbLine
 62
7
  6
BYLAYER
 10
65.9374663905
 20
13.7131294964
 11
65.9374663905
 21
12.9131294964
  0
LINE
  5
30B
100
AcDbEntity
  8
0
100
AcDbLine
 62
7
  6
BYLAYER
 10
66.2874663905
 20
19.5131294964
 11
66.2874663905
 21
17.4031294964
  0
LINE
  5
30C
100
AcDbEntity
  8
0
100
AcDbLine
 62
7
  6
BYLAYER
 10
67.0874663905
 20
25.3131294964
 11
67.0874663905
 21
23.1131294964
  0
LINE
  5
30D
100
AcDbEntity
  8
0
100
AcDbLine
 62
7
  6
BYLAYER
 10
67.0874663905
 20
21.5131294964
 11
67.0874663905
 21
21.0131294964
  0
LINE
  5
30E
100
AcDbEntity
  8
0
100
AcDbLine
 62
7
  6
BYLAYER
 10
67.5874663905
 20
20.5131294964
 11
67.5874663905
 21
19.5131294964
  0
LINE
  5
30F
100
AcDbEntity
  8
0
100
AcDbLine
 62
7
  6
BYLAYER
 10
57.7622912121
 20
41.3712315847
 11
57.7990807144
 21
41.4723099116
  0
LINE
  5
310
100
AcDbEntity
  8
0
100
AcDbLine
 62
7
  6
BYLAYER
 10
58.2553775944
 20
42.7259752858
 11
58.2926207057
 21
42.8282998932
  0
LWPOLYLINE
  5
311
100
AcDbEntity
  8
0
100
AcDbPolyline
 62
7
  6
BYLAYER
 90
8
 70
0
 10
57.4317364019
 20
55.7311530984
 10
57.4290873003
 20
55.7301290288
 10
57.5188976545
 20
55.7526200708
 10
57.7713896646
 20
55.7976795856
 10
58.1442502457
 20
55.8496193353
 10
58.6121334024
 20
55.9052168527
 10
59.1559253777
 20
55.964074204
 10
60.0566717434
 20
56.0591237426
  0
LWPOLYLINE
  5
312
100
AcDbEntity
  8
0
100
AcDbPolyline
 62
7
  6
BYLAYER
 90
13
 70
0
 10
61.7070387758
 20
57.505374849
 10
61.6455095577
 20
57.4868055716
 10
61.3635366648
 20
57.4286600002
 10
60.9096059359
 20
57.3606975515
 10
60.3108659271
 20
57.2876231676
 10
59.5938905174
 20
57.2100241063
 10
58.8415179657
 20
57.1311096234
 10
58.1554717179
 20
57.0540333848
 10
57.6086113727
 20
56.9807397829
 10
57.2163707629
 20
56.9083683369
 10
56.9153043418
 20
56.8069976902
 10
56.6157268736
 20
56.5247559487
 10
56.5401706283
 20
56.229464829
  0
LINE
  5
313
100
AcDbEntity
  8
0
100
AcDbLine
 62
7
  6
BYLAYER
 10
65.6374663905
 20
11.9131294964
 11
65.9374663905
 21
12.9131294964
  0
LINE
  5
314
100
AcDbEntity
  8
0
100
AcDbLine
 62
7
  6
BYLAYER
 10
57.3374663905
 20
36.5131294964
 11
56.6474663924
 21
35.593129499
  0
LINE
  5
315
100
AcDbEntity
  8
0
100
AcDbLine
 62
7
  6
BYLAYER
 10
56.5389434748
 20
51.0192743954
 11
56.7035262099
 21
51.0881294828
  0
LWPOLYLINE
  5
316
100
AcDbEntity
  8
0
100
AcDbPolyline
 62
7
  6
BYLAYER
 90
3
 70
0
 10
57.413856152
 20
50.5084249406
 10
57.4100966259
 20
50.5069664451
 10
57.4138265912
 20
50.5080488762
  0
LWPOLYLINE
  5
317
100
AcDbEntity
  8
0
100
AcDbPolyline
 62
7
  6
BYLAYER
 90
7
 70
0
 10
57.4142105103
 20
51.8084359988
 10
57.4103066068
 20
51.8069677972
 10
57.4727501941
 20
51.8217090489
 10
57.6858743622
 20
51.8577002528
 10
58.0289648943
 20
51.9007645297
 10
58.4870328096
 20
51.9479195712
 10
59.0468840711
 20
51.9987897773
  0
LWPOLYLINE
  5
318
100
AcDbEntity
  8
0
100
AcDbPolyline
 62
7
  6
BYLAYER
 90
8
 70
0
 10
57.4138133468
 20
36.2087748016
 10
57.4126021761
 20
36.2076581936
 10
57.5438041978
 20
36.2349987315
 10
57.806532893
 20
36.2740318949
 10
58.186189371
 20
36.3179415516
 10
58.6691071929
 20
36.3650391312
 10
59.2370196529
 20
36.4151490692
 10
59.8669614361
 20
36.4686133956
  0
LINE
  5
319
100
AcDbEntity
  8
0
100
AcDbLine
 62
7
  6
BYLAYER
 10
62.5994408779
 20
41.23812951
 11
62.6347140204
 21
41.2699940557
  0
LWPOLYLINE
  5
31A
100
AcDbEntity
  8
0
100
AcDbPolyline
 62
7
  6
BYLAYER
 90
7
 70
0
 10
61.7569653722
 20
46.9791113024
 10
61.7628536225
 20
46.9820932255
 10
61.6400054382
 20
46.9564401254
 10
61.403466676
 20
46.920625635
 10
61.068804315
 20
46.8805479139
 10
60.647223093
 20
46.8379516844
 10
60.1592593186
 20
46.7938002879
  0
LWPOLYLINE
  5
31B
100
AcDbEntity
  8
0
100
AcDbPolyline
 62
7
  6
BYLAYER
 90
7
 70
0
 10
57.4115432972
 20
49.2077222646
 10
57.4077123254
 20
49.2062916775
 10
57.482468123
 20
49.2235454979
 10
57.7224277733
 20
49.2627668251
 10
58.0925792438
 20
49.3079021973
 10
58.5719718689
 20
49.3560064722
 10
59.1400955358
 20
49.4068246754
  0
LWPOLYLINE
  5
31C
100
AcDbEntity
  8
0
100
AcDbPolyline
 62
7
  6
BYLAYER
 90
7
 70
0
 10
61.7649052102
 20
50.8825493035
 10
61.7685739508
 20
50.8839001429
 10
61.6985304851
 20
50.8675696922
 10
61.4711984837
 20
50.829838425
 10
61.1098833565
 20
50.785008906
 10
60.6295319622
 20
50.736358997
 10
60.0501683497
 20
50.6844055756
  0
LWPOLYLINE
  5
31D
100
AcDbEntity
  8
0
100
AcDbPolyline
 62
7
  6
BYLAYER
 90
8
 70
0
 10
61.7611713335
 20
48.2812542798
 10
61.764704818
 20
48.2825478211
 10
61.6836878051
 20
48.2642067386
 10
61.426510875
 20
48.223645893
 10
61.0334017347
 20
48.1768481723
 10
60.5189922319
 20
48.1259930067
 10
59.9013904728
 20
48.0715511506
 10
58.8944720516
 20
47.9858093144
  0
LWPOLYLINE
  5
31E
100
AcDbEntity
  8
0
100
AcDbPolyline
 62
7
  6
BYLAYER
 90
7
 70
0
 10
61.7637876875
 20
49.5826234324
 10
61.7664824769
 20
49.5835869023
 10
61.6783857757
 20
49.5633896092
 10
61.4249974808
 20
49.5232625177
 10
61.0418969869
 20
49.4777133563
 10
60.5520403135
 20
49.4291566088
 10
59.9738953827
 20
49.3777615328
  0
LINE
  5
31F
100
AcDbEntity
  8
0
100
AcDbLine
 62
7
  6
BYLAYER
 10
51.5874663905
 20
20.5131294964
 11
52.0874663905
 21
21.0131294964
  0
LWPOLYLINE
  5
320
100
AcDbEntity
  8
0
100
AcDbPolyline
 62
7
  6
BYLAYER
 90
4
 70
0
 10
62.273307878
 20
40.7028956279
 10
62.4574677923
 20
40.8365200032
 10
62.5741355783
 20
41.0051507405
 10
62.634714078
 20
41.2700191274
  0
LINE
  5
321
100
AcDbEntity
  8
0
100
AcDbLine
 62
7
  6
BYLAYER
 10
62.273307878
 20
40.7028956279
 11
62.2648260576
 21
40.6986731959
  0
LWPOLYLINE
  5
322
100
AcDbEntity
  8
0
100
AcDbPolyline
 62
7
  6
BYLAYER
 90
8
 70
0
 10
61.7615784744
 20
43.0817972336
 10
61.7651005237
 20
43.0830960692
 10
61.6841736228
 20
43.0644801667
 10
61.432581157
 20
43.0242996209
 10
61.0476693246
 20
42.9783477134
 10
60.5516716326
 20
42.9291152513
 10
59.9653623797
 20
42.8770193325
 10
58.9953329098
 20
42.7945426045
  0
LWPOLYLINE
  5
323
100
AcDbEntity
  8
0
100
AcDbPolyline
 62
7
  6
BYLAYER
 90
8
 70
0
 10
57.4147669865
 20
38.8090665851
 10
57.4107838832
 20
38.8075855285
 10
57.4860517881
 20
38.8246658997
 10
57.7362994045
 20
38.8645899192
 10
58.121683631
 20
38.9109108139
 10
58.6274340506
 20
38.9612664063
 10
59.2371654466
 20
39.0152330177
 10
60.2412491127
 20
39.100661402
  0
LWPOLYLINE
  5
324
100
AcDbEntity
  8
0
100
AcDbPolyline
 62
7
  6
BYLAYER
 90
7
 70
0
 10
61.7646501354
 20
39.1821386043
 10
61.7682525124
 20
39.1834447858
 10
61.6946718221
 20
39.1665887338
 10
61.4628241323
 20
39.1287421507
 10
61.1020712098
 20
39.08423599
 10
60.6262037005
 20
39.0359775016
 10
60.0524027045
 20
38.9845642236
  0
LWPOLYLINE
  5
325
100
AcDbEntity
  8
0
100
AcDbPolyline
 62
7
  6
BYLAYER
 90
7
 70
0
 10
61.7626524777
 20
40.4819504129
 10
61.76538009
 20
40.4829217085
 10
61.6820468684
 20
40.4638809373
 10
61.4428229561
 20
40.4258234035
 10
61.0798970212
 20
40.3818951008
 10
60.6091911162
 20
40.3344341672
 10
60.0368722816
 20
40.2831603122
  0
LINE
  5
326
100
AcDbEntity
  8
0
100
AcDbLine
 62
7
  6
BYLAYER
 10
56.5374828931
 20
151.5131294964
 11
57.7374498879
 21
151.5131294964
  0
ARC
  5
327
100
AcDbEntity
  8
0
100
AcDbCircle
 62
7
  6
BYLAYER
 10
56.5874663905
 20
31.5293778674
 40
4.0
100
AcDbArc
 50
95.1660626584
 51
244.0555202277
  0
ARC
  5
328
100
AcDbEntity
  8
0
100
AcDbCircle
 62
7
  6
BYLAYER
 10
62.5874663905
 20
31.5293778674
 40
4.0
100
AcDbArc
 50
295.9444797723
 51
84.8339373416
  0
ARC
  5
329
100
AcDbEntity
  8
0
100
AcDbCircle
 62
7
  6
BYLAYER
 10
59.5872587537
 20
59.3729228997
 40
1.3502499561
100
AcDbArc
 50
269.0962224469
 51
269.849872488
  0
ARC
  5
32A
100
AcDbEntity
  8
0
100
AcDbCircle
 62
7
  6
BYLAYER
 10
53.1874663905
 20
25.3131294964
 40
1.1
100
AcDbArc
 50
90.0
 51
180.0
  0
ARC
  5
32B
100
AcDbEntity
  8
0
100
AcDbCircle
 62
7
  6
BYLAYER
 10
65.9874663905
 20
25.3131294964
 40
1.1
100
AcDbArc
 50
0.0
 51
90.0
  0
ARC
  5
32C
100
AcDbEntity
  8
0
100
AcDbCircle
 62
7
  6
BYLAYER
 10
64.6874663905
 20
27.2131294964
 40
0.8
100
AcDbArc
 50
115.9444797724
 51
270.0
  0
ARC
  5
32D
100
AcDbEntity
  8
0
100
AcDbCircle
 62
7
  6
BYLAYER
 10
54.4874663905
 20
27.2131294964
 40
0.8
100
AcDbArc
 50
270.0
 51
64.0555202276
  0
ARC
  5
32E
100
AcDbEntity
  8
0
100
AcDbCircle
 62
7
  6
BYLAYER
 10
52.5874663905
 20
22.3131294964
 40
0.6
100
AcDbArc
 50
270.0
 51
90.0
  0
ARC
  5
32F
100
AcDbEntity
  8
0
100
AcDbCircle
 62
7
  6
BYLAYER
 10
66.5874663905
 20
22.3131294964
 40
0.6
100
AcDbArc
 50
90.0
 51
270.0
  0
ARC
  5
330
100
AcDbEntity
  8
0
100
AcDbCircle
 62
7
  6
BYLAYER
 10
62.0219728064
 20
41.2381252886
 40
0.5774677067
100
AcDbArc
 50
0.0004188452
 51
1.5308809511
  0
ARC
  5
331
100
AcDbEntity
  8
0
100
AcDbCircle
 62
7
  6
BYLAYER
 10
62.6874663905
 20
35.7131294964
 40
0.2
100
AcDbArc
 50
216.8698967291
 51
269.9999983275
  0
ARC
  5
332
100
AcDbEntity
  8
0
100
AcDbCircle
 62
7
  6
BYLAYER
 10
56.4874663905
 20
35.7131294964
 40
0.2
100
AcDbArc
 50
270.0000016725
 51
323.1301032709
  0
ARC
  5
333
100
AcDbEntity
  8
0
100
AcDbCircle
 62
7
  6
BYLAYER
 10
52.2874663905
 20
23.1131294964
 40
0.2
100
AcDbArc
 50
180.0
 51
270.0000063773
  0
ARC
  5
334
100
AcDbEntity
  8
0
100
AcDbCircle
 62
7
  6
BYLAYER
 10
66.8874663905
 20
23.1131294964
 40
0.2
100
AcDbArc
 50
269.9999936227
 51
360.0
  0
ARC
  5
335
100
AcDbEntity
  8
0
100
AcDbCircle
 62
7
  6
BYLAYER
 10
66.8874663905
 20
21.5131294964
 40
0.2
100
AcDbArc
 50
0.0
 51
90.0000064011
  0
ARC
  5
336
100
AcDbEntity
  8
0
100
AcDbCircle
 62
7
  6
BYLAYER
 10
52.2874663905
 20
21.5131294964
 40
0.2
100
AcDbArc
 50
89.9999935989
 51
180.0
  0
SPLINE
  5
337
100
AcDbEntity
  8
0
100
AcDbSpline
 62
7
  6
BYLAYER
 70
0
 71
3
 72
10
 73
6
 74
0
 42
0.0000001
 43
0.0000001
 44
0.0000000001
 40
0.0
 40
0.0
 40
0.0
 40
0.0
 40
0.3522616757
 40
0.6559976921
 40
1.0
 40
1.0
 40
1.0
 40
1.0
 10
56.5485094655
 20
60.5131294858
 30
0.0
 10
56.6176647967
 20
60.5128352368
 30
0.0
 10
56.7464517584
 20
60.513938501
 30
0.0
 10
56.9427676077
 20
60.5121253866
 30
0.0
 10
57.06993353
 20
60.5126623433
 30
0.0
 10
57.1374663905
 20
60.5131299641
 30
0.0
  0
SPLINE
  5
338
100
AcDbEntity
  8
0
100
AcDbSpline
 62
7
  6
BYLAYER
 70
0
 71
3
 72
32
 73
28
 74
0
 42
0.0000001
 43
0.0000001
 44
0.0000000001
 40
0.0
 40
0.0
 40
0.0
 40
0.0
 40
0.0041287431
 40
0.0076147432
 40
0.0121817679
 40
0.0246139668
 40
0.0413972469
 40
0.0623963739
 40
0.087448704
 40
0.1490123549
 40
0.2242946383
 40
0.3101329437
 40
0.4030405623
 40
0.4995250476
 40
0.5960694562
 40
0.6891000122
 40
0.7750361876
 40
0.8503104692
 40
0.9120024949
 40
0.9371937666
 40
0.9583454455
 40
0.9752676674
 40
0.9820912308
 40
0.9878017771
 40
0.9923944689
 40
0.9958869848
 40
1.0
 40
1.0
 40
1.0
 40
1.0
 10
56.5375022245
 20
49.7202167488
 30
0.0
 10
56.5375419867
 20
49.7286951739
 30
0.0
 10
56.5519084845
 20
49.7411567697
 30
0.0
 10
56.5734167916
 20
49.7517944739
 30
0.0
 10
56.613284105
 20
49.7668474797
 30
0.0
 10
56.6803383388
 20
49.7838308938
 30
0.0
 10
56.7816989238
 20
49.8035978397
 30
0.0
 10
56.9091843435
 20
49.8233715857
 30
0.0
 10
57.1283424971
 20
49.8520317557
 30
0.0
 10
57.4590593685
 20
49.8863917212
 30
0.0
 10
57.914673019
 20
49.9256309798
 30
0.0
 10
58.4348327146
 20
49.9651798309
 30
0.0
 10
58.9986293
 20
50.0049328878
 30
0.0
 10
59.5844576229
 20
50.0447618434
 30
0.0
 10
60.1705400718
 20
50.0845772736
 30
0.0
 10
60.7349149954
 20
50.1243165963
 30
0.0
 10
61.2555170142
 20
50.1638339857
 30
0.0
 10
61.7115708609
 20
50.2031343917
 30
0.0
 10
62.0428286498
 20
50.237545602
 30
0.0
 10
62.2628459501
 20
50.2661173396
 30
0.0
 10
62.3912606307
 20
50.2859818342
 30
0.0
 10
62.4818334028
 20
50.3032778359
 30
0.0
 10
62.540651497
 20
50.3177080973
 30
0.0
 10
62.5742953285
 20
50.327566733
 30
0.0
 10
62.6011747798
 20
50.3377015365
 30
0.0
 10
62.6227717644
 20
50.3482773462
 30
0.0
 10
62.6369821757
 20
50.3608337607
 30
0.0
 10
62.6370170172
 20
50.3692799096
 30
0.0
  0
SPLINE
  5
339
100
AcDbEntity
  8
0
100
AcDbSpline
 62
7
  6
BYLAYER
 70
0
 71
3
 72
14
 73
10
 74
0
 42
0.0000001
 43
0.0000001
 44
0.0000000001
 40
0.0
 40
0.0
 40
0.0
 40
0.0
 40
0.1248643989
 40
0.2492894571
 40
0.3739469656
 40
0.4989879812
 40
0.6240821134
 40
0.7496281929
 40
1.0
 40
1.0
 40
1.0
 40
1.0
 10
61.7646157895
 20
41.7849255459
 30
0.0
 10
61.8087983927
 20
41.8049548389
 30
0.0
 10
61.9021916553
 20
41.834564839
 30
0.0
 10
62.0487947963
 20
41.8429041245
 30
0.0
 10
62.1926901556
 20
41.8133705085
 30
0.0
 10
62.3255423841
 20
41.7505809862
 30
0.0
 10
62.439782938
 20
41.6570430021
 30
0.0
 10
62.5550609497
 20
41.498465626
 30
0.0
 10
62.596637724
 20
41.3507890413
 30
0.0
 10
62.5992343982
 20
41.2535527623
 30
0.0
  0
LINE
  5
33A
100
AcDbEntity
  8
0
100
AcDbLine
 62
7
  6
BYLAYER
 10
59.8427325378
 20
49.3662455333
 11
59.3347331678
 21
49.423328565
  0
SPLINE
  5
33B
100
AcDbEntity
  8
0
100
AcDbSpline
 62
7
  6
BYLAYER
 70
0
 71
3
 72
32
 73
28
 74
0
 42
0.0000001
 43
0.0000001
 44
0.0000000001
 40
0.0
 40
0.0
 40
0.0
 40
0.0
 40
0.0040767237
 40
0.0074667023
 40
0.0119033822
 40
0.0240131794
 40
0.0404575469
 40
0.0611770329
 40
0.0860836002
 40
0.1478270997
 40
0.2231319205
 40
0.3088051211
 40
0.4016388311
 40
0.4983352759
 40
0.5952291198
 40
0.6885562066
 40
0.7745549765
 40
0.8498139516
 40
0.9119266743
 40
0.937365061
 40
0.9586983272
 40
0.9756701121
 40
0.9824491495
 40
0.9880661487
 40
0.9925446713
 40
0.9959383766
 40
1.0
 40
1.0
 40
1.0
 40
1.0
 10
56.5385392052
 20
38.0192409981
 30
0.0
 10
56.5385801667
 20
38.0276100825
 30
0.0
 10
56.5521868897
 20
38.040124322
 30
0.0
 10
56.5731188834
 20
38.0508691777
 30
0.0
 10
56.6116956323
 20
38.0659615618
 30
0.0
 10
56.6770818695
 20
38.0830096777
 30
0.0
 10
56.7764183991
 20
38.1028134149
 30
0.0
 10
56.9022795723
 20
38.1226232881
 30
0.0
 10
57.1208459083
 20
38.1514016753
 30
0.0
 10
57.4516053965
 20
38.1855524493
 30
0.0
 10
57.907142758
 20
38.2249276274
 30
0.0
 10
58.4266928539
 20
38.2645855607
 30
0.0
 10
58.9902563812
 20
38.3044417074
 30
0.0
 10
59.5769102155
 20
38.344289277
 30
0.0
 10
60.1645797606
 20
38.3841290195
 30
0.0
 10
60.7302415158
 20
38.4238861531
 30
0.0
 10
61.2513905108
 20
38.4634645266
 30
0.0
 10
61.708248184
 20
38.5030253505
 30
0.0
 10
62.0407542791
 20
38.5373857311
 30
0.0
 10
62.2624667271
 20
38.5659329226
 30
0.0
 10
62.3918345286
 20
38.5857904861
 30
0.0
 10
62.4827763171
 20
38.6030823028
 30
0.0
 10
62.5413744352
 20
38.6175577036
 30
0.0
 10
62.5744755206
 20
38.6274406312
 30
0.0
 10
62.6006273863
 20
38.6376003906
 30
0.0
 10
62.6216598768
 20
38.6483214616
 30
0.0
 10
62.6351180024
 20
38.6609187526
 30
0.0
 10
62.6351470504
 20
38.669256887
 30
0.0
  0
SPLINE
  5
33C
100
AcDbEntity
  8
0
100
AcDbSpline
 62
7
  6
BYLAYER
 70
0
 71
3
 72
32
 73
28
 74
0
 42
0.0000001
 43
0.0000001
 44
0.0000000001
 40
0.0
 40
0.0
 40
0.0
 40
0.0
 40
0.0040665467
 40
0.0074684075
 40
0.011959627
 40
0.0175943662
 40
0.024390056
 40
0.0413817546
 40
0.0627206902
 40
0.0881552728
 40
0.150251653
 40
0.225515767
 40
0.3115347373
 40
0.4048566111
 40
0.5017297465
 40
0.5984002962
 40
0.6912252665
 40
0.7769020665
 40
0.8521978622
 40
0.9138976336
 40
0.9387907796
 40
0.9595113051
 40
0.9759652868
 40
0.9880873371
 40
0.9925292439
 40
0.9959228505
 40
1.0
 40
1.0
 40
1.0
 40
1.0
 10
56.5396555032
 20
48.4206949851
 30
0.0
 10
56.539694375
 20
48.4290434732
 30
0.0
 10
56.5532092238
 20
48.4416347222
 30
0.0
 10
56.574297922
 20
48.4523505748
 30
0.0
 10
56.6005386518
 20
48.4625096412
 30
0.0
 10
56.6337429016
 20
48.472385383
 30
0.0
 10
56.6924599158
 20
48.4868530745
 30
0.0
 10
56.7834920757
 20
48.5041466581
 30
0.0
 10
56.9129095144
 20
48.5240061134
 30
0.0
 10
57.1345995347
 20
48.552553635
 30
0.0
 10
57.4670856481
 20
48.586920387
 30
0.0
 10
57.9239784471
 20
48.6264729017
 30
0.0
 10
58.4451878775
 20
48.6660375892
 30
0.0
 10
59.0108572646
 20
48.7057958925
 30
0.0
 10
59.5984406206
 20
48.7456331848
 30
0.0
 10
60.1850006411
 20
48.7854829809
 30
0.0
 10
60.748520073
 20
48.8253344043
 30
0.0
 10
61.2680594428
 20
48.8649847864
 30
0.0
 10
61.7235128671
 20
48.9043434388
 30
0.0
 10
62.0541459291
 20
48.9385074474
 30
0.0
 10
62.2726034958
 20
48.967288013
 30
0.0
 10
62.3984632529
 20
48.9870951173
 30
0.0
 10
62.4978526294
 20
49.0068968142
 30
0.0
 10
62.5632972742
 20
49.0239394921
 30
0.0
 10
62.60192617
 20
49.0390304917
 30
0.0
 10
62.6228770563
 20
49.0497659893
 30
0.0
 10
62.6365150831
 20
49.0622849544
 30
0.0
 10
62.6365433022
 20
49.070655253
 30
0.0
  0
SPLINE
  5
33D
100
AcDbEntity
  8
0
100
AcDbSpline
 62
7
  6
BYLAYER
 70
0
 71
3
 72
32
 73
28
 74
0
 42
0.0000001
 43
0.0000001
 44
0.0000000001
 40
0.0
 40
0.0
 40
0.0
 40
0.0
 40
0.0040624611
 40
0.007452709
 40
0.0119238233
 40
0.0175286847
 40
0.02429434
 40
0.0412524118
 40
0.0625860608
 40
0.088034267
 40
0.1501757595
 40
0.225443428
 40
0.3114299195
 40
0.40476568
 40
0.5016806283
 40
0.5984011281
 40
0.6912405231
 40
0.7769022954
 40
0.8522035395
 40
0.91397495
 40
0.9388895633
 40
0.9596019364
 40
0.9760298552
 40
0.9881198027
 40
0.9925472439
 40
0.9959295877
 40
1.0
 40
1.0
 40
1.0
 40
1.0
 10
56.5399064311
 20
41.9206170964
 30
0.0
 10
56.5399492619
 20
41.9289566164
 30
0.0
 10
56.5533891878
 20
41.94154352
 30
0.0
 10
56.5743985187
 20
41.9522748049
 30
0.0
 10
56.6004966897
 20
41.9624336329
 30
0.0
 10
56.6335251993
 20
41.9723222183
 30
0.0
 10
56.6920356197
 20
41.9868080909
 30
0.0
 10
56.7829198593
 20
42.0040970568
 30
0.0
 10
56.9122759683
 20
42.0239534865
 30
0.0
 10
57.13406192
 20
42.0524999593
 30
0.0
 10
57.4666549626
 20
42.0868546008
 30
0.0
 10
57.9235487715
 20
42.1264215349
 30
0.0
 10
58.4446898504
 20
42.166014827
 30
0.0
 10
59.0103689814
 20
42.2057710159
 30
0.0
 10
59.5981296578
 20
42.2456133451
 30
0.0
 10
60.184868827
 20
42.2854590266
 30
0.0
 10
60.748451129
 20
42.3253186885
 30
0.0
 10
61.2679643083
 20
42.3649842105
 30
0.0
 10
61.72351169
 20
42.4043746371
 30
0.0
 10
62.0543279586
 20
42.4385156918
 30
0.0
 10
62.2729471068
 20
42.467290132
 30
0.0
 10
62.3987720932
 20
42.4871019495
 30
0.0
 10
62.498012837
 20
42.5069082167
 30
0.0
 10
62.5633026313
 20
42.5239589329
 30
0.0
 10
62.6017918897
 20
42.5390567594
 30
0.0
 10
62.6226755264
 20
42.5498040503
 30
0.0
 10
62.6362170941
 20
42.5623321498
 30
0.0
 10
62.6362438387
 20
42.5706880596
 30
0.0
  0
SPLINE
  5
33E
100
AcDbEntity
  8
0
100
AcDbSpline
 62
7
  6
BYLAYER
 70
0
 71
3
 72
32
 73
28
 74
0
 42
0.0000001
 43
0.0000001
 44
0.0000000001
 40
0.0
 40
0.0
 40
0.0
 40
0.0
 40
0.0040499939
 40
0.0073992086
 40
0.0117907209
 40
0.0238399977
 40
0.0403332239
 40
0.0612884078
 40
0.0865583497
 40
0.1487109132
 40
0.2240321403
 40
0.3097145077
 40
0.4028358251
 40
0.4998165445
 40
0.5968194316
 40
0.6900066442
 40
0.7757177699
 40
0.8510274043
 40
0.9132121142
 40
0.9385405936
 40
0.959586655
 40
0.9761375568
 40
0.9827297925
 40
0.9882121476
 40
0.9926054714
 40
0.9959533643
 40
1.0
 40
1.0
 40
1.0
 40
1.0
 10
56.5402887407
 20
47.1196403215
 30
0.0
 10
56.5403284138
 20
47.1279520413
 30
0.0
 10
56.5535471474
 20
47.1405119417
 30
0.0
 10
56.5742514704
 20
47.1513022631
 30
0.0
 10
56.6124492513
 20
47.1664407891
 30
0.0
 10
56.6777090565
 20
47.1835284971
 30
0.0
 10
56.7774718974
 20
47.2033561684
 30
0.0
 10
56.9046519627
 20
47.2231207532
 30
0.0
 10
57.125257483
 20
47.2517300144
 30
0.0
 10
57.4575318278
 20
47.2859612594
 30
0.0
 10
57.9138160768
 20
47.3254705629
 30
0.0
 10
58.433846547
 20
47.3652248036
 30
0.0
 10
58.9984395771
 20
47.4050268303
 30
0.0
 10
59.5863169869
 20
47.4448754397
 30
0.0
 10
60.1743297438
 20
47.484728405
 30
0.0
 10
60.7391642671
 20
47.5245092724
 30
0.0
 10
61.2593668716
 20
47.5642633811
 30
0.0
 10
61.7157484337
 20
47.6037838748
 30
0.0
 10
62.0481901046
 20
47.6380580302
 30
0.0
 10
62.2691613033
 20
47.666621379
 30
0.0
 10
62.3967965395
 20
47.6864524372
 30
0.0
 10
62.4858261129
 20
47.7038515714
 30
0.0
 10
62.5428172314
 20
47.7183855972
 30
0.0
 10
62.5750366339
 20
47.728285573
 30
0.0
 10
62.6005765036
 20
47.7384450649
 30
0.0
 10
62.6212752404
 20
47.7492229153
 30
0.0
 10
62.6344679254
 20
47.7617979187
 30
0.0
 10
62.6344979667
 20
47.770102787
 30
0.0
  0
SPLINE
  5
33F
100
AcDbEntity
  8
0
100
AcDbSpline
 62
7
  6
BYLAYER
 70
0
 71
3
 72
10
 73
6
 74
0
 42
0.0000001
 43
0.0000001
 44
0.0000000001
 40
0.0
 40
0.0
 40
0.0
 40
0.0
 40
0.4993737806
 40
0.7500062199
 40
1.0
 40
1.0
 40
1.0
 40
1.0
 10
62.5994436491
 20
41.23812951
 30
0.0
 10
62.599441828
 20
41.1292150175
 30
0.0
 10
62.551571977
 20
40.9618142837
 30
0.0
 10
62.4133037445
 20
40.790658094
 30
0.0
 10
62.321930603
 20
40.7275939478
 30
0.0
 10
62.2733113489
 20
40.7029149225
 30
0.0
  0
LINE
  5
340
100
AcDbEntity
  8
0
100
AcDbLine
 62
7
  6
BYLAYER
 10
59.8483584004
 20
46.7657027352
 11
59.8118582878
 21
46.7698231893
  0
SPLINE
  5
341
100
AcDbEntity
  8
0
100
AcDbSpline
 62
7
  6
BYLAYER
 70
0
 71
3
 72
18
 73
14
 74
0
 42
0.0000001
 43
0.0000001
 44
0.0000000001
 40
0.0
 40
0.0
 40
0.0
 40
0.0
 40
0.0099404269
 40
0.025364784
 40
0.0480566495
 40
0.0785368684
 40
0.1170009174
 40
0.1635317547
 40
0.2800505472
 40
0.4252626361
 40
0.5958858063
 40
0.7885846187
 40
1.0
 40
1.0
 40
1.0
 40
1.0
 10
56.5401706284
 20
56.2294747968
 30
0.0
 10
56.5401490864
 20
56.2353321475
 30
0.0
 10
56.5486575696
 20
56.2495004748
 30
0.0
 10
56.5729274371
 20
56.2642298724
 30
0.0
 10
56.6102503181
 20
56.2800881828
 30
0.0
 10
56.6619699944
 20
56.2957680433
 30
0.0
 10
56.7281010193
 20
56.3118783291
 30
0.0
 10
56.8445446892
 20
56.3352467976
 30
0.0
 10
57.024040367
 20
56.3634681526
 30
0.0
 10
57.2766979765
 20
56.396231551
 30
0.0
 10
57.5745015414
 20
56.4295917697
 30
0.0
 10
57.9114657039
 20
56.4635104241
 30
0.0
 10
58.1485706992
 20
56.4855394044
 30
0.0
 10
58.2726412377
 20
56.4967544154
 30
0.0
  0
SPLINE
  5
342
100
AcDbEntity
  8
0
100
AcDbSpline
 62
7
  6
BYLAYER
 70
0
 71
3
 72
20
 73
16
 74
0
 42
0.0000001
 43
0.0000001
 44
0.0000000001
 40
0.0
 40
0.0
 40
0.0
 40
0.0
 40
0.1654967895
 40
0.3394887986
 40
0.5107120175
 40
0.6684135919
 40
0.8033772604
 40
0.859563805
 40
0.9067756303
 40
0.9443245972
 40
0.959424719
 40
0.9720711043
 40
0.9822906307
 40
0.9901679539
 40
1.0
 40
1.0
 40
1.0
 40
1.0
 10
58.2726412377
 20
56.4967544154
 30
0.0
 10
58.5155615371
 20
56.5187125199
 30
0.0
 10
59.0140826964
 20
56.5614025688
 30
0.0
 10
59.764171243
 20
56.6239222699
 30
0.0
 10
60.5026464749
 20
56.6875427065
 30
0.0
 10
61.1832618905
 20
56.7522797528
 30
0.0
 10
61.6943097775
 20
56.809186843
 30
0.0
 10
62.0423212386
 20
56.8573281644
 30
0.0
 10
62.2472837554
 20
56.8913591174
 30
0.0
 10
62.3914113196
 20
56.9214394861
 30
0.0
 10
62.4843752366
 20
56.9466948597
 30
0.0
 10
62.5374400964
 20
56.9640588644
 30
0.0
 10
62.5796442828
 20
56.9819156245
 30
0.0
 10
62.614560389
 20
57.00124787
 30
0.0
 10
62.6360645659
 20
57.0235531619
 30
0.0
 10
62.636119131
 20
57.0380436197
 30
0.0
  0
SPLINE
  5
343
100
AcDbEntity
  8
0
100
AcDbSpline
 62
7
  6
BYLAYER
 70
0
 71
3
 72
9
 73
5
 74
0
 42
0.0000001
 43
0.0000001
 44
0.0000000001
 40
0.0
 40
0.0
 40
0.0
 40
0.0
 40
0.2433834319
 40
1.0
 40
1.0
 40
1.0
 40
1.0
 10
58.5492664604
 20
55.7322802023
 30
0.0
 10
58.5528866132
 20
55.7449893683
 30
0.0
 10
58.5665891317
 20
55.7975375274
 30
0.0
 10
58.5758217302
 20
55.8512284142
 30
0.0
 10
58.5804721555
 20
55.8920454696
 30
0.0
  0
SPLINE
  5
344
100
AcDbEntity
  8
0
100
AcDbSpline
 62
7
  6
BYLAYER
 70
0
 71
3
 72
33
 73
29
 74
0
 42
0.0000001
 43
0.0000001
 44
0.0000000001
 40
0.0
 40
0.0
 40
0.0
 40
0.0
 40
0.0041261004
 40
0.0076200486
 40
0.0122022437
 40
0.0178916286
 40
0.0246851711
 40
0.041528656
 40
0.0625901626
 40
0.0876961092
 40
0.116662058
 40
0.1492984275
 40
0.2664022549
 40
0.4033847562
 40
0.5483437836
 40
0.6200859879
 40
0.6893419918
 40
0.7546160595
 40
0.8144141977
 40
0.8672681395
 40
0.9121290941
 40
0.9483241044
 40
0.9752212823
 40
0.9850124796
 40
0.992306873
 40
0.9950289558
 40
0.9971633873
 40
1.0
 40
1.0
 40
1.0
 40
1.0
 10
56.5376190205
 20
43.2204063157
 30
0.0
 10
56.537657494
 20
43.2288799936
 30
0.0
 10
56.5520149639
 20
43.2413732798
 30
0.0
 10
56.5735841069
 20
43.2519744426
 30
0.0
 10
56.6004080027
 20
43.2621073275
 30
0.0
 10
56.6339183171
 20
43.2719709946
 30
0.0
 10
56.6924681556
 20
43.2864002043
 30
0.0
 10
56.7826306219
 20
43.3037025649
 30
0.0
 10
56.9105282196
 20
43.3235653417
 30
0.0
 10
57.063541633
 20
43.3435189339
 30
0.0
 10
57.2404876672
 20
43.3635782596
 30
0.0
 10
57.605662781
 20
43.4002894807
 30
0.0
 10
58.1926225654
 20
43.4479067351
 30
0.0
 10
59.0100716922
 20
43.5060182576
 30
0.0
 10
59.7347936842
 20
43.5548102789
 30
0.0
 10
60.3206808265
 20
43.5950832219
 30
0.0
 10
60.7432347895
 20
43.6251451714
 30
0.0
 10
61.1411979215
 20
43.6551505358
 30
0.0
 10
61.5053868519
 20
43.6850287351
 30
0.0
 10
61.8274948516
 20
43.7148725993
 30
0.0
 10
62.1009338373
 20
43.74452462
 30
0.0
 10
62.3206671852
 20
43.773991656
 30
0.0
 10
62.4682850946
 20
43.7995561788
 30
0.0
 10
62.5559221551
 20
43.8216992683
 30
0.0
 10
62.5945477861
 20
43.8345729433
 30
0.0
 10
62.6170614511
 20
43.8457746837
 30
0.0
 10
62.6300282537
 20
43.8542704395
 30
0.0
 10
62.637204111
 20
43.8635858826
 30
0.0
 10
62.6372285837
 20
43.8694113778
 30
0.0
  0
SPLINE
  5
345
100
AcDbEntity
  8
0
100
AcDbSpline
 62
7
  6
BYLAYER
 70
0
 71
3
 72
15
 73
11
 74
0
 42
0.0000001
 43
0.0000001
 44
0.0000000001
 40
0.0
 40
0.0
 40
0.0
 40
0.0
 40
0.0095271357
 40
0.0259097276
 40
0.0841315867
 40
0.1758503947
 40
0.2986454819
 40
0.4490887808
 40
0.6208674095
 40
1.0
 40
1.0
 40
1.0
 40
1.0
 10
59.8019657575
 20
46.7631220456
 30
0.0
 10
59.803888442
 20
46.7632850377
 30
0.0
 10
59.8088067064
 20
46.7597403886
 30
0.0
 10
59.8159275086
 20
46.7444381902
 30
0.0
 10
59.8243355824
 20
46.7114071003
 30
0.0
 10
59.8327001019
 20
46.6569360938
 30
0.0
 10
59.8403876542
 20
46.5833334069
 30
0.0
 10
59.8466073028
 20
46.4934278189
 30
0.0
 10
59.8530911897
 20
46.3515097739
 30
0.0
 10
59.8549575955
 20
46.2399172233
 30
0.0
 10
59.8549574977
 20
46.16312951
 30
0.0
  0
SPLINE
  5
346
100
AcDbEntity
  8
0
100
AcDbSpline
 62
7
  6
BYLAYER
 70
0
 71
3
 72
9
 73
5
 74
0
 42
0.0000001
 43
0.0000001
 44
0.0000000001
 40
0.0
 40
0.0
 40
0.0
 40
0.0
 40
0.5184989633
 40
1.0
 40
1.0
 40
1.0
 40
1.0
 10
59.5874709497
 20
57.5131290653
 30
0.0
 10
59.5973621895
 20
57.4597521493
 30
0.0
 10
59.5947458533
 20
57.3538566232
 30
0.0
 10
59.5893576111
 20
57.249674033
 30
0.0
 10
59.5878243852
 20
57.199285302
 30
0.0
  0
LINE
  5
347
100
AcDbEntity
  8
0
100
AcDbLine
 62
7
  6
BYLAYER
 10
59.8472999273
 20
44.1657804343
 11
59.3289270105
 21
44.2240190417
  0
SPLINE
  5
348
100
AcDbEntity
  8
0
100
AcDbSpline
 62
7
  6
BYLAYER
 70
0
 71
3
 72
32
 73
28
 74
0
 42
0.0000001
 43
0.0000001
 44
0.0000000001
 40
0.0
 40
0.0
 40
0.0
 40
0.0
 40
0.0040726681
 40
0.007488628
 40
0.0120032559
 40
0.0176687991
 40
0.0244882057
 40
0.0415021497
 40
0.062837188
 40
0.0882513909
 40
0.1502972021
 40
0.2255641097
 40
0.3116051284
 40
0.4049031108
 40
0.5017287253
 40
0.5983511823
 40
0.69117004
 40
0.7768637843
 40
0.8521517597
 40
0.9137832427
 40
0.9386677599
 40
0.9594063616
 40
0.9758936014
 40
0.988052402
 40
0.9925101976
 40
0.9959159201
 40
1.0
 40
1.0
 40
1.0
 40
1.0
 10
56.5393771123
 20
54.9207605895
 30
0.0
 10
56.5394174279
 20
54.9291221793
 30
0.0
 10
56.5530265315
 20
54.941713283
 30
0.0
 10
56.5742105931
 20
54.9524134835
 30
0.0
 10
56.6006105458
 20
54.9625689769
 30
0.0
 10
56.6339862829
 20
54.9724288881
 30
0.0
 10
56.6928715774
 20
54.9868890691
 30
0.0
 10
56.7839965967
 20
55.0041826375
 30
0.0
 10
56.9134179986
 20
55.0240457413
 30
0.0
 10
57.1349673902
 20
55.0525940132
 30
0.0
 10
57.4673335355
 20
55.0869734732
 30
0.0
 10
57.9242054423
 20
55.1265006849
 30
0.0
 10
58.4454523778
 20
55.1660427908
 30
0.0
 10
59.011056899
 20
55.205801534
 30
0.0
 10
59.5984328952
 20
55.2456336203
 30
0.0
 10
60.1848214667
 20
55.2854866629
 30
0.0
 10
60.748301798
 20
55.3253251614
 30
0.0
 10
61.2678821289
 20
55.3649606737
 30
0.0
 10
61.7232466789
 20
55.4042859836
 30
0.0
 10
62.0537228832
 20
55.4384826276
 30
0.0
 10
62.2720737771
 20
55.467258333
 30
0.0
 10
62.3980302327
 20
55.4870603765
 30
0.0
 10
62.4976138549
 20
55.5068569694
 30
0.0
 10
62.5632410251
 20
55.5238908605
 30
0.0
 10
62.602025261
 20
55.5389751928
 30
0.0
 10
62.6230483538
 20
55.5496973385
 30
0.0
 10
62.6367887242
 20
55.5622076537
 30
0.0
 10
62.6368168712
 20
55.5705927233
 30
0.0
  0
SPLINE
  5
349
100
AcDbEntity
  8
0
100
AcDbSpline
 62
7
  6
BYLAYER
 70
0
 71
3
 72
32
 73
28
 74
0
 42
0.0000001
 43
0.0000001
 44
0.0000000001
 40
0.0
 40
0.0
 40
0.0
 40
0.0
 40
0.0040701264
 40
0.0074494078
 40
0.0118725516
 40
0.0239532146
 40
0.0403759919
 40
0.0610933374
 40
0.0860289612
 40
0.1478454258
 40
0.223155827
 40
0.3088164232
 40
0.40167024
 40
0.4984176117
 40
0.5953506296
 40
0.6886866133
 40
0.7746484578
 40
0.8499127039
 40
0.9120657595
 40
0.9375131785
 40
0.9588352336
 40
0.9757662585
 40
0.9825120694
 40
0.9881003719
 40
0.9925597364
 40
0.9959423896
 40
1.0
 40
1.0
 40
1.0
 40
1.0
 10
56.5388435657
 20
44.5192230208
 30
0.0
 10
56.5388819331
 20
44.5275780258
 30
0.0
 10
56.5523961453
 20
44.5401020339
 30
0.0
 10
56.5732642376
 20
44.550857743
 30
0.0
 10
56.6117115754
 20
44.5659572686
 30
0.0
 10
56.6769605957
 20
44.5830131459
 30
0.0
 10
56.7761769726
 20
44.60282141
 30
0.0
 10
56.9020411007
 20
44.6226360559
 30
0.0
 10
57.1208010919
 20
44.6514020941
 30
0.0
 10
57.4517620939
 20
44.685537153
 30
0.0
 10
57.9074024204
 20
44.7249425819
 30
0.0
 10
58.4269440649
 20
44.7646165799
 30
0.0
 10
58.9905902941
 20
44.8044785388
 30
0.0
 10
59.5774324922
 20
44.8443225659
 30
0.0
 10
60.1652666552
 20
44.8841674457
 30
0.0
 10
60.7309142756
 20
44.9239225449
 30
0.0
 10
61.2519797144
 20
44.9635319493
 30
0.0
 10
61.7088241122
 20
45.0031026859
 30
0.0
 10
62.0414218369
 20
45.0374516
 30
0.0
 10
62.2631989975
 20
45.0659980205
 30
0.0
 10
62.3924688487
 20
45.0858529906
 30
0.0
 10
62.4832296055
 20
45.1031384027
 30
0.0
 10
62.5416000955
 20
45.1176386241
 30
0.0
 10
62.5745243244
 20
45.1275298542
 30
0.0
 10
62.6005398513
 20
45.1376896587
 30
0.0
 10
62.6214961619
 20
45.1484249738
 30
0.0
 10
62.6348831744
 20
45.1610188478
 30
0.0
 10
62.6349145339
 20
45.1693481893
 30
0.0
  0
SPLINE
  5
34A
100
AcDbEntity
  8
0
100
AcDbSpline
 62
7
  6
BYLAYER
 70
0
 71
3
 72
32
 73
28
 74
0
 42
0.0000001
 43
0.0000001
 44
0.0000000001
 40
0.0
 40
0.0
 40
0.0
 40
0.0
 40
0.0040496306
 40
0.0073993317
 40
0.0117937089
 40
0.0238619695
 40
0.040401999
 40
0.0614309982
 40
0.0867498245
 40
0.1489312873
 40
0.2659671104
 40
0.4031138703
 40
0.5488379631
 40
0.6208783598
 40
0.690212595
 40
0.7553334671
 40
0.81501514
 40
0.8680782757
 40
0.9133493085
 40
0.9496678154
 40
0.9641406675
 40
0.9760965304
 40
0.9855478422
 40
0.9925344399
 40
0.9951394993
 40
0.9971945747
 40
1.0
 40
1.0
 40
1.0
 40
1.0
 10
56.5404101053
 20
53.6197779997
 30
0.0
 10
56.5404538924
 20
53.6280895033
 30
0.0
 10
56.5536667456
 20
53.6406515009
 30
0.0
 10
56.5743817273
 20
53.6514424374
 30
0.0
 10
56.6126290801
 20
53.6665869956
 30
0.0
 10
56.6780392658
 20
53.6836778645
 30
0.0
 10
56.7781020488
 20
53.7035012899
 30
0.0
 10
56.9056468472
 20
53.7232381637
 30
0.0
 10
57.1265802324
 20
53.7518495605
 30
0.0
 10
57.5442129311
 20
53.7948311393
 30
0.0
 10
58.1913843391
 20
53.8479627838
 30
0.0
 10
59.0101071709
 20
53.9061390773
 30
0.0
 10
59.7369067547
 20
53.9549084771
 30
0.0
 10
60.3247770056
 20
53.9952501572
 30
0.0
 10
60.7475255985
 20
54.0253688222
 30
0.0
 10
61.1448412705
 20
54.0554959703
 30
0.0
 10
61.5086635561
 20
54.0855440231
 30
0.0
 10
61.8316141447
 20
54.1154178041
 30
0.0
 10
62.1063878486
 20
54.1450938584
 30
0.0
 10
62.3019075741
 20
54.1708987818
 30
0.0
 10
62.4288689168
 20
54.1925912782
 30
0.0
 10
62.501009275
 20
54.2074979193
 30
0.0
 10
62.5573991134
 20
54.2223600584
 30
0.0
 10
62.5943385538
 20
54.2353219759
 30
0.0
 10
62.6156306249
 20
54.246557643
 30
0.0
 10
62.6279810969
 20
54.2552167968
 30
0.0
 10
62.6345861805
 20
54.2644823207
 30
0.0
 10
62.6346053504
 20
54.2702402526
 30
0.0
  0
SPLINE
  5
34B
100
AcDbEntity
  8
0
100
AcDbSpline
 62
7
  6
BYLAYER
 70
0
 71
3
 72
10
 73
6
 74
0
 42
0.0000001
 43
0.0000001
 44
0.0000000001
 40
0.0
 40
0.0
 40
0.0
 40
0.0
 40
0.2879375135
 40
0.5517271101
 40
1.0
 40
1.0
 40
1.0
 40
1.0
 10
56.5485094715
 20
60.5131294858
 30
0.0
 10
56.5485518023
 20
60.3424383452
 30
0.0
 10
56.5542490788
 20
60.0151332352
 30
0.0
 10
56.6003039988
 20
59.4243863346
 30
0.0
 10
56.6874310896
 20
59.0062267516
 30
0.0
 10
56.780851386
 20
58.7574500665
 30
0.0
  0
SPLINE
  5
34C
100
AcDbEntity
  8
0
100
AcDbSpline
 62
7
  6
BYLAYER
 70
0
 71
3
 72
32
 73
28
 74
0
 42
0.0000001
 43
0.0000001
 44
0.0000000001
 40
0.0
 40
0.0
 40
0.0
 40
0.0
 40
0.0040832653
 40
0.0074832114
 40
0.0119325758
 40
0.0240707547
 40
0.0405394281
 40
0.0612698395
 40
0.0861647887
 40
0.1478544089
 40
0.223154924
 40
0.3088403173
 40
0.4016644021
 40
0.4983205334
 40
0.5951779876
 40
0.6884892374
 40
0.7745088323
 40
0.8497651856
 40
0.9118394903
 40
0.9372646567
 40
0.9585989582
 40
0.9755935164
 40
0.9823942344
 40
0.9880355055
 40
0.9925308285
 40
0.9959344499
 40
1.0
 40
1.0
 40
1.0
 40
1.0
 10
56.5383088198
 20
52.3192858106
 30
0.0
 10
56.5383559347
 20
52.3276687194
 30
0.0
 10
56.5520475418
 20
52.3401718638
 30
0.0
 10
56.573040134
 20
52.35090814
 30
0.0
 10
56.6117393444
 20
52.3659941049
 30
0.0
 10
56.6772645011
 20
52.3830359194
 30
0.0
 10
56.776741915
 20
52.4028354286
 30
0.0
 10
56.9026584289
 20
52.4226413125
 30
0.0
 10
57.1211231622
 20
52.4514202022
 30
0.0
 10
57.4517534201
 20
52.4855918074
 30
0.0
 10
57.9072219706
 20
52.5249406729
 30
0.0
 10
58.4267959339
 20
52.5645862596
 30
0.0
 10
58.9903112709
 20
52.6044336907
 30
0.0
 10
59.5768173197
 20
52.644283688
 30
0.0
 10
60.1643268647
 20
52.6841186515
 30
0.0
 10
60.729952895
 20
52.7238763649
 30
0.0
 10
61.2511350685
 20
52.7634331373
 30
0.0
 10
61.7079759728
 20
52.8029787922
 30
0.0
 10
62.0403864643
 20
52.8373482943
 30
0.0
 10
62.2620054419
 20
52.8658955998
 30
0.0
 10
62.3914018108
 20
52.8857555598
 30
0.0
 10
62.4824421018
 20
52.9030488771
 30
0.0
 10
62.541191306
 20
52.9175139034
 30
0.0
 10
62.574430707
 20
52.9273843461
 30
0.0
 10
62.6007006633
 20
52.9375436064
 30
0.0
 10
62.621800746
 20
52.9482524536
 30
0.0
 10
62.635324261
 20
52.9608510209
 30
0.0
 10
62.6353527086
 20
52.969197644
 30
0.0
  0
LINE
  5
34D
100
AcDbEntity
  8
0
100
AcDbLine
 62
7
  6
BYLAYER
 10
59.7460465056
 20
45.4772186919
 11
59.3312437896
 21
45.5236934199
  0
SPLINE
  5
34E
100
AcDbEntity
  8
0
100
AcDbSpline
 62
7
  6
BYLAYER
 70
0
 71
3
 72
20
 73
16
 74
0
 42
0.0000001
 43
0.0000001
 44
0.0000000001
 40
0.0
 40
0.0
 40
0.0
 40
0.0
 40
0.0080080336
 40
0.0147919758
 40
0.0237500251
 40
0.0349687219
 40
0.0484913525
 40
0.0825292275
 40
0.1257011446
 40
0.1773732903
 40
0.3034371008
 40
0.4550847952
 40
0.626560357
 40
0.810903916
 40
1.0
 40
1.0
 40
1.0
 40
1.0
 10
56.540446966
 20
45.8200241371
 30
0.0
 10
56.5404903289
 20
45.8289564755
 30
0.0
 10
56.5555106912
 20
45.8422043333
 30
0.0
 10
56.5783270134
 20
45.8534398657
 30
0.0
 10
56.6068769695
 20
45.8641633178
 30
0.0
 10
56.6428653634
 20
45.8745954218
 30
0.0
 10
56.7066911841
 20
45.8899438845
 30
0.0
 10
56.8062464756
 20
45.9082360346
 30
0.0
 10
56.9485051176
 20
45.9291363988
 30
0.0
 10
57.1930810679
 20
45.9592213014
 30
0.0
 10
57.5587471681
 20
45.9953524243
 30
0.0
 10
58.0580516909
 20
46.0370530795
 30
0.0
 10
58.6225578186
 20
46.0788760838
 30
0.0
 10
59.2289292301
 20
46.120781456
 30
0.0
 10
59.6445326845
 20
46.1488160196
 30
0.0
 10
59.8549702962
 20
46.1631386362
 30
0.0
  0
SPLINE
  5
34F
100
AcDbEntity
  8
0
100
AcDbSpline
 62
7
  6
BYLAYER
 70
0
 71
3
 72
32
 73
28
 74
0
 42
0.0000001
 43
0.0000001
 44
0.0000000001
 40
0.0
 40
0.0
 40
0.0
 40
0.0
 40
0.0040500044
 40
0.0074013064
 40
0.0117997557
 40
0.0238883469
 40
0.0404728905
 40
0.0615595913
 40
0.086912494
 40
0.1491118403
 40
0.2661472429
 40
0.4033505767
 40
0.5490758548
 40
0.6210935974
 40
0.6903921187
 40
0.7554970198
 40
0.8151803759
 40
0.8682416258
 40
0.9134860522
 40
0.9497328244
 40
0.9641692983
 40
0.9761044193
 40
0.9855466217
 40
0.9925316881
 40
0.9951375102
 40
0.9971936441
 40
1.0
 40
1.0
 40
1.0
 40
1.0
 10
56.5404691899
 20
39.3198906578
 30
0.0
 10
56.5405160438
 20
39.3282029634
 30
0.0
 10
56.5537322625
 20
39.3407662838
 30
0.0
 10
56.574462387
 20
39.351556194
 30
0.0
 10
56.612766058
 20
39.3667052502
 30
0.0
 10
56.6783226077
 20
39.3837981231
 30
0.0
 10
56.7786446806
 20
39.4036111655
 30
0.0
 10
56.9064755282
 20
39.4233313313
 30
0.0
 10
57.1276367923
 20
39.4519436856
 30
0.0
 10
57.5453773222
 20
39.4949340989
 30
0.0
 10
58.1927038097
 20
39.5480853614
 30
0.0
 10
59.0115522561
 20
39.6062262808
 30
0.0
 10
59.7384279528
 20
39.6550041648
 30
0.0
 10
60.326184145
 20
39.6953471431
 30
0.0
 10
60.7487818522
 20
39.7254735421
 30
0.0
 10
61.1459971238
 20
39.7555996813
 30
0.0
 10
61.5097888932
 20
39.7856412298
 30
0.0
 10
61.8326868355
 20
39.8155087372
 30
0.0
 10
62.1072571808
 20
39.8451684638
 30
0.0
 10
62.3024985322
 20
39.8709843346
 30
0.0
 10
62.4291897405
 20
39.8926924478
 30
0.0
 10
62.5011917022
 20
39.9075979939
 30
0.0
 10
62.5575156336
 20
39.9224593599
 30
0.0
 10
62.5944336743
 20
39.9354190123
 30
0.0
 10
62.6157284546
 20
39.9466517725
 30
0.0
 10
62.6280856172
 20
39.9553090691
 30
0.0
 10
62.6347035776
 20
39.9645728338
 30
0.0
 10
62.6347245715
 20
39.970332705
 30
0.0
  0
SPLINE
  5
350
100
AcDbEntity
  8
0
100
AcDbSpline
 62
7
  6
BYLAYER
 70
0
 71
3
 72
33
 73
29
 74
0
 42
0.0000001
 43
0.0000001
 44
0.0000000001
 40
0.0
 40
0.0
 40
0.0
 40
0.0
 40
0.004118381
 40
0.0076132667
 40
0.0122041382
 40
0.0179090349
 40
0.0247237078
 40
0.0416210731
 40
0.0627430298
 40
0.0879052512
 40
0.1495633784
 40
0.2248382674
 40
0.3107540719
 40
0.4037564486
 40
0.5002817899
 40
0.5967709568
 40
0.689699653
 40
0.7755571591
 40
0.8508384897
 40
0.9124209165
 40
0.9375006386
 40
0.9585317961
 40
0.975346194
 40
0.9821273586
 40
0.9878067076
 40
0.9923818679
 40
0.9958723651
 40
1.0
 40
1.0
 40
1.0
 40
1.0
 10
56.5377949098
 20
36.7205488823
 30
0.0
 10
56.5378319579
 20
36.7290061211
 30
0.0
 10
56.5521031682
 20
36.7415411862
 30
0.0
 10
56.5737007906
 20
36.7521220968
 30
0.0
 10
56.6005722421
 20
36.7622569896
 30
0.0
 10
56.6341798546
 20
36.7721171062
 30
0.0
 10
56.692915877
 20
36.7865466378
 30
0.0
 10
56.7833562595
 20
36.8038442959
 30
0.0
 10
56.9115985217
 20
36.8237094129
 30
0.0
 10
57.1314251609
 20
36.8522880982
 30
0.0
 10
57.4625579474
 20
36.8866980274
 30
0.0
 10
57.918507215
 20
36.9259781627
 30
0.0
 10
58.4390150284
 20
36.9655009513
 30
0.0
 10
59.003256143
 20
37.00524069
 30
0.0
 10
59.5892564306
 20
37.0450577655
 30
0.0
 10
60.1751044803
 20
37.0848834454
 30
0.0
 10
60.7389989358
 20
37.1246306454
 30
0.0
 10
61.2592465373
 20
37.164174963
 30
0.0
 10
61.7149362799
 20
37.2034110894
 30
0.0
 10
62.045758338
 20
37.2378071383
 30
0.0
 10
62.265066055
 20
37.2664123515
 30
0.0
 10
62.3927758044
 20
37.2862806431
 30
0.0
 10
62.4827810892
 20
37.3035854344
 30
0.0
 10
62.5412175487
 20
37.3180160874
 30
0.0
 10
62.5746612398
 20
37.3278819078
 30
0.0
 10
62.6014392684
 20
37.3380141488
 30
0.0
 10
62.6229763249
 20
37.3486276704
 30
0.0
 10
62.6373454977
 20
37.3611068392
 30
0.0
 10
62.6373808531
 20
37.3695830888
 30
0.0
  0
SPLINE
  5
351
100
AcDbEntity
  8
0
100
AcDbSpline
 62
7
  6
BYLAYER
 70
0
 71
3
 72
26
 73
22
 74
0
 42
0.0000001
 43
0.0000001
 44
0.0000000001
 40
0.0
 40
0.0
 40
0.0
 40
0.0
 40
0.0369263365
 40
0.0871395276
 40
0.1494204271
 40
0.2222584256
 40
0.303207319
 40
0.3896068502
 40
0.4787934286
 40
0.5681071401
 40
0.654936607
 40
0.7366989093
 40
0.810814319
 40
0.8747254694
 40
0.9265082441
 40
0.9650750602
 40
0.9791077252
 40
0.9895175304
 40
0.9933624581
 40
0.9963267118
 40
1.0
 40
1.0
 40
1.0
 40
1.0
 10
56.703522739
 20
51.0881203706
 30
0.0
 10
56.7755575196
 20
51.1030808398
 30
0.0
 10
56.9472890492
 20
51.1296164932
 30
0.0
 10
57.2429117642
 20
51.1646355356
 30
0.0
 10
57.610511389
 20
51.19994795
 30
0.0
 10
58.0395421578
 20
51.2354018973
 30
0.0
 10
58.5167645121
 20
51.2710428521
 30
0.0
 10
59.026631768
 20
51.3068013863
 30
0.0
 10
59.5532012308
 20
51.3426110051
 30
0.0
 10
60.0806282369
 20
51.3784335844
 30
0.0
 10
60.5932310229
 20
51.4142191798
 30
0.0
 10
61.0754853548
 20
51.449895874
 30
0.0
 10
61.5119537687
 20
51.4853970369
 30
0.0
 10
61.8885111527
 20
51.5205868594
 30
0.0
 10
62.193855462
 20
51.5557932155
 30
0.0
 10
62.399670514
 20
51.5862646347
 30
0.0
 10
62.5225251526
 20
51.6127366351
 30
0.0
 10
62.5766911894
 20
51.6280252096
 30
0.0
 10
62.6086502658
 20
51.6414789854
 30
0.0
 10
62.6263613397
 20
51.651240117
 30
0.0
 10
62.6374239891
 20
51.6624380285
 30
0.0
 10
62.6374493423
 20
51.6697566313
 30
0.0
  0
SPLINE
  5
352
100
AcDbEntity
  8
0
100
AcDbSpline
 62
7
  6
BYLAYER
 70
0
 71
3
 72
9
 73
5
 74
0
 42
0.0000001
 43
0.0000001
 44
0.0000000001
 40
0.0
 40
0.0
 40
0.0
 40
0.0
 40
0.2142574511
 40
1.0
 40
1.0
 40
1.0
 40
1.0
 10
59.5837335499
 20
58.0227633636
 30
0.0
 10
59.5856209183
 20
58.0126685441
 30
0.0
 10
59.5928977167
 20
57.9652752534
 30
0.0
 10
59.5941987193
 20
57.9170058747
 30
0.0
 10
59.5922192843
 20
57.8793958962
 30
0.0
  0
SPLINE
  5
353
100
AcDbEntity
  8
0
100
AcDbSpline
 62
7
  6
BYLAYER
 70
0
 71
3
 72
10
 73
6
 74
0
 42
0.0000001
 43
0.0000001
 44
0.0000000001
 40
0.0
 40
0.0
 40
0.0
 40
0.0
 40
0.2255133437
 40
0.4718275217
 40
1.0
 40
1.0
 40
1.0
 40
1.0
 10
59.5922192843
 20
57.8793958962
 30
0.0
 10
59.5907689142
 20
57.8518383398
 30
0.0
 10
59.5845468276
 20
57.7944148411
 30
0.0
 10
59.5730215292
 20
57.6725040782
 30
0.0
 10
59.5796469665
 20
57.577285358
 30
0.0
 10
59.587470874
 20
57.5131290656
 30
0.0
  0
SPLINE
  5
354
100
AcDbEntity
  8
0
100
AcDbSpline
 62
7
  6
BYLAYER
 70
0
 71
3
 72
14
 73
10
 74
0
 42
0.0000001
 43
0.0000001
 44
0.0000000001
 40
0.0
 40
0.0
 40
0.0
 40
0.0
 40
0.2090960025
 40
0.3172372403
 40
0.4340559775
 40
0.5634133535
 40
0.7032280672
 40
0.8500194693
 40
1.0
 40
1.0
 40
1.0
 40
1.0
 10
57.9043320043
 20
59.1796382408
 30
0.0
 10
57.9569458979
 20
59.0399563413
 30
0.0
 10
58.0620934408
 20
58.8356622688
 30
0.0
 10
58.2597105307
 20
58.5958031281
 30
0.0
 10
58.4490943545
 20
58.4266111588
 30
0.0
 10
58.6800756113
 20
58.2747723683
 30
0.0
 10
58.948698818
 20
58.1459905519
 30
0.0
 10
59.2471995163
 20
58.0527658778
 30
0.0
 10
59.458911205
 20
58.0245276045
 30
0.0
 10
59.5659609373
 20
58.0228409218
 30
0.0
  0
SPLINE
  5
355
100
AcDbEntity
  8
0
100
AcDbSpline
 62
7
  6
BYLAYER
 70
0
 71
3
 72
14
 73
10
 74
0
 42
0.0000001
 43
0.0000001
 44
0.0000000001
 40
0.0
 40
0.0
 40
0.0
 40
0.0
 40
0.2560257934
 40
0.3832398054
 40
0.5086465539
 40
0.6327515326
 40
0.7557324444
 40
0.877785534
 40
1.0
 40
1.0
 40
1.0
 40
1.0
 10
56.7035283282
 20
51.08812951
 30
0.0
 10
56.7035297728
 20
50.9978969515
 30
0.0
 10
56.7345079037
 20
50.8607802451
 30
0.0
 10
56.8270456131
 20
50.7060821536
 30
0.0
 10
56.920380075
 20
50.6097779039
 30
0.0
 10
57.0322901534
 20
50.538961936
 30
0.0
 10
57.156190377
 20
50.4956202459
 30
0.0
 10
57.2862940854
 20
50.4828459337
 30
0.0
 10
57.3723471958
 20
50.4964433438
 30
0.0
 10
57.4138269205
 20
50.5080489683
 30
0.0
  0
SPLINE
  5
356
100
AcDbEntity
  8
0
100
AcDbSpline
 62
7
  6
BYLAYER
 70
0
 71
3
 72
9
 73
5
 74
0
 42
0.0000001
 43
0.0000001
 44
0.0000000001
 40
0.0
 40
0.0
 40
0.0
 40
0.0
 40
0.4764359973
 40
1.0
 40
1.0
 40
1.0
 40
1.0
 10
60.6495358756
 20
57.3221535008
 30
0.0
 10
60.4815648092
 20
57.3561540798
 30
0.0
 10
60.1276447021
 20
57.4206841143
 30
0.0
 10
59.7730715849
 20
57.4811822561
 30
0.0
 10
59.5874702062
 20
57.5131247457
 30
0.0
  0
SPLINE
  5
357
100
AcDbEntity
  8
0
100
AcDbSpline
 62
7
  6
BYLAYER
 70
0
 71
3
 72
16
 73
12
 74
0
 42
0.0000001
 43
0.0000001
 44
0.0000000001
 40
0.0
 40
0.0
 40
0.0
 40
0.0
 40
0.0261951078
 40
0.0489349033
 40
0.0792378742
 40
0.1173122757
 40
0.1630702055
 40
0.2769625711
 40
0.4193699338
 40
0.5885540185
 40
1.0
 40
1.0
 40
1.0
 40
1.0
 10
56.5391452051
 20
40.6207906297
 30
0.0
 10
56.5391893206
 20
40.630071189
 30
0.0
 10
56.5555764685
 20
40.6436020664
 30
0.0
 10
56.5798968493
 20
40.6549430545
 30
0.0
 10
56.6107958207
 20
40.6658799012
 30
0.0
 10
56.6496624046
 20
40.6764910571
 30
0.0
 10
56.7180522841
 20
40.6920747249
 30
0.0
 10
56.8234337241
 20
40.7107107367
 30
0.0
 10
56.9726779176
 20
40.7321301204
 30
0.0
 10
57.2269988531
 20
40.7628754435
 30
0.0
 10
57.4317707782
 20
40.7828058532
 30
0.0
 10
57.5769469908
 20
40.7959628425
 30
0.0
  0
LINE
  5
358
100
AcDbEntity
  8
0
100
AcDbLine
 62
7
  6
BYLAYER
 10
57.5769469908
 20
40.7959628425
 11
57.5912059266
 21
40.7972515375
  0
SPLINE
  5
359
100
AcDbEntity
  8
0
100
AcDbSpline
 62
7
  6
BYLAYER
 70
0
 71
3
 72
19
 73
15
 74
0
 42
0.0000001
 43
0.0000001
 44
0.0000000001
 40
0.0
 40
0.0
 40
0.0
 40
0.0
 40
0.134912101
 40
0.2885614477
 40
0.449630921
 40
0.606862111
 40
0.749754611
 40
0.8126522977
 40
0.8681649554
 40
0.9151423317
 40
0.9530023143
 40
0.9813740634
 40
0.9919124326
 40
1.0
 40
1.0
 40
1.0
 40
1.0
 10
57.5912059266
 20
40.7972515375
 30
0.0
 10
57.8165601448
 20
40.8175627583
 30
0.0
 10
58.2990329925
 20
40.8557626953
 30
0.0
 10
59.0512669403
 20
40.9087282322
 30
0.0
 10
59.8410091625
 20
40.9619268031
 30
0.0
 10
60.6126624115
 20
41.0151845357
 30
0.0
 10
61.2197991258
 20
41.0608725412
 30
0.0
 10
61.6564175314
 20
41.098672275
 30
0.0
 10
61.9324838011
 20
41.1256703086
 30
0.0
 10
62.166361713
 20
41.1525639288
 30
0.0
 10
62.3543328859
 20
41.1793109355
 30
0.0
 10
62.4810868209
 20
41.2026814231
 30
0.0
 10
62.5573677233
 20
41.2226064342
 30
0.0
 10
62.5869999942
 20
41.2327379742
 30
0.0
 10
62.5994425201
 20
41.2381386362
 30
0.0
  0
SPLINE
  5
35A
100
AcDbEntity
  8
0
100
AcDbSpline
 62
7
  6
BYLAYER
 70
0
 71
3
 72
16
 73
12
 74
0
 42
0.0000001
 43
0.0000001
 44
0.0000000001
 40
0.0
 40
0.0
 40
0.0
 40
0.0
 40
0.191638693
 40
0.3763400431
 40
0.5471679907
 40
0.6972041468
 40
0.8202224811
 40
0.9128031437
 40
0.9725522087
 40
0.9898646806
 40
1.0
 40
1.0
 40
1.0
 40
1.0
 10
59.8549774969
 20
46.16312951
 30
0.0
 10
59.8549774393
 20
46.1243599875
 30
0.0
 10
59.8543003774
 20
46.0482220462
 30
0.0
 10
59.8513937172
 20
45.9375627923
 30
0.0
 10
59.8467634915
 20
45.8353714985
 30
0.0
 10
59.8406303321
 20
45.7458025156
 30
0.0
 10
59.8330838804
 20
45.6721087598
 30
0.0
 10
59.824731823
 20
45.6172222695
 30
0.0
 10
59.8165392871
 20
45.5833965645
 30
0.0
 10
59.8093682806
 20
45.5675693179
 30
0.0
 10
59.8047664895
 20
45.5633282818
 30
0.0
 10
59.8027234067
 20
45.5631548724
 30
0.0
  0
SPLINE
  5
35B
100
AcDbEntity
  8
0
100
AcDbSpline
 62
7
  6
BYLAYER
 70
0
 71
3
 72
18
 73
14
 74
0
 42
0.0000001
 43
0.0000001
 44
0.0000000001
 40
0.0
 40
0.0
 40
0.0
 40
0.0
 40
0.1975927433
 40
0.3852940187
 40
0.556394503
 40
0.704969891
 40
0.8269249714
 40
0.91848618
 40
0.9517520039
 40
0.9761608025
 40
0.9850181731
 40
0.9917602359
 40
1.0
 40
1.0
 40
1.0
 40
1.0
 10
59.8549602241
 20
46.1631203706
 30
0.0
 10
60.0396774588
 20
46.1756993006
 30
0.0
 10
60.3998523401
 20
46.2004138246
 30
0.0
 10
60.9198495806
 20
46.2378922171
 30
0.0
 10
61.3937964689
 20
46.27525872
 30
0.0
 10
61.8059533209
 20
46.3124314434
 30
0.0
 10
62.1432303992
 20
46.3494016357
 30
0.0
 10
62.3723398631
 20
46.3812730654
 30
0.0
 10
62.509526287
 20
46.4090811
 30
0.0
 10
62.5696907557
 20
46.4250775461
 30
0.0
 10
62.6047993985
 20
46.4393425666
 30
0.0
 10
62.6238570261
 20
46.4495628336
 30
0.0
 10
62.6356621191
 20
46.4614293518
 30
0.0
 10
62.6356880426
 20
46.4691499939
 30
0.0
  0
SPLINE
  5
35C
100
AcDbEntity
  8
0
100
AcDbSpline
 62
7
  6
BYLAYER
 70
0
 71
3
 72
11
 73
7
 74
0
 42
0.0000001
 43
0.0000001
 44
0.0000000001
 40
0.0
 40
0.0
 40
0.0
 40
0.0
 40
0.2442310402
 40
0.4919837767
 40
0.7447645229
 40
1.0
 40
1.0
 40
1.0
 40
1.0
 10
57.1421843478
 20
51.6720217443
 30
0.0
 10
57.0803692955
 20
51.6565039071
 30
0.0
 10
56.9602807571
 20
51.6033104505
 30
0.0
 10
56.8168339729
 20
51.4666527575
 30
0.0
 10
56.7257498615
 20
51.2880309626
 30
0.0
 10
56.7035209767
 20
51.1547342299
 30
0.0
 10
56.7035218919
 20
51.08812951
 30
0.0
  0
SPLINE
  5
35D
100
AcDbEntity
  8
0
100
AcDbSpline
 62
7
  6
BYLAYER
 70
0
 71
3
 72
22
 73
18
 74
0
 42
0.0000001
 43
0.0000001
 44
0.0000000001
 40
0.0
 40
0.0
 40
0.0
 40
0.0
 40
0.1947289861
 40
0.3824537285
 40
0.5552990562
 40
0.7067963573
 40
0.7727336765
 40
0.8312726882
 40
0.8817806734
 40
0.9237715887
 40
0.9568981177
 40
0.9700303307
 40
0.9808181266
 40
0.9892193845
 40
0.9952134336
 40
0.9988049309
 40
1.0
 40
1.0
 40
1.0
 40
1.0
 10
57.1374663905
 20
60.5131299616
 30
0.0
 10
57.1764076274
 20
60.5128307613
 30
0.0
 10
57.2528906074
 20
60.512368787
 30
0.0
 10
57.36394189
 20
60.5124321516
 30
0.0
 10
57.4663433389
 20
60.5132563484
 30
0.0
 10
57.5443926697
 20
60.513483296
 30
0.0
 10
57.5995827376
 20
60.5132956769
 30
0.0
 10
57.6345751455
 20
60.5131302821
 30
0.0
 10
57.6647829205
 20
60.5130309506
 30
0.0
 10
57.689897421
 20
60.5130174712
 30
0.0
 10
57.7075653936
 20
60.5130710549
 30
0.0
 10
57.7189433589
 20
60.5130854465
 30
0.0
 10
57.7254709867
 20
60.513165282
 30
0.0
 10
57.7303416395
 20
60.5130454808
 30
0.0
 10
57.7343126763
 20
60.5133710911
 30
0.0
 10
57.7358137728
 20
60.512823905
 30
0.0
 10
57.7374478444
 20
60.5133937897
 30
0.0
 10
57.7374091738
 20
60.5131579462
 30
0.0
  0
ENDSEC
  0
SECTION
  2
OBJECTS
  0
DICTIONARY
  5
C
100
AcDbDictionary
280
0
281
1
  3
ACAD_GROUP
350
D
  3
ACAD_MLINESTYLE
350
17
  3
ACAD_LAYOUT
350
1A
  3
ACAD_PLOTSETTINGS
350
19
  3
ACAD_PLOTSTYLENAME
350
E
  0
DICTIONARY
  5
D
102
{ACAD_REACTORS
330
C
102
}
100
AcDbDictionary
280
0
281
1
  0
ACDBDICTIONARYWDFLT
  5
E
102
{ACAD_REACTORS
330
C
102
}
100
AcDbDictionary
281
1
  3
Normal
350
F
100
AcDbDictionaryWithDefault
340
F
  0
DICTIONARY
  5
17
102
{ACAD_REACTORS
330
C
102
}
100
AcDbDictionary
280
0
281
1
  3
Standard
350
18
  0
DICTIONARY
  5
19
102
{ACAD_REACTORS
330
C
102
}
100
AcDbDictionary
281
1
  0
DICTIONARY
  5
1A
102
{ACAD_REACTORS
330
C
102
}
100
AcDbDictionary
281
1
  3
Model
350
35E
  3
Layout1
350
35F
  0
ACDBPLACEHOLDER
  5
F
102
{ACAD_REACTORS
330
E
102
}
  0
MLINESTYLE
  5
18
102
{ACAD_REACTORS
330
17
102
}
100
AcDbMlineStyle
  2
STANDARD
 70
0
  3

 62
256
 51
90.0
 52
90.0
 71
2
 49
0.5
 62
256
  6
BYLAYER
 49
-0.5
 62
256
  6
BYLAYER
  0
LAYOUT
  5
35E
102
{ACAD_REACTORS
330
1A
102
}
100
AcDbPlotSettings
  1

  2
none_device
  4

  6

 40
0.0
 41
0.0
 42
0.0
 43
0.0
 44
210.0
 45
297.0
 46
0.0
 47
0.0
 48
0.0
 49
0.0
140
0.0
141
0.0
142
1.0
143
1.0
 70
1024
 72
1
 73
0
 74
0
  7

 75
0
147
1.0
148
0.0
149
0.0
100
AcDbLayout
  1
Model
 70
0
 71
0
 10
0.0
 20
0.0
 11
210.0
 21
297.0
 12
0.0
 22
0.0
 32
0.0
 14
0.0
 24
0.0
 34
0.0
 15
0.0
 25
0.0
 35
0.0
146
0.0
 13
0.0
 23
0.0
 33
0.0
 16
1.0
 26
0.0
 36
0.0
 17
0.0
 27
1.0
 37
0.0
 76
0
330
210
345
0
346
0
  0
LAYOUT
  5
35F
102
{ACAD_REACTORS
330
1A
102
}
100
AcDbPlotSettings
  1

  2
none_device
  4

  6

 40
0.0
 41
0.0
 42
0.0
 43
0.0
 44
210.0
 45
297.0
 46
0.0
 47
0.0
 48
0.0
 49
0.0
140
0.0
141
0.0
142
1.0
143
1.0
 70
0
 72
1
 73
0
 74
0
  7

 75
0
147
1.0
148
0.0
149
0.0
100
AcDbLayout
  1
Layout1
 70
0
 71
1
 10
0.0
 20
0.0
 11
210.0
 21
297.0
 12
0.0
 22
0.0
 32
0.0
 14
0.0
 24
0.0
 34
0.0
 15
0.0
 25
0.0
 35
0.0
146
0.0
 13
0.0
 23
0.0
 33
0.0
 16
1.0
 26
0.0
 36
0.0
 17
0.0
 27
1.0
 37
0.0
 76
0
330
211
345
0
346
0
  0
ENDSEC
  0
EOF
