999
DXF file: C:\Users\sesa63760\Dev\_Creo\CAD\MCADID0003609_3D-CAD\drw0001_1.dxf
999
Pro/ENGINEER 2019471 by Parametric Technology Corporation
  0
SECTION
  2
HEADER
  9
$ACADVER
  1
AC1024
  9
$DWGCODEPAGE
  3
ANSI_1252
  9
$EXTMAX
 10
84.0513767088
 20
118.8726613453
 30
0.0
  9
$EXTMIN
 10
-0.0
 20
0.0
 30
0.0
  9
$LIMMIN
 10
-0.0
 20
0.0
  9
$LIMMAX
 10
84.0513767088
 20
118.8726613453
  9
$VIEWCTR
 10
42.0256883544
 20
59.4363306726
  9
$VIEWSIZE
 40
118.8726613453
  9
$CLAYER
  8
0
  9
$LTSCALE
 40
7.7487364432
  9
$CELTYPE
  6
BYLAYER
  9
$DIMSCALE
 40
1.0
  9
$DIMASZ
 40
1.0006116275
  9
$DIMEXO
 40
1.0
  9
$DIMDLI
 40
5.3536724517
  9
$DIMEXE
 40
1.0
  9
$DIMCEN
 40
1.2679750543
  9
$DIMLFAC
 40
1.0
  9
$DIMBLK
  1
_FILLED
  9
$DIMALT
 70
0
  9
$DIMALTF
 40
0.0393700787
  9
$DIMTXT
 40
1.4008562785
  9
$DIMTOL
 70
1
  9
$DIMLIM
 70
0
  9
$DIMTFAC
 40
1.0
  9
$DIMTP
 40
0.01
  9
$DIMTM
 40
0.01
  9
$DIMGAP
 40
0.625
  9
$DIMDSEP
 70
46
  9
$AUNITS
 70
0
  9
$PDMODE
 70
3
  9
$PDSIZE
 40
0.3125
  9
$HANDSEED
  5
2D7
  9
$TILEMODE
 70
1
  9
$MEASUREMENT
 70
1
  9
$INSUNITS
 70
4
  0
ENDSEC
  0
SECTION
  2
CLASSES
  0
CLASS
  1
ACDBDICTIONARYWDFLT
  2
AcDbDictionaryWithDefault
  3
AutoCAD 2000
 90
0
 91
1
280
0
281
0
  0
CLASS
  1
ACDBPLACEHOLDER
  2
AcDbPlaceHolder
  3
AutoCAD 2000
 90
0
 91
1
280
0
281
0
  0
CLASS
  1
LAYOUT
  2
AcDbLayout
  3
AutoCAD 2000
 90
0
 91
0
280
0
281
0
  0
ENDSEC
  0
SECTION
  2
TABLES
  0
TABLE
  2
VPORT
  5
8
100
AcDbSymbolTable
 70
2
  0
VPORT
  5
1F4
100
AcDbSymbolTableRecord
100
AcDbViewportTableRecord
  2
*ACTIVE
 70
0
 10
0.0
 20
0.0
 11
1.0
 21
1.0
 12
42.0256883544
 22
59.4363306726
 13
0.0
 23
0.0
 14
1.0
 24
1.0
 15
0.0
 25
0.0
 16
0.0
 26
0.0
 36
1.0
 17
0.0
 27
0.0
 37
0.0
 40
118.8726613453
 41
0.7070707071
 42
50.0
 43
0.0
 44
0.0
 50
0.0
 51
0.0
 71
0
 72
100
 73
1
 74
1
 75
0
 76
0
 77
0
 78
0
  0
ENDTAB
  0
TABLE
  2
LTYPE
  5
5
100
AcDbSymbolTable
 70
6
  0
LTYPE
  5
14
100
AcDbSymbolTableRecord
100
AcDbLinetypeTableRecord
  2
BYBLOCK
 70
0
  3

 72
65
 73
0
 40
0.0
  0
LTYPE
  5
15
100
AcDbSymbolTableRecord
100
AcDbLinetypeTableRecord
  2
BYLAYER
 70
0
  3

 72
65
 73
0
 40
0.0
  0
LTYPE
  5
16
100
AcDbSymbolTableRecord
100
AcDbLinetypeTableRecord
  2
CONTINUOUS
 70
64
  3
Solid line
 72
65
 73
0
 40
0.0
  0
LTYPE
  5
1F5
100
AcDbSymbolTableRecord
100
AcDbLinetypeTableRecord
  2
CENTER
 70
64
  3
____ _ ____ _ ____ _ ____ _ ____ _ ____ _ ____
 72
65
 73
4
 40
0.6
 49
0.375
 74
0
 49
-0.075
 74
0
 49
0.075
 74
0
 49
-0.075
 74
0
  0
LTYPE
  5
1F6
100
AcDbSymbolTableRecord
100
AcDbLinetypeTableRecord
  2
HIDDEN
 70
64
  3
- - - - - - - - - - - - - - - - - - - -
 72
65
 73
2
 40
0.2
 49
0.1
 74
0
 49
-0.1
 74
0
  0
LTYPE
  5
1F7
100
AcDbSymbolTableRecord
100
AcDbLinetypeTableRecord
  2
PHANTOM
 70
64
  3
_____ _ _ _____ _ _ _____ _ _ _____
 72
65
 73
6
 40
0.8
 49
0.45
 74
0
 49
-0.05
 74
0
 49
0.1
 74
0
 49
-0.05
 74
0
 49
0.1
 74
0
 49
-0.05
 74
0
  0
LTYPE
  5
1F8
100
AcDbSymbolTableRecord
100
AcDbLinetypeTableRecord
  2
DOT
 70
64
  3
. . . . . . . . . . . . . . . . . . . .
 72
65
 73
2
 40
0.2
 49
0.1
 74
0
 49
-0.1
 74
0
  0
LTYPE
  5
1F9
100
AcDbSymbolTableRecord
100
AcDbLinetypeTableRecord
  2
DASHED
 70
64
  3
- - - - - - - - - - - - - - - - - - - -
 72
65
 73
2
 40
0.2
 49
0.1
 74
0
 49
-0.1
 74
0
  0
ENDTAB
  0
TABLE
  2
LAYER
  5
2
100
AcDbSymbolTable
 70
36
  0
LAYER
  5
10
100
AcDbSymbolTableRecord
100
AcDbLayerTableRecord
  2
0
 70
0
 62
7
  6
CONTINUOUS
370
-3
390
F
  0
LAYER
  5
1FA
100
AcDbSymbolTableRecord
100
AcDbLayerTableRecord
  2
DEFAULT_1
 70
0
 62
7
  6
CENTER
370
-3
390
F
  0
LAYER
  5
1FB
100
AcDbSymbolTableRecord
100
AcDbLayerTableRecord
  2
DEFAULT_2
 70
0
 62
7
  6
HIDDEN
370
-3
390
F
  0
LAYER
  5
1FC
100
AcDbSymbolTableRecord
100
AcDbLayerTableRecord
  2
DEFAULT_3
 70
0
 62
7
  6
PHANTOM
370
-3
390
F
  0
LAYER
  5
1FD
100
AcDbSymbolTableRecord
100
AcDbLayerTableRecord
  2
00_COMPONENTS
 70
0
 62
7
  6
CONTINUOUS
370
-3
390
F
  0
LAYER
  5
1FE
100
AcDbSymbolTableRecord
100
AcDbLayerTableRecord
  2
01_1_DEFAULT_DATUMS
 70
0
 62
7
  6
CONTINUOUS
370
-3
390
F
  0
LAYER
  5
1FF
100
AcDbSymbolTableRecord
100
AcDbLayerTableRecord
  2
01_PLANES
 70
0
 62
7
  6
CONTINUOUS
370
-3
390
F
  0
LAYER
  5
200
100
AcDbSymbolTableRecord
100
AcDbLayerTableRecord
  2
02_COORD_SYS
 70
0
 62
7
  6
CONTINUOUS
370
-3
390
F
  0
LAYER
  5
201
100
AcDbSymbolTableRecord
100
AcDbLayerTableRecord
  2
03_AXES
 70
0
 62
7
  6
CONTINUOUS
370
-3
390
F
  0
LAYER
  5
202
100
AcDbSymbolTableRecord
100
AcDbLayerTableRecord
  2
04_POINTS
 70
0
 62
7
  6
CONTINUOUS
370
-3
390
F
  0
LAYER
  5
203
100
AcDbSymbolTableRecord
100
AcDbLayerTableRecord
  2
05_CURVES
 70
0
 62
7
  6
CONTINUOUS
370
-3
390
F
  0
LAYER
  5
204
100
AcDbSymbolTableRecord
100
AcDbLayerTableRecord
  2
06_SURFS
 70
0
 62
7
  6
CONTINUOUS
370
-3
390
F
  0
LAYER
  5
205
100
AcDbSymbolTableRecord
100
AcDbLayerTableRecord
  2
07_COSMETICS
 70
0
 62
7
  6
CONTINUOUS
370
-3
390
F
  0
LAYER
  5
206
100
AcDbSymbolTableRecord
100
AcDbLayerTableRecord
  2
10_NOTES
 70
0
 62
7
  6
CONTINUOUS
370
-3
390
F
  0
LAYER
  5
207
100
AcDbSymbolTableRecord
100
AcDbLayerTableRecord
  2
11_NOTES_PUB
 70
0
 62
7
  6
CONTINUOUS
370
-3
390
F
  0
LAYER
  5
208
100
AcDbSymbolTableRecord
100
AcDbLayerTableRecord
  2
13_REF_GTOL
 70
0
 62
7
  6
CONTINUOUS
370
-3
390
F
  0
LAYER
  5
209
100
AcDbSymbolTableRecord
100
AcDbLayerTableRecord
  2
16_MISC
 70
0
 62
7
  6
CONTINUOUS
370
-3
390
F
  0
LAYER
  5
20A
100
AcDbSymbolTableRecord
100
AcDbLayerTableRecord
  2
17_NO_PRINT
 70
0
 62
7
  6
CONTINUOUS
370
-3
390
F
  0
LAYER
  5
20B
100
AcDbSymbolTableRecord
100
AcDbLayerTableRecord
  2
18_DATUM_CAMS_JOINTS
 70
0
 62
7
  6
CONTINUOUS
370
-3
390
F
  0
LAYER
  5
20C
100
AcDbSymbolTableRecord
100
AcDbLayerTableRecord
  2
19_DATUM_FUNCTIONAL
 70
0
 62
7
  6
CONTINUOUS
370
-3
390
F
  0
LAYER
  5
20D
100
AcDbSymbolTableRecord
100
AcDbLayerTableRecord
  2
20_DATUM_KINEMATIC_SCHEME
 70
0
 62
7
  6
CONTINUOUS
370
-3
390
F
  0
ENDTAB
  0
TABLE
  2
STYLE
  5
3
100
AcDbSymbolTable
 70
1
  0
STYLE
  5
11
100
AcDbSymbolTableRecord
100
AcDbTextStyleTableRecord
  2
STANDARD
 70
0
 40
0.0
 41
1.0
 50
0.0
 71
0
 42
0.2
  3
ARIAL.TTF
  4

  0
STYLE
  5
20E
100
AcDbSymbolTableRecord
100
AcDbTextStyleTableRecord
  2
TEXTSTYLE_1
 70
0
 40
0.0
 41
0.8
 50
0.0
 71
0
 42
0.2
  3
gdt
  4

  0
ENDTAB
  0
TABLE
  2
VIEW
  5
6
100
AcDbSymbolTable
 70
0
  0
ENDTAB
  0
TABLE
  2
UCS
  5
7
100
AcDbSymbolTable
 70
0
  0
ENDTAB
  0
TABLE
  2
APPID
  5
9
100
AcDbSymbolTable
 70
1
  0
APPID
  5
20F
100
AcDbSymbolTableRecord
100
AcDbRegAppTableRecord
  2
ACAD
 70
0
  0
ENDTAB
  0
TABLE
  2
BLOCK_RECORD
  5
1
100
AcDbSymbolTable
 70
0
  0
BLOCK_RECORD
  5
210
100
AcDbSymbolTableRecord
100
AcDbBlockTableRecord
  2
*Model_Space
  0
BLOCK_RECORD
  5
211
100
AcDbSymbolTableRecord
100
AcDbBlockTableRecord
  2
*Paper_Space
  0
BLOCK_RECORD
  5
212
100
AcDbSymbolTableRecord
100
AcDbBlockTableRecord
  2
_FILLED
  0
ENDTAB
  0
TABLE
  2
DIMSTYLE
  5
A
100
AcDbSymbolTable
 70
1
100
AcDbDimStyleTable
 71
0
  0
DIMSTYLE
105
213
100
AcDbSymbolTableRecord
100
AcDbDimStyleTableRecord
  2
STANDARD
 70
0
  3

  4

 40
1.0
 41
1.0006116275
 42
1.0
 43
0.38
 44
1.0
 45
0.0
 46
0.0
 47
0.01
 48
0.01
140
1.4008562785
141
0.09
142
0.0
143
25.4
144
1.0
145
0.0
146
1.0
147
0.625
 71
1
 72
0
 73
0
 74
0
 75
0
 76
0
 77
1
 78
8
 79
2
170
0
171
1
172
0
173
0
174
0
175
0
176
0
177
0
178
0
270
2
179
2
271
2
272
2
273
2
274
2
275
0
280
0
281
0
282
0
283
1
284
8
285
0
286
0
287
3
288
0
340
11
278
46
341
212
342
212
343
212
344
212
  0
ENDTAB
  0
ENDSEC
  0
SECTION
  2
BLOCKS
  0
BLOCK
  5
20
100
AcDbEntity
  8
0
100
AcDbBlockBegin
  2
*Model_Space
 70
0
 10
0.0
 20
0.0
 30
0.0
  3
*Model_Space
  1

  0
ENDBLK
  5
21
100
AcDbEntity
  8
0
100
AcDbBlockEnd
  0
BLOCK
  5
1C
100
AcDbEntity
  8
0
100
AcDbBlockBegin
  2
*Paper_Space
 70
0
 10
0.0
 20
0.0
 30
0.0
  3
*Paper_Space
  1

  0
ENDBLK
  5
1D
100
AcDbEntity
  8
0
100
AcDbBlockEnd
  0
BLOCK
  5
214
100
AcDbEntity
  8
0
100
AcDbBlockBegin
  2
_FILLED
 70
64
 10
0.0
 20
0.0
  3
_FILLED
  1

  0
SOLID
  5
215
100
AcDbEntity
  8
0
  6
BYBLOCK
 62
0
100
AcDbTrace
 10
0.0
 20
0.0
 11
-1.0
 21
0.25
 12
-1.0
 22
-0.25
 13
-1.0
 23
-0.25
  0
ENDBLK
  5
216
100
AcDbEntity
  8
0
  6
BYBLOCK
 62
0
100
AcDbBlockEnd
  0
ENDSEC
  0
SECTION
  2
ENTITIES
  0
LINE
  5
217
100
AcDbEntity
  8
0
100
AcDbLine
 62
7
  6
BYLAYER
 10
29.5968862631
 20
108.6058142785
 11
23.9400496774
 21
105.3398435388
  0
LINE
  5
218
100
AcDbEntity
  8
0
100
AcDbLine
 62
7
  6
BYLAYER
 10
28.3483975992
 20
107.0941891255
 11
33.2981244597
 21
109.9518982026
  0
LINE
  5
219
100
AcDbEntity
  8
0
100
AcDbLine
 62
7
  6
BYLAYER
 10
28.7483958084
 20
107.0545697023
 11
33.6981226689
 21
109.9122787794
  0
LINE
  5
21A
100
AcDbEntity
  8
0
100
AcDbLine
 62
7
  6
BYLAYER
 10
28.1827263568
 20
106.1563769341
 11
26.0613788529
 21
104.9316236924
  0
LINE
  5
21B
100
AcDbEntity
  8
0
100
AcDbLine
 62
7
  6
BYLAYER
 10
39.6378443601
 20
106.4830564414
 11
34.6881174996
 21
103.6253473643
  0
LINE
  5
21C
100
AcDbEntity
  8
0
100
AcDbLine
 62
7
  6
BYLAYER
 10
35.2538052798
 20
102.645552827
 11
40.2035321403
 21
105.5032619041
  0
LINE
  5
21D
100
AcDbEntity
  8
0
100
AcDbLine
 62
7
  6
BYLAYER
 10
28.1827080283
 20
94.7253042936
 11
23.9400496774
 21
92.2758048648
  0
LINE
  5
21E
100
AcDbEntity
  8
0
100
AcDbLine
 62
7
  6
BYLAYER
 10
28.1827263568
 20
93.09233826
 11
26.0613788529
 21
91.8675850183
  0
LINE
  5
21F
100
AcDbEntity
  8
0
100
AcDbLine
 62
7
  6
BYLAYER
 10
50.2687569756
 20
100.1541206066
 11
45.3190301151
 21
97.2964115295
  0
LINE
  5
220
100
AcDbEntity
  8
0
100
AcDbLine
 62
7
  6
BYLAYER
 10
45.7190283244
 20
97.2567921063
 11
50.6687551849
 21
100.1145011834
  0
LINE
  5
221
100
AcDbEntity
  8
0
100
AcDbLine
 62
7
  6
BYLAYER
 10
56.6084768761
 20
96.6852788454
 11
51.6587500156
 21
93.8275697683
  0
LINE
  5
222
100
AcDbEntity
  8
0
100
AcDbLine
 62
7
  6
BYLAYER
 10
52.2244377957
 20
92.847775231
 11
57.1741646562
 21
95.7054843081
  0
LINE
  5
223
100
AcDbEntity
  8
0
100
AcDbLine
 62
7
  6
BYLAYER
 10
57.1741646562
 20
95.1339326161
 11
52.2244377957
 21
92.276223539
  0
LINE
  5
224
100
AcDbEntity
  8
0
100
AcDbLine
 62
7
  6
BYLAYER
 10
23.9400496774
 20
105.3398435388
 11
23.9400496774
 21
101.2573314532
  0
LINE
  5
225
100
AcDbEntity
  8
0
100
AcDbLine
 62
7
  6
BYLAYER
 10
23.9400496774
 20
92.2758048648
 11
23.9400496774
 21
68.8421854931
  0
LINE
  5
226
100
AcDbEntity
  8
0
100
AcDbLine
 62
7
  6
BYLAYER
 10
54.3457669712
 20
88.601994024
 11
59.2954938316
 21
91.4597031011
  0
LINE
  5
227
100
AcDbEntity
  8
0
100
AcDbLine
 62
7
  6
BYLAYER
 10
55.7599864214
 20
87.785512515
 11
60.7097132819
 21
90.6432215921
  0
LINE
  5
228
100
AcDbEntity
  8
0
100
AcDbLine
 62
7
  6
BYLAYER
 10
28.1827080283
 20
106.7279603722
 11
28.1827080283
 21
106.1564086802
  0
LINE
  5
229
100
AcDbEntity
  8
0
100
AcDbLine
 62
7
  6
BYLAYER
 10
28.1827080283
 20
93.0923700062
 11
28.1827080283
 21
95.5418772575
  0
LINE
  5
22A
100
AcDbEntity
  8
0
100
AcDbLine
 62
7
  6
BYLAYER
 10
56.4670961466
 20
86.5607693433
 11
61.4168230071
 21
89.4184784204
  0
LINE
  5
22B
100
AcDbEntity
  8
0
100
AcDbLine
 62
7
  6
BYLAYER
 10
52.2244377957
 20
81.6616921163
 11
54.3457852997
 21
82.886445358
  0
LINE
  5
22C
100
AcDbEntity
  8
0
100
AcDbLine
 62
7
  6
BYLAYER
 10
55.7599864214
 20
82.0699955951
 11
61.4168230071
 21
85.3359663348
  0
LINE
  5
22D
100
AcDbEntity
  8
0
100
AcDbLine
 62
7
  6
BYLAYER
 10
57.1741646562
 20
82.069893942
 11
52.2244377957
 21
79.2121848649
  0
LINE
  5
22E
100
AcDbEntity
  8
0
100
AcDbLine
 62
7
  6
BYLAYER
 10
35.2538052798
 20
102.645552827
 11
35.2538052798
 21
62.3103334208
  0
LINE
  5
22F
100
AcDbEntity
  8
0
100
AcDbLine
 62
7
  6
BYLAYER
 10
54.3457669712
 20
75.53795535
 11
59.2954938316
 21
78.3956644271
  0
LINE
  5
230
100
AcDbEntity
  8
0
100
AcDbLine
 62
7
  6
BYLAYER
 10
55.7599864214
 20
74.7214738409
 11
60.7097132819
 21
77.579182918
  0
LINE
  5
231
100
AcDbEntity
  8
0
100
AcDbLine
 62
7
  6
BYLAYER
 10
40.2035321403
 20
65.1680424979
 11
35.2538052798
 21
62.3103334208
  0
LINE
  5
232
100
AcDbEntity
  8
0
100
AcDbLine
 62
7
  6
BYLAYER
 10
35.0881157089
 20
61.9441046675
 11
40.0378425694
 21
64.8018137446
  0
LINE
  5
233
100
AcDbEntity
  8
0
100
AcDbLine
 62
7
  6
BYLAYER
 10
56.4670961466
 20
73.4967306693
 11
61.4168230071
 21
76.3544397464
  0
LINE
  5
234
100
AcDbEntity
  8
0
100
AcDbLine
 62
7
  6
BYLAYER
 10
40.2035321403
 20
105.5032619041
 11
40.2035321403
 21
65.1680424979
  0
LINE
  5
235
100
AcDbEntity
  8
0
100
AcDbLine
 62
7
  6
BYLAYER
 10
34.6881174996
 20
61.9837240907
 11
24.5057374575
 21
67.8623909558
  0
LINE
  5
236
100
AcDbEntity
  8
0
100
AcDbLine
 62
7
  6
BYLAYER
 10
45.7190283244
 20
55.6151688326
 11
55.9014083665
 21
49.7365019676
  0
LINE
  5
237
100
AcDbEntity
  8
0
100
AcDbLine
 62
7
  6
BYLAYER
 10
45.1533405442
 20
96.9301827762
 11
45.1533405442
 21
56.59496337
  0
LINE
  5
238
100
AcDbEntity
  8
0
100
AcDbLine
 62
7
  6
BYLAYER
 10
48.4850822195
 20
16.5455789179
 11
48.4850822195
 21
19.8115885864
  0
LINE
  5
239
100
AcDbEntity
  8
0
100
AcDbLine
 62
7
  6
BYLAYER
 10
49.0350822195
 20
20.6280910036
 11
49.0350822195
 21
23.3225489801
  0
LINE
  5
23A
100
AcDbEntity
  8
0
100
AcDbLine
 62
7
  6
BYLAYER
 10
49.7350822195
 20
11.6465644151
 11
49.7350822195
 21
14.7354974393
  0
LINE
  5
23B
100
AcDbEntity
  8
0
100
AcDbLine
 62
7
  6
BYLAYER
 10
49.7350822195
 20
25.7720562315
 11
49.7350822195
 21
28.3848639663
  0
LINE
  5
23C
100
AcDbEntity
  8
0
100
AcDbLine
 62
7
  6
BYLAYER
 10
49.7350822195
 20
29.4054919877
 11
49.7350822195
 21
30.4261200091
  0
LINE
  5
23D
100
AcDbEntity
  8
0
100
AcDbLine
 62
7
  6
BYLAYER
 10
49.7350822195
 20
31.4467480305
 11
49.7350822195
 21
32.4673760519
  0
LINE
  5
23E
100
AcDbEntity
  8
0
100
AcDbLine
 62
7
  6
BYLAYER
 10
23.9400496774
 20
101.2573314532
 11
24.6471594026
 21
100.0325882815
  0
LINE
  5
23F
100
AcDbEntity
  8
0
100
AcDbLine
 62
7
  6
BYLAYER
 10
56.4879423547
 20
34.8270543808
 11
56.7835909826
 21
33.8358191858
  0
LINE
  5
240
100
AcDbEntity
  8
0
100
AcDbLine
 62
7
  6
BYLAYER
 10
56.8350822195
 20
25.9422995664
 11
57.4768383787
 21
23.7273807326
  0
LINE
  5
241
100
AcDbEntity
  8
0
100
AcDbLine
 62
7
  6
BYLAYER
 10
51.2850822195
 20
52.4016788168
 11
51.2850822195
 21
46.7561683517
  0
LINE
  5
242
100
AcDbEntity
  8
0
100
AcDbLine
 62
7
  6
BYLAYER
 10
51.5350822195
 20
46.2691418759
 11
51.5350822195
 21
42.158844796
  0
LINE
  5
243
100
AcDbEntity
  8
0
100
AcDbLine
 62
7
  6
BYLAYER
 10
51.5350822195
 20
34.5086320948
 11
51.5350822195
 21
38.8928351274
  0
LINE
  5
244
100
AcDbEntity
  8
0
100
AcDbLine
 62
7
  6
BYLAYER
 10
52.2244377957
 20
79.2121848649
 11
52.2244377957
 21
81.6616921163
  0
LINE
  5
245
100
AcDbEntity
  8
0
100
AcDbLine
 62
7
  6
BYLAYER
 10
52.2244377957
 20
92.276223539
 11
52.2244377957
 21
92.847775231
  0
LINE
  5
246
100
AcDbEntity
  8
0
100
AcDbLine
 62
7
  6
BYLAYER
 10
57.5350822195
 20
23.3225489801
 11
57.4768383787
 21
23.7273807326
  0
LINE
  5
247
100
AcDbEntity
  8
0
100
AcDbLine
 62
7
  6
BYLAYER
 10
55.0350822195
 20
46.2620224267
 11
55.0350822195
 21
43.1884677362
  0
LINE
  5
248
100
AcDbEntity
  8
0
100
AcDbLine
 62
7
  6
BYLAYER
 10
55.0350822195
 20
34.5086320948
 11
55.0350822195
 21
39.9224580676
  0
LINE
  5
249
100
AcDbEntity
  8
0
100
AcDbLine
 62
7
  6
BYLAYER
 10
55.2850822195
 20
50.0923299845
 11
55.2850822195
 21
46.7561683517
  0
LINE
  5
24A
100
AcDbEntity
  8
0
100
AcDbLine
 62
7
  6
BYLAYER
 10
56.4670961466
 20
50.0631112976
 11
56.4670961466
 21
73.4967306693
  0
LINE
  5
24B
100
AcDbEntity
  8
0
100
AcDbLine
 62
7
  6
BYLAYER
 10
56.4670961466
 20
82.4782572577
 11
56.4670961466
 21
86.5607693433
  0
LINE
  5
24C
100
AcDbEntity
  8
0
100
AcDbLine
 62
7
  6
BYLAYER
 10
56.8350822195
 20
11.6465644151
 11
56.8350822195
 21
14.7147731858
  0
LINE
  5
24D
100
AcDbEntity
  8
0
100
AcDbLine
 62
7
  6
BYLAYER
 10
56.8350822195
 20
25.7720562315
 11
56.8350822195
 21
28.3848639663
  0
LINE
  5
24E
100
AcDbEntity
  8
0
100
AcDbLine
 62
7
  6
BYLAYER
 10
56.8350822195
 20
29.4054919877
 11
56.8350822195
 21
30.4261200091
  0
LINE
  5
24F
100
AcDbEntity
  8
0
100
AcDbLine
 62
7
  6
BYLAYER
 10
56.8350822195
 20
31.4467480305
 11
56.8350822195
 21
32.4673760519
  0
LINE
  5
250
100
AcDbEntity
  8
0
100
AcDbLine
 62
7
  6
BYLAYER
 10
57.1741646562
 20
95.7054843081
 11
57.1741646562
 21
95.1339326161
  0
LINE
  5
251
100
AcDbEntity
  8
0
100
AcDbLine
 62
7
  6
BYLAYER
 10
57.1741646562
 20
82.069893942
 11
57.1741646562
 21
82.8864810153
  0
LINE
  5
252
100
AcDbEntity
  8
0
100
AcDbLine
 62
7
  6
BYLAYER
 10
50.0822220842
 20
34.8270543808
 11
49.7865734563
 21
33.8358191858
  0
LINE
  5
253
100
AcDbEntity
  8
0
100
AcDbLine
 62
7
  6
BYLAYER
 10
57.5350822195
 20
20.6280910036
 11
57.5350822195
 21
23.3225489801
  0
LINE
  5
254
100
AcDbEntity
  8
0
100
AcDbLine
 62
7
  6
BYLAYER
 10
58.0850822195
 20
16.5455789179
 11
58.0850822195
 21
19.8115885864
  0
LINE
  5
255
100
AcDbEntity
  8
0
100
AcDbLine
 62
7
  6
BYLAYER
 10
49.7350822195
 20
25.9422995664
 11
49.0933260602
 21
23.7273807326
  0
LINE
  5
256
100
AcDbEntity
  8
0
100
AcDbLine
 62
7
  6
BYLAYER
 10
61.4168230071
 20
52.9208203747
 11
56.4670961466
 21
50.0631112976
  0
LINE
  5
257
100
AcDbEntity
  8
0
100
AcDbLine
 62
7
  6
BYLAYER
 10
61.2511334362
 20
52.5545916214
 11
56.3014065757
 21
49.6968825443
  0
LINE
  5
258
100
AcDbEntity
  8
0
100
AcDbLine
 62
7
  6
BYLAYER
 10
61.4168230071
 20
89.4184784204
 11
61.4168230071
 21
85.3359663348
  0
LINE
  5
259
100
AcDbEntity
  8
0
100
AcDbLine
 62
7
  6
BYLAYER
 10
61.4168230071
 20
76.3544397464
 11
61.4168230071
 21
52.9208203747
  0
LINE
  5
25A
100
AcDbEntity
  8
0
100
AcDbLine
 62
7
  6
BYLAYER
 10
55.7599864214
 20
74.7214738409
 11
54.3457669712
 21
75.53795535
  0
LINE
  5
25B
100
AcDbEntity
  8
0
100
AcDbLine
 62
7
  6
BYLAYER
 10
26.0613788529
 20
91.8675850183
 11
24.6471594026
 21
92.6840665274
  0
LINE
  5
25C
100
AcDbEntity
  8
0
100
AcDbLine
 62
7
  6
BYLAYER
 10
56.4670961466
 20
73.4967306693
 11
55.7599864214
 21
74.7214738409
  0
LINE
  5
25D
100
AcDbEntity
  8
0
100
AcDbLine
 62
7
  6
BYLAYER
 10
59.2954938316
 20
78.3956644271
 11
60.7097132819
 21
77.579182918
  0
LINE
  5
25E
100
AcDbEntity
  8
0
100
AcDbLine
 62
7
  6
BYLAYER
 10
60.7097132819
 20
77.579182918
 11
61.4168230071
 21
76.3544397464
  0
LINE
  5
25F
100
AcDbEntity
  8
0
100
AcDbLine
 62
7
  6
BYLAYER
 10
56.4670961466
 20
86.5607693433
 11
55.7599864214
 21
87.785512515
  0
LINE
  5
260
100
AcDbEntity
  8
0
100
AcDbLine
 62
7
  6
BYLAYER
 10
26.0613788529
 20
99.2161067725
 11
24.6471594026
 21
100.0325882815
  0
LINE
  5
261
100
AcDbEntity
  8
0
100
AcDbLine
 62
7
  6
BYLAYER
 10
54.3457669712
 20
82.8864771041
 11
55.7599864214
 21
82.0699955951
  0
LINE
  5
262
100
AcDbEntity
  8
0
100
AcDbLine
 62
7
  6
BYLAYER
 10
55.7599864214
 20
87.785512515
 11
54.3457669712
 21
88.601994024
  0
LINE
  5
263
100
AcDbEntity
  8
0
100
AcDbLine
 62
7
  6
BYLAYER
 10
26.0613788529
 20
104.9316236924
 11
24.6471594026
 21
105.7481052014
  0
LINE
  5
264
100
AcDbEntity
  8
0
100
AcDbLine
 62
7
  6
BYLAYER
 10
60.7097132819
 20
90.6432215921
 11
61.4168230071
 21
89.4184784204
  0
LINE
  5
265
100
AcDbEntity
  8
0
100
AcDbLine
 62
7
  6
BYLAYER
 10
51.6587500156
 20
93.8275697683
 11
45.7190283244
 21
97.2567921063
  0
LINE
  5
266
100
AcDbEntity
  8
0
100
AcDbLine
 62
7
  6
BYLAYER
 10
34.6881174996
 20
103.6253473643
 11
28.7483958084
 21
107.0545697023
  0
LINE
  5
267
100
AcDbEntity
  8
0
100
AcDbLine
 62
7
  6
BYLAYER
 10
29.5968862631
 20
108.6058142785
 11
30.2817612317
 21
108.2104104763
  0
LINE
  5
268
100
AcDbEntity
  8
0
100
AcDbLine
 62
7
  6
BYLAYER
 10
59.2954938316
 20
91.4597031011
 11
60.7097132819
 21
90.6432215921
  0
LINE
  5
269
100
AcDbEntity
  8
0
100
AcDbLine
 62
7
  6
BYLAYER
 10
33.6981226689
 20
109.9122787794
 11
39.6378443601
 21
106.4830564414
  0
LINE
  5
26A
100
AcDbEntity
  8
0
100
AcDbLine
 62
7
  6
BYLAYER
 10
50.6687551849
 20
100.1145011834
 11
56.6084768761
 21
96.6852788454
  0
SPLINE
  5
26B
100
AcDbEntity
  8
0
100
AcDbSpline
 62
7
  6
BYLAYER
 70
0
 71
3
 72
24
 73
20
 74
0
 42
0.0000001
 43
0.0000001
 44
0.0000000001
 40
0.0
 40
0.0
 40
0.0
 40
0.0
 40
0.0623810795
 40
0.1287355803
 40
0.1983285242
 40
0.2703115146
 40
0.3436930875
 40
0.4174309765
 40
0.4904619069
 40
0.5617546476
 40
0.6303580227
 40
0.6954511975
 40
0.756403283
 40
0.8128444121
 40
0.8647486642
 40
0.9125271322
 40
0.9571048311
 40
0.9786665201
 40
1.0
 40
1.0
 40
1.0
 40
1.0
 10
55.7953217437
 20
10.1973097366
 30
0.0
 10
55.667791095
 20
10.1236803217
 30
0.0
 10
55.3944484722
 20
9.9889236799
 30
0.0
 10
54.9535440221
 20
9.8291420373
 30
0.0
 10
54.4770490115
 20
9.7082017021
 30
0.0
 10
53.9752237285
 20
9.6286109461
 30
0.0
 10
53.4586589666
 20
9.5920939154
 30
0.0
 10
52.9383941842
 20
9.5994169966
 30
0.0
 10
52.4255204449
 20
9.6504220662
 30
0.0
 10
51.9309704966
 20
9.744021474
 30
0.0
 10
51.4652509927
 20
9.8782362464
 30
0.0
 10
51.0382096368
 20
10.0502710008
 30
0.0
 10
50.658823198
 20
10.2566260041
 30
0.0
 10
50.3350316815
 20
10.4932162602
 30
0.0
 10
50.0737251992
 20
10.7556646439
 30
0.0
 10
49.8809207733
 20
11.0390881868
 30
0.0
 10
49.7807903566
 20
11.2916151694
 30
0.0
 10
49.7416064767
 20
11.4948204631
 30
0.0
 10
49.7350968364
 20
11.5962037117
 30
0.0
 10
49.7350921364
 20
11.6465644519
 30
0.0
  0
SPLINE
  5
26C
100
AcDbEntity
  8
0
100
AcDbSpline
 62
7
  6
BYLAYER
 70
0
 71
3
 72
23
 73
19
 74
0
 42
0.0000001
 43
0.0000001
 44
0.0000000001
 40
0.0
 40
0.0
 40
0.0
 40
0.0
 40
0.0605025253
 40
0.1246124682
 40
0.1917152826
 40
0.2611571432
 40
0.3321480821
 40
0.4038451006
 40
0.4753841556
 40
0.5459001177
 40
0.6145695378
 40
0.6806403941
 40
0.7434682008
 40
0.8025624173
 40
0.8576304084
 40
0.9086360685
 40
0.9558696959
 40
1.0
 40
1.0
 40
1.0
 40
1.0
 10
55.5124778537
 20
9.7074041047
 30
0.0
 10
55.4089934585
 20
9.6476577179
 30
0.0
 10
55.1883219265
 20
9.5373621445
 30
0.0
 10
54.8336059205
 20
9.4033453885
 30
0.0
 10
54.4510188287
 20
9.2979938272
 30
0.0
 10
54.04754954
 20
9.2231649074
 30
0.0
 10
53.6303597242
 20
9.1801761515
 30
0.0
 10
53.2069597856
 20
9.1698040672
 30
0.0
 10
52.7849636329
 20
9.1922447657
 30
0.0
 10
52.3719594678
 20
9.2470975431
 30
0.0
 10
51.9753643349
 20
9.3333562846
 30
0.0
 10
51.6022837627
 20
9.4495052338
 30
0.0
 10
51.2593760424
 20
9.5935079228
 30
0.0
 10
50.952712605
 20
9.7628526626
 30
0.0
 10
50.6877296703
 20
9.9546921026
 30
0.0
 10
50.4691871004
 20
10.1660015432
 30
0.0
 10
50.3012502398
 20
10.3932728902
 30
0.0
 10
50.2233306733
 20
10.5577280412
 30
0.0
 10
50.1950607611
 20
10.6401739035
 30
0.0
  0
SPLINE
  5
26D
100
AcDbEntity
  8
0
100
AcDbSpline
 62
7
  6
BYLAYER
 70
0
 71
3
 72
15
 73
11
 74
0
 42
0.0000001
 43
0.0000001
 44
0.0000000001
 40
0.0
 40
0.0
 40
0.0
 40
0.0
 40
0.111679764
 40
0.2220265992
 40
0.3341532143
 40
0.4509401662
 40
0.5746800409
 40
0.70696199
 40
0.8487183037
 40
1.0
 40
1.0
 40
1.0
 40
1.0
 10
56.7835839131
 20
33.8358184739
 30
0.0
 10
56.8071922154
 20
33.7566890048
 30
0.0
 10
56.8389204439
 20
33.5942648604
 30
0.0
 10
56.835121058
 20
33.3454878365
 30
0.0
 10
56.7793382648
 20
33.0991406081
 30
0.0
 10
56.6729494526
 20
32.8594474145
 30
0.0
 10
56.5182341628
 20
32.6298092692
 30
0.0
 10
56.3177501314
 20
32.4132233053
 30
0.0
 10
56.0746122543
 20
32.2125296467
 30
0.0
 10
55.892193672
 20
32.0946780948
 30
0.0
 10
55.7953217437
 20
32.0387493948
 30
0.0
  0
SPLINE
  5
26E
100
AcDbEntity
  8
0
100
AcDbSpline
 62
7
  6
BYLAYER
 70
0
 71
3
 72
14
 73
10
 74
0
 42
0.0000001
 43
0.0000001
 44
0.0000000001
 40
0.0
 40
0.0
 40
0.0
 40
0.0
 40
0.1029234163
 40
0.2107096346
 40
0.3245757463
 40
0.4453106576
 40
0.5733284483
 40
0.7086802274
 40
1.0
 40
1.0
 40
1.0
 40
1.0
 10
56.4879350413
 20
34.8270536738
 30
0.0
 10
56.4687785533
 20
34.8913021668
 30
0.0
 10
56.4181599083
 20
35.0196528076
 30
0.0
 10
56.3107674485
 20
35.2026081112
 30
0.0
 10
56.1717272286
 20
35.377835279
 30
0.0
 10
56.0027431033
 20
35.5436335003
 30
0.0
 10
55.8055287301
 20
35.6983705595
 30
0.0
 10
55.5004031379
 20
35.8926818745
 30
0.0
 10
55.2465272727
 20
36.0097530423
 30
0.0
 10
55.0690880437
 20
36.0770251696
 30
0.0
  0
SPLINE
  5
26F
100
AcDbEntity
  8
0
100
AcDbSpline
 62
7
  6
BYLAYER
 70
0
 71
3
 72
9
 73
5
 74
0
 42
0.0000001
 43
0.0000001
 44
0.0000000001
 40
0.0
 40
0.0
 40
0.0
 40
0.0
 40
0.2585873882
 40
1.0
 40
1.0
 40
1.0
 40
1.0
 10
51.5004441999
 20
36.0767905946
 30
0.0
 10
51.4546921625
 20
36.0594328764
 30
0.0
 10
51.2790254451
 20
35.9890689887
 30
0.0
 10
51.1084808213
 20
35.9055651931
 30
0.0
 10
50.9869756127
 20
35.835414547
 30
0.0
  0
SPLINE
  5
270
100
AcDbEntity
  8
0
100
AcDbSpline
 62
7
  6
BYLAYER
 70
0
 71
3
 72
25
 73
21
 74
0
 42
0.0000001
 43
0.0000001
 44
0.0000000001
 40
0.0
 40
0.0
 40
0.0
 40
0.0
 40
0.0623788898
 40
0.1287246299
 40
0.1983142423
 40
0.2702915618
 40
0.3436680903
 40
0.4174012255
 40
0.4904268775
 40
0.5617141449
 40
0.6303115989
 40
0.6953990748
 40
0.7563465419
 40
0.8127837676
 40
0.8646841202
 40
0.9124584678
 40
0.9351027542
 40
0.9571078158
 40
0.9786681191
 40
1.0
 40
1.0
 40
1.0
 40
1.0
 10
56.6792089002
 20
14.5860232962
 30
0.0
 10
56.5067660426
 20
14.4864639603
 30
0.0
 10
56.1371827452
 20
14.3042519018
 30
0.0
 10
55.5410234263
 20
14.0882203679
 30
0.0
 10
54.8967567837
 20
13.9246891766
 30
0.0
 10
54.2182234521
 20
13.8170807727
 30
0.0
 10
53.519766202
 20
13.7677086693
 30
0.0
 10
52.8163042124
 20
13.7776000938
 30
0.0
 10
52.1228373037
 20
13.8465633316
 30
0.0
 10
51.4541523081
 20
13.9731255459
 30
0.0
 10
50.8244548725
 20
14.1546067958
 30
0.0
 10
50.2470529827
 20
14.3872254813
 30
0.0
 10
49.7340800212
 20
14.6662172123
 30
0.0
 10
49.2962599437
 20
14.986156717
 30
0.0
 10
48.9429768711
 20
15.3408512797
 30
0.0
 10
48.7218305043
 20
15.6662798298
 30
0.0
 10
48.598592738
 20
15.9349642019
 30
0.0
 10
48.5332694631
 20
16.1365120627
 30
0.0
 10
48.4938678678
 20
16.3404097074
 30
0.0
 10
48.4850985953
 20
16.4774854402
 30
0.0
 10
48.4850984515
 20
16.5455789062
 30
0.0
  0
SPLINE
  5
271
100
AcDbEntity
  8
0
100
AcDbSpline
 62
7
  6
BYLAYER
 70
0
 71
3
 72
11
 73
7
 74
0
 42
0.0000001
 43
0.0000001
 44
0.0000000001
 40
0.0
 40
0.0
 40
0.0
 40
0.0
 40
0.2696103822
 40
0.5231345432
 40
0.7647439816
 40
1.0
 40
1.0
 40
1.0
 40
1.0
 10
49.0107797021
 20
21.072567582
 30
0.0
 10
48.9276763325
 20
20.9786744228
 30
0.0
 10
48.778837716
 20
20.7848065934
 30
0.0
 10
48.6106481677
 20
20.4694005246
 30
0.0
 10
48.508156064
 20
20.1434056746
 30
0.0
 10
48.4850984761
 20
19.9209991461
 30
0.0
 10
48.4850985111
 20
19.8115885601
 30
0.0
  0
SPLINE
  5
272
100
AcDbEntity
  8
0
100
AcDbSpline
 62
7
  6
BYLAYER
 70
0
 71
3
 72
9
 73
5
 74
0
 42
0.0000001
 43
0.0000001
 44
0.0000000001
 40
0.0
 40
0.0
 40
0.0
 40
0.0
 40
0.4867088993
 40
1.0
 40
1.0
 40
1.0
 40
1.0
 10
56.2902985513
 20
18.8930677968
 30
0.0
 10
56.1645678433
 20
18.820477572
 30
0.0
 10
55.8980388695
 20
18.6852744192
 30
0.0
 10
55.6201760745
 20
18.5756137989
 30
0.0
 10
55.4755368018
 20
18.5253917132
 30
0.0
  0
SPLINE
  5
273
100
AcDbEntity
  8
0
100
AcDbSpline
 62
7
  6
BYLAYER
 70
0
 71
3
 72
24
 73
20
 74
0
 42
0.0000001
 43
0.0000001
 44
0.0000000001
 40
0.0
 40
0.0
 40
0.0
 40
0.0
 40
0.0685592491
 40
0.1396331014
 40
0.2124614201
 40
0.2862276166
 40
0.3600825396
 40
0.4331707188
 40
0.5046645451
 40
0.5737956309
 40
0.6398877855
 40
0.7023933576
 40
0.7609369507
 40
0.815368459
 40
0.865820592
 40
0.9127682188
 40
0.9570674952
 40
0.9786259376
 40
1.0
 40
1.0
 40
1.0
 40
1.0
 10
55.4755368018
 20
18.5253917132
 30
0.0
 10
55.3117962223
 20
18.468537214
 30
0.0
 10
54.9726995116
 20
18.3684173838
 30
0.0
 10
54.4459689386
 20
18.2603382662
 30
0.0
 10
53.8992246346
 20
18.1929877718
 30
0.0
 10
53.3419325134
 20
18.1675335938
 30
0.0
 10
52.7836551189
 20
18.1843957449
 30
0.0
 10
52.2339993568
 20
18.2433027414
 30
0.0
 10
51.7024153876
 20
18.343247572
 30
0.0
 10
51.198015247
 20
18.4825101624
 30
0.0
 10
50.7294137641
 20
18.6587322212
 30
0.0
 10
50.3045835128
 20
18.8689792373
 30
0.0
 10
49.930732213
 20
19.1098361654
 30
0.0
 10
49.6142103932
 20
19.3774748507
 30
0.0
 10
49.3605623197
 20
19.667863336
 30
0.0
 10
49.1746500277
 20
19.9765024045
 30
0.0
 10
49.0789301545
 20
20.2476995301
 30
0.0
 10
49.0413275417
 20
20.4654027425
 30
0.0
 10
49.0350964787
 20
20.5740534445
 30
0.0
 10
49.0350963922
 20
20.6280909938
 30
0.0
  0
SPLINE
  5
274
100
AcDbEntity
  8
0
100
AcDbSpline
 62
7
  6
BYLAYER
 70
0
 71
3
 72
9
 73
5
 74
0
 42
0.0000001
 43
0.0000001
 44
0.0000000001
 40
0.0
 40
0.0
 40
0.0
 40
0.0
 40
0.4911331146
 40
1.0
 40
1.0
 40
1.0
 40
1.0
 10
56.8350721826
 20
32.4673760067
 30
0.0
 10
56.8350634349
 20
32.5615191396
 30
0.0
 10
56.8118035978
 20
32.7538580499
 30
0.0
 10
56.7448948555
 20
32.9353275858
 30
0.0
 10
56.7021349688
 20
33.0229981051
 30
0.0
  0
SPLINE
  5
275
100
AcDbEntity
  8
0
100
AcDbSpline
 62
7
  6
BYLAYER
 70
0
 71
3
 72
15
 73
11
 74
0
 42
0.0000001
 43
0.0000001
 44
0.0000000001
 40
0.0
 40
0.0
 40
0.0
 40
0.0
 40
0.1080097037
 40
0.2180559389
 40
0.3319966274
 40
0.4513535287
 40
0.5772592052
 40
0.7104909751
 40
0.8514574042
 40
1.0
 40
1.0
 40
1.0
 40
1.0
 10
56.8350723025
 20
31.4467479938
 30
0.0
 10
56.8350785745
 20
31.379544039
 30
0.0
 10
56.8233976275
 20
31.2435969527
 30
0.0
 10
56.7713213242
 20
31.0427896536
 30
0.0
 10
56.6853137243
 20
30.8463201538
 30
0.0
 10
56.5665430967
 20
30.6561544656
 30
0.0
 10
56.4162850466
 20
30.4740322752
 30
0.0
 10
56.2360841793
 20
30.3015278093
 30
0.0
 10
56.0277301355
 20
30.1403087151
 30
0.0
 10
55.875363083
 20
30.0437049649
 30
0.0
 10
55.7953217437
 20
29.997493352
 30
0.0
  0
SPLINE
  5
276
100
AcDbEntity
  8
0
100
AcDbSpline
 62
7
  6
BYLAYER
 70
0
 71
3
 72
9
 73
5
 74
0
 42
0.0000001
 43
0.0000001
 44
0.0000000001
 40
0.0
 40
0.0
 40
0.0
 40
0.0
 40
0.5066032154
 40
1.0
 40
1.0
 40
1.0
 40
1.0
 10
49.8327068782
 20
28.8622073562
 30
0.0
 10
49.8010248419
 20
28.7858386805
 30
0.0
 10
49.7519770988
 20
28.6290039422
 30
0.0
 10
49.735084774
 20
28.4653883283
 30
0.0
 10
49.7350922563
 20
28.3848640115
 30
0.0
  0
SPLINE
  5
277
100
AcDbEntity
  8
0
100
AcDbSpline
 62
7
  6
BYLAYER
 70
0
 71
3
 72
24
 73
20
 74
0
 42
0.0000001
 43
0.0000001
 44
0.0000000001
 40
0.0
 40
0.0
 40
0.0
 40
0.0
 40
0.0623810795
 40
0.1287355803
 40
0.1983285242
 40
0.2703115146
 40
0.3436930875
 40
0.4174309765
 40
0.4904619069
 40
0.5617546476
 40
0.6303580227
 40
0.6954511975
 40
0.756403283
 40
0.8128444121
 40
0.8647486642
 40
0.9125271322
 40
0.9571048311
 40
0.9786665201
 40
1.0
 40
1.0
 40
1.0
 40
1.0
 10
55.7953217437
 20
27.9562373092
 30
0.0
 10
55.667791095
 20
27.8826078943
 30
0.0
 10
55.3944484722
 20
27.7478512524
 30
0.0
 10
54.9535440221
 20
27.5880696098
 30
0.0
 10
54.4770490115
 20
27.4671292747
 30
0.0
 10
53.9752237285
 20
27.3875385186
 30
0.0
 10
53.4586589666
 20
27.351021488
 30
0.0
 10
52.9383941842
 20
27.3583445691
 30
0.0
 10
52.4255204449
 20
27.4093496387
 30
0.0
 10
51.9309704966
 20
27.5029490466
 30
0.0
 10
51.4652509927
 20
27.637163819
 30
0.0
 10
51.0382096368
 20
27.8091985733
 30
0.0
 10
50.658823198
 20
28.0155535767
 30
0.0
 10
50.3350316815
 20
28.2521438328
 30
0.0
 10
50.0737251992
 20
28.5145922165
 30
0.0
 10
49.8809207733
 20
28.7980157594
 30
0.0
 10
49.7807903566
 20
29.050542742
 30
0.0
 10
49.7416064767
 20
29.2537480356
 30
0.0
 10
49.7350968364
 20
29.3551312843
 30
0.0
 10
49.7350921364
 20
29.4054920244
 30
0.0
  0
SPLINE
  5
278
100
AcDbEntity
  8
0
100
AcDbSpline
 62
7
  6
BYLAYER
 70
0
 71
3
 72
9
 73
5
 74
0
 42
0.0000001
 43
0.0000001
 44
0.0000000001
 40
0.0
 40
0.0
 40
0.0
 40
0.0
 40
0.5066032154
 40
1.0
 40
1.0
 40
1.0
 40
1.0
 10
49.8327068782
 20
30.903463399
 30
0.0
 10
49.8010248419
 20
30.8270947234
 30
0.0
 10
49.7519770988
 20
30.670259985
 30
0.0
 10
49.735084774
 20
30.5066443711
 30
0.0
 10
49.7350922563
 20
30.4261200543
 30
0.0
  0
SPLINE
  5
279
100
AcDbEntity
  8
0
100
AcDbSpline
 62
7
  6
BYLAYER
 70
0
 71
3
 72
24
 73
20
 74
0
 42
0.0000001
 43
0.0000001
 44
0.0000000001
 40
0.0
 40
0.0
 40
0.0
 40
0.0
 40
0.0623810795
 40
0.1287355803
 40
0.1983285242
 40
0.2703115146
 40
0.3436930875
 40
0.4174309765
 40
0.4904619069
 40
0.5617546476
 40
0.6303580227
 40
0.6954511975
 40
0.756403283
 40
0.8128444121
 40
0.8647486642
 40
0.9125271322
 40
0.9571048311
 40
0.9786665201
 40
1.0
 40
1.0
 40
1.0
 40
1.0
 10
55.7953217437
 20
29.997493352
 30
0.0
 10
55.667791095
 20
29.9238639371
 30
0.0
 10
55.3944484722
 20
29.7891072953
 30
0.0
 10
54.9535440221
 20
29.6293256527
 30
0.0
 10
54.4770490115
 20
29.5083853175
 30
0.0
 10
53.9752237285
 20
29.4287945615
 30
0.0
 10
53.4586589666
 20
29.3922775308
 30
0.0
 10
52.9383941842
 20
29.3996006119
 30
0.0
 10
52.4255204449
 20
29.4506056816
 30
0.0
 10
51.9309704966
 20
29.5442050894
 30
0.0
 10
51.4652509927
 20
29.6784198618
 30
0.0
 10
51.0382096368
 20
29.8504546162
 30
0.0
 10
50.658823198
 20
30.0568096195
 30
0.0
 10
50.3350316815
 20
30.2933998756
 30
0.0
 10
50.0737251992
 20
30.5558482593
 30
0.0
 10
49.8809207733
 20
30.8392718022
 30
0.0
 10
49.7807903566
 20
31.0917987848
 30
0.0
 10
49.7416064767
 20
31.2950040785
 30
0.0
 10
49.7350968364
 20
31.3963873271
 30
0.0
 10
49.7350921364
 20
31.4467480672
 30
0.0
  0
SPLINE
  5
27A
100
AcDbEntity
  8
0
100
AcDbSpline
 62
7
  6
BYLAYER
 70
0
 71
3
 72
9
 73
5
 74
0
 42
0.0000001
 43
0.0000001
 44
0.0000000001
 40
0.0
 40
0.0
 40
0.0
 40
0.0
 40
0.4911331146
 40
1.0
 40
1.0
 40
1.0
 40
1.0
 10
56.8350721826
 20
30.4261199639
 30
0.0
 10
56.8350634349
 20
30.5202630968
 30
0.0
 10
56.8118035978
 20
30.7126020071
 30
0.0
 10
56.7448948555
 20
30.894071543
 30
0.0
 10
56.7021349688
 20
30.9817420623
 30
0.0
  0
SPLINE
  5
27B
100
AcDbEntity
  8
0
100
AcDbSpline
 62
7
  6
BYLAYER
 70
0
 71
3
 72
15
 73
11
 74
0
 42
0.0000001
 43
0.0000001
 44
0.0000000001
 40
0.0
 40
0.0
 40
0.0
 40
0.0
 40
0.1080097037
 40
0.2180559389
 40
0.3319966274
 40
0.4513535287
 40
0.5772592052
 40
0.7104909751
 40
0.8514574042
 40
1.0
 40
1.0
 40
1.0
 40
1.0
 10
56.8350723025
 20
29.405491951
 30
0.0
 10
56.8350785745
 20
29.3382879962
 30
0.0
 10
56.8233976275
 20
29.2023409098
 30
0.0
 10
56.7713213242
 20
29.0015336107
 30
0.0
 10
56.6853137243
 20
28.805064111
 30
0.0
 10
56.5665430967
 20
28.6148984228
 30
0.0
 10
56.4162850466
 20
28.4327762323
 30
0.0
 10
56.2360841793
 20
28.2602717665
 30
0.0
 10
56.0277301355
 20
28.0990526723
 30
0.0
 10
55.875363083
 20
28.0024489221
 30
0.0
 10
55.7953217437
 20
27.9562373092
 30
0.0
  0
SPLINE
  5
27C
100
AcDbEntity
  8
0
100
AcDbSpline
 62
7
  6
BYLAYER
 70
0
 71
3
 72
9
 73
5
 74
0
 42
0.0000001
 43
0.0000001
 44
0.0000000001
 40
0.0
 40
0.0
 40
0.0
 40
0.0
 40
0.506774006
 40
1.0
 40
1.0
 40
1.0
 40
1.0
 10
49.8353359355
 20
32.9510127062
 30
0.0
 10
49.802821433
 20
32.8737187141
 30
0.0
 10
49.7524493057
 20
32.7148836449
 30
0.0
 10
49.7350846729
 20
32.5489887106
 30
0.0
 10
49.7350922563
 20
32.4673760971
 30
0.0
  0
SPLINE
  5
27D
100
AcDbEntity
  8
0
100
AcDbSpline
 62
7
  6
BYLAYER
 70
0
 71
3
 72
25
 73
21
 74
0
 42
0.0000001
 43
0.0000001
 44
0.0000000001
 40
0.0
 40
0.0
 40
0.0
 40
0.0
 40
0.0638792753
 40
0.1320539783
 40
0.2036536241
 40
0.2776426012
 40
0.3528369786
 40
0.4280003682
 40
0.5018919857
 40
0.5733377954
 40
0.6412962427
 40
0.7049332127
 40
0.7637099641
 40
0.817490137
 40
0.8666640986
 40
0.9122593416
 40
0.934264968
 40
0.9560449624
 40
0.9778676391
 40
1.0
 40
1.0
 40
1.0
 40
1.0
 10
55.7953217437
 20
32.0387493948
 30
0.0
 10
55.6582390385
 20
31.9596051305
 30
0.0
 10
55.3631075549
 20
31.8158676955
 30
0.0
 10
54.8857985851
 20
31.6491641634
 30
0.0
 10
54.369327759
 20
31.5275245965
 30
0.0
 10
53.8264164066
 20
31.4538704378
 30
0.0
 10
53.2702400374
 20
31.4300230864
 30
0.0
 10
52.7144280059
 20
31.4565426745
 30
0.0
 10
52.1725712679
 20
31.5327970663
 30
0.0
 10
51.657903808
 20
31.6569306662
 30
0.0
 10
51.1829257934
 20
31.8259554646
 30
0.0
 10
50.7590883052
 20
32.0359018868
 30
0.0
 10
50.3965416493
 20
32.2820012037
 30
0.0
 10
50.1040659472
 20
32.559068132
 30
0.0
 10
49.8892886411
 20
32.861325123
 30
0.0
 10
49.7796576428
 20
33.1327389349
 30
0.0
 10
49.7393077665
 20
33.3511221233
 30
0.0
 10
49.7316497694
 20
33.5140427911
 30
0.0
 10
49.7464367748
 20
33.6767446389
 30
0.0
 10
49.7709097413
 20
33.7832625129
 30
0.0
 10
49.7865816065
 20
33.8358183768
 30
0.0
  0
SPLINE
  5
27E
100
AcDbEntity
  8
0
100
AcDbSpline
 62
7
  6
BYLAYER
 70
0
 71
3
 72
11
 73
7
 74
0
 42
0.0000001
 43
0.0000001
 44
0.0000000001
 40
0.0
 40
0.0
 40
0.0
 40
0.0
 40
0.2826940664
 40
0.5421947699
 40
0.7798234767
 40
1.0
 40
1.0
 40
1.0
 40
1.0
 10
50.9869756127
 20
35.835414547
 30
0.0
 10
50.8739509701
 20
35.7701601286
 30
0.0
 10
50.6647173432
 20
35.6309908275
 30
0.0
 10
50.3981644939
 20
35.3864532358
 30
0.0
 10
50.1984651501
 20
35.1196155495
 30
0.0
 10
50.1112721416
 20
34.9244629261
 30
0.0
 10
50.0822257119
 20
34.8270540234
 30
0.0
  0
SPLINE
  5
27F
100
AcDbEntity
  8
0
100
AcDbSpline
 62
7
  6
BYLAYER
 70
0
 71
3
 72
9
 73
5
 74
0
 42
0.0000001
 43
0.0000001
 44
0.0000000001
 40
0.0
 40
0.0
 40
0.0
 40
0.0
 40
0.4911331146
 40
1.0
 40
1.0
 40
1.0
 40
1.0
 10
56.8350721826
 20
28.3848639211
 30
0.0
 10
56.8350634349
 20
28.4790070539
 30
0.0
 10
56.8118035978
 20
28.6713459643
 30
0.0
 10
56.7448948555
 20
28.8528155002
 30
0.0
 10
56.7021349688
 20
28.9404860195
 30
0.0
  0
SPLINE
  5
280
100
AcDbEntity
  8
0
100
AcDbSpline
 62
7
  6
BYLAYER
 70
0
 71
3
 72
15
 73
11
 74
0
 42
0.0000001
 43
0.0000001
 44
0.0000000001
 40
0.0
 40
0.0
 40
0.0
 40
0.0
 40
0.1080097037
 40
0.2180559389
 40
0.3319966274
 40
0.4513535287
 40
0.5772592052
 40
0.7104909751
 40
0.8514574042
 40
1.0
 40
1.0
 40
1.0
 40
1.0
 10
56.8350723025
 20
11.6465643784
 30
0.0
 10
56.8350785745
 20
11.5793604237
 30
0.0
 10
56.8233976275
 20
11.4434133373
 30
0.0
 10
56.7713213242
 20
11.2426060382
 30
0.0
 10
56.6853137243
 20
11.0461365384
 30
0.0
 10
56.5665430967
 20
10.8559708502
 30
0.0
 10
56.4162850466
 20
10.6738486598
 30
0.0
 10
56.2360841793
 20
10.5013441939
 30
0.0
 10
56.0277301355
 20
10.3401250998
 30
0.0
 10
55.875363083
 20
10.2435213495
 30
0.0
 10
55.7953217437
 20
10.1973097366
 30
0.0
  0
SPLINE
  5
281
100
AcDbEntity
  8
0
100
AcDbSpline
 62
7
  6
BYLAYER
 70
0
 71
3
 72
11
 73
7
 74
0
 42
0.0000001
 43
0.0000001
 44
0.0000000001
 40
0.0
 40
0.0
 40
0.0
 40
0.0
 40
0.2212058348
 40
0.4596456547
 40
0.7189376031
 40
1.0
 40
1.0
 40
1.0
 40
1.0
 10
56.3702726607
 20
10.6263636358
 30
0.0
 10
56.3385112057
 20
10.5373860211
 30
0.0
 10
56.2499398743
 20
10.3600709368
 30
0.0
 10
56.0586288131
 20
10.1177334734
 30
0.0
 10
55.8096667269
 20
9.8950773354
 30
0.0
 10
55.6164366321
 20
9.7674243751
 30
0.0
 10
55.5124778537
 20
9.7074041047
 30
0.0
  0
SPLINE
  5
282
100
AcDbEntity
  8
0
100
AcDbSpline
 62
7
  6
BYLAYER
 70
0
 71
3
 72
9
 73
5
 74
0
 42
0.0000001
 43
0.0000001
 44
0.0000000001
 40
0.0
 40
0.0
 40
0.0
 40
0.0
 40
0.5033578643
 40
1.0
 40
1.0
 40
1.0
 40
1.0
 10
49.0933345345
 20
23.7273799141
 30
0.0
 10
49.0741878296
 20
23.661301466
 30
0.0
 10
49.0449585462
 20
23.5272797527
 30
0.0
 10
49.0350931928
 20
23.3904276013
 30
0.0
 10
49.0350931093
 20
23.3225489801
 30
0.0
  0
SPLINE
  5
283
100
AcDbEntity
  8
0
100
AcDbSpline
 62
7
  6
BYLAYER
 70
0
 71
3
 72
15
 73
11
 74
0
 42
0.0000001
 43
0.0000001
 44
0.0000000001
 40
0.0
 40
0.0
 40
0.0
 40
0.0
 40
0.1080108463
 40
0.2180574085
 40
0.3319948917
 40
0.4513554819
 40
0.5772633473
 40
0.7104880339
 40
0.8514444945
 40
1.0
 40
1.0
 40
1.0
 40
1.0
 10
57.5350680467
 20
20.6280910134
 30
0.0
 10
57.5350681756
 20
20.5476346549
 30
0.0
 10
57.5211134695
 20
20.3848770518
 30
0.0
 10
57.4587342179
 20
20.1444831875
 30
0.0
 10
57.3557998788
 20
19.9092592486
 30
0.0
 10
57.2135803008
 20
19.6816099236
 30
0.0
 10
57.0337074133
 20
19.4635680195
 30
0.0
 10
56.8179763788
 20
19.2570608077
 30
0.0
 10
56.5685489562
 20
19.0640435692
 30
0.0
 10
56.3861310992
 20
18.9483964139
 30
0.0
 10
56.2902985513
 20
18.8930677968
 30
0.0
  0
SPLINE
  5
284
100
AcDbEntity
  8
0
100
AcDbSpline
 62
7
  6
BYLAYER
 70
0
 71
3
 72
15
 73
11
 74
0
 42
0.0000001
 43
0.0000001
 44
0.0000000001
 40
0.0
 40
0.0
 40
0.0
 40
0.0
 40
0.1080111826
 40
0.2180577896
 40
0.3319951363
 40
0.4513555474
 40
0.5772633722
 40
0.7104881236
 40
0.8514445727
 40
1.0
 40
1.0
 40
1.0
 40
1.0
 10
58.0850659874
 20
16.5455789296
 30
0.0
 10
58.0850661792
 20
16.4547102893
 30
0.0
 10
58.0693057671
 20
16.2708895881
 30
0.0
 10
57.998853643
 20
15.9993857638
 30
0.0
 10
57.8825983272
 20
15.733721375
 30
0.0
 10
57.7219740488
 20
15.4766117866
 30
0.0
 10
57.5188234499
 20
15.2303529006
 30
0.0
 10
57.2751743233
 20
14.9971211778
 30
0.0
 10
56.9934680715
 20
14.7791252491
 30
0.0
 10
56.7874432497
 20
14.6485120541
 30
0.0
 10
56.6792089002
 20
14.5860232962
 30
0.0
  0
SPLINE
  5
285
100
AcDbEntity
  8
0
100
AcDbSpline
 62
7
  6
BYLAYER
 70
0
 71
3
 72
11
 73
7
 74
0
 42
0.0000001
 43
0.0000001
 44
0.0000000001
 40
0.0
 40
0.0
 40
0.0
 40
0.0
 40
0.2362570658
 40
0.4784068746
 40
0.7316452155
 40
1.0
 40
1.0
 40
1.0
 40
1.0
 10
58.0850659278
 20
19.8115886127
 30
0.0
 10
58.0850658942
 20
19.9165523442
 30
0.0
 10
58.0638915669
 20
20.1296577349
 30
0.0
 10
57.9696348481
 20
20.4426432816
 30
0.0
 10
57.814749478
 20
20.7463480966
 30
0.0
 10
57.67718868
 20
20.9341005224
 30
0.0
 10
57.6003008035
 20
21.0252192572
 30
0.0
  0
SPLINE
  5
286
100
AcDbEntity
  8
0
100
AcDbSpline
 62
7
  6
BYLAYER
 70
0
 71
3
 72
15
 73
11
 74
0
 42
0.0000001
 43
0.0000001
 44
0.0000000001
 40
0.0
 40
0.0
 40
0.0
 40
0.0
 40
0.1196783672
 40
0.2451881747
 40
0.3745310667
 40
0.5054610844
 40
0.6356620452
 40
0.7628452941
 40
0.884894177
 40
1.0
 40
1.0
 40
1.0
 40
1.0
 10
55.0142268892
 20
18.3610312356
 30
0.0
 10
54.8731730606
 20
18.3049703094
 30
0.0
 10
54.5769204327
 20
18.2078621706
 30
0.0
 10
54.1116312774
 20
18.1085296244
 30
0.0
 10
53.624642735
 20
18.0538202759
 30
0.0
 10
53.1287608377
 20
18.0452325181
 30
0.0
 10
52.6369773679
 20
18.0829529534
 30
0.0
 10
52.1621506184
 20
18.1660320674
 30
0.0
 10
51.7167837274
 20
18.2922569989
 30
0.0
 10
51.437752605
 20
18.4069306986
 30
0.0
 10
51.3067615795
 20
18.4713782954
 30
0.0
  0
SPLINE
  5
287
100
AcDbEntity
  8
0
100
AcDbSpline
 62
7
  6
BYLAYER
 70
0
 71
3
 72
9
 73
5
 74
0
 42
0.0000001
 43
0.0000001
 44
0.0000000001
 40
0.0
 40
0.0
 40
0.0
 40
0.0
 40
0.2465304813
 40
1.0
 40
1.0
 40
1.0
 40
1.0
 10
55.9770851288
 20
32.1430355219
 30
0.0
 10
55.9728256566
 20
32.1312546151
 30
0.0
 10
55.954679182
 20
32.0837848624
 30
0.0
 10
55.9331196092
 20
32.0376323906
 30
0.0
 10
55.9152220849
 20
32.0037860083
 30
0.0
  0
SPLINE
  5
288
100
AcDbEntity
  8
0
100
AcDbSpline
 62
7
  6
BYLAYER
 70
0
 71
3
 72
11
 73
7
 74
0
 42
0.0000001
 43
0.0000001
 44
0.0000000001
 40
0.0
 40
0.0
 40
0.0
 40
0.0
 40
0.2248611506
 40
0.4655344613
 40
0.7238836627
 40
1.0
 40
1.0
 40
1.0
 40
1.0
 10
55.9152220849
 20
32.0037860083
 30
0.0
 10
55.8814963867
 20
31.9400066358
 30
0.0
 10
55.7992319737
 20
31.8143003737
 30
0.0
 10
55.6423025165
 20
31.642001867
 30
0.0
 10
55.4506390916
 20
31.4824552269
 30
0.0
 10
55.3063575618
 20
31.3890101026
 30
0.0
 10
55.2296339636
 20
31.344713977
 30
0.0
  0
SPLINE
  5
289
100
AcDbEntity
  8
0
100
AcDbSpline
 62
7
  6
BYLAYER
 70
0
 71
3
 72
15
 73
11
 74
0
 42
0.0000001
 43
0.0000001
 44
0.0000000001
 40
0.0
 40
0.0
 40
0.0
 40
0.0
 40
0.1485426904
 40
0.2895071872
 40
0.4227376449
 40
0.5486433065
 40
0.6680007819
 40
0.7819417776
 40
0.8919889378
 40
1.0
 40
1.0
 40
1.0
 40
1.0
 10
55.7953217437
 20
31.0181213734
 30
0.0
 10
55.875363146
 20
31.0643330227
 30
0.0
 10
56.027729686
 20
31.1609355381
 30
0.0
 10
56.236081764
 20
31.3221539927
 30
0.0
 10
56.4162819106
 20
31.49465637
 30
0.0
 10
56.5665393299
 20
31.6767783837
 30
0.0
 10
56.6853127873
 20
31.8669430873
 30
0.0
 10
56.7713195015
 20
32.0634142015
 30
0.0
 10
56.8233987488
 20
32.2642224573
 30
0.0
 10
56.8350784272
 20
32.4001711966
 30
0.0
 10
56.8350721826
 20
32.4673760067
 30
0.0
  0
SPLINE
  5
28A
100
AcDbEntity
  8
0
100
AcDbSpline
 62
7
  6
BYLAYER
 70
0
 71
3
 72
21
 73
17
 74
0
 42
0.0000001
 43
0.0000001
 44
0.0000000001
 40
0.0
 40
0.0
 40
0.0
 40
0.0
 40
0.0602326941
 40
0.1240176551
 40
0.1907589133
 40
0.2598276414
 40
0.4017402543
 40
0.5433057281
 40
0.6119511799
 40
0.6781283446
 40
0.7411976792
 40
0.8006601564
 40
0.8561971036
 40
0.9077279235
 40
0.9554718901
 40
1.0
 40
1.0
 40
1.0
 40
1.0
 10
55.2296339636
 20
31.344713977
 30
0.0
 10
55.1405545783
 20
31.2932842769
 30
0.0
 10
54.9507495885
 20
31.1982204899
 30
0.0
 10
54.6458216488
 20
31.0823008417
 30
0.0
 10
54.3170392227
 20
30.9906775215
 30
0.0
 10
53.8506100751
 20
30.9022937062
 30
0.0
 10
53.2473921304
 20
30.8615280897
 30
0.0
 10
52.6455854117
 20
30.9117758221
 30
0.0
 10
52.1829546571
 20
31.0076761427
 30
0.0
 10
51.8587019664
 20
31.104506185
 30
0.0
 10
51.5593623108
 20
31.2252414475
 30
0.0
 10
51.2900837449
 20
31.3678411994
 30
0.0
 10
51.0555276686
 20
31.5299672569
 30
0.0
 10
50.859765714
 20
31.7090879694
 30
0.0
 10
50.706363273
 20
31.9022884545
 30
0.0
 10
50.632289223
 20
32.0427664328
 30
0.0
 10
50.6042823005
 20
32.113461894
 30
0.0
  0
SPLINE
  5
28B
100
AcDbEntity
  8
0
100
AcDbSpline
 62
7
  6
BYLAYER
 70
0
 71
3
 72
24
 73
20
 74
0
 42
0.0000001
 43
0.0000001
 44
0.0000000001
 40
0.0
 40
0.0
 40
0.0
 40
0.0
 40
0.0213336244
 40
0.0428955165
 40
0.0874737819
 40
0.1352529274
 40
0.1871577419
 40
0.2435991812
 40
0.3045512422
 40
0.3696439489
 40
0.4382463864
 40
0.5095379277
 40
0.5825676946
 40
0.6563047428
 40
0.7296860655
 40
0.801669284
 40
0.8712626353
 40
0.9376183315
 40
1.0
 40
1.0
 40
1.0
 40
1.0
 10
49.7350922563
 20
30.4261200543
 30
0.0
 10
49.7350969358
 20
30.3757589735
 30
0.0
 10
49.7416058208
 20
30.2743748319
 30
0.0
 10
49.7807914181
 20
30.0711676188
 30
0.0
 10
49.8809233301
 20
29.8186375599
 30
0.0
 10
50.0737323801
 20
29.5352118272
 30
0.0
 10
50.3350428245
 20
29.2727623101
 30
0.0
 10
50.6588372415
 20
29.0361725871
 30
0.0
 10
51.0382243543
 20
28.8298197702
 30
0.0
 10
51.4652631982
 20
28.657787934
 30
0.0
 10
51.9309769592
 20
28.5235755973
 30
0.0
 10
52.4255192988
 20
28.4299779891
 30
0.0
 10
52.9383854772
 20
28.3789737094
 30
0.0
 10
53.4586448738
 20
28.3716494644
 30
0.0
 10
53.9752077323
 20
28.4081646522
 30
0.0
 10
54.477034069
 20
28.4877544668
 30
0.0
 10
54.9535337216
 20
28.6086942087
 30
0.0
 10
55.3944430395
 20
28.7684776091
 30
0.0
 10
55.6677898921
 20
28.9032352212
 30
0.0
 10
55.7953217437
 20
28.9768653306
 30
0.0
  0
SPLINE
  5
28C
100
AcDbEntity
  8
0
100
AcDbSpline
 62
7
  6
BYLAYER
 70
0
 71
3
 72
9
 73
5
 74
0
 42
0.0000001
 43
0.0000001
 44
0.0000000001
 40
0.0
 40
0.0
 40
0.0
 40
0.0
 40
0.2465304813
 40
1.0
 40
1.0
 40
1.0
 40
1.0
 10
55.9770851288
 20
28.0605234362
 30
0.0
 10
55.9728256566
 20
28.0487425294
 30
0.0
 10
55.954679182
 20
28.0012727767
 30
0.0
 10
55.9331196092
 20
27.9551203049
 30
0.0
 10
55.9152220849
 20
27.9212739226
 30
0.0
  0
SPLINE
  5
28D
100
AcDbEntity
  8
0
100
AcDbSpline
 62
7
  6
BYLAYER
 70
0
 71
3
 72
11
 73
7
 74
0
 42
0.0000001
 43
0.0000001
 44
0.0000000001
 40
0.0
 40
0.0
 40
0.0
 40
0.0
 40
0.2248611506
 40
0.4655344613
 40
0.7238836627
 40
1.0
 40
1.0
 40
1.0
 40
1.0
 10
55.9152220849
 20
27.9212739226
 30
0.0
 10
55.8814963867
 20
27.8574945501
 30
0.0
 10
55.7992319737
 20
27.7317882881
 30
0.0
 10
55.6423025165
 20
27.5594897814
 30
0.0
 10
55.4506390916
 20
27.3999431413
 30
0.0
 10
55.3063575618
 20
27.306498017
 30
0.0
 10
55.2296339636
 20
27.2622018914
 30
0.0
  0
SPLINE
  5
28E
100
AcDbEntity
  8
0
100
AcDbSpline
 62
7
  6
BYLAYER
 70
0
 71
3
 72
15
 73
11
 74
0
 42
0.0000001
 43
0.0000001
 44
0.0000000001
 40
0.0
 40
0.0
 40
0.0
 40
0.0
 40
0.1512674809
 40
0.2930361238
 40
0.4253205507
 40
0.5490548602
 40
0.6658442045
 40
0.7779712245
 40
0.888317785
 40
1.0
 40
1.0
 40
1.0
 40
1.0
 10
55.5831888262
 20
33.1818496426
 30
0.0
 10
55.6718659882
 20
33.2330471203
 30
0.0
 10
55.8388628044
 20
33.3409455515
 30
0.0
 10
56.0614629317
 20
33.5246676104
 30
0.0
 10
56.2450092547
 20
33.7229566191
 30
0.0
 10
56.3866396286
 20
33.9331925532
 30
0.0
 10
56.4840573216
 20
34.1526210191
 30
0.0
 10
56.5351008779
 20
34.3781560515
 30
0.0
 10
56.5386091005
 20
34.6059120132
 30
0.0
 10
56.5095362338
 20
34.7546059438
 30
0.0
 10
56.4879350413
 20
34.8270536738
 30
0.0
  0
SPLINE
  5
28F
100
AcDbEntity
  8
0
100
AcDbSpline
 62
7
  6
BYLAYER
 70
0
 71
3
 72
22
 73
18
 74
0
 42
0.0000001
 43
0.0000001
 44
0.0000000001
 40
0.0
 40
0.0
 40
0.0
 40
0.0
 40
0.0623810546
 40
0.1287694744
 40
0.1983750983
 40
0.2703719772
 40
0.4173891875
 40
0.4904346805
 40
0.5617431801
 40
0.6303624881
 40
0.6954687786
 40
0.7564348929
 40
0.8128897526
 40
0.864804436
 40
0.9125937583
 40
0.957181616
 40
1.0
 40
1.0
 40
1.0
 40
1.0
 10
54.5225242385
 20
33.7942107743
 30
0.0
 10
54.4596709652
 20
33.7579226367
 30
0.0
 10
54.3249101906
 20
33.6915069994
 30
0.0
 10
54.1075748849
 20
33.6127172219
 30
0.0
 10
53.8726470987
 20
33.5530845846
 30
0.0
 10
53.5406630403
 20
33.5004872689
 30
0.0
 10
53.199011473
 20
33.4910512067
 30
0.0
 10
52.8613762403
 20
33.5246200922
 30
0.0
 10
52.6175631952
 20
33.5707617421
 30
0.0
 10
52.3879870888
 20
33.6369169476
 30
0.0
 10
52.1774782256
 20
33.7217378895
 30
0.0
 10
51.9904530339
 20
33.823451659
 30
0.0
 10
51.8308301823
 20
33.9400807484
 30
0.0
 10
51.7020278612
 20
34.0694466812
 30
0.0
 10
51.6069806116
 20
34.2092294916
 30
0.0
 10
51.5484055586
 20
34.3566896108
 30
0.0
 10
51.5350963051
 20
34.4588154854
 30
0.0
 10
51.5350951458
 20
34.5086320965
 30
0.0
  0
SPLINE
  5
290
100
AcDbEntity
  8
0
100
AcDbSpline
 62
7
  6
BYLAYER
 70
0
 71
3
 72
15
 73
11
 74
0
 42
0.0000001
 43
0.0000001
 44
0.0000000001
 40
0.0
 40
0.0
 40
0.0
 40
0.0
 40
0.1485549362
 40
0.2895092305
 40
0.4227324357
 40
0.5486397703
 40
0.6680004912
 40
0.7819393505
 40
0.8919881972
 40
1.0
 40
1.0
 40
1.0
 40
1.0
 10
56.2902985513
 20
21.5875257734
 30
0.0
 10
56.386130796
 20
21.6428542153
 30
0.0
 10
56.5685475009
 20
21.7584996845
 30
0.0
 10
56.817972301
 20
21.9515154654
 30
0.0
 10
57.0337023302
 20
22.1580195216
 30
0.0
 10
57.2135749958
 20
22.3760598573
 30
0.0
 10
57.3557987057
 20
22.603707822
 30
0.0
 10
57.4587327876
 20
22.8389351724
 30
0.0
 10
57.5211159362
 20
23.0793316493
 30
0.0
 10
57.5350712307
 20
23.2420918553
 30
0.0
 10
57.5350713296
 20
23.3225489801
 30
0.0
  0
SPLINE
  5
291
100
AcDbEntity
  8
0
100
AcDbSpline
 62
7
  6
BYLAYER
 70
0
 71
3
 72
15
 73
11
 74
0
 42
0.0000001
 43
0.0000001
 44
0.0000000001
 40
0.0
 40
0.0
 40
0.0
 40
0.0
 40
0.1080114116
 40
0.2180601321
 40
0.3320016709
 40
0.4513585344
 40
0.5772634148
 40
0.7104934075
 40
0.8514577831
 40
1.0
 40
1.0
 40
1.0
 40
1.0
 10
56.835075589
 20
25.7720562313
 30
0.0
 10
56.8350815597
 20
25.7048511574
 30
0.0
 10
56.8233995717
 20
25.5689013426
 30
0.0
 10
56.7713203546
 20
25.3680914884
 30
0.0
 10
56.6853128146
 20
25.1716194441
 30
0.0
 10
56.566538385
 20
24.9814557986
 30
0.0
 10
56.4162810112
 20
24.7993350858
 30
0.0
 10
56.2360811703
 20
24.6268333762
 30
0.0
 10
56.0277292147
 20
24.465615555
 30
0.0
 10
55.8753629461
 20
24.3690130868
 30
0.0
 10
55.7953217437
 20
24.3228015529
 30
0.0
  0
SPLINE
  5
292
100
AcDbEntity
  8
0
100
AcDbSpline
 62
7
  6
BYLAYER
 70
0
 71
3
 72
24
 73
20
 74
0
 42
0.0000001
 43
0.0000001
 44
0.0000000001
 40
0.0
 40
0.0
 40
0.0
 40
0.0
 40
0.0623811807
 40
0.1287357264
 40
0.1983283803
 40
0.2703117434
 40
0.3436945079
 40
0.417431996
 40
0.4904620095
 40
0.5617540271
 40
0.6303569701
 40
0.6954500956
 40
0.7564023765
 40
0.8128437978
 40
0.8647483474
 40
0.9125270398
 40
0.9571048232
 40
0.9786664905
 40
1.0
 40
1.0
 40
1.0
 40
1.0
 10
55.7953217437
 20
24.3228015529
 30
0.0
 10
55.6677907815
 20
24.2491719571
 30
0.0
 10
55.3944475855
 20
24.1144151123
 30
0.0
 10
54.9535431532
 20
23.9546333419
 30
0.0
 10
54.4770476359
 20
23.8336920486
 30
0.0
 10
53.9752188617
 20
23.7541012789
 30
0.0
 10
53.4586509331
 20
23.7175838933
 30
0.0
 10
52.9383860134
 20
23.7249074288
 30
0.0
 10
52.4255166745
 20
23.7759121086
 30
0.0
 10
51.9309710274
 20
23.8695101575
 30
0.0
 10
51.4652537632
 20
24.0037238395
 30
0.0
 10
51.0382122978
 20
24.1757575078
 30
0.0
 10
50.6588242038
 20
24.3821124228
 30
0.0
 10
50.3350306101
 20
24.6187035904
 30
0.0
 10
50.0737222983
 20
24.8811532751
 30
0.0
 10
49.8809166431
 20
25.1645782207
 30
0.0
 10
49.7807869306
 20
25.4171063873
 30
0.0
 10
49.7416024242
 20
25.6203119617
 30
0.0
 10
49.7350933241
 20
25.7216953795
 30
0.0
 10
49.7350888499
 20
25.7720562317
 30
0.0
  0
SPLINE
  5
293
100
AcDbEntity
  8
0
100
AcDbSpline
 62
7
  6
BYLAYER
 70
0
 71
3
 72
13
 73
9
 74
0
 42
0.0000001
 43
0.0000001
 44
0.0000000001
 40
0.0
 40
0.0
 40
0.0
 40
0.0
 40
0.1080927317
 40
0.2182320389
 40
0.3322566832
 40
0.4516868697
 40
0.7106266497
 40
1.0
 40
1.0
 40
1.0
 40
1.0
 10
55.0350692931
 20
34.508632093
 30
0.0
 10
55.0350700641
 20
34.4755035922
 30
0.0
 10
55.0293354847
 20
34.4084818822
 30
0.0
 10
55.0036233562
 20
34.3095024565
 30
0.0
 10
54.9612548603
 20
34.2126419342
 30
0.0
 10
54.8810608625
 20
34.0842577942
 30
0.0
 10
54.7386162466
 20
33.9344075577
 30
0.0
 10
54.5993302305
 20
33.8385544698
 30
0.0
 10
54.5225242385
 20
33.7942107743
 30
0.0
  0
SPLINE
  5
294
100
AcDbEntity
  8
0
100
AcDbSpline
 62
7
  6
BYLAYER
 70
0
 71
3
 72
24
 73
20
 74
0
 42
0.0000001
 43
0.0000001
 44
0.0000000001
 40
0.0
 40
0.0
 40
0.0
 40
0.0
 40
0.0213336244
 40
0.0428955165
 40
0.0874737819
 40
0.1352529274
 40
0.1871577419
 40
0.2435991812
 40
0.3045512422
 40
0.3696439489
 40
0.4382463864
 40
0.5095379277
 40
0.5825676946
 40
0.6563047428
 40
0.7296860655
 40
0.801669284
 40
0.8712626353
 40
0.9376183315
 40
1.0
 40
1.0
 40
1.0
 40
1.0
 10
49.7350922563
 20
28.3848640115
 30
0.0
 10
49.7350969358
 20
28.3345029306
 30
0.0
 10
49.7416058208
 20
28.233118789
 30
0.0
 10
49.7807914181
 20
28.0299115759
 30
0.0
 10
49.8809233301
 20
27.7773815171
 30
0.0
 10
50.0737323801
 20
27.4939557844
 30
0.0
 10
50.3350428245
 20
27.2315062673
 30
0.0
 10
50.6588372415
 20
26.9949165443
 30
0.0
 10
51.0382243543
 20
26.7885637274
 30
0.0
 10
51.4652631982
 20
26.6165318912
 30
0.0
 10
51.9309769592
 20
26.4823195544
 30
0.0
 10
52.4255192988
 20
26.3887219463
 30
0.0
 10
52.9383854772
 20
26.3377176666
 30
0.0
 10
53.4586448738
 20
26.3303934215
 30
0.0
 10
53.9752077323
 20
26.3669086093
 30
0.0
 10
54.477034069
 20
26.446498424
 30
0.0
 10
54.9535337216
 20
26.5674381659
 30
0.0
 10
55.3944430395
 20
26.7272215662
 30
0.0
 10
55.6677898921
 20
26.8619791784
 30
0.0
 10
55.7953217437
 20
26.9356092877
 30
0.0
  0
SPLINE
  5
295
100
AcDbEntity
  8
0
100
AcDbSpline
 62
7
  6
BYLAYER
 70
0
 71
3
 72
23
 73
19
 74
0
 42
0.0000001
 43
0.0000001
 44
0.0000000001
 40
0.0
 40
0.0
 40
0.0
 40
0.0
 40
0.0438647293
 40
0.0875591921
 40
0.1331640686
 40
0.1823478597
 40
0.2361385556
 40
0.2949271237
 40
0.3585770623
 40
0.4265484646
 40
0.4980067656
 40
0.5719114421
 40
0.6470888159
 40
0.7222979175
 40
0.796302706
 40
0.8679152721
 40
0.9361101059
 40
1.0
 40
1.0
 40
1.0
 40
1.0
 10
50.0822257119
 20
34.8270540234
 30
0.0
 10
50.0537960653
 20
34.7317135392
 30
0.0
 10
50.0213314009
 20
34.5328799707
 30
0.0
 10
50.0572547224
 20
34.2292652765
 30
0.0
 10
50.1762754875
 20
33.9349858619
 30
0.0
 10
50.3728936247
 20
33.6581710796
 30
0.0
 10
50.6406483866
 20
33.4045420341
 30
0.0
 10
50.9725567961
 20
33.1792295877
 30
0.0
 10
51.3605807108
 20
32.9870365883
 30
0.0
 10
51.7954171723
 20
32.8323037367
 30
0.0
 10
52.266582164
 20
32.7186632566
 30
0.0
 10
52.7626366981
 20
32.64884824
 30
0.0
 10
53.2714711506
 20
32.624559904
 30
0.0
 10
53.7806461884
 20
32.6463923914
 30
0.0
 10
54.2776747441
 20
32.7138277462
 30
0.0
 10
54.7505162284
 20
32.8251806424
 30
0.0
 10
55.1874917524
 20
32.9778090735
 30
0.0
 10
55.457694851
 20
33.1093960947
 30
0.0
 10
55.5831888262
 20
33.1818496426
 30
0.0
  0
SPLINE
  5
296
100
AcDbEntity
  8
0
100
AcDbSpline
 62
7
  6
BYLAYER
 70
0
 71
3
 72
15
 73
11
 74
0
 42
0.0000001
 43
0.0000001
 44
0.0000000001
 40
0.0
 40
0.0
 40
0.0
 40
0.0
 40
0.1485426904
 40
0.2895071872
 40
0.4227376449
 40
0.5486433065
 40
0.6680007819
 40
0.7819417776
 40
0.8919889378
 40
1.0
 40
1.0
 40
1.0
 40
1.0
 10
55.7953217437
 20
26.9356092877
 30
0.0
 10
55.875363146
 20
26.9818209371
 30
0.0
 10
56.027729686
 20
27.0784234525
 30
0.0
 10
56.236081764
 20
27.239641907
 30
0.0
 10
56.4162819106
 20
27.4121442843
 30
0.0
 10
56.5665393299
 20
27.594266298
 30
0.0
 10
56.6853127873
 20
27.7844310016
 30
0.0
 10
56.7713195015
 20
27.9809021158
 30
0.0
 10
56.8233987488
 20
28.1817103716
 30
0.0
 10
56.8350784272
 20
28.3176591109
 30
0.0
 10
56.8350721826
 20
28.3848639211
 30
0.0
  0
SPLINE
  5
297
100
AcDbEntity
  8
0
100
AcDbSpline
 62
7
  6
BYLAYER
 70
0
 71
3
 72
21
 73
17
 74
0
 42
0.0000001
 43
0.0000001
 44
0.0000000001
 40
0.0
 40
0.0
 40
0.0
 40
0.0
 40
0.0602326941
 40
0.1240176551
 40
0.1907589133
 40
0.2598276414
 40
0.4017402543
 40
0.5433057281
 40
0.6119511799
 40
0.6781283446
 40
0.7411976792
 40
0.8006601564
 40
0.8561971036
 40
0.9077279235
 40
0.9554718901
 40
1.0
 40
1.0
 40
1.0
 40
1.0
 10
55.2296339636
 20
27.2622018914
 30
0.0
 10
55.1405545783
 20
27.2107721913
 30
0.0
 10
54.9507495885
 20
27.1157084043
 30
0.0
 10
54.6458216488
 20
26.9997887561
 30
0.0
 10
54.3170392227
 20
26.9081654358
 30
0.0
 10
53.8506100751
 20
26.8197816206
 30
0.0
 10
53.2473921304
 20
26.779016004
 30
0.0
 10
52.6455854117
 20
26.8292637365
 30
0.0
 10
52.1829546571
 20
26.9251640571
 30
0.0
 10
51.8587019664
 20
27.0219940994
 30
0.0
 10
51.5593623108
 20
27.1427293618
 30
0.0
 10
51.2900837449
 20
27.2853291138
 30
0.0
 10
51.0555276686
 20
27.4474551713
 30
0.0
 10
50.859765714
 20
27.6265758838
 30
0.0
 10
50.706363273
 20
27.8197763688
 30
0.0
 10
50.632289223
 20
27.9602543472
 30
0.0
 10
50.6042823005
 20
28.0309498084
 30
0.0
  0
SPLINE
  5
298
100
AcDbEntity
  8
0
100
AcDbSpline
 62
7
  6
BYLAYER
 70
0
 71
3
 72
24
 73
20
 74
0
 42
0.0000001
 43
0.0000001
 44
0.0000000001
 40
0.0
 40
0.0
 40
0.0
 40
0.0
 40
0.0213336244
 40
0.0428955165
 40
0.0874737819
 40
0.1352529274
 40
0.1871577419
 40
0.2435991812
 40
0.3045512422
 40
0.3696439489
 40
0.4382463864
 40
0.5095379277
 40
0.5825676946
 40
0.6563047428
 40
0.7296860655
 40
0.801669284
 40
0.8712626353
 40
0.9376183315
 40
1.0
 40
1.0
 40
1.0
 40
1.0
 10
49.7350922563
 20
32.4673760971
 30
0.0
 10
49.7350969358
 20
32.4170150163
 30
0.0
 10
49.7416058208
 20
32.3156308747
 30
0.0
 10
49.7807914181
 20
32.1124236616
 30
0.0
 10
49.8809233301
 20
31.8598936027
 30
0.0
 10
50.0737323801
 20
31.57646787
 30
0.0
 10
50.3350428245
 20
31.3140183529
 30
0.0
 10
50.6588372415
 20
31.07742863
 30
0.0
 10
51.0382243543
 20
30.871075813
 30
0.0
 10
51.4652631982
 20
30.6990439768
 30
0.0
 10
51.9309769592
 20
30.5648316401
 30
0.0
 10
52.4255192988
 20
30.471234032
 30
0.0
 10
52.9383854772
 20
30.4202297522
 30
0.0
 10
53.4586448738
 20
30.4129055072
 30
0.0
 10
53.9752077323
 20
30.449420695
 30
0.0
 10
54.477034069
 20
30.5290105096
 30
0.0
 10
54.9535337216
 20
30.6499502515
 30
0.0
 10
55.3944430395
 20
30.8097336519
 30
0.0
 10
55.6677898921
 20
30.944491264
 30
0.0
 10
55.7953217437
 20
31.0181213734
 30
0.0
  0
SPLINE
  5
299
100
AcDbEntity
  8
0
100
AcDbSpline
 62
7
  6
BYLAYER
 70
0
 71
3
 72
9
 73
5
 74
0
 42
0.0000001
 43
0.0000001
 44
0.0000000001
 40
0.0
 40
0.0
 40
0.0
 40
0.0
 40
0.2465304813
 40
1.0
 40
1.0
 40
1.0
 40
1.0
 10
55.9770851288
 20
30.101779479
 30
0.0
 10
55.9728256566
 20
30.0899985722
 30
0.0
 10
55.954679182
 20
30.0425288195
 30
0.0
 10
55.9331196092
 20
29.9963763478
 30
0.0
 10
55.9152220849
 20
29.9625299655
 30
0.0
  0
SPLINE
  5
29A
100
AcDbEntity
  8
0
100
AcDbSpline
 62
7
  6
BYLAYER
 70
0
 71
3
 72
11
 73
7
 74
0
 42
0.0000001
 43
0.0000001
 44
0.0000000001
 40
0.0
 40
0.0
 40
0.0
 40
0.0
 40
0.2248611506
 40
0.4655344613
 40
0.7238836627
 40
1.0
 40
1.0
 40
1.0
 40
1.0
 10
55.9152220849
 20
29.9625299655
 30
0.0
 10
55.8814963867
 20
29.8987505929
 30
0.0
 10
55.7992319737
 20
29.7730443309
 30
0.0
 10
55.6423025165
 20
29.6007458242
 30
0.0
 10
55.4506390916
 20
29.4411991841
 30
0.0
 10
55.3063575618
 20
29.3477540598
 30
0.0
 10
55.2296339636
 20
29.3034579342
 30
0.0
  0
SPLINE
  5
29B
100
AcDbEntity
  8
0
100
AcDbSpline
 62
7
  6
BYLAYER
 70
0
 71
3
 72
25
 73
21
 74
0
 42
0.0000001
 43
0.0000001
 44
0.0000000001
 40
0.0
 40
0.0
 40
0.0
 40
0.0
 40
0.0213317942
 40
0.0428920891
 40
0.0648972168
 40
0.0875416327
 40
0.1353163418
 40
0.1872172139
 40
0.2436550184
 40
0.3046029866
 40
0.3696907354
 40
0.4382880897
 40
0.509574849
 40
0.582599611
 40
0.6563316063
 40
0.7297085365
 40
0.8016862423
 40
0.8712754081
 40
0.9376210014
 40
1.0
 40
1.0
 40
1.0
 40
1.0
 10
49.0350931093
 20
23.3225489801
 30
0.0
 10
49.0350930351
 20
23.2622580949
 30
0.0
 10
49.0428574685
 20
23.1408891056
 30
0.0
 10
49.0777446928
 20
22.9603548116
 30
0.0
 10
49.1355821567
 20
22.7819000154
 30
0.0
 10
49.2446998511
 20
22.544000843
 30
0.0
 10
49.4405080636
 20
22.2558582728
 30
0.0
 10
49.7533147635
 20
21.9418033647
 30
0.0
 10
50.1409728054
 20
21.6585220036
 30
0.0
 10
50.5951721347
 20
21.4114976237
 30
0.0
 10
51.1064161785
 20
21.2055339895
 30
0.0
 10
51.6639607361
 20
21.0448493241
 30
0.0
 10
52.2560221686
 20
20.9327915922
 30
0.0
 10
52.8700226961
 20
20.8717326503
 30
0.0
 10
53.4928754866
 20
20.8629742434
 30
0.0
 10
54.1113004669
 20
20.9066908534
 30
0.0
 10
54.7120866943
 20
21.0019683447
 30
0.0
 10
55.2825306659
 20
21.1467627354
 30
0.0
 10
55.8103790202
 20
21.33804049
 30
0.0
 10
56.1376144019
 20
21.4993740648
 30
0.0
 10
56.2902985513
 20
21.5875257734
 30
0.0
  0
SPLINE
  5
29C
100
AcDbEntity
  8
0
100
AcDbSpline
 62
7
  6
BYLAYER
 70
0
 71
3
 72
25
 73
21
 74
0
 42
0.0000001
 43
0.0000001
 44
0.0000000001
 40
0.0
 40
0.0
 40
0.0
 40
0.0
 40
0.0213321388
 40
0.0428927508
 40
0.0648981572
 40
0.0875428054
 40
0.1353179252
 40
0.187218972
 40
0.2436566312
 40
0.3046041846
 40
0.3696913405
 40
0.4382880485
 40
0.5095742307
 40
0.582598685
 40
0.6563308044
 40
0.7297067163
 40
0.8016839127
 40
0.8712736603
 40
0.9376204098
 40
1.0
 40
1.0
 40
1.0
 40
1.0
 10
48.4850985111
 20
19.8115885601
 30
0.0
 10
48.4850985329
 20
19.7434942726
 30
0.0
 10
48.4938677365
 20
19.606416682
 30
0.0
 10
48.5332711053
 20
19.4025163894
 30
0.0
 10
48.598596131
 20
19.2009657096
 30
0.0
 10
48.7218369833
 20
18.932277531
 30
0.0
 10
48.9429891523
 20
18.6068456996
 30
0.0
 10
49.2962797331
 20
18.2521500579
 30
0.0
 10
49.73410524
 20
17.9322115042
 30
0.0
 10
50.2470803406
 20
17.6532224623
 30
0.0
 10
50.8244803282
 20
17.4206075514
 30
0.0
 10
51.4541717691
 20
17.2391304555
 30
0.0
 10
52.1228475361
 20
17.1125717912
 30
0.0
 10
52.8163039506
 20
17.0436101422
 30
0.0
 10
53.5197568412
 20
17.0337181722
 30
0.0
 10
54.2182085653
 20
17.0830887882
 30
0.0
 10
54.8967400796
 20
17.1906959641
 30
0.0
 10
55.5410104591
 20
17.3542257473
 30
0.0
 10
56.1371753631
 20
17.5702591401
 30
0.0
 10
56.5067641105
 20
17.7524725133
 30
0.0
 10
56.6792089002
 20
17.8520329647
 30
0.0
  0
SPLINE
  5
29D
100
AcDbEntity
  8
0
100
AcDbSpline
 62
7
  6
BYLAYER
 70
0
 71
3
 72
15
 73
11
 74
0
 42
0.0000001
 43
0.0000001
 44
0.0000000001
 40
0.0
 40
0.0
 40
0.0
 40
0.0
 40
0.1485426904
 40
0.2895071872
 40
0.4227376449
 40
0.5486433065
 40
0.6680007819
 40
0.7819417776
 40
0.8919889378
 40
1.0
 40
1.0
 40
1.0
 40
1.0
 10
55.7953217437
 20
28.9768653306
 30
0.0
 10
55.875363146
 20
29.0230769799
 30
0.0
 10
56.027729686
 20
29.1196794953
 30
0.0
 10
56.236081764
 20
29.2808979498
 30
0.0
 10
56.4162819106
 20
29.4534003272
 30
0.0
 10
56.5665393299
 20
29.6355223409
 30
0.0
 10
56.6853127873
 20
29.8256870444
 30
0.0
 10
56.7713195015
 20
30.0221581587
 30
0.0
 10
56.8233987488
 20
30.2229664145
 30
0.0
 10
56.8350784272
 20
30.3589151538
 30
0.0
 10
56.8350721826
 20
30.4261199639
 30
0.0
  0
SPLINE
  5
29E
100
AcDbEntity
  8
0
100
AcDbSpline
 62
7
  6
BYLAYER
 70
0
 71
3
 72
21
 73
17
 74
0
 42
0.0000001
 43
0.0000001
 44
0.0000000001
 40
0.0
 40
0.0
 40
0.0
 40
0.0
 40
0.0602326941
 40
0.1240176551
 40
0.1907589133
 40
0.2598276414
 40
0.4017402543
 40
0.5433057281
 40
0.6119511799
 40
0.6781283446
 40
0.7411976792
 40
0.8006601564
 40
0.8561971036
 40
0.9077279235
 40
0.9554718901
 40
1.0
 40
1.0
 40
1.0
 40
1.0
 10
55.2296339636
 20
29.3034579342
 30
0.0
 10
55.1405545783
 20
29.2520282341
 30
0.0
 10
54.9507495885
 20
29.1569644471
 30
0.0
 10
54.6458216488
 20
29.0410447989
 30
0.0
 10
54.3170392227
 20
28.9494214786
 30
0.0
 10
53.8506100751
 20
28.8610376634
 30
0.0
 10
53.2473921304
 20
28.8202720469
 30
0.0
 10
52.6455854117
 20
28.8705197793
 30
0.0
 10
52.1829546571
 20
28.9664200999
 30
0.0
 10
51.8587019664
 20
29.0632501422
 30
0.0
 10
51.5593623108
 20
29.1839854046
 30
0.0
 10
51.2900837449
 20
29.3265851566
 30
0.0
 10
51.0555276686
 20
29.4887112141
 30
0.0
 10
50.859765714
 20
29.6678319266
 30
0.0
 10
50.706363273
 20
29.8610324116
 30
0.0
 10
50.632289223
 20
30.00151039
 30
0.0
 10
50.6042823005
 20
30.0722058512
 30
0.0
  0
SPLINE
  5
29F
100
AcDbEntity
  8
0
100
AcDbSpline
 62
7
  6
BYLAYER
 70
0
 71
3
 72
15
 73
11
 74
0
 42
0.0000001
 43
0.0000001
 44
0.0000000001
 40
0.0
 40
0.0
 40
0.0
 40
0.0
 40
0.1485548196
 40
0.2895088961
 40
0.4227325716
 40
0.5486406274
 40
0.6680016452
 40
0.7819396035
 40
0.8919873328
 40
1.0
 40
1.0
 40
1.0
 40
1.0
 10
56.6792089002
 20
17.8520329647
 30
0.0
 10
56.7874428179
 20
17.9145214733
 30
0.0
 10
56.9934661593
 20
18.0451324202
 30
0.0
 10
57.2751691367
 20
18.263127003
 30
0.0
 10
57.5188175612
 20
18.4963555964
 30
0.0
 10
57.7219681068
 20
18.7426142033
 30
0.0
 10
57.882595867
 20
18.9997231735
 30
0.0
 10
57.9988512322
 20
19.2653897323
 30
0.0
 10
58.0693062114
 20
19.5368956602
 30
0.0
 10
58.0850659569
 20
19.7207187141
 30
0.0
 10
58.0850659278
 20
19.8115886127
 30
0.0
  0
SPLINE
  5
2A0
100
AcDbEntity
  8
0
100
AcDbSpline
 62
7
  6
BYLAYER
 70
0
 71
3
 72
22
 73
18
 74
0
 42
0.0000001
 43
0.0000001
 44
0.0000000001
 40
0.0
 40
0.0
 40
0.0
 40
0.0
 40
0.0428194466
 40
0.0874071271
 40
0.1351968959
 40
0.1871138771
 40
0.2435671296
 40
0.3045317574
 40
0.3696385472
 40
0.4382548659
 40
0.5095613107
 40
0.5826070381
 40
0.7296234564
 40
0.8016232302
 40
0.8712297343
 40
0.9376121821
 40
1.0
 40
1.0
 40
1.0
 40
1.0
 10
24.9149451251
 20
91.4037780516
 30
0.0
 10
24.9889013397
 20
91.4464864222
 30
0.0
 10
25.1519486354
 20
91.5142204279
 30
0.0
 10
25.4210670239
 20
91.5536921574
 30
0.0
 10
25.7100726165
 20
91.532414797
 30
0.0
 10
26.0125252875
 20
91.4520402044
 30
0.0
 10
26.3225007623
 20
91.3150545729
 30
0.0
 10
26.6338257911
 20
91.1246012023
 30
0.0
 10
26.9401628741
 20
90.884759122
 30
0.0
 10
27.2351617427
 20
90.6006510551
 30
0.0
 10
27.5126619649
 20
90.2782552842
 30
0.0
 10
27.8518693362
 20
89.8057540508
 30
0.0
 10
28.1307493854
 20
89.2904635888
 30
0.0
 10
28.3371961162
 20
88.752493598
 30
0.0
 10
28.4500330034
 20
88.3526085493
 30
0.0
 10
28.5193687392
 20
87.9624140506
 30
0.0
 10
28.5362624471
 20
87.7054152934
 30
0.0
 10
28.5362624471
 20
87.5809845972
 30
0.0
  0
SPLINE
  5
2A1
100
AcDbEntity
  8
0
100
AcDbSpline
 62
7
  6
BYLAYER
 70
0
 71
3
 72
22
 73
18
 74
0
 42
0.0000001
 43
0.0000001
 44
0.0000000001
 40
0.0
 40
0.0
 40
0.0
 40
0.0
 40
0.0428194466
 40
0.0874071271
 40
0.1351968959
 40
0.1871138771
 40
0.2435671296
 40
0.3045317574
 40
0.3696385472
 40
0.4382548659
 40
0.5095613107
 40
0.5826070381
 40
0.7296234564
 40
0.8016232302
 40
0.8712297343
 40
0.9376121821
 40
1.0
 40
1.0
 40
1.0
 40
1.0
 10
24.9149451251
 20
104.4678167257
 30
0.0
 10
24.9889013397
 20
104.5105250962
 30
0.0
 10
25.1519486354
 20
104.5782591019
 30
0.0
 10
25.4210670239
 20
104.6177308315
 30
0.0
 10
25.7100726165
 20
104.5964534711
 30
0.0
 10
26.0125252875
 20
104.5160788785
 30
0.0
 10
26.3225007623
 20
104.379093247
 30
0.0
 10
26.6338257911
 20
104.1886398763
 30
0.0
 10
26.9401628741
 20
103.9487977961
 30
0.0
 10
27.2351617427
 20
103.6646897292
 30
0.0
 10
27.5126619649
 20
103.3422939583
 30
0.0
 10
27.8518693362
 20
102.8697927249
 30
0.0
 10
28.1307493854
 20
102.3545022628
 30
0.0
 10
28.3371961162
 20
101.8165322721
 30
0.0
 10
28.4500330034
 20
101.4166472234
 30
0.0
 10
28.5193687392
 20
101.0264527247
 30
0.0
 10
28.5362624471
 20
100.7694539675
 30
0.0
 10
28.5362624471
 20
100.6450232713
 30
0.0
  0
SPLINE
  5
2A2
100
AcDbEntity
  8
0
100
AcDbSpline
 62
7
  6
BYLAYER
 70
0
 71
3
 72
11
 73
7
 74
0
 42
0.0000001
 43
0.0000001
 44
0.0000000001
 40
0.0
 40
0.0
 40
0.0
 40
0.0
 40
0.2897033281
 40
0.5490895198
 40
0.7822165953
 40
1.0
 40
1.0
 40
1.0
 40
1.0
 10
40.2035321403
 20
65.1680424979
 30
0.0
 10
40.2035321403
 20
65.1275079824
 30
0.0
 10
40.1973865113
 20
65.0504199248
 30
0.0
 10
40.1661667729
 20
64.9445049733
 30
0.0
 10
40.1136031018
 20
64.8585609799
 30
0.0
 10
40.0642298599
 20
64.8170529608
 30
0.0
 10
40.0378405735
 20
64.8018172017
 30
0.0
  0
SPLINE
  5
2A3
100
AcDbEntity
  8
0
100
AcDbSpline
 62
7
  6
BYLAYER
 70
0
 71
3
 72
13
 73
9
 74
0
 42
0.0000001
 43
0.0000001
 44
0.0000000001
 40
0.0
 40
0.0
 40
0.0
 40
0.0
 40
0.1142250362
 40
0.2375584228
 40
0.4999988469
 40
0.762439898
 40
0.8857740437
 40
1.0
 40
1.0
 40
1.0
 40
1.0
 10
39.6378443601
 20
106.4830564414
 30
0.0
 10
39.6765594055
 20
106.4607048052
 30
0.0
 10
39.7530560073
 20
106.4070699755
 30
0.0
 10
39.8962806357
 20
106.2730458424
 30
0.0
 10
40.0475501148
 20
106.0664046712
 30
0.0
 10
40.1508730788
 20
105.8320811075
 30
0.0
 10
40.1953304809
 20
105.641032286
 30
0.0
 10
40.2035321403
 20
105.5479662951
 30
0.0
 10
40.2035321403
 20
105.5032619041
 30
0.0
  0
SPLINE
  5
2A4
100
AcDbEntity
  8
0
100
AcDbSpline
 62
7
  6
BYLAYER
 70
0
 71
3
 72
11
 73
7
 74
0
 42
0.0000001
 43
0.0000001
 44
0.0000000001
 40
0.0
 40
0.0
 40
0.0
 40
0.0
 40
0.2177843137
 40
0.4509117637
 40
0.7102976701
 40
1.0
 40
1.0
 40
1.0
 40
1.0
 10
33.2981264556
 20
109.9518947455
 30
0.0
 10
33.3245151467
 20
109.9671301609
 30
0.0
 10
33.3851472672
 20
109.9891340539
 30
0.0
 10
33.485856186
 20
109.9916839844
 30
0.0
 10
33.5931882912
 20
109.9657651944
 30
0.0
 10
33.6630196097
 20
109.9325450816
 30
0.0
 10
33.6981226689
 20
109.9122787794
 30
0.0
  0
SPLINE
  5
2A5
100
AcDbEntity
  8
0
100
AcDbSpline
 62
7
  6
BYLAYER
 70
0
 71
3
 72
11
 73
7
 74
0
 42
0.0000001
 43
0.0000001
 44
0.0000000001
 40
0.0
 40
0.0
 40
0.0
 40
0.0
 40
0.2177833598
 40
0.4509104088
 40
0.7102966711
 40
1.0
 40
1.0
 40
1.0
 40
1.0
 10
28.3483995951
 20
107.0941856684
 30
0.0
 10
28.3220103212
 20
107.0789499003
 30
0.0
 10
28.2726370744
 20
107.0374419102
 30
0.0
 10
28.2200734016
 20
106.9514979117
 30
0.0
 10
28.188853671
 20
106.845582954
 30
0.0
 10
28.1827080283
 20
106.7684948877
 30
0.0
 10
28.1827080283
 20
106.7279603722
 30
0.0
  0
SPLINE
  5
2A6
100
AcDbEntity
  8
0
100
AcDbSpline
 62
7
  6
BYLAYER
 70
0
 71
3
 72
14
 73
10
 74
0
 42
0.0000001
 43
0.0000001
 44
0.0000000001
 40
0.0
 40
0.0
 40
0.0
 40
0.0
 40
0.2892730352
 40
0.4225562199
 40
0.5484998506
 40
0.6678886669
 40
0.7818692291
 40
0.8919533702
 40
1.0
 40
1.0
 40
1.0
 40
1.0
 10
28.1827080283
 20
106.1564086802
 30
0.0
 10
28.1827080283
 20
106.0043508913
 30
0.0
 10
28.164955257
 20
105.7811393705
 30
0.0
 10
28.0963304931
 20
105.5005978947
 30
0.0
 10
28.0265295268
 20
105.3136508806
 30
0.0
 10
27.93752369
 20
105.1463880698
 30
0.0
 10
27.8300898346
 20
105.0004100152
 30
0.0
 10
27.7051104964
 20
104.8774571917
 30
0.0
 10
27.6105557713
 20
104.811452784
 30
0.0
 10
27.5613695767
 20
104.7830552908
 30
0.0
  0
SPLINE
  5
2A7
100
AcDbEntity
  8
0
100
AcDbSpline
 62
7
  6
BYLAYER
 70
0
 71
3
 72
11
 73
7
 74
0
 42
0.0000001
 43
0.0000001
 44
0.0000000001
 40
0.0
 40
0.0
 40
0.0
 40
0.0
 40
0.289702329
 40
0.5490881649
 40
0.7822156415
 40
1.0
 40
1.0
 40
1.0
 40
1.0
 10
34.6881174996
 20
61.9837240907
 30
0.0
 10
34.7232205589
 20
61.9634577885
 30
0.0
 10
34.7930518629
 20
61.9302376681
 30
0.0
 10
34.9003839668
 20
61.9043188881
 30
0.0
 10
35.0010928803
 20
61.9068688195
 30
0.0
 10
35.0617250234
 20
61.9288726938
 30
0.0
 10
35.088113713
 20
61.9441081246
 30
0.0
  0
SPLINE
  5
2A8
100
AcDbEntity
  8
0
100
AcDbSpline
 62
7
  6
BYLAYER
 70
0
 71
3
 72
13
 73
9
 74
0
 42
0.0000001
 43
0.0000001
 44
0.0000000001
 40
0.0
 40
0.0
 40
0.0
 40
0.0
 40
0.1142259181
 40
0.2375599982
 40
0.5000010158
 40
0.7624414734
 40
0.8857749255
 40
1.0
 40
1.0
 40
1.0
 40
1.0
 10
23.9400496774
 20
68.8421854931
 30
0.0
 10
23.9400496774
 20
68.7974811171
 30
0.0
 10
23.9482513193
 20
68.7044151658
 30
0.0
 10
23.9927087108
 20
68.5133663966
 30
0.0
 10
24.0960316333
 20
68.2790428466
 30
0.0
 10
24.2473011035
 20
68.0724016326
 30
0.0
 10
24.3905257718
 20
67.9383774642
 30
0.0
 10
24.4670223992
 20
67.8847425995
 30
0.0
 10
24.5057374575
 20
67.8623909558
 30
0.0
  0
SPLINE
  5
2A9
100
AcDbEntity
  8
0
100
AcDbSpline
 62
7
  6
BYLAYER
 70
0
 71
3
 72
14
 73
10
 74
0
 42
0.0000001
 43
0.0000001
 44
0.0000000001
 40
0.0
 40
0.0
 40
0.0
 40
0.0
 40
0.2892730352
 40
0.4225562199
 40
0.5484998506
 40
0.6678886669
 40
0.7818692291
 40
0.8919533702
 40
1.0
 40
1.0
 40
1.0
 40
1.0
 10
28.1827080283
 20
93.0923700062
 30
0.0
 10
28.1827080283
 20
92.9403122172
 30
0.0
 10
28.164955257
 20
92.7171006965
 30
0.0
 10
28.0963304931
 20
92.4365592206
 30
0.0
 10
28.0265295268
 20
92.2496122065
 30
0.0
 10
27.93752369
 20
92.0823493958
 30
0.0
 10
27.8300898346
 20
91.9363713412
 30
0.0
 10
27.7051104964
 20
91.8134185176
 30
0.0
 10
27.6105557713
 20
91.7474141099
 30
0.0
 10
27.5613695767
 20
91.7190166167
 30
0.0
  0
SPLINE
  5
2AA
100
AcDbEntity
  8
0
100
AcDbSpline
 62
7
  6
BYLAYER
 70
0
 71
3
 72
15
 73
11
 74
0
 42
0.0000001
 43
0.0000001
 44
0.0000000001
 40
0.0
 40
0.0
 40
0.0
 40
0.0
 40
0.1141546703
 40
0.2373261017
 40
0.3669753162
 40
0.4999989361
 40
0.6330227034
 40
0.7626723508
 40
0.8858444607
 40
1.0
 40
1.0
 40
1.0
 40
1.0
 10
26.0613788529
 20
99.2161067725
 30
0.0
 10
26.2066008155
 20
99.13226473
 30
0.0
 10
26.4934402652
 20
98.931195405
 30
0.0
 10
26.8881159639
 20
98.5619492886
 30
0.0
 10
27.2518309441
 20
98.1254723194
 30
0.0
 10
27.5708856906
 20
97.6381381479
 30
0.0
 10
27.8334048278
 20
97.11816222
 30
0.0
 10
28.0295508978
 20
96.584936625
 30
0.0
 10
28.1519935543
 20
96.0585123482
 30
0.0
 10
28.1827080283
 20
95.7095654642
 30
0.0
 10
28.1827080283
 20
95.5418772575
 30
0.0
  0
SPLINE
  5
2AB
100
AcDbEntity
  8
0
100
AcDbSpline
 62
7
  6
BYLAYER
 70
0
 71
3
 72
14
 73
10
 74
0
 42
0.0000001
 43
0.0000001
 44
0.0000000001
 40
0.0
 40
0.0
 40
0.0
 40
0.0
 40
0.2892624864
 40
0.4225617628
 40
0.5485068259
 40
0.6678896925
 40
0.7818697603
 40
0.8919548037
 40
1.0
 40
1.0
 40
1.0
 40
1.0
 10
28.5362624471
 20
100.6450232713
 30
0.0
 10
28.5362624471
 20
100.4929710928
 30
0.0
 10
28.5185019217
 20
100.2697582893
 30
0.0
 10
28.4498881325
 20
99.9892103798
 30
0.0
 10
28.3800838558
 20
99.8022582113
 30
0.0
 10
28.2910770571
 20
99.6349976883
 30
0.0
 10
28.183632279
 20
99.4890340505
 30
0.0
 10
28.0586749092
 20
99.3660574001
 30
0.0
 10
27.9641040634
 20
99.3000764282
 30
0.0
 10
27.9149214181
 20
99.271674344
 30
0.0
  0
SPLINE
  5
2AC
100
AcDbEntity
  8
0
100
AcDbSpline
 62
7
  6
BYLAYER
 70
0
 71
3
 72
14
 73
10
 74
0
 42
0.0000001
 43
0.0000001
 44
0.0000000001
 40
0.0
 40
0.0
 40
0.0
 40
0.0
 40
0.2892624864
 40
0.4225617628
 40
0.5485068259
 40
0.6678896925
 40
0.7818697603
 40
0.8919548037
 40
1.0
 40
1.0
 40
1.0
 40
1.0
 10
28.5362624471
 20
87.5809845972
 30
0.0
 10
28.5362624471
 20
87.4289324187
 30
0.0
 10
28.5185019217
 20
87.2057196152
 30
0.0
 10
28.4498881325
 20
86.9251717057
 30
0.0
 10
28.3800838558
 20
86.7382195372
 30
0.0
 10
28.2910770571
 20
86.5709590142
 30
0.0
 10
28.183632279
 20
86.4249953764
 30
0.0
 10
28.0586749092
 20
86.302018726
 30
0.0
 10
27.9641040634
 20
86.2360377541
 30
0.0
 10
27.9149214181
 20
86.2076356699
 30
0.0
  0
SPLINE
  5
2AD
100
AcDbEntity
  8
0
100
AcDbSpline
 62
7
  6
BYLAYER
 70
0
 71
3
 72
14
 73
10
 74
0
 42
0.0000001
 43
0.0000001
 44
0.0000000001
 40
0.0
 40
0.0
 40
0.0
 40
0.0
 40
0.1080471438
 40
0.2181317193
 40
0.3321125724
 40
0.4515014986
 40
0.5774450424
 40
0.710727948
 40
1.0
 40
1.0
 40
1.0
 40
1.0
 10
27.5613695767
 20
91.7190166167
 30
0.0
 10
27.5121844658
 20
91.6906197492
 30
0.0
 10
27.4077478197
 20
91.6417366083
 30
0.0
 10
27.2387818233
 20
91.5949787655
 30
0.0
 10
27.0586486715
 20
91.5749272296
 30
0.0
 10
26.8692967965
 20
91.581476081
 30
0.0
 10
26.672500626
 20
91.614497838
 30
0.0
 10
26.3952396393
 20
91.6953330963
 30
0.0
 10
26.1930615305
 20
91.7915597089
 30
0.0
 10
26.0613788529
 20
91.8675850183
 30
0.0
  0
SPLINE
  5
2AE
100
AcDbEntity
  8
0
100
AcDbSpline
 62
7
  6
BYLAYER
 70
0
 71
3
 72
14
 73
10
 74
0
 42
0.0000001
 43
0.0000001
 44
0.0000000001
 40
0.0
 40
0.0
 40
0.0
 40
0.0
 40
0.1190103848
 40
0.2431968066
 40
0.5003243474
 40
0.6298484914
 40
0.7574585364
 40
0.8813774919
 40
1.0
 40
1.0
 40
1.0
 40
1.0
 10
26.811086492
 20
90.9461542363
 30
0.0
 10
26.8323909418
 20
90.8129019394
 30
0.0
 10
26.8908333635
 20
90.5428048298
 30
0.0
 10
27.0635824296
 20
90.0018180251
 30
0.0
 10
27.3134700916
 20
89.4753847447
 30
0.0
 10
27.6276458668
 20
88.9835765928
 30
0.0
 10
27.8909873753
 20
88.6402671206
 30
0.0
 10
28.1755991052
 20
88.3310513596
 30
0.0
 10
28.3808995914
 20
88.147207584
 30
0.0
 10
28.4858610118
 20
88.0630966569
 30
0.0
  0
SPLINE
  5
2AF
100
AcDbEntity
  8
0
100
AcDbSpline
 62
7
  6
BYLAYER
 70
0
 71
3
 72
22
 73
18
 74
0
 42
0.0000001
 43
0.0000001
 44
0.0000000001
 40
0.0
 40
0.0
 40
0.0
 40
0.0
 40
0.0428194466
 40
0.0874071271
 40
0.1351968959
 40
0.1871138771
 40
0.2435671296
 40
0.3045317574
 40
0.3696385472
 40
0.4382548659
 40
0.5095613107
 40
0.5826070381
 40
0.7296234564
 40
0.8016232302
 40
0.8712297343
 40
0.9376121821
 40
1.0
 40
1.0
 40
1.0
 40
1.0
 10
27.9149214181
 20
86.2076356699
 30
0.0
 10
27.8409652036
 20
86.1649272994
 30
0.0
 10
27.6779179078
 20
86.0971932937
 30
0.0
 10
27.4087995194
 20
86.0577215642
 30
0.0
 10
27.1197939267
 20
86.0789989245
 30
0.0
 10
26.8173412557
 20
86.1593735171
 30
0.0
 10
26.5073657809
 20
86.2963591486
 30
0.0
 10
26.1960407522
 20
86.4868125193
 30
0.0
 10
25.8897036692
 20
86.7266545995
 30
0.0
 10
25.5947048006
 20
87.0107626664
 30
0.0
 10
25.3172045784
 20
87.3331584373
 30
0.0
 10
24.977997207
 20
87.8056596707
 30
0.0
 10
24.6991171579
 20
88.3209501328
 30
0.0
 10
24.4926704271
 20
88.8589201235
 30
0.0
 10
24.3798335399
 20
89.2588051722
 30
0.0
 10
24.3104978041
 20
89.6489996709
 30
0.0
 10
24.2936040962
 20
89.9059984282
 30
0.0
 10
24.2936040962
 20
90.0304291243
 30
0.0
  0
SPLINE
  5
2B0
100
AcDbEntity
  8
0
100
AcDbSpline
 62
7
  6
BYLAYER
 70
0
 71
3
 72
11
 73
7
 74
0
 42
0.0000001
 43
0.0000001
 44
0.0000000001
 40
0.0
 40
0.0
 40
0.0
 40
0.0
 40
0.289702329
 40
0.5490881649
 40
0.7822156415
 40
1.0
 40
1.0
 40
1.0
 40
1.0
 10
28.7483958084
 20
107.0545697023
 30
0.0
 10
28.7132927492
 20
107.0748360045
 30
0.0
 10
28.6434614451
 20
107.1080561249
 30
0.0
 10
28.5361293413
 20
107.1339749049
 30
0.0
 10
28.4354204278
 20
107.1314249735
 30
0.0
 10
28.3747882847
 20
107.1094210992
 30
0.0
 10
28.3483995951
 20
107.0941856684
 30
0.0
  0
SPLINE
  5
2B1
100
AcDbEntity
  8
0
100
AcDbSpline
 62
7
  6
BYLAYER
 70
0
 71
3
 72
13
 73
9
 74
0
 42
0.0000001
 43
0.0000001
 44
0.0000000001
 40
0.0
 40
0.0
 40
0.0
 40
0.0
 40
0.1142259181
 40
0.2375599982
 40
0.5000010158
 40
0.7624414734
 40
0.8857749255
 40
1.0
 40
1.0
 40
1.0
 40
1.0
 10
35.2538052798
 20
102.645552827
 30
0.0
 10
35.2538052798
 20
102.690257203
 30
0.0
 10
35.2456036379
 20
102.7833231543
 30
0.0
 10
35.2011462464
 20
102.9743719236
 30
0.0
 10
35.0978233239
 20
103.2086954736
 30
0.0
 10
34.9465538537
 20
103.4153366876
 30
0.0
 10
34.8033291853
 20
103.549360856
 30
0.0
 10
34.726832558
 20
103.6029957207
 30
0.0
 10
34.6881174996
 20
103.6253473643
 30
0.0
  0
SPLINE
  5
2B2
100
AcDbEntity
  8
0
100
AcDbSpline
 62
7
  6
BYLAYER
 70
0
 71
3
 72
14
 73
10
 74
0
 42
0.0000001
 43
0.0000001
 44
0.0000000001
 40
0.0
 40
0.0
 40
0.0
 40
0.0
 40
0.1080471438
 40
0.2181317193
 40
0.3321125724
 40
0.4515014986
 40
0.5774450424
 40
0.710727948
 40
1.0
 40
1.0
 40
1.0
 40
1.0
 10
27.5613695767
 20
104.7830552908
 30
0.0
 10
27.5121844658
 20
104.7546584233
 30
0.0
 10
27.4077478197
 20
104.7057752823
 30
0.0
 10
27.2387818233
 20
104.6590174396
 30
0.0
 10
27.0586486715
 20
104.6389659036
 30
0.0
 10
26.8692967965
 20
104.645514755
 30
0.0
 10
26.672500626
 20
104.678536512
 30
0.0
 10
26.3952396393
 20
104.7593717704
 30
0.0
 10
26.1930615305
 20
104.8555983829
 30
0.0
 10
26.0613788529
 20
104.9316236924
 30
0.0
  0
SPLINE
  5
2B3
100
AcDbEntity
  8
0
100
AcDbSpline
 62
7
  6
BYLAYER
 70
0
 71
3
 72
11
 73
7
 74
0
 42
0.0000001
 43
0.0000001
 44
0.0000000001
 40
0.0
 40
0.0
 40
0.0
 40
0.0
 40
0.2177833598
 40
0.4509104088
 40
0.7102966711
 40
1.0
 40
1.0
 40
1.0
 40
1.0
 10
35.088113713
 20
61.9441081246
 30
0.0
 10
35.1145029868
 20
61.9593438928
 30
0.0
 10
35.1638762336
 20
62.0008518828
 30
0.0
 10
35.2164399065
 20
62.0867958814
 30
0.0
 10
35.247659637
 20
62.1927108391
 30
0.0
 10
35.2538052798
 20
62.2697989053
 30
0.0
 10
35.2538052798
 20
62.3103334208
 30
0.0
  0
SPLINE
  5
2B4
100
AcDbEntity
  8
0
100
AcDbSpline
 62
7
  6
BYLAYER
 70
0
 71
3
 72
14
 73
10
 74
0
 42
0.0000001
 43
0.0000001
 44
0.0000000001
 40
0.0
 40
0.0
 40
0.0
 40
0.0
 40
0.2892624864
 40
0.4225617628
 40
0.5485068259
 40
0.6678896925
 40
0.7818697603
 40
0.8919548037
 40
1.0
 40
1.0
 40
1.0
 40
1.0
 10
24.2936040962
 20
103.0944677984
 30
0.0
 10
24.2936040962
 20
103.2465199769
 30
0.0
 10
24.3113646215
 20
103.4697327804
 30
0.0
 10
24.3799784108
 20
103.7502806899
 30
0.0
 10
24.4497826875
 20
103.9372328584
 30
0.0
 10
24.5387894862
 20
104.1044933814
 30
0.0
 10
24.6462342642
 20
104.2504570192
 30
0.0
 10
24.7711916341
 20
104.3734336696
 30
0.0
 10
24.8657624799
 20
104.4394146415
 30
0.0
 10
24.9149451251
 20
104.4678167257
 30
0.0
  0
SPLINE
  5
2B5
100
AcDbEntity
  8
0
100
AcDbSpline
 62
7
  6
BYLAYER
 70
0
 71
3
 72
22
 73
18
 74
0
 42
0.0000001
 43
0.0000001
 44
0.0000000001
 40
0.0
 40
0.0
 40
0.0
 40
0.0
 40
0.0428194466
 40
0.0874071271
 40
0.1351968959
 40
0.1871138771
 40
0.2435671296
 40
0.3045317574
 40
0.3696385472
 40
0.4382548659
 40
0.5095613107
 40
0.5826070381
 40
0.7296234564
 40
0.8016232302
 40
0.8712297343
 40
0.9376121821
 40
1.0
 40
1.0
 40
1.0
 40
1.0
 10
27.9149214181
 20
99.271674344
 30
0.0
 10
27.8409652036
 20
99.2289659735
 30
0.0
 10
27.6779179078
 20
99.1612319677
 30
0.0
 10
27.4087995194
 20
99.1217602382
 30
0.0
 10
27.1197939267
 20
99.1430375986
 30
0.0
 10
26.8173412557
 20
99.2234121912
 30
0.0
 10
26.5073657809
 20
99.3603978227
 30
0.0
 10
26.1960407522
 20
99.5508511933
 30
0.0
 10
25.8897036692
 20
99.7906932736
 30
0.0
 10
25.5947048006
 20
100.0748013405
 30
0.0
 10
25.3172045784
 20
100.3971971114
 30
0.0
 10
24.977997207
 20
100.8696983448
 30
0.0
 10
24.6991171579
 20
101.3849888069
 30
0.0
 10
24.4926704271
 20
101.9229587976
 30
0.0
 10
24.3798335399
 20
102.3228438463
 30
0.0
 10
24.3104978041
 20
102.713038345
 30
0.0
 10
24.2936040962
 20
102.9700371022
 30
0.0
 10
24.2936040962
 20
103.0944677984
 30
0.0
  0
SPLINE
  5
2B6
100
AcDbEntity
  8
0
100
AcDbSpline
 62
7
  6
BYLAYER
 70
0
 71
3
 72
14
 73
10
 74
0
 42
0.0000001
 43
0.0000001
 44
0.0000000001
 40
0.0
 40
0.0
 40
0.0
 40
0.0
 40
0.2892624864
 40
0.4225617628
 40
0.5485068259
 40
0.6678896925
 40
0.7818697603
 40
0.8919548037
 40
1.0
 40
1.0
 40
1.0
 40
1.0
 10
24.2936040962
 20
90.0304291243
 30
0.0
 10
24.2936040962
 20
90.1824813028
 30
0.0
 10
24.3113646215
 20
90.4056941063
 30
0.0
 10
24.3799784108
 20
90.6862420158
 30
0.0
 10
24.4497826875
 20
90.8731941843
 30
0.0
 10
24.5387894862
 20
91.0404547073
 30
0.0
 10
24.6462342642
 20
91.1864183451
 30
0.0
 10
24.7711916341
 20
91.3093949955
 30
0.0
 10
24.8657624799
 20
91.3753759674
 30
0.0
 10
24.9149451251
 20
91.4037780516
 30
0.0
  0
SPLINE
  5
2B7
100
AcDbEntity
  8
0
100
AcDbSpline
 62
7
  6
BYLAYER
 70
0
 71
3
 72
14
 73
10
 74
0
 42
0.0000001
 43
0.0000001
 44
0.0000000001
 40
0.0
 40
0.0
 40
0.0
 40
0.0
 40
0.1190103848
 40
0.2431968066
 40
0.5003243474
 40
0.6298484914
 40
0.7574585364
 40
0.8813774919
 40
1.0
 40
1.0
 40
1.0
 40
1.0
 10
26.811086492
 20
104.0101929104
 30
0.0
 10
26.8323909418
 20
103.8769406135
 30
0.0
 10
26.8908333635
 20
103.6068435038
 30
0.0
 10
27.0635824296
 20
103.0658566992
 30
0.0
 10
27.3134700916
 20
102.5394234187
 30
0.0
 10
27.6276458668
 20
102.0476152668
 30
0.0
 10
27.8909873753
 20
101.7043057946
 30
0.0
 10
28.1755991052
 20
101.3950900337
 30
0.0
 10
28.3808995914
 20
101.2112462581
 30
0.0
 10
28.4858610118
 20
101.1271353309
 30
0.0
  0
SPLINE
  5
2B8
100
AcDbEntity
  8
0
100
AcDbSpline
 62
7
  6
BYLAYER
 70
0
 71
3
 72
11
 73
7
 74
0
 42
0.0000001
 43
0.0000001
 44
0.0000000001
 40
0.0
 40
0.0
 40
0.0
 40
0.0
 40
0.2895391946
 40
0.5491157945
 40
0.7822541179
 40
1.0
 40
1.0
 40
1.0
 40
1.0
 10
55.9014083665
 20
49.7365019676
 30
0.0
 10
55.9364909727
 20
49.7162474736
 30
0.0
 10
56.0063398193
 20
49.6830634265
 30
0.0
 10
56.1136551677
 20
49.6570881726
 30
0.0
 10
56.2144002967
 20
49.6596189365
 30
0.0
 10
56.2750006863
 20
49.6816888625
 30
0.0
 10
56.3013841944
 20
49.6969213096
 30
0.0
  0
SPLINE
  5
2B9
100
AcDbEntity
  8
0
100
AcDbSpline
 62
7
  6
BYLAYER
 70
0
 71
3
 72
13
 73
9
 74
0
 42
0.0000001
 43
0.0000001
 44
0.0000000001
 40
0.0
 40
0.0
 40
0.0
 40
0.0
 40
0.1141767831
 40
0.2375713001
 40
0.500001251
 40
0.7624305195
 40
0.8858241805
 40
1.0
 40
1.0
 40
1.0
 40
1.0
 10
45.1533405442
 20
56.59496337
 30
0.0
 10
45.1533405442
 20
56.550278595
 30
0.0
 10
45.1615763936
 20
56.457213663
 30
0.0
 10
45.2059605055
 20
56.2661489606
 30
0.0
 10
45.3093770386
 20
56.0318519383
 30
0.0
 10
45.4605767642
 20
55.825143074
 30
0.0
 10
45.60385172
 20
55.6911745067
 30
0.0
 10
45.6803302818
 20
55.6375106525
 30
0.0
 10
45.7190283244
 20
55.6151688326
 30
0.0
  0
SPLINE
  5
2BA
100
AcDbEntity
  8
0
100
AcDbSpline
 62
7
  6
BYLAYER
 70
0
 71
3
 72
13
 73
9
 74
0
 42
0.0000001
 43
0.0000001
 44
0.0000000001
 40
0.0
 40
0.0
 40
0.0
 40
0.0
 40
0.289375362
 40
0.5483119429
 40
0.6677418599
 40
0.7817671473
 40
0.8919064626
 40
1.0
 40
1.0
 40
1.0
 40
1.0
 10
56.1135417278
 20
84.723633845
 30
0.0
 10
56.1135417278
 20
84.571591034
 30
0.0
 10
56.0906228404
 20
84.2826354516
 30
0.0
 10
55.9902436204
 20
83.9427051295
 30
0.0
 10
55.8683721049
 20
83.7136000315
 30
0.0
 10
55.760886261
 20
83.5676681273
 30
0.0
 10
55.6359706825
 20
83.4446538204
 30
0.0
 10
55.5413810391
 20
83.3786904934
 30
0.0
 10
55.4921955191
 20
83.3502938917
 30
0.0
  0
SPLINE
  5
2BB
100
AcDbEntity
  8
0
100
AcDbSpline
 62
7
  6
BYLAYER
 70
0
 71
3
 72
13
 73
9
 74
0
 42
0.0000001
 43
0.0000001
 44
0.0000000001
 40
0.0
 40
0.0
 40
0.0
 40
0.0
 40
0.289375362
 40
0.5483119429
 40
0.6677418599
 40
0.7817671473
 40
0.8919064626
 40
1.0
 40
1.0
 40
1.0
 40
1.0
 10
56.1135417278
 20
71.6595951709
 30
0.0
 10
56.1135417278
 20
71.50755236
 30
0.0
 10
56.0906228404
 20
71.2185967776
 30
0.0
 10
55.9902436204
 20
70.8786664555
 30
0.0
 10
55.8683721049
 20
70.6495613574
 30
0.0
 10
55.760886261
 20
70.5036294532
 30
0.0
 10
55.6359706825
 20
70.3806151463
 30
0.0
 10
55.5413810391
 20
70.3146518193
 30
0.0
 10
55.4921955191
 20
70.2862552177
 30
0.0
  0
SPLINE
  5
2BC
100
AcDbEntity
  8
0
100
AcDbSpline
 62
7
  6
BYLAYER
 70
0
 71
3
 72
12
 73
8
 74
0
 42
0.0000001
 43
0.0000001
 44
0.0000000001
 40
0.0
 40
0.0
 40
0.0
 40
0.0
 40
0.1081619622
 40
0.2183717661
 40
0.4513381086
 40
0.7104782301
 40
1.0
 40
1.0
 40
1.0
 40
1.0
 10
55.2850704454
 20
46.756168356
 30
0.0
 10
55.2850770452
 20
46.7183065638
 30
0.0
 10
55.2784819464
 20
46.6417065852
 30
0.0
 10
55.2386712118
 20
46.4881670667
 30
0.0
 10
55.1365727771
 20
46.2998333962
 30
0.0
 10
54.9462900655
 20
46.1000577374
 30
0.0
 10
54.7870702598
 20
45.9903597593
 30
0.0
 10
54.6993016698
 20
45.9396868427
 30
0.0
  0
SPLINE
  5
2BD
100
AcDbEntity
  8
0
100
AcDbSpline
 62
7
  6
BYLAYER
 70
0
 71
3
 72
21
 73
17
 74
0
 42
0.0000001
 43
0.0000001
 44
0.0000000001
 40
0.0
 40
0.0
 40
0.0
 40
0.0
 40
0.0428243517
 40
0.0874187236
 40
0.135215445
 40
0.1871378187
 40
0.2436003974
 40
0.3045745218
 40
0.3696886396
 40
0.4383157255
 40
0.5825456344
 40
0.7295847004
 40
0.801592939
 40
0.8712100727
 40
0.9376096365
 40
1.0
 40
1.0
 40
1.0
 40
1.0
 10
52.4922295856
 20
88.5464183254
 30
0.0
 10
52.5661883766
 20
88.5891174434
 30
0.0
 10
52.7292158086
 20
88.6568902814
 30
0.0
 10
52.9983438234
 20
88.6963346067
 30
0.0
 10
53.2873398023
 20
88.6750399208
 30
0.0
 10
53.5898025428
 20
88.5947084745
 30
0.0
 10
53.8997752155
 20
88.4577058045
 30
0.0
 10
54.2110820267
 20
88.2672340018
 30
0.0
 10
54.517459994
 20
88.0274216108
 30
0.0
 10
54.9172442955
 20
87.642285426
 30
0.0
 10
55.3614408759
 20
87.0734781235
 30
0.0
 10
55.707974283
 20
86.4331725843
 30
0.0
 10
55.9144852073
 20
85.8951420832
 30
0.0
 10
56.0273174167
 20
85.495256097
 30
0.0
 10
56.096633859
 20
85.1050512065
 30
0.0
 10
56.1135417278
 20
84.8480518756
 30
0.0
 10
56.1135417278
 20
84.723633845
 30
0.0
  0
SPLINE
  5
2BE
100
AcDbEntity
  8
0
100
AcDbSpline
 62
7
  6
BYLAYER
 70
0
 71
3
 72
15
 73
11
 74
0
 42
0.0000001
 43
0.0000001
 44
0.0000000001
 40
0.0
 40
0.0
 40
0.0
 40
0.0
 40
0.1141474765
 40
0.2373368178
 40
0.3669776594
 40
0.5000010819
 40
0.633024354
 40
0.7626647561
 40
0.8858534048
 40
1.0
 40
1.0
 40
1.0
 40
1.0
 10
57.1741646562
 20
95.1339326161
 30
0.0
 10
57.1741646562
 20
94.9662565641
 30
0.0
 10
57.2048990318
 20
94.6172996379
 30
0.0
 10
57.3273107057
 20
94.0908678979
 30
0.0
 10
57.5234999625
 20
93.5576465014
 30
0.0
 10
57.7859875326
 20
93.0376719498
 30
0.0
 10
58.1050568779
 20
92.5503658204
 30
0.0
 10
58.4687466208
 20
92.1138535887
 30
0.0
 10
58.8634442433
 20
91.7446306109
 30
0.0
 10
59.1502824109
 20
91.5435390574
 30
0.0
 10
59.2954938316
 20
91.4597031011
 30
0.0
  0
SPLINE
  5
2BF
100
AcDbEntity
  8
0
100
AcDbSpline
 62
7
  6
BYLAYER
 70
0
 71
3
 72
13
 73
9
 74
0
 42
0.0000001
 43
0.0000001
 44
0.0000000001
 40
0.0
 40
0.0
 40
0.0
 40
0.0
 40
0.1141759018
 40
0.2375697245
 40
0.4999990825
 40
0.762428944
 40
0.8858232992
 40
1.0
 40
1.0
 40
1.0
 40
1.0
 10
56.6084768761
 20
96.6852788454
 30
0.0
 10
56.6471749465
 20
96.6629370094
 30
0.0
 10
56.7236535619
 20
96.6092730645
 30
0.0
 10
56.8669286286
 20
96.4753044275
 30
0.0
 10
57.0181283289
 20
96.2685954504
 30
0.0
 10
57.1215447517
 20
96.0342984625
 30
0.0
 10
57.1659288586
 20
95.843233891
 30
0.0
 10
57.1741646562
 20
95.7501690508
 30
0.0
 10
57.1741646562
 20
95.7054843081
 30
0.0
  0
SPLINE
  5
2C0
100
AcDbEntity
  8
0
100
AcDbSpline
 62
7
  6
BYLAYER
 70
0
 71
3
 72
13
 73
9
 74
0
 42
0.0000001
 43
0.0000001
 44
0.0000000001
 40
0.0
 40
0.0
 40
0.0
 40
0.0
 40
0.1080947724
 40
0.2182340858
 40
0.3322580584
 40
0.4516863355
 40
0.7106233083
 40
1.0
 40
1.0
 40
1.0
 40
1.0
 10
52.8457847126
 20
83.0350308432
 30
0.0
 10
52.8949691747
 20
83.0634273379
 30
0.0
 10
52.9993885817
 20
83.1123593525
 30
0.0
 10
53.1683750537
 20
83.1590299685
 30
0.0
 10
53.3484917076
 20
83.1791510416
 30
0.0
 10
53.6078297038
 20
83.1701453037
 30
0.0
 10
53.9523985614
 20
83.087117201
 30
0.0
 10
54.2140964371
 20
82.9624954026
 30
0.0
 10
54.3457669712
 20
82.8864771041
 30
0.0
  0
SPLINE
  5
2C1
100
AcDbEntity
  8
0
100
AcDbSpline
 62
7
  6
BYLAYER
 70
0
 71
3
 72
11
 73
7
 74
0
 42
0.0000001
 43
0.0000001
 44
0.0000000001
 40
0.0
 40
0.0
 40
0.0
 40
0.0
 40
0.2895401978
 40
0.5491171512
 40
0.782255066
 40
1.0
 40
1.0
 40
1.0
 40
1.0
 10
61.4168230071
 20
52.9208203747
 30
0.0
 10
61.4168230071
 20
52.8803094762
 30
0.0
 10
61.4106373672
 20
52.8032242614
 30
0.0
 10
61.3794749119
 20
52.6972955877
 30
0.0
 10
61.3269097395
 20
52.611310638
 30
0.0
 10
61.277495162
 20
52.5698631609
 30
0.0
 10
61.2511110554
 20
52.554630387
 30
0.0
  0
SPLINE
  5
2C2
100
AcDbEntity
  8
0
100
AcDbSpline
 62
7
  6
BYLAYER
 70
0
 71
3
 72
15
 73
11
 74
0
 42
0.0000001
 43
0.0000001
 44
0.0000000001
 40
0.0
 40
0.0
 40
0.0
 40
0.0
 40
0.1141474765
 40
0.2373368178
 40
0.3669776594
 40
0.5000010819
 40
0.633024354
 40
0.7626647561
 40
0.8858534048
 40
1.0
 40
1.0
 40
1.0
 40
1.0
 10
57.1741646562
 20
82.069893942
 30
0.0
 10
57.1741646562
 20
81.90221789
 30
0.0
 10
57.2048990318
 20
81.5532609638
 30
0.0
 10
57.3273107057
 20
81.0268292239
 30
0.0
 10
57.5234999625
 20
80.4936078274
 30
0.0
 10
57.7859875326
 20
79.9736332758
 30
0.0
 10
58.1050568779
 20
79.4863271464
 30
0.0
 10
58.4687466208
 20
79.0498149146
 30
0.0
 10
58.8634442433
 20
78.6805919368
 30
0.0
 10
59.1502824109
 20
78.4795003833
 30
0.0
 10
59.2954938316
 20
78.3956644271
 30
0.0
  0
SPLINE
  5
2C3
100
AcDbEntity
  8
0
100
AcDbSpline
 62
7
  6
BYLAYER
 70
0
 71
3
 72
11
 73
7
 74
0
 42
0.0000001
 43
0.0000001
 44
0.0000000001
 40
0.0
 40
0.0
 40
0.0
 40
0.0
 40
0.217745073
 40
0.4508830113
 40
0.7104597664
 40
1.0
 40
1.0
 40
1.0
 40
1.0
 10
45.3190524965
 20
97.2963727642
 30
0.0
 10
45.2926683808
 20
97.2811399663
 30
0.0
 10
45.2432537692
 20
97.2396924928
 30
0.0
 10
45.1906886406
 20
97.1537075187
 30
0.0
 10
45.1595261358
 20
97.0477788816
 30
0.0
 10
45.1533405442
 20
96.9706936804
 30
0.0
 10
45.1533405442
 20
96.9301827762
 30
0.0
  0
SPLINE
  5
2C4
100
AcDbEntity
  8
0
100
AcDbSpline
 62
7
  6
BYLAYER
 70
0
 71
3
 72
11
 73
7
 74
0
 42
0.0000001
 43
0.0000001
 44
0.0000000001
 40
0.0
 40
0.0
 40
0.0
 40
0.0
 40
0.2177460211
 40
0.4508843679
 40
0.7104607696
 40
1.0
 40
1.0
 40
1.0
 40
1.0
 10
50.2687793564
 20
100.154081841
 30
0.0
 10
50.2951628898
 20
100.169314284
 30
0.0
 10
50.3557632934
 20
100.1913842413
 30
0.0
 10
50.4565084216
 20
100.1939149551
 30
0.0
 10
50.563823763
 20
100.1679397624
 30
0.0
 10
50.6336725737
 20
100.1347556801
 30
0.0
 10
50.6687551849
 20
100.1145011834
 30
0.0
  0
SPLINE
  5
2C5
100
AcDbEntity
  8
0
100
AcDbSpline
 62
7
  6
BYLAYER
 70
0
 71
3
 72
20
 73
16
 74
0
 42
0.0000001
 43
0.0000001
 44
0.0000000001
 40
0.0
 40
0.0
 40
0.0
 40
0.0
 40
0.0623922162
 40
0.1288111327
 40
0.2703053316
 40
0.4173670166
 40
0.561618313
 40
0.6302547908
 40
0.6953817489
 40
0.7563643947
 40
0.8128337035
 40
0.8647662277
 40
0.9125675431
 40
0.9571680857
 40
1.0
 40
1.0
 40
1.0
 40
1.0
 10
54.6993016698
 20
45.9396868427
 30
0.0
 10
54.6274775969
 20
45.8982194424
 30
0.0
 10
54.4734493971
 20
45.8223175756
 30
0.0
 10
54.1351464018
 20
45.6996934169
 30
0.0
 10
53.669504545
 20
45.6065830011
 30
0.0
 10
53.0920261628
 20
45.590640383
 30
0.0
 10
52.6154368522
 20
45.6574678565
 30
0.0
 10
52.2598404663
 20
45.7599377094
 30
0.0
 10
52.019239757
 20
45.8568496843
 30
0.0
 10
51.8055083844
 20
45.9731095227
 30
0.0
 10
51.6230960858
 20
46.1064105795
 30
0.0
 10
51.4758587516
 20
46.2542247555
 30
0.0
 10
51.3672773398
 20
46.4140057633
 30
0.0
 10
51.3003041161
 20
46.5825158271
 30
0.0
 10
51.285103918
 20
46.6992338076
 30
0.0
 10
51.2850939936
 20
46.7561683474
 30
0.0
  0
SPLINE
  5
2C6
100
AcDbEntity
  8
0
100
AcDbSpline
 62
7
  6
BYLAYER
 70
0
 71
3
 72
21
 73
17
 74
0
 42
0.0000001
 43
0.0000001
 44
0.0000000001
 40
0.0
 40
0.0
 40
0.0
 40
0.0
 40
0.0428243517
 40
0.0874187236
 40
0.135215445
 40
0.1871378187
 40
0.2436003974
 40
0.3045745218
 40
0.3696886396
 40
0.4383157255
 40
0.5825456344
 40
0.7295847004
 40
0.801592939
 40
0.8712100727
 40
0.9376096365
 40
1.0
 40
1.0
 40
1.0
 40
1.0
 10
52.4922295856
 20
75.4823796513
 30
0.0
 10
52.5661883766
 20
75.5250787694
 30
0.0
 10
52.7292158086
 20
75.5928516073
 30
0.0
 10
52.9983438234
 20
75.6322959327
 30
0.0
 10
53.2873398023
 20
75.6110012467
 30
0.0
 10
53.5898025428
 20
75.5306698004
 30
0.0
 10
53.8997752155
 20
75.3936671305
 30
0.0
 10
54.2110820267
 20
75.2031953278
 30
0.0
 10
54.517459994
 20
74.9633829367
 30
0.0
 10
54.9172442955
 20
74.5782467519
 30
0.0
 10
55.3614408759
 20
74.0094394494
 30
0.0
 10
55.707974283
 20
73.3691339103
 30
0.0
 10
55.9144852073
 20
72.8311034091
 30
0.0
 10
56.0273174167
 20
72.4312174229
 30
0.0
 10
56.096633859
 20
72.0410125324
 30
0.0
 10
56.1135417278
 20
71.7840132015
 30
0.0
 10
56.1135417278
 20
71.6595951709
 30
0.0
  0
SPLINE
  5
2C7
100
AcDbEntity
  8
0
100
AcDbSpline
 62
7
  6
BYLAYER
 70
0
 71
3
 72
21
 73
17
 74
0
 42
0.0000001
 43
0.0000001
 44
0.0000000001
 40
0.0
 40
0.0
 40
0.0
 40
0.0
 40
0.0428243517
 40
0.0874187236
 40
0.135215445
 40
0.1871378187
 40
0.2436003974
 40
0.3045745218
 40
0.3696886396
 40
0.4383157255
 40
0.5825456344
 40
0.7295847004
 40
0.801592939
 40
0.8712100727
 40
0.9376096365
 40
1.0
 40
1.0
 40
1.0
 40
1.0
 10
55.4921955191
 20
83.3502938917
 30
0.0
 10
55.4182367281
 20
83.3075947737
 30
0.0
 10
55.2552092961
 20
83.2398219357
 30
0.0
 10
54.9860812814
 20
83.2003776104
 30
0.0
 10
54.6970853024
 20
83.2216722963
 30
0.0
 10
54.3946225619
 20
83.3020037426
 30
0.0
 10
54.0846498892
 20
83.4390064126
 30
0.0
 10
53.773343078
 20
83.6294782153
 30
0.0
 10
53.4669651108
 20
83.8692906063
 30
0.0
 10
53.0671808092
 20
84.2544267911
 30
0.0
 10
52.6229842288
 20
84.8232340936
 30
0.0
 10
52.2764508217
 20
85.4635396328
 30
0.0
 10
52.0699398975
 20
86.0015701339
 30
0.0
 10
51.957107688
 20
86.4014561201
 30
0.0
 10
51.8877912458
 20
86.7916610106
 30
0.0
 10
51.8708833769
 20
87.0486603415
 30
0.0
 10
51.8708833769
 20
87.1730783721
 30
0.0
  0
SPLINE
  5
2C8
100
AcDbEntity
  8
0
100
AcDbSpline
 62
7
  6
BYLAYER
 70
0
 71
3
 72
11
 73
7
 74
0
 42
0.0000001
 43
0.0000001
 44
0.0000000001
 40
0.0
 40
0.0
 40
0.0
 40
0.0
 40
0.2895391946
 40
0.5491157945
 40
0.7822541179
 40
1.0
 40
1.0
 40
1.0
 40
1.0
 10
45.7190283244
 20
97.2567921063
 30
0.0
 10
45.6839457181
 20
97.2770466002
 30
0.0
 10
45.6140968716
 20
97.3102306474
 30
0.0
 10
45.5067815231
 20
97.3362059012
 30
0.0
 10
45.4060363942
 20
97.3336751373
 30
0.0
 10
45.3454360045
 20
97.3116052114
 30
0.0
 10
45.3190524965
 20
97.2963727642
 30
0.0
  0
SPLINE
  5
2C9
100
AcDbEntity
  8
0
100
AcDbSpline
 62
7
  6
BYLAYER
 70
0
 71
3
 72
13
 73
9
 74
0
 42
0.0000001
 43
0.0000001
 44
0.0000000001
 40
0.0
 40
0.0
 40
0.0
 40
0.0
 40
0.1141767831
 40
0.2375713001
 40
0.500001251
 40
0.7624305195
 40
0.8858241805
 40
1.0
 40
1.0
 40
1.0
 40
1.0
 10
52.2244377957
 20
92.847775231
 30
0.0
 10
52.2244377957
 20
92.8924600059
 30
0.0
 10
52.2162019463
 20
92.9855249379
 30
0.0
 10
52.1718178345
 20
93.1765896403
 30
0.0
 10
52.0684013014
 20
93.4108866627
 30
0.0
 10
51.9172015757
 20
93.6175955269
 30
0.0
 10
51.7739266199
 20
93.7515640942
 30
0.0
 10
51.6974480581
 20
93.8052279484
 30
0.0
 10
51.6587500156
 20
93.8275697683
 30
0.0
  0
SPLINE
  5
2CA
100
AcDbEntity
  8
0
100
AcDbSpline
 62
7
  6
BYLAYER
 70
0
 71
3
 72
15
 73
11
 74
0
 42
0.0000001
 43
0.0000001
 44
0.0000000001
 40
0.0
 40
0.0
 40
0.0
 40
0.0
 40
0.1141465952
 40
0.2373352439
 40
0.366975646
 40
0.4999989181
 40
0.6330223406
 40
0.7626631822
 40
0.8858525235
 40
1.0
 40
1.0
 40
1.0
 40
1.0
 10
54.3457669712
 20
88.601994024
 30
0.0
 10
54.2005555504
 20
88.6858299803
 30
0.0
 10
53.9137173828
 20
88.8869215338
 30
0.0
 10
53.5190197603
 20
89.2561445116
 30
0.0
 10
53.1553300174
 20
89.6926567433
 30
0.0
 10
52.8362606721
 20
90.1799628727
 30
0.0
 10
52.573773102
 20
90.6999374243
 30
0.0
 10
52.3775838452
 20
91.2331588208
 30
0.0
 10
52.2551721713
 20
91.7595905608
 30
0.0
 10
52.2244377957
 20
92.108547487
 30
0.0
 10
52.2244377957
 20
92.276223539
 30
0.0
  0
SPLINE
  5
2CB
100
AcDbEntity
  8
0
100
AcDbSpline
 62
7
  6
BYLAYER
 70
0
 71
3
 72
13
 73
9
 74
0
 42
0.0000001
 43
0.0000001
 44
0.0000000001
 40
0.0
 40
0.0
 40
0.0
 40
0.0
 40
0.289375362
 40
0.5483119429
 40
0.6677418599
 40
0.7817671473
 40
0.8919064626
 40
1.0
 40
1.0
 40
1.0
 40
1.0
 10
51.8708833769
 20
87.1730783721
 30
0.0
 10
51.8708833769
 20
87.3251211831
 30
0.0
 10
51.8938022643
 20
87.6140767655
 30
0.0
 10
51.9941814844
 20
87.9540070876
 30
0.0
 10
52.1160529998
 20
88.1831121856
 30
0.0
 10
52.2235388438
 20
88.3290440898
 30
0.0
 10
52.3484544223
 20
88.4520583967
 30
0.0
 10
52.4430440656
 20
88.5180217237
 30
0.0
 10
52.4922295856
 20
88.5464183254
 30
0.0
  0
SPLINE
  5
2CC
100
AcDbEntity
  8
0
100
AcDbSpline
 62
7
  6
BYLAYER
 70
0
 71
3
 72
13
 73
9
 74
0
 42
0.0000001
 43
0.0000001
 44
0.0000000001
 40
0.0
 40
0.0
 40
0.0
 40
0.0
 40
0.289375362
 40
0.5483119429
 40
0.6677418599
 40
0.7817671473
 40
0.8919064626
 40
1.0
 40
1.0
 40
1.0
 40
1.0
 10
51.8708833769
 20
74.109039698
 30
0.0
 10
51.8708833769
 20
74.261082509
 30
0.0
 10
51.8938022643
 20
74.5500380914
 30
0.0
 10
51.9941814844
 20
74.8899684135
 30
0.0
 10
52.1160529998
 20
75.1190735115
 30
0.0
 10
52.2235388438
 20
75.2650054157
 30
0.0
 10
52.3484544223
 20
75.3880197226
 30
0.0
 10
52.4430440656
 20
75.4539830496
 30
0.0
 10
52.4922295856
 20
75.4823796513
 30
0.0
  0
SPLINE
  5
2CD
100
AcDbEntity
  8
0
100
AcDbSpline
 62
7
  6
BYLAYER
 70
0
 71
3
 72
11
 73
7
 74
0
 42
0.0000001
 43
0.0000001
 44
0.0000000001
 40
0.0
 40
0.0
 40
0.0
 40
0.0
 40
0.217745073
 40
0.4508830113
 40
0.7104597664
 40
1.0
 40
1.0
 40
1.0
 40
1.0
 10
56.3013841944
 20
49.6969213096
 30
0.0
 10
56.3277683101
 20
49.7121541076
 30
0.0
 10
56.3771829217
 20
49.753601581
 30
0.0
 10
56.4297480503
 20
49.8395865551
 30
0.0
 10
56.460910555
 20
49.9455151922
 30
0.0
 10
56.4670961466
 20
50.0226003935
 30
0.0
 10
56.4670961466
 20
50.0631112976
 30
0.0
  0
SPLINE
  5
2CE
100
AcDbEntity
  8
0
100
AcDbSpline
 62
7
  6
BYLAYER
 70
0
 71
3
 72
11
 73
7
 74
0
 42
0.0000001
 43
0.0000001
 44
0.0000000001
 40
0.0
 40
0.0
 40
0.0
 40
0.0
 40
0.2424557438
 40
0.4992618257
 40
0.7564520013
 40
1.0
 40
1.0
 40
1.0
 40
1.0
 10
54.3869194808
 20
88.0979634664
 30
0.0
 10
54.4289898271
 20
87.8304288272
 30
0.0
 10
54.5756813773
 20
87.2882109746
 30
0.0
 10
54.9351446699
 20
86.5195118999
 30
0.0
 10
55.415585094
 20
85.8185378813
 30
0.0
 10
55.8089706295
 20
85.4153720918
 30
0.0
 10
56.0186067217
 20
85.2419946849
 30
0.0
  0
SPLINE
  5
2CF
100
AcDbEntity
  8
0
100
AcDbSpline
 62
7
  6
BYLAYER
 70
0
 71
3
 72
11
 73
7
 74
0
 42
0.0000001
 43
0.0000001
 44
0.0000000001
 40
0.0
 40
0.0
 40
0.0
 40
0.0
 40
0.2424557438
 40
0.4992618257
 40
0.7564520013
 40
1.0
 40
1.0
 40
1.0
 40
1.0
 10
54.3869194808
 20
75.0339247923
 30
0.0
 10
54.4289898271
 20
74.7663901532
 30
0.0
 10
54.5756813773
 20
74.2241723005
 30
0.0
 10
54.9351446699
 20
73.4554732258
 30
0.0
 10
55.415585094
 20
72.7544992072
 30
0.0
 10
55.8089706295
 20
72.3513334178
 30
0.0
 10
56.0186067217
 20
72.1779560108
 30
0.0
  0
SPLINE
  5
2D0
100
AcDbEntity
  8
0
100
AcDbSpline
 62
7
  6
BYLAYER
 70
0
 71
3
 72
13
 73
9
 74
0
 42
0.0000001
 43
0.0000001
 44
0.0000000001
 40
0.0
 40
0.0
 40
0.0
 40
0.0
 40
0.2893776722
 40
0.5483149914
 40
0.6677431632
 40
0.7817668512
 40
0.8919057346
 40
1.0
 40
1.0
 40
1.0
 40
1.0
 10
52.2244377957
 20
81.6616921163
 30
0.0
 10
52.2244377957
 20
81.8137358798
 30
0.0
 10
52.2473590091
 20
82.1026924546
 30
0.0
 10
52.3477390888
 20
82.4426225117
 30
0.0
 10
52.4696108618
 20
82.6717254953
 30
0.0
 10
52.5770966818
 20
82.8176545075
 30
0.0
 10
52.7020107279
 20
82.9406686788
 30
0.0
 10
52.796599164
 20
83.0066337213
 30
0.0
 10
52.8457847126
 20
83.0350308432
 30
0.0
  0
SPLINE
  5
2D1
100
AcDbEntity
  8
0
100
AcDbSpline
 62
7
  6
BYLAYER
 70
0
 71
3
 72
21
 73
17
 74
0
 42
0.0000001
 43
0.0000001
 44
0.0000000001
 40
0.0
 40
0.0
 40
0.0
 40
0.0
 40
0.0428243517
 40
0.0874187236
 40
0.135215445
 40
0.1871378187
 40
0.2436003974
 40
0.3045745218
 40
0.3696886396
 40
0.4383157255
 40
0.5825456344
 40
0.7295847004
 40
0.801592939
 40
0.8712100727
 40
0.9376096365
 40
1.0
 40
1.0
 40
1.0
 40
1.0
 10
55.4921955191
 20
70.2862552177
 30
0.0
 10
55.4182367281
 20
70.2435560996
 30
0.0
 10
55.2552092961
 20
70.1757832617
 30
0.0
 10
54.9860812814
 20
70.1363389363
 30
0.0
 10
54.6970853024
 20
70.1576336222
 30
0.0
 10
54.3946225619
 20
70.2379650685
 30
0.0
 10
54.0846498892
 20
70.3749677385
 30
0.0
 10
53.773343078
 20
70.5654395412
 30
0.0
 10
53.4669651108
 20
70.8052519323
 30
0.0
 10
53.0671808092
 20
71.1903881171
 30
0.0
 10
52.6229842288
 20
71.7591954195
 30
0.0
 10
52.2764508217
 20
72.3995009587
 30
0.0
 10
52.0699398975
 20
72.9375314598
 30
0.0
 10
51.957107688
 20
73.3374174461
 30
0.0
 10
51.8877912458
 20
73.7276223365
 30
0.0
 10
51.8708833769
 20
73.9846216674
 30
0.0
 10
51.8708833769
 20
74.109039698
 30
0.0
  0
SPLINE
  5
2D2
100
AcDbEntity
  8
0
100
AcDbSpline
 62
7
  6
BYLAYER
 70
0
 71
3
 72
15
 73
11
 74
0
 42
0.0000001
 43
0.0000001
 44
0.0000000001
 40
0.0
 40
0.0
 40
0.0
 40
0.0
 40
0.1141465952
 40
0.2373352439
 40
0.366975646
 40
0.4999989181
 40
0.6330223406
 40
0.7626631822
 40
0.8858525235
 40
1.0
 40
1.0
 40
1.0
 40
1.0
 10
54.3457669712
 20
75.53795535
 30
0.0
 10
54.2005555504
 20
75.6217913062
 30
0.0
 10
53.9137173828
 20
75.8228828597
 30
0.0
 10
53.5190197603
 20
76.1921058375
 30
0.0
 10
53.1553300174
 20
76.6286180693
 30
0.0
 10
52.8362606721
 20
77.1159241987
 30
0.0
 10
52.573773102
 20
77.6358987503
 30
0.0
 10
52.3775838452
 20
78.1691201468
 30
0.0
 10
52.2551721713
 20
78.6955518867
 30
0.0
 10
52.2244377957
 20
79.0445088129
 30
0.0
 10
52.2244377957
 20
79.2121848649
 30
0.0
  0
ELLIPSE
  5
2D3
100
AcDbEntity
  8
0
100
AcDbEllipse
 62
7
  6
BYLAYER
 10
53.2850822195
 20
39.4076465975
 30
0.0
 11
1.744115337
 21
0.5536845602
 31
0.0
 40
0.2589804635
 41
0.0
 42
6.2831853072
  0
ELLIPSE
  5
2D4
100
AcDbEntity
  8
0
100
AcDbEllipse
 62
7
  6
BYLAYER
 10
53.2850822195
 20
42.6736562661
 30
0.0
 11
1.744115337
 21
0.5536845602
 31
0.0
 40
0.2589804635
 41
3.0595611211
 42
6.2011537747
  0
ENDSEC
  0
SECTION
  2
OBJECTS
  0
DICTIONARY
  5
C
100
AcDbDictionary
280
0
281
1
  3
ACAD_GROUP
350
D
  3
ACAD_MLINESTYLE
350
17
  3
ACAD_LAYOUT
350
1A
  3
ACAD_PLOTSETTINGS
350
19
  3
ACAD_PLOTSTYLENAME
350
E
  0
DICTIONARY
  5
D
102
{ACAD_REACTORS
330
C
102
}
100
AcDbDictionary
280
0
281
1
  0
ACDBDICTIONARYWDFLT
  5
E
102
{ACAD_REACTORS
330
C
102
}
100
AcDbDictionary
281
1
  3
Normal
350
F
100
AcDbDictionaryWithDefault
340
F
  0
DICTIONARY
  5
17
102
{ACAD_REACTORS
330
C
102
}
100
AcDbDictionary
280
0
281
1
  3
Standard
350
18
  0
DICTIONARY
  5
19
102
{ACAD_REACTORS
330
C
102
}
100
AcDbDictionary
281
1
  0
DICTIONARY
  5
1A
102
{ACAD_REACTORS
330
C
102
}
100
AcDbDictionary
281
1
  3
Model
350
2D5
  3
Layout1
350
2D6
  0
ACDBPLACEHOLDER
  5
F
102
{ACAD_REACTORS
330
E
102
}
  0
MLINESTYLE
  5
18
102
{ACAD_REACTORS
330
17
102
}
100
AcDbMlineStyle
  2
STANDARD
 70
0
  3

 62
256
 51
90.0
 52
90.0
 71
2
 49
0.5
 62
256
  6
BYLAYER
 49
-0.5
 62
256
  6
BYLAYER
  0
LAYOUT
  5
2D5
102
{ACAD_REACTORS
330
1A
102
}
100
AcDbPlotSettings
  1

  2
none_device
  4

  6

 40
0.0
 41
0.0
 42
0.0
 43
0.0
 44
210.0
 45
297.0
 46
0.0
 47
0.0
 48
0.0
 49
0.0
140
0.0
141
0.0
142
1.0
143
1.0
 70
1024
 72
1
 73
0
 74
0
  7

 75
0
147
1.0
148
0.0
149
0.0
100
AcDbLayout
  1
Model
 70
0
 71
0
 10
0.0
 20
0.0
 11
210.0
 21
297.0
 12
0.0
 22
0.0
 32
0.0
 14
0.0
 24
0.0
 34
0.0
 15
0.0
 25
0.0
 35
0.0
146
0.0
 13
0.0
 23
0.0
 33
0.0
 16
1.0
 26
0.0
 36
0.0
 17
0.0
 27
1.0
 37
0.0
 76
0
330
210
345
0
346
0
  0
LAYOUT
  5
2D6
102
{ACAD_REACTORS
330
1A
102
}
100
AcDbPlotSettings
  1

  2
none_device
  4

  6

 40
0.0
 41
0.0
 42
0.0
 43
0.0
 44
210.0
 45
297.0
 46
0.0
 47
0.0
 48
0.0
 49
0.0
140
0.0
141
0.0
142
1.0
143
1.0
 70
0
 72
1
 73
0
 74
0
  7

 75
0
147
1.0
148
0.0
149
0.0
100
AcDbLayout
  1
Layout1
 70
0
 71
1
 10
0.0
 20
0.0
 11
210.0
 21
297.0
 12
0.0
 22
0.0
 32
0.0
 14
0.0
 24
0.0
 34
0.0
 15
0.0
 25
0.0
 35
0.0
146
0.0
 13
0.0
 23
0.0
 33
0.0
 16
1.0
 26
0.0
 36
0.0
 17
0.0
 27
1.0
 37
0.0
 76
0
330
211
345
0
346
0
  0
ENDSEC
  0
EOF
