999
DXF file: C:\Users\sesa63760\Dev\_Creo\CAD\MCADID0004334_3D-CAD\drw0001_1.dxf
999
Pro/ENGINEER 2019471 by Parametric Technology Corporation
  0
SECTION
  2
HEADER
  9
$ACADVER
  1
AC1024
  9
$DWGCODEPAGE
  3
ANSI_1252
  9
$EXTMAX
 10
92.4321688171
 20
130.7254958985
 30
0.0
  9
$EXTMIN
 10
0.0
 20
0.0
 30
0.0
  9
$LIMMIN
 10
0.0
 20
0.0
  9
$LIMMAX
 10
92.4321688171
 20
130.7254958985
  9
$VIEWCTR
 10
46.2160844086
 20
65.3627479492
  9
$VIEWSIZE
 40
130.7254958985
  9
$CLAYER
  8
0
  9
$LTSCALE
 40
8.5213656586
  9
$CELTYPE
  6
BYLAYER
  9
$DIMSCALE
 40
1.0
  9
$DIMASZ
 40
1.1003829621
  9
$DIMEXO
 40
1.0
  9
$DIMDLI
 40
5.8874890005
  9
$DIMEXE
 40
1.0
  9
$DIMCEN
 40
1.3944052896
  9
$DIMLFAC
 40
1.0
  9
$DIMBLK
  1
_FILLED
  9
$DIMALT
 70
0
  9
$DIMALTF
 40
0.0393700787
  9
$DIMTXT
 40
1.540536147
  9
$DIMTOL
 70
1
  9
$DIMLIM
 70
0
  9
$DIMTFAC
 40
1.0
  9
$DIMTP
 40
0.01
  9
$DIMTM
 40
0.01
  9
$DIMGAP
 40
0.625
  9
$DIMDSEP
 70
46
  9
$AUNITS
 70
0
  9
$PDMODE
 70
3
  9
$PDSIZE
 40
0.3125
  9
$HANDSEED
  5
376
  9
$TILEMODE
 70
1
  9
$MEASUREMENT
 70
1
  9
$INSUNITS
 70
4
  0
ENDSEC
  0
SECTION
  2
CLASSES
  0
CLASS
  1
ACDBDICTIONARYWDFLT
  2
AcDbDictionaryWithDefault
  3
AutoCAD 2000
 90
0
 91
1
280
0
281
0
  0
CLASS
  1
ACDBPLACEHOLDER
  2
AcDbPlaceHolder
  3
AutoCAD 2000
 90
0
 91
1
280
0
281
0
  0
CLASS
  1
LAYOUT
  2
AcDbLayout
  3
AutoCAD 2000
 90
0
 91
0
280
0
281
0
  0
ENDSEC
  0
SECTION
  2
TABLES
  0
TABLE
  2
VPORT
  5
8
100
AcDbSymbolTable
 70
2
  0
VPORT
  5
1F4
100
AcDbSymbolTableRecord
100
AcDbViewportTableRecord
  2
*ACTIVE
 70
0
 10
0.0
 20
0.0
 11
1.0
 21
1.0
 12
46.2160844086
 22
65.3627479492
 13
0.0
 23
0.0
 14
1.0
 24
1.0
 15
0.0
 25
0.0
 16
0.0
 26
0.0
 36
1.0
 17
0.0
 27
0.0
 37
0.0
 40
130.7254958985
 41
0.7070707071
 42
50.0
 43
0.0
 44
0.0
 50
0.0
 51
0.0
 71
0
 72
100
 73
1
 74
1
 75
0
 76
0
 77
0
 78
0
  0
ENDTAB
  0
TABLE
  2
LTYPE
  5
5
100
AcDbSymbolTable
 70
6
  0
LTYPE
  5
14
100
AcDbSymbolTableRecord
100
AcDbLinetypeTableRecord
  2
BYBLOCK
 70
0
  3

 72
65
 73
0
 40
0.0
  0
LTYPE
  5
15
100
AcDbSymbolTableRecord
100
AcDbLinetypeTableRecord
  2
BYLAYER
 70
0
  3

 72
65
 73
0
 40
0.0
  0
LTYPE
  5
16
100
AcDbSymbolTableRecord
100
AcDbLinetypeTableRecord
  2
CONTINUOUS
 70
64
  3
Solid line
 72
65
 73
0
 40
0.0
  0
LTYPE
  5
1F5
100
AcDbSymbolTableRecord
100
AcDbLinetypeTableRecord
  2
CENTER
 70
64
  3
____ _ ____ _ ____ _ ____ _ ____ _ ____ _ ____
 72
65
 73
4
 40
0.6
 49
0.375
 74
0
 49
-0.075
 74
0
 49
0.075
 74
0
 49
-0.075
 74
0
  0
LTYPE
  5
1F6
100
AcDbSymbolTableRecord
100
AcDbLinetypeTableRecord
  2
HIDDEN
 70
64
  3
- - - - - - - - - - - - - - - - - - - -
 72
65
 73
2
 40
0.2
 49
0.1
 74
0
 49
-0.1
 74
0
  0
LTYPE
  5
1F7
100
AcDbSymbolTableRecord
100
AcDbLinetypeTableRecord
  2
PHANTOM
 70
64
  3
_____ _ _ _____ _ _ _____ _ _ _____
 72
65
 73
6
 40
0.8
 49
0.45
 74
0
 49
-0.05
 74
0
 49
0.1
 74
0
 49
-0.05
 74
0
 49
0.1
 74
0
 49
-0.05
 74
0
  0
LTYPE
  5
1F8
100
AcDbSymbolTableRecord
100
AcDbLinetypeTableRecord
  2
DOT
 70
64
  3
. . . . . . . . . . . . . . . . . . . .
 72
65
 73
2
 40
0.2
 49
0.1
 74
0
 49
-0.1
 74
0
  0
LTYPE
  5
1F9
100
AcDbSymbolTableRecord
100
AcDbLinetypeTableRecord
  2
DASHED
 70
64
  3
- - - - - - - - - - - - - - - - - - - -
 72
65
 73
2
 40
0.2
 49
0.1
 74
0
 49
-0.1
 74
0
  0
ENDTAB
  0
TABLE
  2
LAYER
  5
2
100
AcDbSymbolTable
 70
36
  0
LAYER
  5
10
100
AcDbSymbolTableRecord
100
AcDbLayerTableRecord
  2
0
 70
0
 62
7
  6
CONTINUOUS
370
-3
390
F
  0
LAYER
  5
1FA
100
AcDbSymbolTableRecord
100
AcDbLayerTableRecord
  2
DEFAULT_1
 70
0
 62
7
  6
CENTER
370
-3
390
F
  0
LAYER
  5
1FB
100
AcDbSymbolTableRecord
100
AcDbLayerTableRecord
  2
DEFAULT_2
 70
0
 62
7
  6
HIDDEN
370
-3
390
F
  0
LAYER
  5
1FC
100
AcDbSymbolTableRecord
100
AcDbLayerTableRecord
  2
DEFAULT_3
 70
0
 62
7
  6
PHANTOM
370
-3
390
F
  0
LAYER
  5
1FD
100
AcDbSymbolTableRecord
100
AcDbLayerTableRecord
  2
00_COMPONENTS
 70
0
 62
7
  6
CONTINUOUS
370
-3
390
F
  0
LAYER
  5
1FE
100
AcDbSymbolTableRecord
100
AcDbLayerTableRecord
  2
01_1_DEFAULT_DATUMS
 70
0
 62
7
  6
CONTINUOUS
370
-3
390
F
  0
LAYER
  5
1FF
100
AcDbSymbolTableRecord
100
AcDbLayerTableRecord
  2
01_PLANES
 70
0
 62
7
  6
CONTINUOUS
370
-3
390
F
  0
LAYER
  5
200
100
AcDbSymbolTableRecord
100
AcDbLayerTableRecord
  2
02_COORD_SYS
 70
0
 62
7
  6
CONTINUOUS
370
-3
390
F
  0
LAYER
  5
201
100
AcDbSymbolTableRecord
100
AcDbLayerTableRecord
  2
03_AXES
 70
0
 62
7
  6
CONTINUOUS
370
-3
390
F
  0
LAYER
  5
202
100
AcDbSymbolTableRecord
100
AcDbLayerTableRecord
  2
04_POINTS
 70
0
 62
7
  6
CONTINUOUS
370
-3
390
F
  0
LAYER
  5
203
100
AcDbSymbolTableRecord
100
AcDbLayerTableRecord
  2
05_CURVES
 70
0
 62
7
  6
CONTINUOUS
370
-3
390
F
  0
LAYER
  5
204
100
AcDbSymbolTableRecord
100
AcDbLayerTableRecord
  2
06_SURFS
 70
0
 62
7
  6
CONTINUOUS
370
-3
390
F
  0
LAYER
  5
205
100
AcDbSymbolTableRecord
100
AcDbLayerTableRecord
  2
07_COSMETICS
 70
0
 62
7
  6
CONTINUOUS
370
-3
390
F
  0
LAYER
  5
206
100
AcDbSymbolTableRecord
100
AcDbLayerTableRecord
  2
10_NOTES
 70
0
 62
7
  6
CONTINUOUS
370
-3
390
F
  0
LAYER
  5
207
100
AcDbSymbolTableRecord
100
AcDbLayerTableRecord
  2
11_NOTES_PUB
 70
0
 62
7
  6
CONTINUOUS
370
-3
390
F
  0
LAYER
  5
208
100
AcDbSymbolTableRecord
100
AcDbLayerTableRecord
  2
13_REF_GTOL
 70
0
 62
7
  6
CONTINUOUS
370
-3
390
F
  0
LAYER
  5
209
100
AcDbSymbolTableRecord
100
AcDbLayerTableRecord
  2
16_MISC
 70
0
 62
7
  6
CONTINUOUS
370
-3
390
F
  0
LAYER
  5
20A
100
AcDbSymbolTableRecord
100
AcDbLayerTableRecord
  2
17_NO_PRINT
 70
0
 62
7
  6
CONTINUOUS
370
-3
390
F
  0
LAYER
  5
20B
100
AcDbSymbolTableRecord
100
AcDbLayerTableRecord
  2
18_DATUM_CAMS_JOINTS
 70
0
 62
7
  6
CONTINUOUS
370
-3
390
F
  0
LAYER
  5
20C
100
AcDbSymbolTableRecord
100
AcDbLayerTableRecord
  2
19_DATUM_FUNCTIONAL
 70
0
 62
7
  6
CONTINUOUS
370
-3
390
F
  0
LAYER
  5
20D
100
AcDbSymbolTableRecord
100
AcDbLayerTableRecord
  2
20_DATUM_KINEMATIC_SCHEME
 70
0
 62
7
  6
CONTINUOUS
370
-3
390
F
  0
ENDTAB
  0
TABLE
  2
STYLE
  5
3
100
AcDbSymbolTable
 70
1
  0
STYLE
  5
11
100
AcDbSymbolTableRecord
100
AcDbTextStyleTableRecord
  2
STANDARD
 70
0
 40
0.0
 41
1.0
 50
0.0
 71
0
 42
0.2
  3
ARIAL.TTF
  4

  0
STYLE
  5
20E
100
AcDbSymbolTableRecord
100
AcDbTextStyleTableRecord
  2
TEXTSTYLE_1
 70
0
 40
0.0
 41
0.8
 50
0.0
 71
0
 42
0.2
  3
gdt
  4

  0
ENDTAB
  0
TABLE
  2
VIEW
  5
6
100
AcDbSymbolTable
 70
0
  0
ENDTAB
  0
TABLE
  2
UCS
  5
7
100
AcDbSymbolTable
 70
0
  0
ENDTAB
  0
TABLE
  2
APPID
  5
9
100
AcDbSymbolTable
 70
1
  0
APPID
  5
20F
100
AcDbSymbolTableRecord
100
AcDbRegAppTableRecord
  2
ACAD
 70
0
  0
ENDTAB
  0
TABLE
  2
BLOCK_RECORD
  5
1
100
AcDbSymbolTable
 70
0
  0
BLOCK_RECORD
  5
210
100
AcDbSymbolTableRecord
100
AcDbBlockTableRecord
  2
*Model_Space
  0
BLOCK_RECORD
  5
211
100
AcDbSymbolTableRecord
100
AcDbBlockTableRecord
  2
*Paper_Space
  0
BLOCK_RECORD
  5
212
100
AcDbSymbolTableRecord
100
AcDbBlockTableRecord
  2
_FILLED
  0
ENDTAB
  0
TABLE
  2
DIMSTYLE
  5
A
100
AcDbSymbolTable
 70
1
100
AcDbDimStyleTable
 71
0
  0
DIMSTYLE
105
213
100
AcDbSymbolTableRecord
100
AcDbDimStyleTableRecord
  2
STANDARD
 70
0
  3

  4

 40
1.0
 41
1.1003829621
 42
1.0
 43
0.38
 44
1.0
 45
0.0
 46
0.0
 47
0.01
 48
0.01
140
1.540536147
141
0.09
142
0.0
143
25.4
144
1.0
145
0.0
146
1.0
147
0.625
 71
1
 72
0
 73
0
 74
0
 75
0
 76
0
 77
1
 78
8
 79
2
170
0
171
1
172
0
173
0
174
0
175
0
176
0
177
0
178
0
270
2
179
2
271
2
272
2
273
2
274
2
275
0
280
0
281
0
282
0
283
1
284
8
285
0
286
0
287
3
288
0
340
11
278
46
341
212
342
212
343
212
344
212
  0
ENDTAB
  0
ENDSEC
  0
SECTION
  2
BLOCKS
  0
BLOCK
  5
20
100
AcDbEntity
  8
0
100
AcDbBlockBegin
  2
*Model_Space
 70
0
 10
0.0
 20
0.0
 30
0.0
  3
*Model_Space
  1

  0
ENDBLK
  5
21
100
AcDbEntity
  8
0
100
AcDbBlockEnd
  0
BLOCK
  5
1C
100
AcDbEntity
  8
0
100
AcDbBlockBegin
  2
*Paper_Space
 70
0
 10
0.0
 20
0.0
 30
0.0
  3
*Paper_Space
  1

  0
ENDBLK
  5
1D
100
AcDbEntity
  8
0
100
AcDbBlockEnd
  0
BLOCK
  5
214
100
AcDbEntity
  8
0
100
AcDbBlockBegin
  2
_FILLED
 70
64
 10
0.0
 20
0.0
  3
_FILLED
  1

  0
SOLID
  5
215
100
AcDbEntity
  8
0
  6
BYBLOCK
 62
0
100
AcDbTrace
 10
0.0
 20
0.0
 11
-1.0
 21
0.25
 12
-1.0
 22
-0.25
 13
-1.0
 23
-0.25
  0
ENDBLK
  5
216
100
AcDbEntity
  8
0
  6
BYBLOCK
 62
0
100
AcDbBlockEnd
  0
ENDSEC
  0
SECTION
  2
ENTITIES
  0
LINE
  5
217
100
AcDbEntity
  8
0
100
AcDbLine
 62
7
  6
BYLAYER
 10
27.3282413917
 20
119.0851775524
 11
17.5303422694
 21
113.4283916231
  0
LINE
  5
218
100
AcDbEntity
  8
0
100
AcDbLine
 62
7
  6
BYLAYER
 10
18.458071414
 20
113.8625541778
 11
26.7005109041
 21
118.6213004303
  0
LINE
  5
219
100
AcDbEntity
  8
0
100
AcDbLine
 62
7
  6
BYLAYER
 10
18.6785250686
 20
113.7352780804
 11
26.9209645586
 21
118.4940243328
  0
LINE
  5
21A
100
AcDbEntity
  8
0
100
AcDbLine
 62
7
  6
BYLAYER
 10
27.3282419156
 20
119.0851778548
 11
27.490412658
 21
119.1771036457
  0
LINE
  5
21B
100
AcDbEntity
  8
0
100
AcDbLine
 62
7
  6
BYLAYER
 10
21.3124321764
 20
115.177106833
 11
24.6740256447
 21
117.1179121417
  0
LINE
  5
21C
100
AcDbEntity
  8
0
100
AcDbLine
 62
7
  6
BYLAYER
 10
12.971180598
 20
109.1879881219
 11
12.7980750924
 21
108.7883588814
  0
LINE
  5
21D
100
AcDbEntity
  8
0
100
AcDbLine
 62
7
  6
BYLAYER
 10
33.627125875
 20
108.0673759547
 11
36.9887193432
 21
110.0081812635
  0
LINE
  5
21E
100
AcDbEntity
  8
0
100
AcDbLine
 62
7
  6
BYLAYER
 10
15.974143093
 20
97.6934235289
 11
19.7548979842
 21
99.8762303535
  0
LINE
  5
21F
100
AcDbEntity
  8
0
100
AcDbLine
 62
7
  6
BYLAYER
 10
31.7619534211
 20
106.5831223495
 11
39.3546741656
 21
110.9667555484
  0
LINE
  5
220
100
AcDbEntity
  8
0
100
AcDbLine
 62
7
  6
BYLAYER
 10
28.9044764243
 20
21.8169848548
 11
26.9406822428
 21
23.2423696538
  0
LINE
  5
221
100
AcDbEntity
  8
0
100
AcDbLine
 62
7
  6
BYLAYER
 10
15.4991298996
 20
106.5939705681
 11
15.5667072318
 21
106.8150618767
  0
LINE
  5
222
100
AcDbEntity
  8
0
100
AcDbLine
 62
7
  6
BYLAYER
 10
41.0252299358
 20
111.038532924
 11
38.2939895943
 21
109.4616599903
  0
LINE
  5
223
100
AcDbEntity
  8
0
100
AcDbLine
 62
7
  6
BYLAYER
 10
35.4488939471
 20
107.8190530575
 11
31.4903835853
 21
105.5336196768
  0
LINE
  5
224
100
AcDbEntity
  8
0
100
AcDbLine
 62
7
  6
BYLAYER
 10
32.442416563
 20
105.9835597819
 11
35.4431042404
 21
107.7159972789
  0
LINE
  5
225
100
AcDbEntity
  8
0
100
AcDbLine
 62
7
  6
BYLAYER
 10
38.4543994357
 20
109.4545589927
 11
40.370160887
 21
110.5606177801
  0
LINE
  5
226
100
AcDbEntity
  8
0
100
AcDbLine
 62
7
  6
BYLAYER
 10
18.8768005231
 20
94.0825006636
 11
21.7794579531
 21
95.7583407088
  0
LINE
  5
227
100
AcDbEntity
  8
0
100
AcDbLine
 62
7
  6
BYLAYER
 10
15.122600724
 20
35.7730855168
 11
30.1840378696
 21
27.0775574455
  0
LINE
  5
228
100
AcDbEntity
  8
0
100
AcDbLine
 62
7
  6
BYLAYER
 10
30.6912064867
 20
26.8654954194
 11
59.5410139868
 21
10.2094281037
  0
LINE
  5
229
100
AcDbEntity
  8
0
100
AcDbLine
 62
7
  6
BYLAYER
 10
30.5326308145
 20
27.1261203923
 11
59.0829468064
 21
10.6429606679
  0
LINE
  5
22A
100
AcDbEntity
  8
0
100
AcDbLine
 62
7
  6
BYLAYER
 10
52.5564367318
 20
15.5518284324
 11
55.908136829
 21
13.6167672559
  0
LINE
  5
22B
100
AcDbEntity
  8
0
100
AcDbLine
 62
7
  6
BYLAYER
 10
38.4397449368
 20
23.7023770958
 11
41.7858816719
 21
21.7705278553
  0
LINE
  5
22C
100
AcDbEntity
  8
0
100
AcDbLine
 62
7
  6
BYLAYER
 10
43.3906615347
 20
20.8440287298
 11
48.8537419185
 21
17.6899891535
  0
LINE
  5
22D
100
AcDbEntity
  8
0
100
AcDbLine
 62
7
  6
BYLAYER
 10
17.3365850848
 20
36.0421743698
 11
20.688285182
 21
34.1071131933
  0
LINE
  5
22E
100
AcDbEntity
  8
0
100
AcDbLine
 62
7
  6
BYLAYER
 10
36.0975862161
 20
108.8834986006
 11
35.6742366926
 21
108.3683051806
  0
LINE
  5
22F
100
AcDbEntity
  8
0
100
AcDbLine
 62
7
  6
BYLAYER
 10
57.0770547917
 20
17.3074847208
 11
56.337191623
 21
17.7346352569
  0
LINE
  5
230
100
AcDbEntity
  8
0
100
AcDbLine
 62
7
  6
BYLAYER
 10
50.0204223197
 20
21.3819984458
 11
47.1714164259
 21
23.0268355543
  0
LINE
  5
231
100
AcDbEntity
  8
0
100
AcDbLine
 62
7
  6
BYLAYER
 10
45.187535216
 20
24.1722039932
 11
42.220499828
 21
25.8851839204
  0
LINE
  5
232
100
AcDbEntity
  8
0
100
AcDbLine
 62
7
  6
BYLAYER
 10
48.8206152447
 20
23.1805629306
 11
49.4683308399
 21
22.8066126172
  0
LINE
  5
233
100
AcDbEntity
  8
0
100
AcDbLine
 62
7
  6
BYLAYER
 10
48.8537419185
 20
24.3924948834
 11
43.3906615347
 21
27.5465344597
  0
LINE
  5
234
100
AcDbEntity
  8
0
100
AcDbLine
 62
7
  6
BYLAYER
 10
41.7858816719
 20
28.4730335853
 11
38.4397449368
 21
30.4048828258
  0
LINE
  5
235
100
AcDbEntity
  8
0
100
AcDbLine
 62
7
  6
BYLAYER
 10
55.908136829
 20
20.3201874563
 11
52.5564367318
 21
22.2552486328
  0
LINE
  5
236
100
AcDbEntity
  8
0
100
AcDbLine
 62
7
  6
BYLAYER
 10
20.688285182
 20
40.8105333937
 11
17.3365850848
 21
42.7455945702
  0
LINE
  5
237
100
AcDbEntity
  8
0
100
AcDbLine
 62
7
  6
BYLAYER
 10
59.0829468064
 20
17.2197796506
 11
56.9730151469
 21
18.5645819194
  0
LINE
  5
238
100
AcDbEntity
  8
0
100
AcDbLine
 62
7
  6
BYLAYER
 10
17.3365850848
 20
36.0421743698
 11
15.6607350362
 21
40.3614150582
  0
LINE
  5
239
100
AcDbEntity
  8
0
100
AcDbLine
 62
7
  6
BYLAYER
 10
14.4203122604
 20
57.5911023195
 11
14.7290820176
 21
54.4681010071
  0
LINE
  5
23A
100
AcDbEntity
  8
0
100
AcDbLine
 62
7
  6
BYLAYER
 10
12.7981023945
 20
108.7883615349
 11
12.7981023945
 21
74.1124929071
  0
LINE
  5
23B
100
AcDbEntity
  8
0
100
AcDbLine
 62
7
  6
BYLAYER
 10
13.0289959102
 20
69.2269373946
 11
13.0289959102
 21
108.3788232243
  0
LINE
  5
23C
100
AcDbEntity
  8
0
100
AcDbLine
 62
7
  6
BYLAYER
 10
14.4203122604
 20
59.2959131756
 11
14.4203122604
 21
57.5911023195
  0
LINE
  5
23D
100
AcDbEntity
  8
0
100
AcDbLine
 62
7
  6
BYLAYER
 10
14.7697767825
 20
53.775692602
 11
14.7697767825
 21
36.3805558735
  0
LINE
  5
23E
100
AcDbEntity
  8
0
100
AcDbLine
 62
7
  6
BYLAYER
 10
15.4991298996
 20
93.8160232907
 11
15.4991298996
 21
106.5939705681
  0
LINE
  5
23F
100
AcDbEntity
  8
0
100
AcDbLine
 62
7
  6
BYLAYER
 10
15.974143093
 20
102.3801474032
 11
15.974143093
 21
97.6934235289
  0
LINE
  5
240
100
AcDbEntity
  8
0
100
AcDbLine
 62
7
  6
BYLAYER
 10
60.0433701178
 20
17.2490999503
 11
60.1869308091
 21
17.1575990041
  0
LINE
  5
241
100
AcDbEntity
  8
0
100
AcDbLine
 62
7
  6
BYLAYER
 10
57.3258390883
 20
18.5185895473
 11
59.0829468064
 21
17.3952759703
  0
LINE
  5
242
100
AcDbEntity
  8
0
100
AcDbLine
 62
7
  6
BYLAYER
 10
30.691212843
 20
26.8655100204
 11
30.533345968
 21
27.1221306157
  0
LINE
  5
243
100
AcDbEntity
  8
0
100
AcDbLine
 62
7
  6
BYLAYER
 10
29.1984099238
 20
33.1955856801
 11
29.5555920159
 21
32.5769315835
  0
LINE
  5
244
100
AcDbEntity
  8
0
100
AcDbLine
 62
7
  6
BYLAYER
 10
28.9559139924
 20
33.9291496065
 11
20.0893657273
 21
49.286376438
  0
LINE
  5
245
100
AcDbEntity
  8
0
100
AcDbLine
 62
7
  6
BYLAYER
 10
19.357236413
 20
50.5623014139
 11
29.1197812674
 21
33.6531715813
  0
LINE
  5
246
100
AcDbEntity
  8
0
100
AcDbLine
 62
7
  6
BYLAYER
 10
20.688285182
 20
40.8105333937
 11
22.3641352306
 21
36.4912927053
  0
LINE
  5
247
100
AcDbEntity
  8
0
100
AcDbLine
 62
7
  6
BYLAYER
 10
13.0289959102
 20
69.2269373946
 11
14.4203122604
 21
59.2959131756
  0
LINE
  5
248
100
AcDbEntity
  8
0
100
AcDbLine
 62
7
  6
BYLAYER
 10
19.7548979842
 20
101.547087604
 11
19.7548979842
 21
99.8762303535
  0
LINE
  5
249
100
AcDbEntity
  8
0
100
AcDbLine
 62
7
  6
BYLAYER
 10
35.6742366926
 20
108.3683051806
 11
35.5028476635
 21
107.9865452944
  0
LINE
  5
24A
100
AcDbEntity
  8
0
100
AcDbLine
 62
7
  6
BYLAYER
 10
20.0893657273
 20
49.286376438
 11
14.7697767825
 21
53.775692602
  0
LINE
  5
24B
100
AcDbEntity
  8
0
100
AcDbLine
 62
7
  6
BYLAYER
 10
14.7290820176
 20
54.4681010071
 11
19.357236413
 21
50.5623014139
  0
LINE
  5
24C
100
AcDbEntity
  8
0
100
AcDbLine
 62
7
  6
BYLAYER
 10
15.4991298996
 20
93.8160232907
 11
16.9331885004
 21
85.8256062885
  0
LINE
  5
24D
100
AcDbEntity
  8
0
100
AcDbLine
 62
7
  6
BYLAYER
 10
25.4320149716
 20
26.3010297487
 11
25.2771843311
 21
29.9104665679
  0
LINE
  5
24E
100
AcDbEntity
  8
0
100
AcDbLine
 62
7
  6
BYLAYER
 10
21.7794579531
 20
94.3417992556
 11
21.7794579531
 21
99.0285231299
  0
LINE
  5
24F
100
AcDbEntity
  8
0
100
AcDbLine
 62
7
  6
BYLAYER
 10
52.0238325263
 20
98.9957702262
 11
52.7786391333
 21
99.5418821818
  0
LINE
  5
250
100
AcDbEntity
  8
0
100
AcDbLine
 62
7
  6
BYLAYER
 10
38.4397449368
 20
23.7023770958
 11
36.7666765693
 21
28.019554581
  0
LINE
  5
251
100
AcDbEntity
  8
0
100
AcDbLine
 62
7
  6
BYLAYER
 10
30.1840378696
 20
27.0775574455
 11
28.9559139924
 21
33.9291496065
  0
LINE
  5
252
100
AcDbEntity
  8
0
100
AcDbLine
 62
7
  6
BYLAYER
 10
29.5555920159
 20
32.5769315835
 11
30.5326308145
 21
27.1261203923
  0
LINE
  5
253
100
AcDbEntity
  8
0
100
AcDbLine
 62
7
  6
BYLAYER
 10
29.1197812674
 20
33.6531715813
 11
29.1984099238
 21
33.1955856801
  0
LINE
  5
254
100
AcDbEntity
  8
0
100
AcDbLine
 62
7
  6
BYLAYER
 10
29.1396778291
 20
33.6454596159
 11
29.1984099238
 21
33.1955856801
  0
LINE
  5
255
100
AcDbEntity
  8
0
100
AcDbLine
 62
7
  6
BYLAYER
 10
35.5028476635
 20
107.9865452944
 11
35.4132607888
 21
107.5808512466
  0
LINE
  5
256
100
AcDbEntity
  8
0
100
AcDbLine
 62
7
  6
BYLAYER
 10
57.0413577147
 20
94.5519202404
 11
60.3988273201
 21
96.4903446501
  0
LINE
  5
257
100
AcDbEntity
  8
0
100
AcDbLine
 62
7
  6
BYLAYER
 10
58.4608250473
 20
93.9947020096
 11
61.3762285889
 21
95.6779009818
  0
LINE
  5
258
100
AcDbEntity
  8
0
100
AcDbLine
 62
7
  6
BYLAYER
 10
51.481018908
 20
88.0436495613
 11
70.1691022292
 21
98.8331550927
  0
LINE
  5
259
100
AcDbEntity
  8
0
100
AcDbLine
 62
7
  6
BYLAYER
 10
43.3906615347
 20
20.8440287298
 11
42.8898791662
 21
22.1319537997
  0
LINE
  5
25A
100
AcDbEntity
  8
0
100
AcDbLine
 62
7
  6
BYLAYER
 10
41.0538194268
 20
28.895680358
 11
42.220499828
 21
25.8851839204
  0
LINE
  5
25B
100
AcDbEntity
  8
0
100
AcDbLine
 62
7
  6
BYLAYER
 10
41.7858816719
 20
28.4730335853
 11
42.275282623
 21
27.1916794311
  0
LINE
  5
25C
100
AcDbEntity
  8
0
100
AcDbLine
 62
7
  6
BYLAYER
 10
30.5470665499
 20
19.4668793084
 11
30.5470665499
 21
21.1083734045
  0
LINE
  5
25D
100
AcDbEntity
  8
0
100
AcDbLine
 62
7
  6
BYLAYER
 10
73.1737964403
 20
97.0984333258
 11
54.4857131191
 21
86.3089277943
  0
LINE
  5
25E
100
AcDbEntity
  8
0
100
AcDbLine
 62
7
  6
BYLAYER
 10
53.7377385488
 20
85.0097144047
 11
74.9688614175
 21
97.2674357393
  0
LINE
  5
25F
100
AcDbEntity
  8
0
100
AcDbLine
 62
7
  6
BYLAYER
 10
55.7275744973
 20
83.4381551287
 11
55.9264907355
 21
83.5138571501
  0
LINE
  5
260
100
AcDbEntity
  8
0
100
AcDbLine
 62
7
  6
BYLAYER
 10
46.6706340574
 20
24.3147606243
 11
47.1714164259
 21
23.0268355543
  0
LINE
  5
261
100
AcDbEntity
  8
0
100
AcDbLine
 62
7
  6
BYLAYER
 10
52.5564367318
 20
15.5518284324
 11
50.8805866832
 21
19.8710691208
  0
LINE
  5
262
100
AcDbEntity
  8
0
100
AcDbLine
 62
7
  6
BYLAYER
 10
48.8537419185
 20
24.3924948834
 11
50.5268102861
 21
20.0753173982
  0
LINE
  5
263
100
AcDbEntity
  8
0
100
AcDbLine
 62
7
  6
BYLAYER
 10
35.4132607888
 20
107.5808512466
 11
35.4132607888
 21
107.2308841226
  0
LINE
  5
264
100
AcDbEntity
  8
0
100
AcDbLine
 62
7
  6
BYLAYER
 10
15.6607350362
 20
40.3614150582
 11
17.3365850848
 21
42.7455945702
  0
LINE
  5
265
100
AcDbEntity
  8
0
100
AcDbLine
 62
7
  6
BYLAYER
 10
53.8998563311
 20
83.5919712084
 11
75.6034428578
 21
96.122467935
  0
LINE
  5
266
100
AcDbEntity
  8
0
100
AcDbLine
 62
7
  6
BYLAYER
 10
53.8294113472
 20
83.3513301522
 11
75.5329978739
 21
95.8818268787
  0
LINE
  5
267
100
AcDbEntity
  8
0
100
AcDbLine
 62
7
  6
BYLAYER
 10
54.0933404281
 20
83.0465740929
 11
75.7969269547
 21
95.5770708195
  0
LINE
  5
268
100
AcDbEntity
  8
0
100
AcDbLine
 62
7
  6
BYLAYER
 10
77.3521495932
 20
95.9380984374
 11
55.6485630665
 21
83.4076017108
  0
LINE
  5
269
100
AcDbEntity
  8
0
100
AcDbLine
 62
7
  6
BYLAYER
 10
55.7275744973
 20
83.4381551287
 11
77.3950154459
 21
95.9477833206
  0
LINE
  5
26A
100
AcDbEntity
  8
0
100
AcDbLine
 62
7
  6
BYLAYER
 10
64.474867513
 20
88.1335654465
 11
71.3564997872
 21
92.1066539763
  0
LINE
  5
26B
100
AcDbEntity
  8
0
100
AcDbLine
 62
7
  6
BYLAYER
 10
66.4511338478
 20
89.1168548338
 11
69.8127273161
 21
91.0576601425
  0
LINE
  5
26C
100
AcDbEntity
  8
0
100
AcDbLine
 62
7
  6
BYLAYER
 10
55.4218599873
 20
82.7228095367
 11
55.0379980778
 21
82.5011880828
  0
LINE
  5
26D
100
AcDbEntity
  8
0
100
AcDbLine
 62
7
  6
BYLAYER
 10
53.9910837707
 20
81.6732290405
 11
54.130473238
 21
81.7537051066
  0
LINE
  5
26E
100
AcDbEntity
  8
0
100
AcDbLine
 62
7
  6
BYLAYER
 10
67.7372340215
 20
88.3743413502
 11
71.0988274898
 21
90.3151466589
  0
LINE
  5
26F
100
AcDbEntity
  8
0
100
AcDbLine
 62
7
  6
BYLAYER
 10
77.3521570047
 20
95.9380856142
 11
77.3580175645
 21
95.941317846
  0
LINE
  5
270
100
AcDbEntity
  8
0
100
AcDbLine
 62
7
  6
BYLAYER
 10
55.6544310378
 20
83.4108211195
 11
55.648570478
 21
83.4075888876
  0
LINE
  5
271
100
AcDbEntity
  8
0
100
AcDbLine
 62
7
  6
BYLAYER
 10
12.7980750924
 20
108.7883588814
 11
13.029045928
 21
108.378857469
  0
LINE
  5
272
100
AcDbEntity
  8
0
100
AcDbLine
 62
7
  6
BYLAYER
 10
55.1682736603
 20
20.7473379925
 11
56.337191623
 21
17.7346352569
  0
LINE
  5
273
100
AcDbEntity
  8
0
100
AcDbLine
 62
7
  6
BYLAYER
 10
39.8911330745
 20
106.2463451614
 11
39.8911330745
 21
106.2859356376
  0
LINE
  5
274
100
AcDbEntity
  8
0
100
AcDbLine
 62
7
  6
BYLAYER
 10
40.4568161443
 20
106.6125309607
 11
40.4568161443
 21
106.5729404845
  0
LINE
  5
275
100
AcDbEntity
  8
0
100
AcDbLine
 62
7
  6
BYLAYER
 10
41.0145601875
 20
107.5808512466
 11
41.0145601875
 21
107.2474057595
  0
LINE
  5
276
100
AcDbEntity
  8
0
100
AcDbLine
 62
7
  6
BYLAYER
 10
41.7496653473
 20
17.8635348004
 11
41.7496653473
 21
18.0129162892
  0
LINE
  5
277
100
AcDbEntity
  8
0
100
AcDbLine
 62
7
  6
BYLAYER
 10
42.3452058006
 20
19.4668793084
 11
42.3452058006
 21
20.1372079926
  0
LINE
  5
278
100
AcDbEntity
  8
0
100
AcDbLine
 62
7
  6
BYLAYER
 10
74.5785329529
 20
90.0374444564
 11
68.0816848271
 21
86.2865098322
  0
LINE
  5
279
100
AcDbEntity
  8
0
100
AcDbLine
 62
7
  6
BYLAYER
 10
71.2622311269
 20
87.6233900606
 11
71.8304805168
 21
87.9514670404
  0
LINE
  5
27A
100
AcDbEntity
  8
0
100
AcDbLine
 62
7
  6
BYLAYER
 10
14.7697767825
 20
53.775692602
 11
15.2327893909
 21
54.0430114604
  0
LINE
  5
27B
100
AcDbEntity
  8
0
100
AcDbLine
 62
7
  6
BYLAYER
 10
81.0492209955
 20
91.2089163411
 11
81.0264938343
 21
91.1957948868
  0
LINE
  5
27C
100
AcDbEntity
  8
0
100
AcDbLine
 62
7
  6
BYLAYER
 10
60.0539171059
 20
79.0873443448
 11
59.9720726694
 21
79.0400917194
  0
LINE
  5
27D
100
AcDbEntity
  8
0
100
AcDbLine
 62
7
  6
BYLAYER
 10
59.9720726694
 20
78.9366782156
 11
60.1869308091
 21
79.0607258799
  0
LINE
  5
27E
100
AcDbEntity
  8
0
100
AcDbLine
 62
7
  6
BYLAYER
 10
80.8343628557
 20
90.9814551729
 11
81.0492209955
 21
91.1055028373
  0
LINE
  5
27F
100
AcDbEntity
  8
0
100
AcDbLine
 62
7
  6
BYLAYER
 10
71.2622311269
 20
84.456127549
 11
71.8304805168
 21
84.7842045288
  0
LINE
  5
280
100
AcDbEntity
  8
0
100
AcDbLine
 62
7
  6
BYLAYER
 10
18.8768005231
 20
94.0825006636
 11
15.974143093
 21
97.6934235289
  0
LINE
  5
281
100
AcDbEntity
  8
0
100
AcDbLine
 62
7
  6
BYLAYER
 10
55.908136829
 20
20.3201874563
 11
57.5839868776
 21
16.0009467679
  0
LINE
  5
282
100
AcDbEntity
  8
0
100
AcDbLine
 62
7
  6
BYLAYER
 10
22.3641352306
 20
36.4912927053
 11
20.688285182
 21
34.1071131933
  0
LINE
  5
283
100
AcDbEntity
  8
0
100
AcDbLine
 62
7
  6
BYLAYER
 10
19.7548979842
 20
99.8762303535
 11
21.7794579531
 21
97.3576658794
  0
LINE
  5
284
100
AcDbEntity
  8
0
100
AcDbLine
 62
7
  6
BYLAYER
 10
55.5615432812
 20
83.2765837408
 11
55.3908220192
 21
82.5997595598
  0
LINE
  5
285
100
AcDbEntity
  8
0
100
AcDbLine
 62
7
  6
BYLAYER
 10
53.8294113472
 20
83.3513301522
 11
53.8998563311
 21
83.5919712084
  0
LINE
  5
286
100
AcDbEntity
  8
0
100
AcDbLine
 62
7
  6
BYLAYER
 10
18.8768005231
 20
102.6394459952
 11
21.7794579531
 21
99.0285231299
  0
LINE
  5
287
100
AcDbEntity
  8
0
100
AcDbLine
 62
7
  6
BYLAYER
 10
56.9730151469
 20
18.5645819194
 11
54.4349590519
 21
50.7300008161
  0
LINE
  5
288
100
AcDbEntity
  8
0
100
AcDbLine
 62
7
  6
BYLAYER
 10
54.8333086632
 20
50.5131609318
 11
57.3258390883
 21
18.5185895473
  0
LINE
  5
289
100
AcDbEntity
  8
0
100
AcDbLine
 62
7
  6
BYLAYER
 10
54.4349590519
 20
50.7300008161
 11
53.5813527419
 21
82.0412036897
  0
LINE
  5
28A
100
AcDbEntity
  8
0
100
AcDbLine
 62
7
  6
BYLAYER
 10
53.9910837707
 20
81.6732290405
 11
54.8333086632
 21
50.5131609318
  0
LINE
  5
28B
100
AcDbEntity
  8
0
100
AcDbLine
 62
7
  6
BYLAYER
 10
53.5832795552
 20
84.8666801508
 11
53.5846879908
 21
84.6057607917
  0
LINE
  5
28C
100
AcDbEntity
  8
0
100
AcDbLine
 62
7
  6
BYLAYER
 10
15.6607350362
 20
40.3614150582
 11
18.5634426257
 21
42.0372840628
  0
LINE
  5
28D
100
AcDbEntity
  8
0
100
AcDbLine
 62
7
  6
BYLAYER
 10
59.0829468064
 20
81.4314113978
 11
59.0829468064
 21
79.1607785194
  0
LINE
  5
28E
100
AcDbEntity
  8
0
100
AcDbLine
 62
7
  6
BYLAYER
 10
59.0829468064
 20
79.0522802493
 11
59.0829468064
 21
17.3952759703
  0
LINE
  5
28F
100
AcDbEntity
  8
0
100
AcDbLine
 62
7
  6
BYLAYER
 10
59.0829468064
 20
17.2197796506
 11
59.0829468064
 21
10.6429606679
  0
LINE
  5
290
100
AcDbEntity
  8
0
100
AcDbLine
 62
7
  6
BYLAYER
 10
59.9720726694
 20
17.207936595
 11
59.9720726694
 21
78.9366782156
  0
LINE
  5
291
100
AcDbEntity
  8
0
100
AcDbLine
 62
7
  6
BYLAYER
 10
59.9720726694
 20
79.0400917194
 11
59.9720726694
 21
79.0724750748
  0
LINE
  5
292
100
AcDbEntity
  8
0
100
AcDbLine
 62
7
  6
BYLAYER
 10
60.1869308091
 20
17.1575990041
 11
60.1869308091
 21
17.3319842593
  0
LINE
  5
293
100
AcDbEntity
  8
0
100
AcDbLine
 62
7
  6
BYLAYER
 10
60.1869308091
 20
79.0607258799
 11
60.1869308091
 21
79.1188039672
  0
LINE
  5
294
100
AcDbEntity
  8
0
100
AcDbLine
 62
7
  6
BYLAYER
 10
60.3310258577
 20
10.1767912387
 11
60.3310258577
 21
17.1159156063
  0
LINE
  5
295
100
AcDbEntity
  8
0
100
AcDbLine
 62
7
  6
BYLAYER
 10
60.3310258577
 20
79.1672014283
 11
60.3310258577
 21
81.6601856989
  0
LINE
  5
296
100
AcDbEntity
  8
0
100
AcDbLine
 62
7
  6
BYLAYER
 10
36.7666765693
 20
28.019554581
 11
38.4397449368
 21
30.4048828258
  0
LINE
  5
297
100
AcDbEntity
  8
0
100
AcDbLine
 62
7
  6
BYLAYER
 10
17.3365850848
 20
36.0421743698
 11
21.5863973964
 21
38.4957900058
  0
LINE
  5
298
100
AcDbEntity
  8
0
100
AcDbLine
 62
7
  6
BYLAYER
 10
40.7535842837
 20
108.3683051806
 11
40.9249733128
 21
107.9865452944
  0
LINE
  5
299
100
AcDbEntity
  8
0
100
AcDbLine
 62
7
  6
BYLAYER
 10
53.8998563311
 20
83.5919712084
 11
53.5846879908
 21
84.6057607917
  0
LINE
  5
29A
100
AcDbEntity
  8
0
100
AcDbLine
 62
7
  6
BYLAYER
 10
54.4349590519
 20
50.7300008161
 11
54.8214169887
 21
50.9531210782
  0
LINE
  5
29B
100
AcDbEntity
  8
0
100
AcDbLine
 62
7
  6
BYLAYER
 10
59.0829468064
 20
79.0522802493
 11
53.9910837707
 21
81.6732290405
  0
LINE
  5
29C
100
AcDbEntity
  8
0
100
AcDbLine
 62
7
  6
BYLAYER
 10
53.5813527419
 20
82.0412036897
 11
59.0829468064
 21
79.1607785194
  0
LINE
  5
29D
100
AcDbEntity
  8
0
100
AcDbLine
 62
7
  6
BYLAYER
 10
54.0933404281
 20
83.0465740929
 11
53.8294113472
 21
83.3513301522
  0
LINE
  5
29E
100
AcDbEntity
  8
0
100
AcDbLine
 62
7
  6
BYLAYER
 10
75.6034428578
 20
96.122467935
 11
75.5329978739
 21
95.8818268787
  0
LINE
  5
29F
100
AcDbEntity
  8
0
100
AcDbLine
 62
7
  6
BYLAYER
 10
42.275282623
 20
22.486783252
 11
41.7858816719
 21
21.7705278553
  0
LINE
  5
2A0
100
AcDbEntity
  8
0
100
AcDbLine
 62
7
  6
BYLAYER
 10
42.8898791662
 20
26.8368499788
 11
43.3906615347
 21
27.5465344597
  0
LINE
  5
2A1
100
AcDbEntity
  8
0
100
AcDbLine
 62
7
  6
BYLAYER
 10
60.1123415723
 20
79.0991194048
 11
60.1869308091
 21
79.0607258799
  0
LINE
  5
2A2
100
AcDbEntity
  8
0
100
AcDbLine
 62
7
  6
BYLAYER
 10
54.0933404281
 20
83.0465740929
 11
55.0379980778
 21
82.5011880828
  0
LINE
  5
2A3
100
AcDbEntity
  8
0
100
AcDbLine
 62
7
  6
BYLAYER
 10
59.0829468064
 20
81.4314113978
 11
55.6544310378
 21
83.4108211195
  0
LINE
  5
2A4
100
AcDbEntity
  8
0
100
AcDbLine
 62
7
  6
BYLAYER
 10
53.5846879908
 20
84.6057607917
 11
15.4991298996
 21
106.5939705681
  0
LINE
  5
2A5
100
AcDbEntity
  8
0
100
AcDbLine
 62
7
  6
BYLAYER
 10
15.5667072318
 20
106.8150618767
 11
53.5832795552
 21
84.8666801508
  0
LINE
  5
2A6
100
AcDbEntity
  8
0
100
AcDbLine
 62
7
  6
BYLAYER
 10
55.9264907355
 20
83.5138571501
 11
59.4447671535
 21
81.4826252656
  0
LINE
  5
2A7
100
AcDbEntity
  8
0
100
AcDbLine
 62
7
  6
BYLAYER
 10
13.0289959102
 20
108.3788232243
 11
15.6383000292
 21
106.8723748692
  0
LINE
  5
2A8
100
AcDbEntity
  8
0
100
AcDbLine
 62
7
  6
BYLAYER
 10
54.4857131191
 20
86.3089277943
 11
51.481018908
 21
88.0436495613
  0
LINE
  5
2A9
100
AcDbEntity
  8
0
100
AcDbLine
 62
7
  6
BYLAYER
 10
71.2622311269
 20
15.6503064719
 11
71.2622311269
 21
22.2936724455
  0
LINE
  5
2AA
100
AcDbEntity
  8
0
100
AcDbLine
 62
7
  6
BYLAYER
 10
71.2622311269
 20
84.456127549
 11
71.2622311269
 21
87.6233900606
  0
LINE
  5
2AB
100
AcDbEntity
  8
0
100
AcDbLine
 62
7
  6
BYLAYER
 10
71.8304805168
 20
87.9514670404
 11
71.8304805168
 21
84.7842045288
  0
LINE
  5
2AC
100
AcDbEntity
  8
0
100
AcDbLine
 62
7
  6
BYLAYER
 10
71.8304805168
 20
22.6217494253
 11
71.8304805168
 21
15.9783834518
  0
LINE
  5
2AD
100
AcDbEntity
  8
0
100
AcDbLine
 62
7
  6
BYLAYER
 10
30.1840378696
 20
27.0775574455
 11
30.5078274161
 21
27.2644963114
  0
LINE
  5
2AE
100
AcDbEntity
  8
0
100
AcDbLine
 62
7
  6
BYLAYER
 10
77.4949225978
 20
95.9663227606
 11
77.3950154459
 21
95.9477833206
  0
LINE
  5
2AF
100
AcDbEntity
  8
0
100
AcDbLine
 62
7
  6
BYLAYER
 10
50.5268102861
 20
20.0753173982
 11
48.8537419185
 21
17.6899891535
  0
LINE
  5
2B0
100
AcDbEntity
  8
0
100
AcDbLine
 62
7
  6
BYLAYER
 10
50.8805866832
 20
19.8710691208
 11
52.5564367318
 21
22.2552486328
  0
LINE
  5
2B1
100
AcDbEntity
  8
0
100
AcDbLine
 62
7
  6
BYLAYER
 10
42.8603093702
 20
26.8161578411
 11
42.8898791662
 21
26.8368499788
  0
LINE
  5
2B2
100
AcDbEntity
  8
0
100
AcDbLine
 62
7
  6
BYLAYER
 10
36.7666765693
 20
28.019554581
 11
39.6689881758
 21
29.6951949661
  0
LINE
  5
2B3
100
AcDbEntity
  8
0
100
AcDbLine
 62
7
  6
BYLAYER
 10
21.7794579531
 20
94.3417992556
 11
18.8768005231
 21
94.0825006636
  0
LINE
  5
2B4
100
AcDbEntity
  8
0
100
AcDbLine
 62
7
  6
BYLAYER
 10
18.6785250686
 20
113.7352780804
 11
18.458071414
 21
113.8625541778
  0
LINE
  5
2B5
100
AcDbEntity
  8
0
100
AcDbLine
 62
7
  6
BYLAYER
 10
51.5060809257
 20
95.5560312895
 11
54.8727661713
 21
93.6123186293
  0
LINE
  5
2B6
100
AcDbEntity
  8
0
100
AcDbLine
 62
7
  6
BYLAYER
 10
67.7372340215
 20
88.3743413502
 11
66.4511338478
 21
89.1168548338
  0
LINE
  5
2B7
100
AcDbEntity
  8
0
100
AcDbLine
 62
7
  6
BYLAYER
 10
33.627125875
 20
108.0673759547
 11
21.3124321764
 21
115.177106833
  0
LINE
  5
2B8
100
AcDbEntity
  8
0
100
AcDbLine
 62
7
  6
BYLAYER
 10
80.8343628557
 20
29.2527135524
 11
80.8343628557
 21
29.0783282971
  0
LINE
  5
2B9
100
AcDbEntity
  8
0
100
AcDbLine
 62
7
  6
BYLAYER
 10
80.8956674238
 20
22.0497217108
 11
80.8956674238
 21
28.9888460784
  0
LINE
  5
2BA
100
AcDbEntity
  8
0
100
AcDbLine
 62
7
  6
BYLAYER
 10
80.8956674238
 20
91.0401319005
 11
80.8956674238
 21
93.5331131183
  0
LINE
  5
2BB
100
AcDbEntity
  8
0
100
AcDbLine
 62
7
  6
BYLAYER
 10
81.0492209955
 20
91.2412996965
 11
81.0492209955
 21
91.2089163411
  0
LINE
  5
2BC
100
AcDbEntity
  8
0
100
AcDbLine
 62
7
  6
BYLAYER
 10
81.0492209955
 20
91.1055028373
 11
81.0492209955
 21
29.3767612167
  0
LINE
  5
2BD
100
AcDbEntity
  8
0
100
AcDbLine
 62
7
  6
BYLAYER
 10
81.0696242433
 20
93.7758731475
 11
81.0696242433
 21
91.3190993833
  0
LINE
  5
2BE
100
AcDbEntity
  8
0
100
AcDbLine
 62
7
  6
BYLAYER
 10
81.0696242433
 20
91.2148966975
 11
81.0696242433
 21
29.4972890818
  0
LINE
  5
2BF
100
AcDbEntity
  8
0
100
AcDbLine
 62
7
  6
BYLAYER
 10
81.0696242433
 20
29.322606115
 11
81.0696242433
 21
22.4074751477
  0
LINE
  5
2C0
100
AcDbEntity
  8
0
100
AcDbLine
 62
7
  6
BYLAYER
 10
42.3048524189
 20
22.5074753897
 11
42.275282623
 21
22.486783252
  0
LINE
  5
2C1
100
AcDbEntity
  8
0
100
AcDbLine
 62
7
  6
BYLAYER
 10
43.754881841
 20
27.3362565249
 11
42.8898791662
 21
26.8368499788
  0
LINE
  5
2C2
100
AcDbEntity
  8
0
100
AcDbLine
 62
7
  6
BYLAYER
 10
43.7583814643
 20
27.3342360622
 11
42.8604915494
 21
26.8158421725
  0
LINE
  5
2C3
100
AcDbEntity
  8
0
100
AcDbLine
 62
7
  6
BYLAYER
 10
38.4397449368
 20
23.7023770958
 11
42.220499828
 21
25.8851839204
  0
LINE
  5
2C4
100
AcDbEntity
  8
0
100
AcDbLine
 62
7
  6
BYLAYER
 10
46.0854251309
 20
24.6905978829
 11
42.3046702397
 21
22.5077910583
  0
LINE
  5
2C5
100
AcDbEntity
  8
0
100
AcDbLine
 62
7
  6
BYLAYER
 10
39.4506027376
 20
107.1538649234
 11
40.4568161443
 21
106.5729404845
  0
LINE
  5
2C6
100
AcDbEntity
  8
0
100
AcDbLine
 62
7
  6
BYLAYER
 10
24.6740256447
 20
117.1179121417
 11
36.9887193432
 21
110.0081812635
  0
LINE
  5
2C7
100
AcDbEntity
  8
0
100
AcDbLine
 62
7
  6
BYLAYER
 10
69.8127273161
 20
91.0576601425
 11
71.0988274898
 21
90.3151466589
  0
LINE
  5
2C8
100
AcDbEntity
  8
0
100
AcDbLine
 62
7
  6
BYLAYER
 10
57.5839868776
 20
16.0009467679
 11
55.908136829
 21
13.6167672559
  0
LINE
  5
2C9
100
AcDbEntity
  8
0
100
AcDbLine
 62
7
  6
BYLAYER
 10
42.8898791662
 20
22.1319537997
 11
46.6706340574
 21
24.3147606243
  0
LINE
  5
2CA
100
AcDbEntity
  8
0
100
AcDbLine
 62
7
  6
BYLAYER
 10
43.3906615347
 20
20.8440287298
 11
47.1714164259
 21
23.0268355543
  0
LINE
  5
2CB
100
AcDbEntity
  8
0
100
AcDbLine
 62
7
  6
BYLAYER
 10
48.8206152447
 20
23.1805629306
 11
49.231482211
 21
23.4177756682
  0
LINE
  5
2CC
100
AcDbEntity
  8
0
100
AcDbLine
 62
7
  6
BYLAYER
 10
15.974143093
 20
102.3801474032
 11
18.8768005231
 21
102.6394459952
  0
LINE
  5
2CD
100
AcDbEntity
  8
0
100
AcDbLine
 62
7
  6
BYLAYER
 10
57.9848017626
 20
100.0074189086
 11
61.3514870083
 21
98.0637062484
  0
LINE
  5
2CE
100
AcDbEntity
  8
0
100
AcDbLine
 62
7
  6
BYLAYER
 10
26.7005109041
 20
118.6213004303
 11
26.9209645586
 21
118.4940243328
  0
LINE
  5
2CF
100
AcDbEntity
  8
0
100
AcDbLine
 62
7
  6
BYLAYER
 10
75.2882745174
 20
97.1362575183
 11
75.6034428578
 21
96.122467935
  0
LINE
  5
2D0
100
AcDbEntity
  8
0
100
AcDbLine
 62
7
  6
BYLAYER
 10
50.8805866832
 20
19.8710691208
 11
53.7832942727
 21
21.5469381254
  0
LINE
  5
2D1
100
AcDbEntity
  8
0
100
AcDbLine
 62
7
  6
BYLAYER
 10
76.2618811906
 20
95.3086354391
 11
75.7969269547
 21
95.5770708195
  0
LINE
  5
2D2
100
AcDbEntity
  8
0
100
AcDbLine
 62
7
  6
BYLAYER
 10
70.1691022292
 20
98.8331550927
 11
73.1737964403
 21
97.0984333258
  0
LINE
  5
2D3
100
AcDbEntity
  8
0
100
AcDbLine
 62
7
  6
BYLAYER
 10
37.0635462967
 20
119.2421727315
 11
34.3669418835
 21
120.7990227948
  0
LINE
  5
2D4
100
AcDbEntity
  8
0
100
AcDbLine
 62
7
  6
BYLAYER
 10
81.0131990158
 20
93.9350908761
 11
77.4949225978
 21
95.9663227606
  0
LINE
  5
2D5
100
AcDbEntity
  8
0
100
AcDbLine
 62
7
  6
BYLAYER
 10
75.1517114175
 20
97.3191457613
 11
37.1351390941
 21
119.2675274872
  0
LINE
  5
2D6
100
AcDbEntity
  8
0
100
AcDbLine
 62
7
  6
BYLAYER
 10
75.5329978739
 20
95.8818268787
 11
75.7969269547
 21
95.5770708195
  0
LINE
  5
2D7
100
AcDbEntity
  8
0
100
AcDbLine
 62
7
  6
BYLAYER
 10
75.2882745174
 20
97.1362575183
 11
75.1517114175
 21
97.3191457613
  0
LINE
  5
2D8
100
AcDbEntity
  8
0
100
AcDbLine
 62
7
  6
BYLAYER
 10
81.0696666972
 20
93.775868117
 11
81.0131306799
 21
93.935130329
  0
LINE
  5
2D9
100
AcDbEntity
  8
0
100
AcDbLine
 62
7
  6
BYLAYER
 10
56.9730151469
 20
18.5645819194
 11
57.3072239888
 21
18.7575363324
  0
LINE
  5
2DA
100
AcDbEntity
  8
0
100
AcDbLine
 62
7
  6
BYLAYER
 10
52.5564367318
 20
15.5518284324
 11
56.337191623
 21
17.7346352569
  0
LINE
  5
2DB
100
AcDbEntity
  8
0
100
AcDbLine
 62
7
  6
BYLAYER
 10
81.0492209955
 20
29.3767612167
 11
80.8343628557
 21
29.2527135524
  0
LINE
  5
2DC
100
AcDbEntity
  8
0
100
AcDbLine
 62
7
  6
BYLAYER
 10
60.1869308091
 20
17.3319842593
 11
59.9720726694
 21
17.207936595
  0
LINE
  5
2DD
100
AcDbEntity
  8
0
100
AcDbLine
 62
7
  6
BYLAYER
 10
60.1869308091
 20
17.1574737354
 11
80.8343628557
 21
29.0782030285
  0
LINE
  5
2DE
100
AcDbEntity
  8
0
100
AcDbLine
 62
7
  6
BYLAYER
 10
71.2622311269
 20
22.2936724455
 11
71.8304805168
 21
22.6217494253
  0
LINE
  5
2DF
100
AcDbEntity
  8
0
100
AcDbLine
 62
7
  6
BYLAYER
 10
71.8304805168
 20
15.9783834518
 11
71.2622311269
 21
15.6503064719
  0
LINE
  5
2E0
100
AcDbEntity
  8
0
100
AcDbLine
 62
7
  6
BYLAYER
 10
74.1692169179
 20
17.2298300977
 11
68.7985111932
 21
14.1290702108
  0
ARC
  5
2E1
100
AcDbEntity
  8
0
100
AcDbCircle
 62
7
  6
BYLAYER
 10
83.0383750513
 20
29.3581614641
 40
92.0439126876
100
AcDbArc
 50
125.2620209947
 51
127.6208982663
  0
ARC
  5
2E2
100
AcDbEntity
  8
0
100
AcDbCircle
 62
7
  6
BYLAYER
 10
99.049700042
 20
25.8778699888
 40
80.5035775792
100
AcDbArc
 50
121.4543840598
 51
122.5942419005
  0
ARC
  5
2E3
100
AcDbEntity
  8
0
100
AcDbCircle
 62
7
  6
BYLAYER
 10
94.3210728338
 20
34.0355977719
 40
71.0725977316
100
AcDbArc
 50
117.2700779412
 51
118.5085616167
  0
ARC
  5
2E4
100
AcDbEntity
  8
0
100
AcDbCircle
 62
7
  6
BYLAYER
 10
96.3343979671
 20
38.8557676674
 40
62.8065457817
100
AcDbArc
 50
132.704708555
 51
132.8967522522
  0
ARC
  5
2E5
100
AcDbEntity
  8
0
100
AcDbCircle
 62
7
  6
BYLAYER
 10
67.4584405199
 20
56.1073714293
 40
61.0179605667
100
AcDbArc
 50
111.0521542791
 51
114.1529938232
  0
ARC
  5
2E6
100
AcDbEntity
  8
0
100
AcDbCircle
 62
7
  6
BYLAYER
 10
87.6303409963
 20
52.8447604106
 40
46.1918515378
100
AcDbArc
 50
105.6730652298
 51
105.9087652278
  0
ARC
  5
2E7
100
AcDbEntity
  8
0
100
AcDbCircle
 62
7
  6
BYLAYER
 10
41.7058405208
 20
82.1358222031
 40
39.6753578567
100
AcDbArc
 50
102.1152782294
 51
110.9957221183
  0
ARC
  5
2E8
100
AcDbEntity
  8
0
100
AcDbCircle
 62
7
  6
BYLAYER
 10
42.0673662636
 20
82.7869567279
 40
39.2887067611
100
AcDbArc
 50
129.0165921371
 51
137.7803148885
  0
ARC
  5
2E9
100
AcDbEntity
  8
0
100
AcDbCircle
 62
7
  6
BYLAYER
 10
26.0188099171
 20
98.7317665032
 40
16.9718848042
100
AcDbArc
 50
120.0098429534
 51
120.7816939752
  0
ARC
  5
2EA
100
AcDbEntity
  8
0
100
AcDbCircle
 62
7
  6
BYLAYER
 10
33.8599106388
 20
30.3991683185
 40
9.9101060164
100
AcDbArc
 50
239.9974550496
 51
240.8044172482
  0
ARC
  5
2EB
100
AcDbEntity
  8
0
100
AcDbCircle
 62
7
  6
BYLAYER
 10
38.6472802725
 20
109.1281453683
 40
3.1387803723
100
AcDbArc
 50
293.346164647
 51
295.4547990063
  0
ARC
  5
2EC
100
AcDbEntity
  8
0
100
AcDbCircle
 62
7
  6
BYLAYER
 10
38.7662673505
 20
108.8791147018
 40
2.8627839606
100
AcDbArc
 50
295.4467282445
 51
299.9218673852
  0
ARC
  5
2ED
100
AcDbEntity
  8
0
100
AcDbCircle
 62
7
  6
BYLAYER
 10
59.8208586144
 20
18.6152625568
 40
1.5890343737
100
AcDbArc
 50
265.2135061751
 51
276.5985930063
  0
ARC
  5
2EE
100
AcDbEntity
  8
0
100
AcDbCircle
 62
7
  6
BYLAYER
 10
80.4953650442
 20
29.4610996796
 40
0.6190843715
100
AcDbArc
 50
310.2860384489
 51
315.5209665813
  0
ARC
  5
2EF
100
AcDbEntity
  8
0
100
AcDbCircle
 62
7
  6
BYLAYER
 10
80.6850071769
 20
29.3196169484
 40
0.3848542356
100
AcDbArc
 50
11.0621257831
 51
13.251082913
  0
ARC
  5
2F0
100
AcDbEntity
  8
0
100
AcDbCircle
 62
7
  6
BYLAYER
 10
80.6913106349
 20
29.3208657099
 40
0.378428294
100
AcDbArc
 50
9.6085995454
 51
11.0596890469
  0
ARC
  5
2F1
100
AcDbEntity
  8
0
100
AcDbCircle
 62
7
  6
BYLAYER
 10
80.6959543258
 20
29.3216519681
 40
0.3737185099
100
AcDbArc
 50
8.07085702
 51
9.6085814534
  0
ARC
  5
2F2
100
AcDbEntity
  8
0
100
AcDbCircle
 62
7
  6
BYLAYER
 10
80.702921763
 20
29.3225823167
 40
0.3666894695
100
AcDbArc
 50
0.0038332971
 51
8.079775559
  0
SPLINE
  5
2F3
100
AcDbEntity
  8
0
100
AcDbSpline
 62
7
  6
BYLAYER
 70
0
 71
3
 72
12
 73
8
 74
0
 42
0.0000001
 43
0.0000001
 44
0.0000000001
 40
0.0
 40
0.0
 40
0.0
 40
0.0
 40
0.1142451621
 40
0.2380513334
 40
0.500865133
 40
0.7634488496
 40
1.0
 40
1.0
 40
1.0
 40
1.0
 10
14.7697767825
 20
36.3805558735
 30
0.0
 10
14.7695652514
 20
36.3527979339
 30
0.0
 10
14.7748239733
 20
36.2948752298
 30
0.0
 10
14.8027870375
 20
36.1761730435
 30
0.0
 10
14.86729092
 20
36.0304416449
 30
0.0
 10
14.9778604241
 20
35.8803962049
 30
0.0
 10
15.0726071553
 20
35.8014429139
 30
0.0
 10
15.122600724
 20
35.7730855168
 30
0.0
  0
SPLINE
  5
2F4
100
AcDbEntity
  8
0
100
AcDbSpline
 62
7
  6
BYLAYER
 70
0
 71
3
 72
14
 73
10
 74
0
 42
0.0000001
 43
0.0000001
 44
0.0000000001
 40
0.0
 40
0.0
 40
0.0
 40
0.0
 40
0.1080441924
 40
0.2181256593
 40
0.3321029086
 40
0.4514980961
 40
0.5774441129
 40
0.7107186073
 40
1.0
 40
1.0
 40
1.0
 40
1.0
 10
41.7496505808
 20
17.8635347522
 30
0.0
 10
41.7496599203
 20
17.7631354022
 30
0.0
 10
41.7322089806
 20
17.5600370881
 30
0.0
 10
41.6544100605
 20
17.260041161
 30
0.0
 10
41.5259175947
 20
16.9665234625
 30
0.0
 10
41.3484846793
 20
16.682431918
 30
0.0
 10
41.1239880497
 20
16.4103218735
 30
0.0
 10
40.7551468485
 20
16.0572931546
 30
0.0
 10
40.4291123078
 20
15.8328238573
 30
0.0
 10
40.1963132304
 20
15.6984180496
 30
0.0
  0
SPLINE
  5
2F5
100
AcDbEntity
  8
0
100
AcDbSpline
 62
7
  6
BYLAYER
 70
0
 71
3
 72
13
 73
9
 74
0
 42
0.0000001
 43
0.0000001
 44
0.0000000001
 40
0.0
 40
0.0
 40
0.0
 40
0.0
 40
0.2815949758
 40
0.4160265519
 40
0.545171351
 40
0.6684505948
 40
0.7854781138
 40
1.0
 40
1.0
 40
1.0
 40
1.0
 10
34.7868198234
 20
16.1986134522
 30
0.0
 10
34.4082815935
 20
16.2626616312
 30
0.0
 10
33.8536488308
 20
16.391440207
 30
0.0
 10
33.1508329334
 20
16.6348462836
 30
0.0
 10
32.6662215763
 20
16.8443300538
 30
0.0
 10
32.2210500145
 20
17.0815743086
 30
0.0
 10
31.7018770884
 20
17.4212220062
 30
0.0
 10
31.3596873574
 20
17.7242405691
 30
0.0
 10
31.1683839704
 20
17.9454721782
 30
0.0
  0
SPLINE
  5
2F6
100
AcDbEntity
  8
0
100
AcDbSpline
 62
7
  6
BYLAYER
 70
0
 71
3
 72
11
 73
7
 74
0
 42
0.0000001
 43
0.0000001
 44
0.0000000001
 40
0.0
 40
0.0
 40
0.0
 40
0.0
 40
0.269007852
 40
0.522381759
 40
0.7642553811
 40
1.0
 40
1.0
 40
1.0
 40
1.0
 10
31.1683839704
 20
17.9454721782
 30
0.0
 10
31.0700131255
 20
18.0592325285
 30
0.0
 10
30.8938605903
 20
18.2938230605
 30
0.0
 10
30.6952760081
 20
18.6744969699
 30
0.0
 10
30.5742672029
 20
19.0673269258
 30
0.0
 10
30.547089277
 20
19.3350820924
 30
0.0
 10
30.5470775678
 20
19.4668793087
 30
0.0
  0
SPLINE
  5
2F7
100
AcDbEntity
  8
0
100
AcDbSpline
 62
7
  6
BYLAYER
 70
0
 71
3
 72
11
 73
7
 74
0
 42
0.0000001
 43
0.0000001
 44
0.0000000001
 40
0.0
 40
0.0
 40
0.0
 40
0.0
 40
0.2356281724
 40
0.4774413746
 40
0.730866357
 40
1.0
 40
1.0
 40
1.0
 40
1.0
 10
42.3451947828
 20
19.4668793081
 30
0.0
 10
42.3452065492
 20
19.3344381815
 30
0.0
 10
42.3176922929
 20
19.0653414921
 30
0.0
 10
42.1955659653
 20
18.670594983
 30
0.0
 10
41.994961139
 20
18.2882766896
 30
0.0
 10
41.8172335931
 20
18.0527666028
 30
0.0
 10
41.7179606692
 20
17.9386235285
 30
0.0
  0
SPLINE
  5
2F8
100
AcDbEntity
  8
0
100
AcDbSpline
 62
7
  6
BYLAYER
 70
0
 71
3
 72
9
 73
5
 74
0
 42
0.0000001
 43
0.0000001
 44
0.0000000001
 40
0.0
 40
0.0
 40
0.0
 40
0.0
 40
0.4776193313
 40
1.0
 40
1.0
 40
1.0
 40
1.0
 10
41.7179606692
 20
17.9386235285
 30
0.0
 10
41.5702403323
 20
17.7687760741
 30
0.0
 10
41.2239877689
 20
17.4446526371
 30
0.0
 10
40.8306366733
 20
17.1817353651
 30
0.0
 10
40.6174256767
 20
17.0586386736
 30
0.0
  0
SPLINE
  5
2F9
100
AcDbEntity
  8
0
100
AcDbSpline
 62
7
  6
BYLAYER
 70
0
 71
3
 72
13
 73
9
 74
0
 42
0.0000001
 43
0.0000001
 44
0.0000000001
 40
0.0
 40
0.0
 40
0.0
 40
0.0
 40
0.2727469657
 40
0.5272406676
 40
0.6489617639
 40
0.7678018244
 40
0.8845322938
 40
1.0
 40
1.0
 40
1.0
 40
1.0
 10
26.9406822428
 20
23.2423696538
 30
0.0
 10
26.7146383573
 20
23.4650575392
 30
0.0
 10
26.3067293216
 20
23.9268068461
 30
0.0
 10
25.9057468068
 20
24.571685659
 30
0.0
 10
25.6751809633
 20
25.1003796388
 30
0.0
 10
25.5478560786
 20
25.4968607691
 30
0.0
 10
25.4641873528
 20
25.8973399358
 30
0.0
 10
25.4377818802
 20
26.1668196873
 30
0.0
 10
25.432026428
 20
26.3010299125
 30
0.0
  0
SPLINE
  5
2FA
100
AcDbEntity
  8
0
100
AcDbSpline
 62
7
  6
BYLAYER
 70
0
 71
3
 72
15
 73
11
 74
0
 42
0.0000001
 43
0.0000001
 44
0.0000000001
 40
0.0
 40
0.0
 40
0.0
 40
0.0
 40
0.1242828144
 40
0.2529941674
 40
0.3840623275
 40
0.5152888529
 40
0.6444676214
 40
0.769500048
 40
0.8885144192
 40
1.0
 40
1.0
 40
1.0
 40
1.0
 10
41.3829486914
 20
20.6861219826
 30
0.0
 10
40.8792659635
 20
20.531252797
 30
0.0
 10
39.836022909
 20
20.2721423625
 30
0.0
 10
38.2224957023
 20
20.0360375389
 30
0.0
 10
36.5645277386
 20
19.9494234043
 30
0.0
 10
34.9036499614
 20
20.0145216411
 30
0.0
 10
33.2811928377
 20
20.2296819417
 30
0.0
 10
31.7373888688
 20
20.5896383226
 30
0.0
 10
30.310773266
 20
21.0853715634
 30
0.0
 10
29.4290023298
 20
21.5141676158
 30
0.0
 10
29.0196389482
 20
21.7505183598
 30
0.0
  0
SPLINE
  5
2FB
100
AcDbEntity
  8
0
100
AcDbSpline
 62
7
  6
BYLAYER
 70
0
 71
3
 72
10
 73
6
 74
0
 42
0.0000001
 43
0.0000001
 44
0.0000000001
 40
0.0
 40
0.0
 40
0.0
 40
0.0
 40
0.232619391
 40
0.4782392541
 40
1.0
 40
1.0
 40
1.0
 40
1.0
 10
40.6174256767
 20
17.0586386736
 30
0.0
 10
40.4383432967
 20
16.9552460305
 30
0.0
 10
40.0581116056
 20
16.7630427851
 30
0.0
 10
39.2292621561
 20
16.4393223628
 30
0.0
 10
38.562761976
 20
16.276027612
 30
0.0
 10
38.1054496991
 20
16.1986190194
 30
0.0
  0
SPLINE
  5
2FC
100
AcDbEntity
  8
0
100
AcDbSpline
 62
7
  6
BYLAYER
 70
0
 71
3
 72
23
 73
19
 74
0
 42
0.0000001
 43
0.0000001
 44
0.0000000001
 40
0.0
 40
0.0
 40
0.0
 40
0.0
 40
0.062386441
 40
0.1287466138
 40
0.1983454636
 40
0.2703345644
 40
0.3437222904
 40
0.4174662918
 40
0.4905033746
 40
0.5618022021
 40
0.6304114539
 40
0.6955102314
 40
0.7564675673
 40
0.8129135521
 40
0.8648222576
 40
0.9126048139
 40
0.9571863098
 40
1.0
 40
1.0
 40
1.0
 40
1.0
 10
40.1963132304
 20
15.6984180496
 30
0.0
 10
40.0057884123
 20
15.5884191512
 30
0.0
 10
39.5974273736
 20
15.3870992027
 30
0.0
 10
38.9387371559
 20
15.1483929455
 30
0.0
 10
38.2268764947
 20
14.9677140886
 30
0.0
 10
37.4771740874
 20
14.8488093796
 30
0.0
 10
36.7054521213
 20
14.7942548198
 30
0.0
 10
35.9282026717
 20
14.8051948771
 30
0.0
 10
35.161994678
 20
14.8813938117
 30
0.0
 10
34.4231608108
 20
15.0212267211
 30
0.0
 10
33.7273977884
 20
15.221736588
 30
0.0
 10
33.0894179719
 20
15.4787499918
 30
0.0
 10
32.5226319976
 20
15.787028614
 30
0.0
 10
32.0389034308
 20
16.1405034249
 30
0.0
 10
31.6485210662
 20
16.5325228314
 30
0.0
 10
31.3604895551
 20
16.9561632027
 30
0.0
 10
31.1829668025
 20
17.4030534229
 30
0.0
 10
31.1426358143
 20
17.7125571763
 30
0.0
 10
31.1426217698
 20
17.8635348487
 30
0.0
  0
SPLINE
  5
2FD
100
AcDbEntity
  8
0
100
AcDbSpline
 62
7
  6
BYLAYER
 70
0
 71
3
 72
10
 73
6
 74
0
 42
0.0000001
 43
0.0000001
 44
0.0000000001
 40
0.0
 40
0.0
 40
0.0
 40
0.0
 40
0.252020789
 40
0.5024880832
 40
1.0
 40
1.0
 40
1.0
 40
1.0
 10
26.9406822428
 20
23.2423696538
 30
0.0
 10
26.8689411091
 20
23.7551996436
 30
0.0
 10
26.7337628277
 20
24.7788064525
 30
0.0
 10
26.488305934
 20
26.818805144
 30
0.0
 10
26.3252181927
 20
28.3470688765
 30
0.0
 10
26.2228219977
 20
29.3641584698
 30
0.0
  0
SPLINE
  5
2FE
100
AcDbEntity
  8
0
100
AcDbSpline
 62
7
  6
BYLAYER
 70
0
 71
3
 72
10
 73
6
 74
0
 42
0.0000001
 43
0.0000001
 44
0.0000000001
 40
0.0
 40
0.0
 40
0.0
 40
0.0
 40
0.2484173649
 40
0.5002183045
 40
1.0
 40
1.0
 40
1.0
 40
1.0
 10
38.1054496991
 20
16.1986190194
 30
0.0
 10
37.8334546445
 20
16.152578807
 30
0.0
 10
37.2813599802
 20
16.0838478808
 30
0.0
 10
36.1711063741
 20
16.0384186746
 30
0.0
 10
35.3340428889
 20
16.1060240171
 30
0.0
 10
34.7868198234
 20
16.1986134522
 30
0.0
  0
SPLINE
  5
2FF
100
AcDbEntity
  8
0
100
AcDbSpline
 62
7
  6
BYLAYER
 70
0
 71
3
 72
9
 73
5
 74
0
 42
0.0000001
 43
0.0000001
 44
0.0000000001
 40
0.0
 40
0.0
 40
0.0
 40
0.0
 40
0.4843760705
 40
1.0
 40
1.0
 40
1.0
 40
1.0
 10
30.8756124651
 20
20.9705880252
 30
0.0
 10
30.5636550236
 20
21.0599965758
 30
0.0
 10
29.9300760169
 20
21.2831566904
 30
0.0
 10
29.3274042827
 20
21.5795395792
 30
0.0
 10
29.0258366441
 20
21.7480452775
 30
0.0
  0
SPLINE
  5
300
100
AcDbEntity
  8
0
100
AcDbSpline
 62
7
  6
BYLAYER
 70
0
 71
3
 72
15
 73
11
 74
0
 42
0.0000001
 43
0.0000001
 44
0.0000000001
 40
0.0
 40
0.0
 40
0.0
 40
0.0
 40
0.122000699
 40
0.2473355397
 40
0.3748049044
 40
0.5031490468
 40
0.6310858268
 40
0.7573329621
 40
0.880690958
 40
1.0
 40
1.0
 40
1.0
 40
1.0
 10
41.257553031
 20
20.7362523913
 30
0.0
 10
40.8452523027
 20
20.6207008366
 30
0.0
 10
39.9994273836
 20
20.4207623629
 30
0.0
 10
38.6988931432
 20
20.2158066873
 30
0.0
 10
37.3646996234
 20
20.1038538436
 30
0.0
 10
36.0168417501
 20
20.0865818924
 30
0.0
 10
34.6754010574
 20
20.1642599842
 30
0.0
 10
33.3602673212
 20
20.3356909716
 30
0.0
 10
32.0912069657
 20
20.5983745724
 30
0.0
 10
31.2722642398
 20
20.8363845964
 30
0.0
 10
30.8756124651
 20
20.9705880252
 30
0.0
  0
SPLINE
  5
301
100
AcDbEntity
  8
0
100
AcDbSpline
 62
7
  6
BYLAYER
 70
0
 71
3
 72
10
 73
6
 74
0
 42
0.0000001
 43
0.0000001
 44
0.0000000001
 40
0.0
 40
0.0
 40
0.0
 40
0.0
 40
0.4997816955
 40
0.7515826351
 40
1.0
 40
1.0
 40
1.0
 40
1.0
 10
34.9543360717
 20
16.1702641609
 30
0.0
 10
35.4463142439
 20
16.0870220903
 30
0.0
 10
36.198872002
 20
16.0262418438
 30
0.0
 10
37.1970399781
 20
16.0670847454
 30
0.0
 10
37.6933979368
 20
16.1288769424
 30
0.0
 10
37.9379337363
 20
16.1702691661
 30
0.0
  0
SPLINE
  5
302
100
AcDbEntity
  8
0
100
AcDbSpline
 62
7
  6
BYLAYER
 70
0
 71
3
 72
10
 73
6
 74
0
 42
0.0000001
 43
0.0000001
 44
0.0000000001
 40
0.0
 40
0.0
 40
0.0
 40
0.0
 40
0.2471863863
 40
0.4965573317
 40
1.0
 40
1.0
 40
1.0
 40
1.0
 10
30.8756124651
 20
20.9705880252
 30
0.0
 10
30.9605335651
 20
21.4039674402
 30
0.0
 10
31.121316533
 20
22.2764903473
 30
0.0
 10
31.4166425687
 20
24.0385476962
 30
0.0
 10
31.6146194282
 20
25.3689929757
 30
0.0
 10
31.7401618572
 20
26.2596351022
 30
0.0
  0
SPLINE
  5
303
100
AcDbEntity
  8
0
100
AcDbSpline
 62
7
  6
BYLAYER
 70
0
 71
3
 72
9
 73
5
 74
0
 42
0.0000001
 43
0.0000001
 44
0.0000000001
 40
0.0
 40
0.0
 40
0.0
 40
0.0
 40
0.4690889848
 40
1.0
 40
1.0
 40
1.0
 40
1.0
 10
55.648563471
 20
83.4076010223
 30
0.0
 10
55.6267954307
 20
83.3950273027
 30
0.0
 10
55.5870499034
 20
83.3557716598
 30
0.0
 10
55.5678180443
 20
83.3043347789
 30
0.0
 10
55.5615432812
 20
83.2765837408
 30
0.0
  0
SPLINE
  5
304
100
AcDbEntity
  8
0
100
AcDbSpline
 62
7
  6
BYLAYER
 70
0
 71
3
 72
9
 73
5
 74
0
 42
0.0000001
 43
0.0000001
 44
0.0000000001
 40
0.0
 40
0.0
 40
0.0
 40
0.0
 40
0.5020847953
 40
1.0
 40
1.0
 40
1.0
 40
1.0
 10
61.9356437355
 20
97.5871170482
 30
0.0
 10
61.8512388545
 20
97.6814418411
 30
0.0
 10
61.6685879259
 20
97.8568676564
 30
0.0
 10
61.4601948735
 20
98.000945153
 30
0.0
 10
61.3514870083
 20
98.0637062484
 30
0.0
  0
SPLINE
  5
305
100
AcDbEntity
  8
0
100
AcDbSpline
 62
7
  6
BYLAYER
 70
0
 71
3
 72
10
 73
6
 74
0
 42
0.0000001
 43
0.0000001
 44
0.0000000001
 40
0.0
 40
0.0
 40
0.0
 40
0.0
 40
0.4617245965
 40
0.7211472698
 40
1.0
 40
1.0
 40
1.0
 40
1.0
 10
40.753566513
 20
108.3683025254
 30
0.0
 10
40.6914693719
 20
108.5066891999
 30
0.0
 10
40.5463437793
 20
108.7022387898
 30
0.0
 10
40.296913114
 20
108.9163239547
 30
0.0
 10
40.1483991615
 20
109.0135247136
 30
0.0
 10
40.0690660876
 20
109.0593266489
 30
0.0
  0
SPLINE
  5
306
100
AcDbEntity
  8
0
100
AcDbSpline
 62
7
  6
BYLAYER
 70
0
 71
3
 72
9
 73
5
 74
0
 42
0.0000001
 43
0.0000001
 44
0.0000000001
 40
0.0
 40
0.0
 40
0.0
 40
0.0
 40
0.4923678231
 40
1.0
 40
1.0
 40
1.0
 40
1.0
 10
41.0145125674
 20
107.5808512464
 30
0.0
 10
41.0145115757
 20
107.6494248812
 30
0.0
 10
40.9990104269
 20
107.7891159301
 30
0.0
 10
40.9539061351
 20
107.9220451076
 30
0.0
 10
40.9249462546
 20
107.9865412446
 30
0.0
  0
SPLINE
  5
307
100
AcDbEntity
  8
0
100
AcDbSpline
 62
7
  6
BYLAYER
 70
0
 71
3
 72
9
 73
5
 74
0
 42
0.0000001
 43
0.0000001
 44
0.0000000001
 40
0.0
 40
0.0
 40
0.0
 40
0.0
 40
0.4957092896
 40
1.0
 40
1.0
 40
1.0
 40
1.0
 10
41.0252326134
 20
111.038534472
 30
0.0
 10
41.2606508141
 20
111.1744533362
 30
0.0
 10
41.7443301404
 20
111.4334900076
 30
0.0
 10
42.2390853406
 20
111.6704793122
 30
0.0
 10
42.4914420607
 20
111.7835826838
 30
0.0
  0
SPLINE
  5
308
100
AcDbEntity
  8
0
100
AcDbSpline
 62
7
  6
BYLAYER
 70
0
 71
3
 72
9
 73
5
 74
0
 42
0.0000001
 43
0.0000001
 44
0.0000000001
 40
0.0
 40
0.0
 40
0.0
 40
0.0
 40
0.2404791544
 40
1.0
 40
1.0
 40
1.0
 40
1.0
 10
60.3310258577
 20
10.1767912387
 30
0.0
 10
60.3077897688
 20
10.1675287949
 30
0.0
 10
60.2099503586
 20
10.1321061492
 30
0.0
 10
60.1080328497
 20
10.1081897437
 30
0.0
 10
60.0299417843
 20
10.0962149074
 30
0.0
  0
SPLINE
  5
309
100
AcDbEntity
  8
0
100
AcDbSpline
 62
7
  6
BYLAYER
 70
0
 71
3
 72
9
 73
5
 74
0
 42
0.0000001
 43
0.0000001
 44
0.0000000001
 40
0.0
 40
0.0
 40
0.0
 40
0.0
 40
0.2458988771
 40
1.0
 40
1.0
 40
1.0
 40
1.0
 10
66.8542184605
 20
13.0712067201
 30
0.0
 10
66.3293756664
 20
12.8127322803
 30
0.0
 10
64.1842113415
 20
11.7835731615
 30
0.0
 10
61.9976349882
 20
10.8411402814
 30
0.0
 10
60.3310258577
 20
10.1767912387
 30
0.0
  0
SPLINE
  5
30A
100
AcDbEntity
  8
0
100
AcDbSpline
 62
7
  6
BYLAYER
 70
0
 71
3
 72
9
 73
5
 74
0
 42
0.0000001
 43
0.0000001
 44
0.0000000001
 40
0.0
 40
0.0
 40
0.0
 40
0.0
 40
0.2447410985
 40
1.0
 40
1.0
 40
1.0
 40
1.0
 10
80.8956674238
 20
22.0497217108
 30
0.0
 10
80.5031539477
 20
21.7215009276
 30
0.0
 10
78.8812849394
 20
20.402110739
 30
0.0
 10
77.1899755152
 20
19.1686189611
 30
0.0
 10
75.882375399
 20
18.2835844451
 30
0.0
  0
SPLINE
  5
30B
100
AcDbEntity
  8
0
100
AcDbSpline
 62
7
  6
BYLAYER
 70
0
 71
3
 72
9
 73
5
 74
0
 42
0.0000001
 43
0.0000001
 44
0.0000000001
 40
0.0
 40
0.0
 40
0.0
 40
0.0
 40
0.2334063814
 40
1.0
 40
1.0
 40
1.0
 40
1.0
 10
81.0352292115
 20
22.2235508675
 30
0.0
 10
81.0279461856
 20
22.2077192714
 30
0.0
 10
80.991768123
 20
22.142185475
 30
0.0
 10
80.9395745725
 20
22.0864369821
 30
0.0
 10
80.8956674238
 20
22.0497217108
 30
0.0
  0
SPLINE
  5
30C
100
AcDbEntity
  8
0
100
AcDbSpline
 62
7
  6
BYLAYER
 70
0
 71
3
 72
9
 73
5
 74
0
 42
0.0000001
 43
0.0000001
 44
0.0000000001
 40
0.0
 40
0.0
 40
0.0
 40
0.0
 40
0.2502712362
 40
1.0
 40
1.0
 40
1.0
 40
1.0
 10
75.882328252
 20
18.283557225
 30
0.0
 10
75.7422889944
 20
18.1911128481
 30
0.0
 10
75.1793015531
 20
17.8269465507
 30
0.0
 10
74.6045441359
 20
17.4811653294
 30
0.0
 10
74.1692155649
 20
17.2298293038
 30
0.0
  0
SPLINE
  5
30D
100
AcDbEntity
  8
0
100
AcDbSpline
 62
7
  6
BYLAYER
 70
0
 71
3
 72
9
 73
5
 74
0
 42
0.0000001
 43
0.0000001
 44
0.0000000001
 40
0.0
 40
0.0
 40
0.0
 40
0.0
 40
0.5337146434
 40
1.0
 40
1.0
 40
1.0
 40
1.0
 10
81.0696190082
 20
22.4074747506
 30
0.0
 10
81.0696043959
 20
22.3739764562
 30
0.0
 10
81.0650108726
 20
22.3111139082
 30
0.0
 10
81.0479393403
 20
22.2498749832
 30
0.0
 10
81.0355953216
 20
22.2233394985
 30
0.0
  0
SPLINE
  5
30E
100
AcDbEntity
  8
0
100
AcDbSpline
 62
7
  6
BYLAYER
 70
0
 71
3
 72
9
 73
5
 74
0
 42
0.0000001
 43
0.0000001
 44
0.0000000001
 40
0.0
 40
0.0
 40
0.0
 40
0.0
 40
0.7500830416
 40
1.0
 40
1.0
 40
1.0
 40
1.0
 10
68.7985100684
 20
14.1290695474
 30
0.0
 10
68.3192074124
 20
13.8523461207
 30
0.0
 10
67.6740464966
 20
13.4937829729
 30
0.0
 10
67.018754384
 20
13.1545854873
 30
0.0
 10
66.8542657852
 20
13.0712340429
 30
0.0
  0
SPLINE
  5
30F
100
AcDbEntity
  8
0
100
AcDbSpline
 62
7
  6
BYLAYER
 70
0
 71
3
 72
11
 73
7
 74
0
 42
0.0000001
 43
0.0000001
 44
0.0000000001
 40
0.0
 40
0.0
 40
0.0
 40
0.0
 40
0.2580375028
 40
0.5111694722
 40
0.7587003447
 40
1.0
 40
1.0
 40
1.0
 40
1.0
 10
16.9331885004
 20
85.8256062885
 30
0.0
 10
18.3867154708
 20
81.4446992586
 30
0.0
 10
21.0788951793
 20
72.7025973367
 30
0.0
 10
24.4848720446
 20
59.5605733803
 30
0.0
 10
27.2076045715
 20
46.5657297752
 30
0.0
 10
28.5769377223
 20
37.9249577587
 30
0.0
 10
29.1396778291
 20
33.6454596159
 30
0.0
  0
SPLINE
  5
310
100
AcDbEntity
  8
0
100
AcDbSpline
 62
7
  6
BYLAYER
 70
0
 71
3
 72
9
 73
5
 74
0
 42
0.0000001
 43
0.0000001
 44
0.0000000001
 40
0.0
 40
0.0
 40
0.0
 40
0.0
 40
0.5216795187
 40
1.0
 40
1.0
 40
1.0
 40
1.0
 10
55.3908220192
 20
82.5997595598
 30
0.0
 10
55.3820411968
 20
82.5745839966
 30
0.0
 10
55.3584462037
 20
82.5281400459
 30
0.0
 10
55.319433721
 20
82.4928291767
 30
0.0
 10
55.2982712307
 20
82.4805899816
 30
0.0
  0
SPLINE
  5
311
100
AcDbEntity
  8
0
100
AcDbSpline
 62
7
  6
BYLAYER
 70
0
 71
3
 72
13
 73
9
 74
0
 42
0.0000001
 43
0.0000001
 44
0.0000000001
 40
0.0
 40
0.0
 40
0.0
 40
0.0
 40
0.3040913057
 40
0.5829175884
 40
0.7050552021
 40
0.8136205997
 40
0.9103772285
 40
1.0
 40
1.0
 40
1.0
 40
1.0
 10
42.275282623
 20
27.1916794311
 30
0.0
 10
42.3094290708
 20
27.1225162235
 30
0.0
 10
42.3908696457
 20
26.9973424836
 30
0.0
 10
42.5238871737
 20
26.8737230761
 30
0.0
 10
42.6384573686
 20
26.8123538043
 30
0.0
 10
42.7190588736
 20
26.789220099
 30
0.0
 10
42.7950046594
 20
26.7885412519
 30
0.0
 10
42.8407696003
 20
26.8045355841
 30
0.0
 10
42.8604717119
 20
26.8158763735
 30
0.0
  0
SPLINE
  5
312
100
AcDbEntity
  8
0
100
AcDbSpline
 62
7
  6
BYLAYER
 70
0
 71
3
 72
9
 73
5
 74
0
 42
0.0000001
 43
0.0000001
 44
0.0000000001
 40
0.0
 40
0.0
 40
0.0
 40
0.0
 40
0.4966022549
 40
1.0
 40
1.0
 40
1.0
 40
1.0
 10
60.030307987
 20
10.096003485
 30
0.0
 10
59.9470233658
 20
10.082699088
 30
0.0
 10
59.7721251709
 20
10.0971661224
 30
0.0
 10
59.6150542129
 20
10.1666828833
 30
0.0
 10
59.5410127811
 20
10.2094287696
 30
0.0
  0
LINE
  5
313
100
AcDbEntity
  8
0
100
AcDbLine
 62
7
  6
BYLAYER
 10
15.5667072318
 20
106.8150618767
 11
15.6383000292
 21
106.8723748692
  0
SPLINE
  5
314
100
AcDbEntity
  8
0
100
AcDbSpline
 62
7
  6
BYLAYER
 70
0
 71
3
 72
11
 73
7
 74
0
 42
0.0000001
 43
0.0000001
 44
0.0000000001
 40
0.0
 40
0.0
 40
0.0
 40
0.0
 40
0.2433272057
 40
0.5050630263
 40
0.7639271575
 40
1.0
 40
1.0
 40
1.0
 40
1.0
 10
34.3652757736
 20
120.799984702
 30
0.0
 10
34.2919268311
 20
120.836463934
 30
0.0
 10
34.1313348669
 20
120.8955771631
 30
0.0
 10
33.8785583606
 20
120.9471653706
 30
0.0
 10
33.6233374697
 20
120.9616393105
 30
0.0
 10
33.4564944755
 20
120.9442638321
 30
0.0
 10
33.3788047169
 20
120.9275029578
 30
0.0
  0
LINE
  5
315
100
AcDbEntity
  8
0
100
AcDbLine
 62
7
  6
BYLAYER
 10
37.0635462967
 20
119.2421727315
 11
37.1351390941
 21
119.2675274872
  0
SPLINE
  5
316
100
AcDbEntity
  8
0
100
AcDbSpline
 62
7
  6
BYLAYER
 70
0
 71
3
 72
15
 73
11
 74
0
 42
0.0000001
 43
0.0000001
 44
0.0000000001
 40
0.0
 40
0.0
 40
0.0
 40
0.0
 40
0.1255202054
 40
0.2507782893
 40
0.375880815
 40
0.5006400085
 40
0.625134914
 40
0.7496033317
 40
0.8743694777
 40
1.0
 40
1.0
 40
1.0
 40
1.0
 10
57.9848017626
 20
100.0074189086
 30
0.0
 10
57.784441928
 20
100.1230940961
 30
0.0
 10
57.3644481802
 20
100.3218875052
 30
0.0
 10
56.695724291
 20
100.5135937007
 30
0.0
 10
56.0064612923
 20
100.5970658589
 30
0.0
 10
55.3142329203
 20
100.5731124605
 30
0.0
 10
54.6344550098
 20
100.4479907147
 30
0.0
 10
53.9789040887
 20
100.2296947075
 30
0.0
 10
53.3554742616
 20
99.9278381044
 30
0.0
 10
52.9662431426
 20
99.6776160127
 30
0.0
 10
52.7786391333
 20
99.5418821818
 30
0.0
  0
SPLINE
  5
317
100
AcDbEntity
  8
0
100
AcDbSpline
 62
7
  6
BYLAYER
 70
0
 71
3
 72
9
 73
5
 74
0
 42
0.0000001
 43
0.0000001
 44
0.0000000001
 40
0.0
 40
0.0
 40
0.0
 40
0.0
 40
0.4974918945
 40
1.0
 40
1.0
 40
1.0
 40
1.0
 10
29.8999042822
 20
104.513898352
 30
0.0
 10
30.1558505144
 20
104.6947256905
 30
0.0
 10
30.6791539295
 20
105.0457473549
 30
0.0
 10
31.2162531796
 20
105.3753522489
 30
0.0
 10
31.4903854546
 20
105.5336207634
 30
0.0
  0
LINE
  5
318
100
AcDbEntity
  8
0
100
AcDbLine
 62
7
  6
BYLAYER
 10
39.8911330745
 20
106.2859356376
 11
39.764596215
 21
106.7662540507
  0
SPLINE
  5
319
100
AcDbEntity
  8
0
100
AcDbSpline
 62
7
  6
BYLAYER
 70
0
 71
3
 72
11
 73
7
 74
0
 42
0.0000001
 43
0.0000001
 44
0.0000000001
 40
0.0
 40
0.0
 40
0.0
 40
0.0
 40
0.2818048964
 40
0.5419024233
 40
0.7800908211
 40
1.0
 40
1.0
 40
1.0
 40
1.0
 10
37.9310689533
 20
108.4427614248
 30
0.0
 10
37.7745147626
 20
108.5331459841
 30
0.0
 10
37.465560042
 20
108.6945277402
 30
0.0
 10
36.9905088536
 20
108.8589726933
 30
0.0
 10
36.5324386909
 20
108.9298049415
 30
0.0
 10
36.235976557
 20
108.9105070714
 30
0.0
 10
36.0975417906
 20
108.8833813326
 30
0.0
  0
SPLINE
  5
31A
100
AcDbEntity
  8
0
100
AcDbSpline
 62
7
  6
BYLAYER
 70
0
 71
3
 72
11
 73
7
 74
0
 42
0.0000001
 43
0.0000001
 44
0.0000000001
 40
0.0
 40
0.0
 40
0.0
 40
0.0
 40
0.2671824271
 40
0.5248927053
 40
0.7697286569
 40
1.0
 40
1.0
 40
1.0
 40
1.0
 10
39.764596215
 20
106.7662540507
 30
0.0
 10
39.6320376607
 20
106.9452903406
 30
0.0
 10
39.355664369
 20
107.2855975019
 30
0.0
 10
38.9042138134
 20
107.7431540678
 30
0.0
 10
38.4313204567
 20
108.1320908651
 30
0.0
 10
38.097340789
 20
108.3467665073
 30
0.0
 10
37.9310689533
 20
108.4427614248
 30
0.0
  0
LINE
  5
31B
100
AcDbEntity
  8
0
100
AcDbLine
 62
7
  6
BYLAYER
 10
36.5494187278
 20
108.9094174569
 11
36.6632247613
 21
109.2099763942
  0
SPLINE
  5
31C
100
AcDbEntity
  8
0
100
AcDbSpline
 62
7
  6
BYLAYER
 70
0
 71
3
 72
12
 73
8
 74
0
 42
0.0000001
 43
0.0000001
 44
0.0000000001
 40
0.0
 40
0.0
 40
0.0
 40
0.0
 40
0.1126265139
 40
0.2335768386
 40
0.4914599729
 40
0.7540477172
 40
1.0
 40
1.0
 40
1.0
 40
1.0
 10
40.0690660876
 20
109.0593266489
 30
0.0
 10
39.9549252604
 20
109.1252243955
 30
0.0
 10
39.707137221
 20
109.2432155919
 30
0.0
 10
39.1592689333
 20
109.4218332331
 30
0.0
 10
38.4098179635
 20
109.5290638006
 30
0.0
 10
37.5093440424
 20
109.478811904
 30
0.0
 10
36.9283456246
 20
109.3222269224
 30
0.0
 10
36.6632692859
 20
109.2100939237
 30
0.0
  0
SPLINE
  5
31D
100
AcDbEntity
  8
0
100
AcDbSpline
 62
7
  6
BYLAYER
 70
0
 71
3
 72
9
 73
5
 74
0
 42
0.0000001
 43
0.0000001
 44
0.0000000001
 40
0.0
 40
0.0
 40
0.0
 40
0.0
 40
0.5111020382
 40
1.0
 40
1.0
 40
1.0
 40
1.0
 10
45.6002337883
 20
26.2585437615
 30
0.0
 10
45.5558534012
 20
26.184481296
 30
0.0
 10
45.4525397829
 20
26.0484814676
 30
0.0
 10
45.3173588588
 20
25.9433650757
 30
0.0
 10
45.2458363217
 20
25.9020645599
 30
0.0
  0
SPLINE
  5
31E
100
AcDbEntity
  8
0
100
AcDbSpline
 62
7
  6
BYLAYER
 70
0
 71
3
 72
9
 73
5
 74
0
 42
0.0000001
 43
0.0000001
 44
0.0000000001
 40
0.0
 40
0.0
 40
0.0
 40
0.0
 40
0.2490018383
 40
1.0
 40
1.0
 40
1.0
 40
1.0
 10
59.4446988179
 20
81.4826647184
 30
0.0
 10
59.519908532
 20
81.472714834
 30
0.0
 10
59.8249411057
 20
81.4605597412
 30
0.0
 10
60.1341842752
 20
81.546277697
 30
0.0
 10
60.3322175763
 20
81.660896746
 30
0.0
  0
SPLINE
  5
31F
100
AcDbEntity
  8
0
100
AcDbSpline
 62
7
  6
BYLAYER
 70
0
 71
3
 72
25
 73
21
 74
0
 42
0.0000001
 43
0.0000001
 44
0.0000000001
 40
0.0
 40
0.0
 40
0.0
 40
0.0
 40
0.1245715105
 40
0.2493029393
 40
0.3742181102
 40
0.4993430352
 40
0.5619907771
 40
0.6246941848
 40
0.6874509759
 40
0.750256925
 40
0.8130980473
 40
0.8445242922
 40
0.8759415692
 40
0.9073274525
 40
0.9386524409
 40
0.9542746929
 40
0.9698244713
 40
0.9852201696
 40
0.9928891263
 40
1.0
 40
1.0
 40
1.0
 40
1.0
 10
74.1692155649
 20
17.2298293038
 30
0.0
 10
74.0738852617
 20
17.1747905558
 30
0.0
 10
73.8826596611
 20
17.0654072805
 30
0.0
 10
73.594385782
 20
16.9033939484
 30
0.0
 10
73.3045235523
 20
16.7432264514
 30
0.0
 10
73.0617633826
 20
16.6112628011
 30
0.0
 10
72.866779421
 20
16.5065251475
 30
0.0
 10
72.7200837804
 20
16.4283572188
 30
0.0
 10
72.5729993811
 20
16.3506236407
 30
0.0
 10
72.4255362226
 20
16.2733484245
 30
0.0
 10
72.3023467565
 20
16.209400021
 30
0.0
 10
72.2036007013
 20
16.1585680735
 30
0.0
 10
72.1294627154
 20
16.1206628569
 30
0.0
 10
72.0552481417
 20
16.0831049655
 30
0.0
 10
71.9933274264
 20
16.0521674378
 30
0.0
 10
71.943740188
 20
16.0278536533
 30
0.0
 10
71.9067042846
 20
16.0099290143
 30
0.0
 10
71.8755694566
 20
15.9959075274
 30
0.0
 10
71.8513705232
 20
15.9848165382
 30
0.0
 10
71.8388699168
 20
15.9805708572
 30
0.0
 10
71.83265581
 20
15.9796393504
 30
0.0
  0
SPLINE
  5
320
100
AcDbEntity
  8
0
100
AcDbSpline
 62
7
  6
BYLAYER
 70
0
 71
3
 72
9
 73
5
 74
0
 42
0.0000001
 43
0.0000001
 44
0.0000000001
 40
0.0
 40
0.0
 40
0.0
 40
0.0
 40
0.2569517818
 40
1.0
 40
1.0
 40
1.0
 40
1.0
 10
60.3322175763
 20
81.660896746
 30
0.0
 10
60.9638840267
 20
82.0264969123
 30
0.0
 10
63.4222170889
 20
83.4492881652
 30
0.0
 10
65.8811396331
 20
84.8710607964
 30
0.0
 10
67.7084798467
 20
85.9270871348
 30
0.0
  0
SPLINE
  5
321
100
AcDbEntity
  8
0
100
AcDbSpline
 62
7
  6
BYLAYER
 70
0
 71
3
 72
9
 73
5
 74
0
 42
0.0000001
 43
0.0000001
 44
0.0000000001
 40
0.0
 40
0.0
 40
0.0
 40
0.0
 40
0.2427547104
 40
1.0
 40
1.0
 40
1.0
 40
1.0
 10
52.7786423562
 20
99.5418547133
 30
0.0
 10
52.7182549876
 20
99.4981685196
 30
0.0
 10
52.473195344
 20
99.3131192429
 30
0.0
 10
52.2429190956
 20
99.1087390449
 30
0.0
 10
52.0770296102
 20
98.9458431116
 30
0.0
  0
SPLINE
  5
322
100
AcDbEntity
  8
0
100
AcDbSpline
 62
7
  6
BYLAYER
 70
0
 71
3
 72
9
 73
5
 74
0
 42
0.0000001
 43
0.0000001
 44
0.0000000001
 40
0.0
 40
0.0
 40
0.0
 40
0.0
 40
0.4915948686
 40
1.0
 40
1.0
 40
1.0
 40
1.0
 10
52.0770296102
 20
98.9458431116
 30
0.0
 10
51.830521535
 20
98.7037833878
 30
0.0
 10
51.3655620077
 20
98.173365566
 30
0.0
 10
50.9743392338
 20
97.5869709875
 30
0.0
 10
50.795272433
 20
97.2777835874
 30
0.0
  0
SPLINE
  5
323
100
AcDbEntity
  8
0
100
AcDbSpline
 62
7
  6
BYLAYER
 70
0
 71
3
 72
12
 73
8
 74
0
 42
0.0000001
 43
0.0000001
 44
0.0000000001
 40
0.0
 40
0.0
 40
0.0
 40
0.0
 40
0.1081786096
 40
0.2183677331
 40
0.4513702115
 40
0.7104210836
 40
1.0
 40
1.0
 40
1.0
 40
1.0
 10
61.3514854288
 20
98.0637035129
 30
0.0
 10
61.2536029599
 20
98.1202384673
 30
0.0
 10
61.0457483064
 20
98.2175171155
 30
0.0
 10
60.5893979918
 20
98.3438573925
 30
0.0
 10
59.9502164679
 20
98.3608123267
 30
0.0
 10
59.1497447614
 20
98.1672719225
 30
0.0
 10
58.6285817082
 20
97.9193150793
 30
0.0
 10
58.3665376548
 20
97.7680247776
 30
0.0
  0
SPLINE
  5
324
100
AcDbEntity
  8
0
100
AcDbSpline
 62
7
  6
BYLAYER
 70
0
 71
3
 72
21
 73
17
 74
0
 42
0.0000001
 43
0.0000001
 44
0.0000000001
 40
0.0
 40
0.0
 40
0.0
 40
0.0
 40
0.121731112
 40
0.2438052415
 40
0.3663532417
 40
0.4895626705
 40
0.6135890047
 40
0.675984801
 40
0.7388293118
 40
0.8022656079
 40
0.8664886829
 40
0.8991055107
 40
0.932325508
 40
0.966105115
 40
0.9838594539
 40
1.0
 40
1.0
 40
1.0
 40
1.0
 10
17.5303426279
 20
113.4283918604
 30
0.0
 10
17.5666077379
 20
113.4493294895
 30
0.0
 10
17.6394073337
 20
113.4909751292
 30
0.0
 10
17.7493504232
 20
113.5525808099
 30
0.0
 10
17.8603737364
 20
113.6132872983
 30
0.0
 10
17.9727753401
 20
113.6728532212
 30
0.0
 10
18.0677291356
 20
113.7211269421
 30
0.0
 10
18.1448086177
 20
113.7587004702
 30
0.0
 10
18.2036055796
 20
113.7861953841
 30
0.0
 10
18.263576618
 20
113.8126364972
 30
0.0
 10
18.3146484692
 20
113.8334234653
 30
0.0
 10
18.3567714937
 20
113.8485997572
 30
0.0
 10
18.3895241275
 20
113.8585083127
 30
0.0
 10
18.4180498096
 20
113.8655496876
 30
0.0
 10
18.4411565122
 20
113.8669637395
 30
0.0
 10
18.4532629334
 20
113.8653302926
 30
0.0
 10
18.458071414
 20
113.8625541778
 30
0.0
  0
SPLINE
  5
325
100
AcDbEntity
  8
0
100
AcDbSpline
 62
7
  6
BYLAYER
 70
0
 71
3
 72
22
 73
18
 74
0
 42
0.0000001
 43
0.0000001
 44
0.0000000001
 40
0.0
 40
0.0
 40
0.0
 40
0.0
 40
0.0143987703
 40
0.0265955758
 40
0.0388966004
 40
0.0518924012
 40
0.0791261725
 40
0.1075993145
 40
0.1369499117
 40
0.1667864877
 40
0.2275653258
 40
0.2895233679
 40
0.3523564599
 40
0.4794553015
 40
0.6080813127
 40
0.7379345341
 40
1.0
 40
1.0
 40
1.0
 40
1.0
 10
26.7005109041
 20
118.6213004303
 30
0.0
 10
26.6971794954
 20
118.6232237764
 30
0.0
 10
26.6920316857
 20
118.6293851272
 30
0.0
 10
26.6927824786
 20
118.6403269818
 30
0.0
 10
26.6971750819
 20
118.6493884418
 30
0.0
 10
26.7048391717
 20
118.6611638035
 30
0.0
 10
26.7165952115
 20
118.675329094
 30
0.0
 10
26.7326541032
 20
118.6914245965
 30
0.0
 10
26.750047461
 20
118.7071166444
 30
0.0
 10
26.7744689818
 20
118.7278765121
 30
0.0
 10
26.8064809349
 20
118.7531306859
 30
0.0
 10
26.8463686318
 20
118.7825807049
 30
0.0
 10
26.9014206671
 20
118.821289445
 30
0.0
 10
26.9721339216
 20
118.8686638967
 30
0.0
 10
27.0589650506
 20
118.9240961852
 30
0.0
 10
27.1774054189
 20
118.996986129
 30
0.0
 10
27.2676087367
 20
119.0501716729
 30
0.0
 10
27.3282420122
 20
119.0851779288
 30
0.0
  0
SPLINE
  5
326
100
AcDbEntity
  8
0
100
AcDbSpline
 62
7
  6
BYLAYER
 70
0
 71
3
 72
9
 73
5
 74
0
 42
0.0000001
 43
0.0000001
 44
0.0000000001
 40
0.0
 40
0.0
 40
0.0
 40
0.0
 40
0.2456284124
 40
1.0
 40
1.0
 40
1.0
 40
1.0
 10
60.3310258577
 20
17.1159156063
 30
0.0
 10
60.3231064391
 20
17.1128323265
 30
0.0
 10
60.2907191349
 20
17.1006563132
 30
0.0
 10
60.2577819023
 20
17.0899535344
 30
0.0
 10
60.2327231552
 20
17.0826535846
 30
0.0
  0
SPLINE
  5
327
100
AcDbEntity
  8
0
100
AcDbSpline
 62
7
  6
BYLAYER
 70
0
 71
3
 72
9
 73
5
 74
0
 42
0.0000001
 43
0.0000001
 44
0.0000000001
 40
0.0
 40
0.0
 40
0.0
 40
0.0
 40
0.2439552839
 40
1.0
 40
1.0
 40
1.0
 40
1.0
 10
60.2327231552
 20
17.0826535846
 30
0.0
 10
60.2144565863
 20
17.0773322876
 30
0.0
 10
60.1390956754
 20
17.0572047627
 30
0.0
 10
60.062024744
 20
17.0435895674
 30
0.0
 10
60.0034589345
 20
17.0367546018
 30
0.0
  0
SPLINE
  5
328
100
AcDbEntity
  8
0
100
AcDbSpline
 62
7
  6
BYLAYER
 70
0
 71
3
 72
9
 73
5
 74
0
 42
0.0000001
 43
0.0000001
 44
0.0000000001
 40
0.0
 40
0.0
 40
0.0
 40
0.0
 40
0.5218959251
 40
1.0
 40
1.0
 40
1.0
 40
1.0
 10
59.6882649136
 20
17.0317698504
 30
0.0
 10
59.577619423
 20
17.0409015563
 30
0.0
 10
59.3668117643
 20
17.0799388975
 30
0.0
 10
59.1690208894
 20
17.1654880282
 30
0.0
 10
59.0829411817
 20
17.2196579669
 30
0.0
  0
SPLINE
  5
329
100
AcDbEntity
  8
0
100
AcDbSpline
 62
7
  6
BYLAYER
 70
0
 71
3
 72
11
 73
7
 74
0
 42
0.0000001
 43
0.0000001
 44
0.0000000001
 40
0.0
 40
0.0
 40
0.0
 40
0.0
 40
0.2193437876
 40
0.4533621316
 40
0.7126707987
 40
1.0
 40
1.0
 40
1.0
 40
1.0
 10
55.2982712307
 20
82.4805899816
 30
0.0
 10
55.2810503586
 20
82.4706303969
 30
0.0
 10
55.2416956376
 20
82.4560235665
 30
0.0
 10
55.1762695945
 20
82.4532723889
 30
0.0
 10
55.1065196452
 20
82.4685524247
 30
0.0
 10
55.060894488
 20
82.4887441589
 30
0.0
 10
55.0379980778
 20
82.5011880828
 30
0.0
  0
SPLINE
  5
32A
100
AcDbEntity
  8
0
100
AcDbSpline
 62
7
  6
BYLAYER
 70
0
 71
3
 72
22
 73
18
 74
0
 42
0.0000001
 43
0.0000001
 44
0.0000000001
 40
0.0
 40
0.0
 40
0.0
 40
0.0
 40
0.0138117372
 40
0.0257142315
 40
0.0383615821
 40
0.0515597299
 40
0.0651319301
 40
0.0790243942
 40
0.1077325601
 40
0.1372213529
 40
0.1671707143
 40
0.228118018
 40
0.3530515507
 40
0.4801538048
 40
0.6086994061
 40
0.7383907229
 40
1.0
 40
1.0
 40
1.0
 40
1.0
 10
40.3708639618
 20
110.5610236981
 30
0.0
 10
40.3677364624
 20
110.5632105515
 30
0.0
 10
40.3629702427
 20
110.5696922996
 30
0.0
 10
40.36487823
 20
110.580769783
 30
0.0
 10
40.370204973
 20
110.5897440156
 30
0.0
 10
40.376405949
 20
110.5987115536
 30
0.0
 10
40.3835082888
 20
110.6074274976
 30
0.0
 10
40.3938939982
 20
110.6189684859
 30
0.0
 10
40.4082390843
 20
110.6328151983
 30
0.0
 10
40.42648696
 20
110.6489478261
 30
0.0
 10
40.452033316
 20
110.6702572156
 30
0.0
 10
40.4991159421
 20
110.7068813845
 30
0.0
 10
40.5697298282
 20
110.7568552438
 30
0.0
 10
40.6572391633
 20
110.8151728978
 30
0.0
 10
40.747080047
 20
110.8723229766
 30
0.0
 10
40.869475524
 20
110.9474983131
 30
0.0
 10
40.9626333163
 20
111.0023927237
 30
0.0
 10
41.0252326134
 20
111.038534472
 30
0.0
  0
SPLINE
  5
32B
100
AcDbEntity
  8
0
100
AcDbSpline
 62
7
  6
BYLAYER
 70
0
 71
3
 72
11
 73
7
 74
0
 42
0.0000001
 43
0.0000001
 44
0.0000000001
 40
0.0
 40
0.0
 40
0.0
 40
0.0
 40
0.251551152
 40
0.5067947962
 40
0.7585483193
 40
1.0
 40
1.0
 40
1.0
 40
1.0
 10
21.770170397
 20
98.2416743615
 30
0.0
 10
21.6495704665
 20
98.3826950816
 30
0.0
 10
21.4246212505
 20
98.6826539352
 30
0.0
 10
21.1434667559
 20
99.1678600454
 30
0.0
 10
20.9243237314
 20
99.6759732231
 30
0.0
 10
20.8226215274
 20
100.0266071285
 30
0.0
 10
20.7854766177
 20
100.2007972624
 30
0.0
  0
SPLINE
  5
32C
100
AcDbEntity
  8
0
100
AcDbSpline
 62
7
  6
BYLAYER
 70
0
 71
3
 72
23
 73
19
 74
0
 42
0.0000001
 43
0.0000001
 44
0.0000000001
 40
0.0
 40
0.0
 40
0.0
 40
0.0
 40
0.0163357093
 40
0.0321458182
 40
0.0478441083
 40
0.0634898789
 40
0.0946996082
 40
0.1258584101
 40
0.1569893741
 40
0.1881107593
 40
0.2503570458
 40
0.3126251142
 40
0.3749268221
 40
0.4996444523
 40
0.6245238659
 40
0.7495543751
 40
0.8747182291
 40
1.0
 40
1.0
 40
1.0
 40
1.0
 10
71.2600491306
 20
15.6490467032
 30
0.0
 10
71.248910194
 20
15.6379015562
 30
0.0
 10
71.2232290142
 20
15.6200990045
 30
0.0
 10
71.1855449431
 20
15.5936188002
 30
0.0
 10
71.147734875
 20
15.5682875236
 30
0.0
 10
71.0974508227
 20
15.5349522397
 30
0.0
 10
71.0344649618
 20
15.4937657964
 30
0.0
 10
70.9587525274
 20
15.4447619674
 30
0.0
 10
70.8829296283
 20
15.3960836203
 30
0.0
 10
70.7817084019
 20
15.3314629422
 30
0.0
 10
70.6549156653
 20
15.2510821731
 30
0.0
 10
70.5023733686
 20
15.1551489219
 30
0.0
 10
70.2984020028
 20
15.0278041971
 30
0.0
 10
70.0424424743
 20
14.8696935166
 30
0.0
 10
69.7338361649
 20
14.681688979
 30
0.0
 10
69.4236672629
 20
14.495435612
 30
0.0
 10
69.1119376787
 20
14.3110428251
 30
0.0
 10
68.9031653472
 20
14.1894918443
 30
0.0
 10
68.7985100684
 20
14.1290695474
 30
0.0
  0
SPLINE
  5
32D
100
AcDbEntity
  8
0
100
AcDbSpline
 62
7
  6
BYLAYER
 70
0
 71
3
 72
9
 73
5
 74
0
 42
0.0000001
 43
0.0000001
 44
0.0000000001
 40
0.0
 40
0.0
 40
0.0
 40
0.0
 40
0.2571994472
 40
1.0
 40
1.0
 40
1.0
 40
1.0
 10
40.1942771273
 20
106.397921424
 30
0.0
 10
40.217713887
 20
106.4114525627
 30
0.0
 10
40.3080180707
 20
106.4654572136
 30
0.0
 10
40.3949520164
 20
106.5251768684
 30
0.0
 10
40.4568161443
 20
106.5729404845
 30
0.0
  0
SPLINE
  5
32E
100
AcDbEntity
  8
0
100
AcDbSpline
 62
7
  6
BYLAYER
 70
0
 71
3
 72
11
 73
7
 74
0
 42
0.0000001
 43
0.0000001
 44
0.0000000001
 40
0.0
 40
0.0
 40
0.0
 40
0.0
 40
0.276682697
 40
0.5296302298
 40
0.7686363949
 40
1.0
 40
1.0
 40
1.0
 40
1.0
 10
52.0238337365
 20
98.9957696752
 30
0.0
 10
51.863860968
 20
98.8800200911
 30
0.0
 10
51.5780934024
 20
98.628016328
 30
0.0
 10
51.2417694343
 20
98.1915258298
 30
0.0
 10
50.9887283629
 20
97.7401439651
 30
0.0
 10
50.8554293683
 20
97.4315757255
 30
0.0
 10
50.7953712078
 20
97.2777711375
 30
0.0
  0
SPLINE
  5
32F
100
AcDbEntity
  8
0
100
AcDbSpline
 62
7
  6
BYLAYER
 70
0
 71
3
 72
14
 73
10
 74
0
 42
0.0000001
 43
0.0000001
 44
0.0000000001
 40
0.0
 40
0.0
 40
0.0
 40
0.0
 40
0.4999687234
 40
0.7504264737
 40
0.8753175504
 40
0.9064863532
 40
0.9376020805
 40
0.9687744175
 40
1.0
 40
1.0
 40
1.0
 40
1.0
 10
59.5410127811
 20
10.2094287696
 30
0.0
 10
59.4492903915
 20
10.262382295
 30
0.0
 10
59.3221026003
 20
10.3609501199
 30
0.0
 10
59.1942777106
 20
10.4953835515
 30
0.0
 10
59.1392106526
 20
10.5616557226
 30
0.0
 10
59.114955459
 20
10.5930214062
 30
0.0
 10
59.1027359954
 20
10.608598585
 30
0.0
 10
59.091080971
 20
10.6246263686
 30
0.0
 10
59.0839251327
 20
10.6357495344
 30
0.0
 10
59.0800546764
 20
10.641113608
 30
0.0
  0
SPLINE
  5
330
100
AcDbEntity
  8
0
100
AcDbSpline
 62
7
  6
BYLAYER
 70
0
 71
3
 72
12
 73
8
 74
0
 42
0.0000001
 43
0.0000001
 44
0.0000000001
 40
0.0
 40
0.0
 40
0.0
 40
0.0
 40
0.2895789164
 40
0.5486297885
 40
0.7816322669
 40
0.8918213904
 40
1.0
 40
1.0
 40
1.0
 40
1.0
 10
54.9998524092
 20
99.7117374378
 30
0.0
 10
55.2618964626
 20
99.8630277395
 30
0.0
 10
55.7830595157
 20
100.1109845827
 30
0.0
 10
56.5835312223
 20
100.3045249869
 30
0.0
 10
57.2227127461
 20
100.2875700527
 30
0.0
 10
57.6790630608
 20
100.1612297757
 30
0.0
 10
57.8869177143
 20
100.0639511275
 30
0.0
 10
57.9848001831
 20
100.0074161731
 30
0.0
  0
SPLINE
  5
331
100
AcDbEntity
  8
0
100
AcDbSpline
 62
7
  6
BYLAYER
 70
0
 71
3
 72
12
 73
8
 74
0
 42
0.0000001
 43
0.0000001
 44
0.0000000001
 40
0.0
 40
0.0
 40
0.0
 40
0.0
 40
0.1126265148
 40
0.2335768409
 40
0.4914599773
 40
0.7540477264
 40
1.0
 40
1.0
 40
1.0
 40
1.0
 10
36.3587548887
 20
106.9171902663
 30
0.0
 10
36.4728957159
 20
106.8512925198
 30
0.0
 10
36.7206837582
 20
106.7333013191
 30
0.0
 10
37.26855203
 20
106.5546837097
 30
0.0
 10
38.0180031155
 20
106.4474528282
 30
0.0
 10
38.9184765676
 20
106.4977060521
 30
0.0
 10
39.4994760222
 20
106.6542884421
 30
0.0
 10
39.7645516904
 20
106.7664229915
 30
0.0
  0
LINE
  5
332
100
AcDbEntity
  8
0
100
AcDbLine
 62
7
  6
BYLAYER
 10
40.3302791857
 20
107.0928497496
 11
40.4568161443
 21
106.6125309607
  0
SPLINE
  5
333
100
AcDbEntity
  8
0
100
AcDbSpline
 62
7
  6
BYLAYER
 70
0
 71
3
 72
11
 73
7
 74
0
 42
0.0000001
 43
0.0000001
 44
0.0000000001
 40
0.0
 40
0.0
 40
0.0
 40
0.0
 40
0.2630792554
 40
0.5238227209
 40
0.7722613199
 40
1.0
 40
1.0
 40
1.0
 40
1.0
 10
51.5060809257
 20
95.5560312895
 30
0.0
 10
51.7001152488
 20
95.9984384469
 30
0.0
 10
52.150467587
 20
96.8525902888
 30
0.0
 10
52.9818435334
 20
98.007128857
 30
0.0
 10
53.9276293319
 20
98.9817934015
 30
0.0
 10
54.6376868379
 20
99.5026422958
 30
0.0
 10
54.9998524092
 20
99.7117374378
 30
0.0
  0
SPLINE
  5
334
100
AcDbEntity
  8
0
100
AcDbSpline
 62
7
  6
BYLAYER
 70
0
 71
3
 72
11
 73
7
 74
0
 42
0.0000001
 43
0.0000001
 44
0.0000000001
 40
0.0
 40
0.0
 40
0.0
 40
0.0
 40
0.2807907031
 40
0.5373804446
 40
0.7741797064
 40
1.0
 40
1.0
 40
1.0
 40
1.0
 10
40.4568161443
 20
106.6125309607
 30
0.0
 10
40.5424111357
 20
106.6786165333
 30
0.0
 10
40.6969331945
 20
106.8181193242
 30
0.0
 10
40.8772288572
 20
107.0583421725
 30
0.0
 10
40.9890194952
 20
107.3148367909
 30
0.0
 10
41.0145138251
 20
107.4938835081
 30
0.0
 10
41.0145125674
 20
107.5808512464
 30
0.0
  0
SPLINE
  5
335
100
AcDbEntity
  8
0
100
AcDbSpline
 62
7
  6
BYLAYER
 70
0
 71
3
 72
13
 73
9
 74
0
 42
0.0000001
 43
0.0000001
 44
0.0000000001
 40
0.0
 40
0.0
 40
0.0
 40
0.0
 40
0.2817121463
 40
0.531340966
 40
0.6486878429
 40
0.7640778061
 40
0.8802845815
 40
1.0
 40
1.0
 40
1.0
 40
1.0
 10
40.3302347602
 20
107.0930183146
 30
0.0
 10
40.4374643625
 20
107.1775111686
 30
0.0
 10
40.6244742953
 20
107.3588590689
 30
0.0
 10
40.7806663374
 20
107.6387998563
 30
0.0
 10
40.8345882451
 20
107.8675888301
 30
0.0
 10
40.8415751078
 20
108.0376152388
 30
0.0
 10
40.8155273504
 20
108.2068663837
 30
0.0
 10
40.7773172724
 20
108.3153727358
 30
0.0
 10
40.753566513
 20
108.3683025254
 30
0.0
  0
SPLINE
  5
336
100
AcDbEntity
  8
0
100
AcDbSpline
 62
7
  6
BYLAYER
 70
0
 71
3
 72
11
 73
7
 74
0
 42
0.0000001
 43
0.0000001
 44
0.0000000001
 40
0.0
 40
0.0
 40
0.0
 40
0.0
 40
0.2302700579
 40
0.4751043849
 40
0.7328147255
 40
1.0
 40
1.0
 40
1.0
 40
1.0
 10
38.496752023
 20
108.7693567479
 30
0.0
 10
38.663022911
 20
108.6733623776
 30
0.0
 10
38.997000606
 20
108.4586882344
 30
0.0
 10
39.4698921389
 20
108.0697531743
 30
0.0
 10
39.9213449855
 20
107.6121974351
 30
0.0
 10
40.1977192345
 20
107.2718879262
 30
0.0
 10
40.3302791857
 20
107.0928497496
 30
0.0
  0
SPLINE
  5
337
100
AcDbEntity
  8
0
100
AcDbSpline
 62
7
  6
BYLAYER
 70
0
 71
3
 72
11
 73
7
 74
0
 42
0.0000001
 43
0.0000001
 44
0.0000000001
 40
0.0
 40
0.0
 40
0.0
 40
0.0
 40
0.2199069075
 40
0.4580946012
 40
0.7181935874
 40
1.0
 40
1.0
 40
1.0
 40
1.0
 10
36.6632247613
 20
109.2099763942
 30
0.0
 10
36.8016580936
 20
109.2371018521
 30
0.0
 10
37.0981182256
 20
109.2563986205
 30
0.0
 10
37.5561878038
 20
109.1855697598
 30
0.0
 10
38.0312405224
 20
109.0211241868
 30
0.0
 10
38.3401969948
 20
108.8597417908
 30
0.0
 10
38.496752023
 20
108.7693567479
 30
0.0
  0
SPLINE
  5
338
100
AcDbEntity
  8
0
100
AcDbSpline
 62
7
  6
BYLAYER
 70
0
 71
3
 72
11
 73
7
 74
0
 42
0.0000001
 43
0.0000001
 44
0.0000000001
 40
0.0
 40
0.0
 40
0.0
 40
0.0
 40
0.2477747661
 40
0.4973616053
 40
0.748209395
 40
1.0
 40
1.0
 40
1.0
 40
1.0
 10
55.0644522437
 20
100.5150675269
 30
0.0
 10
53.8711763119
 20
101.373893098
 30
0.0
 10
51.4590008117
 20
103.0743616485
 30
0.0
 10
47.7997072707
 20
105.5883184361
 30
0.0
 10
44.0993294595
 20
108.0842490205
 30
0.0
 10
41.616138855
 20
109.7362024223
 30
0.0
 10
40.370160887
 20
110.5606177801
 30
0.0
  0
SPLINE
  5
339
100
AcDbEntity
  8
0
100
AcDbSpline
 62
7
  6
BYLAYER
 70
0
 71
3
 72
9
 73
5
 74
0
 42
0.0000001
 43
0.0000001
 44
0.0000000001
 40
0.0
 40
0.0
 40
0.0
 40
0.0
 40
0.2469724612
 40
1.0
 40
1.0
 40
1.0
 40
1.0
 10
81.0696112316
 20
29.3226068496
 30
0.0
 10
81.069607269
 20
29.3090554572
 30
0.0
 10
81.066552475
 20
29.2542045853
 30
0.0
 10
81.0507665362
 20
29.2002560317
 30
0.0
 10
81.0332404355
 20
29.1628385522
 30
0.0
  0
SPLINE
  5
33A
100
AcDbEntity
  8
0
100
AcDbSpline
 62
7
  6
BYLAYER
 70
0
 71
3
 72
9
 73
5
 74
0
 42
0.0000001
 43
0.0000001
 44
0.0000000001
 40
0.0
 40
0.0
 40
0.0
 40
0.0
 40
0.2399411493
 40
1.0
 40
1.0
 40
1.0
 40
1.0
 10
81.0332404355
 20
29.1628385522
 30
0.0
 10
81.0275882238
 20
29.1507713207
 30
0.0
 10
81.0016079393
 20
29.1016201017
 30
0.0
 10
80.9666486146
 20
29.0574688727
 30
0.0
 10
80.9370860082
 20
29.0273393208
 30
0.0
  0
SPLINE
  5
33B
100
AcDbEntity
  8
0
100
AcDbSpline
 62
7
  6
BYLAYER
 70
0
 71
3
 72
9
 73
5
 74
0
 42
0.0000001
 43
0.0000001
 44
0.0000000001
 40
0.0
 40
0.0
 40
0.0
 40
0.0
 40
0.2563366856
 40
1.0
 40
1.0
 40
1.0
 40
1.0
 10
35.6742385674
 20
108.3683049619
 30
0.0
 10
35.6633640473
 20
108.3440832162
 30
0.0
 10
35.6245201002
 20
108.2480427785
 30
0.0
 10
35.6011440551
 20
108.145609154
 30
0.0
 10
35.594062384
 20
108.0689081671
 30
0.0
  0
SPLINE
  5
33C
100
AcDbEntity
  8
0
100
AcDbSpline
 62
7
  6
BYLAYER
 70
0
 71
3
 72
12
 73
8
 74
0
 42
0.0000001
 43
0.0000001
 44
0.0000000001
 40
0.0
 40
0.0
 40
0.0
 40
0.0
 40
0.108894356
 40
0.2189575606
 40
0.4504688586
 40
0.7089056483
 40
1.0
 40
1.0
 40
1.0
 40
1.0
 10
35.594062384
 20
108.0689081671
 30
0.0
 10
35.589198081
 20
108.0162233083
 30
0.0
 10
35.5890064004
 20
107.9091315055
 30
0.0
 10
35.6285149743
 20
107.6927869455
 30
0.0
 10
35.7572098945
 20
107.4248982764
 30
0.0
 10
36.015434623
 20
107.1416223386
 30
0.0
 10
36.2362677342
 20
106.9879066581
 30
0.0
 10
36.3587548887
 20
106.9171902663
 30
0.0
  0
SPLINE
  5
33D
100
AcDbEntity
  8
0
100
AcDbSpline
 62
7
  6
BYLAYER
 70
0
 71
3
 72
14
 73
10
 74
0
 42
0.0000001
 43
0.0000001
 44
0.0000000001
 40
0.0
 40
0.0
 40
0.0
 40
0.0
 40
0.2311795827
 40
0.3455511047
 40
0.4621128751
 40
0.5837268573
 40
0.7128961279
 40
0.8514852456
 40
1.0
 40
1.0
 40
1.0
 40
1.0
 10
50.7828021582
 20
97.2446044355
 30
0.0
 10
50.7279218331
 20
97.0993631201
 30
0.0
 10
50.67786325
 20
96.8662963826
 30
0.0
 10
50.7039417582
 20
96.5552747786
 30
0.0
 10
50.7709076985
 20
96.32642194
 30
0.0
 10
50.8865874319
 20
96.1067830305
 30
0.0
 10
51.049799279
 20
95.9006949421
 30
0.0
 10
51.2585062839
 20
95.7129988483
 30
0.0
 10
51.4196988163
 20
95.6059028954
 30
0.0
 10
51.5060809257
 20
95.5560312895
 30
0.0
  0
SPLINE
  5
33E
100
AcDbEntity
  8
0
100
AcDbSpline
 62
7
  6
BYLAYER
 70
0
 71
3
 72
14
 73
10
 74
0
 42
0.0000001
 43
0.0000001
 44
0.0000000001
 40
0.0
 40
0.0
 40
0.0
 40
0.0
 40
0.0954496488
 40
0.1955573857
 40
0.3039653288
 40
0.4228057916
 40
0.5527599539
 40
0.6933674803
 40
1.0
 40
1.0
 40
1.0
 40
1.0
 10
45.2458363217
 20
25.9020645599
 30
0.0
 10
45.1716872847
 20
25.8592473781
 30
0.0
 10
45.0063717859
 20
25.7930003324
 30
0.0
 10
44.7326674908
 20
25.7623239191
 30
0.0
 10
44.4389268359
 20
25.7980651428
 30
0.0
 10
44.1327184096
 20
25.8978334258
 30
0.0
 10
43.8209242827
 20
26.058177953
 30
0.0
 10
43.3958068864
 20
26.3557048618
 30
0.0
 10
43.1103103004
 20
26.6433947273
 30
0.0
 10
42.9351690384
 20
26.8554958691
 30
0.0
  0
SPLINE
  5
33F
100
AcDbEntity
  8
0
100
AcDbSpline
 62
7
  6
BYLAYER
 70
0
 71
3
 72
13
 73
9
 74
0
 42
0.0000001
 43
0.0000001
 44
0.0000000001
 40
0.0
 40
0.0
 40
0.0
 40
0.0
 40
0.0896229504
 40
0.1863797753
 40
0.294945285
 40
0.41708298
 40
0.6959091638
 40
1.0
 40
1.0
 40
1.0
 40
1.0
 10
46.0854449781
 20
24.6905636626
 30
0.0
 10
46.1051471391
 20
24.7019044562
 30
0.0
 10
46.1509121772
 20
24.7178987908
 30
0.0
 10
46.226858088
 20
24.7172199266
 30
0.0
 10
46.3074596746
 20
24.69408613
 30
0.0
 10
46.4220298051
 20
24.6327166972
 30
0.0
 10
46.5550472051
 20
24.5090973648
 30
0.0
 10
46.6364876629
 20
24.3839237238
 30
0.0
 10
46.6706340574
 20
24.3147606243
 30
0.0
  0
SPLINE
  5
340
100
AcDbEntity
  8
0
100
AcDbSpline
 62
7
  6
BYLAYER
 70
0
 71
3
 72
17
 73
13
 74
0
 42
0.0000001
 43
0.0000001
 44
0.0000000001
 40
0.0
 40
0.0
 40
0.0
 40
0.0
 40
0.0428219778
 40
0.0872127854
 40
0.134470822
 40
0.1854934965
 40
0.2999984033
 40
0.4305557663
 40
0.5727097699
 40
0.7198741926
 40
0.8646366228
 40
1.0
 40
1.0
 40
1.0
 40
1.0
 10
35.4133084089
 20
107.5808512468
 30
0.0
 10
35.4133094912
 20
107.506010754
 30
0.0
 10
35.4319174867
 20
107.3529929
 30
0.0
 10
35.5144818909
 20
107.1309840361
 30
0.0
 10
35.6487614306
 20
106.918974657
 30
0.0
 10
35.9022692855
 20
106.6446245114
 30
0.0
 10
36.3381001918
 20
106.3531179186
 30
0.0
 10
36.9734178214
 20
106.1089116947
 30
0.0
 10
37.6978116864
 20
105.9711822754
 30
0.0
 10
38.459333994
 20
105.9500465495
 30
0.0
 10
39.2028324659
 20
106.0466162035
 30
0.0
 10
39.6739346405
 20
106.1921638374
 30
0.0
 10
39.8911330745
 20
106.2859356376
 30
0.0
  0
SPLINE
  5
341
100
AcDbEntity
  8
0
100
AcDbSpline
 62
7
  6
BYLAYER
 70
0
 71
3
 72
17
 73
13
 74
0
 42
0.0000001
 43
0.0000001
 44
0.0000000001
 40
0.0
 40
0.0
 40
0.0
 40
0.0
 40
0.2342609294
 40
0.3539466082
 40
0.4757877717
 40
0.6003064615
 40
0.7286879335
 40
0.7948295048
 40
0.8626512503
 40
0.9322290131
 40
0.967311928
 40
1.0
 40
1.0
 40
1.0
 40
1.0
 10
74.9688404217
 20
97.2674236175
 30
0.0
 10
74.8299415903
 20
97.2381981132
 30
0.0
 10
74.6196852909
 20
97.1958253563
 30
0.0
 10
74.3358902106
 20
97.1450741268
 30
0.0
 10
74.1168366
 20
97.1102736156
 30
0.0
 10
73.8918955465
 20
97.0791211214
 30
0.0
 10
73.6993520547
 20
97.0608678995
 30
0.0
 10
73.5405468459
 20
97.053106956
 30
0.0
 10
73.417191915
 20
97.0524351379
 30
0.0
 10
73.312678637
 20
97.0606532615
 30
0.0
 10
73.2310444063
 20
97.0771979033
 30
0.0
 10
73.1918103648
 20
97.0901258427
 30
0.0
 10
73.1738435225
 20
97.0984605085
 30
0.0
  0
SPLINE
  5
342
100
AcDbEntity
  8
0
100
AcDbSpline
 62
7
  6
BYLAYER
 70
0
 71
3
 72
21
 73
17
 74
0
 42
0.0000001
 43
0.0000001
 44
0.0000000001
 40
0.0
 40
0.0
 40
0.0
 40
0.0
 40
0.0291751419
 40
0.0566906081
 40
0.0837192021
 40
0.1111837781
 40
0.1678697491
 40
0.2266485565
 40
0.2870085641
 40
0.348598577
 40
0.411170287
 40
0.4745310326
 40
0.6031770162
 40
0.7338883739
 40
0.8662484896
 40
1.0
 40
1.0
 40
1.0
 40
1.0
 10
54.4856660379
 20
86.3089006121
 30
0.0
 10
54.497682576
 20
86.29946192
 30
0.0
 10
54.517451028
 20
86.2760298533
 30
0.0
 10
54.5318522891
 20
86.2338857483
 30
0.0
 10
54.5346066999
 20
86.1906604446
 30
0.0
 10
54.5271544567
 20
86.1326945761
 30
0.0
 10
54.5047991726
 20
86.0608305579
 30
0.0
 10
54.4676941598
 20
85.9764838217
 30
0.0
 10
54.423443512
 20
85.8927254245
 30
0.0
 10
54.3735162038
 20
85.8099356926
 30
0.0
 10
54.3191885745
 20
85.7280926431
 30
0.0
 10
54.2425136705
 20
85.6189987421
 30
0.0
 10
54.1407159823
 20
85.4840100758
 30
0.0
 10
54.0117627743
 20
85.3244098802
 30
0.0
 10
53.8769745454
 20
85.1661891732
 30
0.0
 10
53.7845984592
 20
85.0618158862
 30
0.0
 10
53.7377595444
 20
85.0097265264
 30
0.0
  0
SPLINE
  5
343
100
AcDbEntity
  8
0
100
AcDbSpline
 62
7
  6
BYLAYER
 70
0
 71
3
 72
18
 73
14
 74
0
 42
0.0000001
 43
0.0000001
 44
0.0000000001
 40
0.0
 40
0.0
 40
0.0
 40
0.0
 40
0.0452066515
 40
0.0904270337
 40
0.1367012015
 40
0.1850288396
 40
0.2362116469
 40
0.2907657113
 40
0.4107064774
 40
0.5449107916
 40
0.6907630021
 40
0.8441212616
 40
1.0
 40
1.0
 40
1.0
 40
1.0
 10
61.7566446581
 20
97.208947896
 30
0.0
 10
61.6675128515
 20
97.2879380324
 30
0.0
 10
61.4735622687
 20
97.429298029
 30
0.0
 10
61.1446999049
 20
97.5814415373
 30
0.0
 10
60.7847635884
 20
97.6694599646
 30
0.0
 10
60.3995639333
 20
97.6928904622
 30
0.0
 10
59.9941764108
 20
97.6519678493
 30
0.0
 10
59.4153979299
 20
97.5088905386
 30
0.0
 10
58.6705924631
 20
97.1641196474
 30
0.0
 10
57.8121142916
 20
96.5448877936
 30
0.0
 10
56.9991149987
 20
95.7371125447
 30
0.0
 10
56.2710749948
 20
94.7803784214
 30
0.0
 10
55.8642303708
 20
94.0714326988
 30
0.0
 10
55.6835403767
 20
93.702660434
 30
0.0
  0
SPLINE
  5
344
100
AcDbEntity
  8
0
100
AcDbSpline
 62
7
  6
BYLAYER
 70
0
 71
3
 72
11
 73
7
 74
0
 42
0.0000001
 43
0.0000001
 44
0.0000000001
 40
0.0
 40
0.0
 40
0.0
 40
0.0
 40
0.2417032585
 40
0.5069359228
 40
0.7641173684
 40
1.0
 40
1.0
 40
1.0
 40
1.0
 10
54.8727661713
 20
93.6123186293
 30
0.0
 10
54.9319216509
 20
93.5781659699
 30
0.0
 10
55.0752805825
 20
93.5412028034
 30
0.0
 10
55.2925244302
 20
93.5498990724
 30
0.0
 10
55.5012779122
 20
93.6048290346
 30
0.0
 10
55.6273648205
 20
93.6667448536
 30
0.0
 10
55.6835286179
 20
93.7026529161
 30
0.0
  0
SPLINE
  5
345
100
AcDbEntity
  8
0
100
AcDbSpline
 62
7
  6
BYLAYER
 70
0
 71
3
 72
11
 73
7
 74
0
 42
0.0000001
 43
0.0000001
 44
0.0000000001
 40
0.0
 40
0.0
 40
0.0
 40
0.0
 40
0.2277386801
 40
0.4761772791
 40
0.7369207446
 40
1.0
 40
1.0
 40
1.0
 40
1.0
 10
58.3665376548
 20
97.7680247776
 30
0.0
 10
58.0043720835
 20
97.5589296357
 30
0.0
 10
57.2943145775
 20
97.0380807413
 30
0.0
 10
56.348528779
 20
96.0634161968
 30
0.0
 10
55.5171528326
 20
94.9088776286
 30
0.0
 10
55.0668004944
 20
94.0547257867
 30
0.0
 10
54.8727661713
 20
93.6123186293
 30
0.0
  0
SPLINE
  5
346
100
AcDbEntity
  8
0
100
AcDbSpline
 62
7
  6
BYLAYER
 70
0
 71
3
 72
14
 73
10
 74
0
 42
0.0000001
 43
0.0000001
 44
0.0000000001
 40
0.0
 40
0.0
 40
0.0
 40
0.0
 40
0.2939865132
 40
0.4253303075
 40
0.5459612781
 40
0.6578437695
 40
0.7652845495
 40
0.8761861244
 40
1.0
 40
1.0
 40
1.0
 40
1.0
 10
61.7566293894
 20
97.2089400273
 30
0.0
 10
61.7992787139
 20
97.2309193077
 30
0.0
 10
61.8588299448
 20
97.2681330211
 30
0.0
 10
61.9233058644
 20
97.3300775846
 30
0.0
 10
61.9585208276
 20
97.3783883788
 30
0.0
 10
61.9803156462
 20
97.430101702
 30
0.0
 10
61.9857078906
 20
97.4847398159
 30
0.0
 10
61.9711802899
 20
97.5398506078
 30
0.0
 10
61.9491264898
 20
97.5720775576
 30
0.0
 10
61.9356251189
 20
97.5871119075
 30
0.0
  0
SPLINE
  5
347
100
AcDbEntity
  8
0
100
AcDbSpline
 62
7
  6
BYLAYER
 70
0
 71
3
 72
9
 73
5
 74
0
 42
0.0000001
 43
0.0000001
 44
0.0000000001
 40
0.0
 40
0.0
 40
0.0
 40
0.0
 40
0.2651598863
 40
1.0
 40
1.0
 40
1.0
 40
1.0
 10
75.1432857362
 20
90.2195486941
 30
0.0
 10
75.6514952507
 20
90.5126394167
 30
0.0
 10
77.5681798457
 20
91.6178552101
 30
0.0
 10
79.4855199896
 20
92.7219341406
 30
0.0
 10
80.8948100321
 20
93.5326441707
 30
0.0
  0
SPLINE
  5
348
100
AcDbEntity
  8
0
100
AcDbSpline
 62
7
  6
BYLAYER
 70
0
 71
3
 72
11
 73
7
 74
0
 42
0.0000001
 43
0.0000001
 44
0.0000000001
 40
0.0
 40
0.0
 40
0.0
 40
0.0
 40
0.2909416448
 40
0.5482106225
 40
0.7793575976
 40
1.0
 40
1.0
 40
1.0
 40
1.0
 10
80.8948100321
 20
93.5326441707
 30
0.0
 10
80.9211522828
 20
93.5477978482
 30
0.0
 10
80.9688050577
 20
93.5801611979
 30
0.0
 10
81.026025675
 20
93.639121736
 30
0.0
 10
81.0618247063
 20
93.7052333953
 30
0.0
 10
81.0697031262
 20
93.7528224212
 30
0.0
 10
81.0696562438
 20
93.7758692913
 30
0.0
  0
SPLINE
  5
349
100
AcDbEntity
  8
0
100
AcDbSpline
 62
7
  6
BYLAYER
 70
0
 71
3
 72
9
 73
5
 74
0
 42
0.0000001
 43
0.0000001
 44
0.0000000001
 40
0.0
 40
0.0
 40
0.0
 40
0.0
 40
0.5056564302
 40
1.0
 40
1.0
 40
1.0
 40
1.0
 10
67.7083879891
 20
85.9270011996
 30
0.0
 10
68.3097363296
 20
86.2080080744
 30
0.0
 10
69.499170346
 20
86.7632978884
 30
0.0
 10
70.6817693988
 20
87.3332946789
 30
0.0
 10
71.2622311269
 20
87.6233900606
 30
0.0
  0
SPLINE
  5
34A
100
AcDbEntity
  8
0
100
AcDbSpline
 62
7
  6
BYLAYER
 70
0
 71
3
 72
14
 73
10
 74
0
 42
0.0000001
 43
0.0000001
 44
0.0000000001
 40
0.0
 40
0.0
 40
0.0
 40
0.0
 40
0.1117159523
 40
0.2331067749
 40
0.3572501704
 40
0.4837349474
 40
0.6114488687
 40
0.7402286922
 40
1.0
 40
1.0
 40
1.0
 40
1.0
 10
68.0818689596
 20
86.2866161405
 30
0.0
 10
68.0769478047
 20
86.2678512254
 30
0.0
 10
68.0502952501
 20
86.2348908564
 30
0.0
 10
68.0084276571
 20
86.190152015
 30
0.0
 10
67.9618370687
 20
86.1450546684
 30
0.0
 10
67.9133761301
 20
86.100778452
 30
0.0
 10
67.8634436503
 20
86.0568207156
 30
0.0
 10
67.7951699864
 20
85.9987255339
 30
0.0
 10
67.7432943297
 20
85.9555738462
 30
0.0
 10
67.7083879891
 20
85.9270011996
 30
0.0
  0
SPLINE
  5
34B
100
AcDbEntity
  8
0
100
AcDbSpline
 62
7
  6
BYLAYER
 70
0
 71
3
 72
13
 73
9
 74
0
 42
0.0000001
 43
0.0000001
 44
0.0000000001
 40
0.0
 40
0.0
 40
0.0
 40
0.0
 40
0.2417803437
 40
0.4864116826
 40
0.6104873267
 40
0.7360495593
 40
0.864598257
 40
1.0
 40
1.0
 40
1.0
 40
1.0
 10
75.1433780999
 20
90.2195691185
 30
0.0
 10
75.098675506
 20
90.2022599937
 30
0.0
 10
75.0085498047
 20
90.167942308
 30
0.0
 10
74.8948872065
 20
90.1262922179
 30
0.0
 10
74.8021766266
 20
90.0945601651
 30
0.0
 10
74.7307194384
 20
90.0717103957
 30
0.0
 10
74.6566821713
 20
90.0501724867
 30
0.0
 10
74.605154214
 20
90.0388051131
 30
0.0
 10
74.5783488279
 20
90.0373381524
 30
0.0
  0
SPLINE
  5
34C
100
AcDbEntity
  8
0
100
AcDbSpline
 62
7
  6
BYLAYER
 70
0
 71
3
 72
10
 73
6
 74
0
 42
0.0000001
 43
0.0000001
 44
0.0000000001
 40
0.0
 40
0.0
 40
0.0
 40
0.0
 40
0.2536231222
 40
0.6299871561
 40
1.0
 40
1.0
 40
1.0
 40
1.0
 10
71.8304805168
 20
87.9514670404
 30
0.0
 10
72.1143387309
 20
88.1375937864
 30
0.0
 10
72.8159572152
 20
88.6052207831
 30
0.0
 10
73.9200776582
 20
89.3616745637
 30
0.0
 10
74.7382137378
 20
89.9348328915
 30
0.0
 10
75.1433780999
 20
90.2195691185
 30
0.0
  0
SPLINE
  5
34D
100
AcDbEntity
  8
0
100
AcDbSpline
 62
7
  6
BYLAYER
 70
0
 71
3
 72
10
 73
6
 74
0
 42
0.0000001
 43
0.0000001
 44
0.0000000001
 40
0.0
 40
0.0
 40
0.0
 40
0.0
 40
0.4980900482
 40
0.749041031
 40
1.0
 40
1.0
 40
1.0
 40
1.0
 10
74.5785329529
 20
90.0374444564
 30
0.0
 10
74.0055016746
 20
90.1292039741
 30
0.0
 10
73.1393546508
 20
90.2440365334
 30
0.0
 10
71.9764225516
 20
90.3210605788
 30
0.0
 10
71.3910497232
 20
90.3252174424
 30
0.0
 10
71.0988274898
 20
90.3151466589
 30
0.0
  0
SPLINE
  5
34E
100
AcDbEntity
  8
0
100
AcDbSpline
 62
7
  6
BYLAYER
 70
0
 71
3
 72
10
 73
6
 74
0
 42
0.0000001
 43
0.0000001
 44
0.0000000001
 40
0.0
 40
0.0
 40
0.0
 40
0.0
 40
0.4917484615
 40
0.7435398902
 40
1.0
 40
1.0
 40
1.0
 40
1.0
 10
67.7372340215
 20
88.3743413502
 30
0.0
 10
67.6838137184
 20
88.0286437719
 30
0.0
 10
67.7224407467
 20
87.4876067824
 30
0.0
 10
67.8965191765
 20
86.7987100926
 30
0.0
 10
68.0158316985
 20
86.4566399673
 30
0.0
 10
68.0816848271
 20
86.2865098322
 30
0.0
  0
SPLINE
  5
34F
100
AcDbEntity
  8
0
100
AcDbSpline
 62
7
  6
BYLAYER
 70
0
 71
3
 72
11
 73
7
 74
0
 42
0.0000001
 43
0.0000001
 44
0.0000000001
 40
0.0
 40
0.0
 40
0.0
 40
0.0
 40
0.2527528647
 40
0.4975854301
 40
0.7454199703
 40
1.0
 40
1.0
 40
1.0
 40
1.0
 10
59.0829468064
 20
81.4314113978
 30
0.0
 10
59.1112778193
 20
81.4157791193
 30
0.0
 10
59.1735441844
 20
81.3951508463
 30
0.0
 10
59.2704976233
 20
81.4007347411
 30
0.0
 10
59.3616286754
 20
81.4323539945
 30
0.0
 10
59.4176305642
 20
81.4645749882
 30
0.0
 10
59.4447671535
 20
81.4826252656
 30
0.0
  0
SPLINE
  5
350
100
AcDbEntity
  8
0
100
AcDbSpline
 62
7
  6
BYLAYER
 70
0
 71
3
 72
8
 73
4
 74
0
 42
0.0000001
 43
0.0000001
 44
0.0000000001
 40
0.0
 40
0.0
 40
0.0
 40
0.0
 40
1.0
 40
1.0
 40
1.0
 40
1.0
 10
50.7953712078
 20
97.2777711375
 30
0.0
 10
50.791069033
 20
97.2667541583
 30
0.0
 10
50.7869899105
 20
97.2556502797
 30
0.0
 10
50.782978037
 20
97.2445243006
 30
0.0
  0
SPLINE
  5
351
100
AcDbEntity
  8
0
100
AcDbSpline
 62
7
  6
BYLAYER
 70
0
 71
3
 72
13
 73
9
 74
0
 42
0.0000001
 43
0.0000001
 44
0.0000000001
 40
0.0
 40
0.0
 40
0.0
 40
0.0
 40
0.3040913057
 40
0.5829175884
 40
0.7050552021
 40
0.8136205997
 40
0.9103772285
 40
1.0
 40
1.0
 40
1.0
 40
1.0
 10
42.8898791662
 20
22.1319537997
 30
0.0
 10
42.8557327183
 20
22.2011170073
 30
0.0
 10
42.7742921434
 20
22.3262907472
 30
0.0
 10
42.6412746154
 20
22.4499101547
 30
0.0
 10
42.5267044205
 20
22.5112794265
 30
0.0
 10
42.4461029155
 20
22.5344131318
 30
0.0
 10
42.3701571297
 20
22.5350919789
 30
0.0
 10
42.3243921888
 20
22.5190976467
 30
0.0
 10
42.3046900772
 20
22.5077568573
 30
0.0
  0
SPLINE
  5
352
100
AcDbEntity
  8
0
100
AcDbSpline
 62
7
  6
BYLAYER
 70
0
 71
3
 72
21
 73
17
 74
0
 42
0.0000001
 43
0.0000001
 44
0.0000000001
 40
0.0
 40
0.0
 40
0.0
 40
0.0
 40
0.1218224371
 40
0.2439796179
 40
0.3665898652
 40
0.489830238
 40
0.6138587956
 40
0.6762392927
 40
0.7390499252
 40
0.8024329209
 40
0.8665773894
 40
0.8991351021
 40
0.9322508237
 40
0.966068753
 40
0.9835106641
 40
1.0
 40
1.0
 40
1.0
 40
1.0
 10
31.4903854546
 20
105.5336207634
 30
0.0
 10
31.5276369037
 20
105.5551276491
 30
0.0
 10
31.6024093424
 20
105.5979118844
 30
0.0
 10
31.715310182
 20
105.661222658
 30
0.0
 10
31.8292837502
 20
105.7236325994
 30
0.0
 10
31.9446198472
 20
105.7849113089
 30
0.0
 10
32.0420071721
 20
105.834621844
 30
0.0
 10
32.1210189064
 20
105.8733641429
 30
0.0
 10
32.1812518733
 20
105.9017502216
 30
0.0
 10
32.2426401721
 20
105.9291222416
 30
0.0
 10
32.2948990689
 20
105.9506765337
 30
0.0
 10
32.3379081617
 20
105.9666073665
 30
0.0
 10
32.3714118869
 20
105.977060964
 30
0.0
 10
32.4003411059
 20
105.9848187286
 30
0.0
 10
32.4241147421
 20
105.9870871196
 30
0.0
 10
32.4364314864
 20
105.9856008843
 30
0.0
 10
32.4417148536
 20
105.9831546522
 30
0.0
  0
SPLINE
  5
353
100
AcDbEntity
  8
0
100
AcDbSpline
 62
7
  6
BYLAYER
 70
0
 71
3
 72
11
 73
7
 74
0
 42
0.0000001
 43
0.0000001
 44
0.0000000001
 40
0.0
 40
0.0
 40
0.0
 40
0.0
 40
0.2282936541
 40
0.4787136083
 40
0.7402367448
 40
1.0
 40
1.0
 40
1.0
 40
1.0
 10
48.8206152447
 20
23.1805629306
 30
0.0
 10
48.6319632953
 20
23.2894787204
 30
0.0
 10
48.2641964632
 20
23.5670868113
 30
0.0
 10
47.7855022418
 20
24.0906008463
 30
0.0
 10
47.3801309496
 20
24.7088254621
 30
0.0
 10
47.1739188974
 20
25.1642451846
 30
0.0
 10
47.0911782894
 20
25.3978905735
 30
0.0
  0
SPLINE
  5
354
100
AcDbEntity
  8
0
100
AcDbSpline
 62
7
  6
BYLAYER
 70
0
 71
3
 72
10
 73
6
 74
0
 42
0.0000001
 43
0.0000001
 44
0.0000000001
 40
0.0
 40
0.0
 40
0.0
 40
0.0
 40
0.2520186251
 40
0.5023830718
 40
1.0
 40
1.0
 40
1.0
 40
1.0
 10
50.782978037
 20
97.2445243006
 30
0.0
 10
49.2266120426
 20
97.9450578463
 30
0.0
 10
46.136392777
 20
99.3688729046
 30
0.0
 10
40.0169457753
 20
102.2702298759
 30
0.0
 10
35.4645285123
 20
104.4922598233
 30
0.0
 10
32.442416563
 20
105.9835597819
 30
0.0
  0
ELLIPSE
  5
355
100
AcDbEntity
  8
0
100
AcDbEllipse
 62
7
  6
BYLAYER
 10
13.7804289241
 20
60.7528912279
 30
0.0
 11
-0.6809455561
 21
19.2984279952
 31
0.0
 40
0.0366874588
 41
0.8048813617
 42
0.9599612294
  0
ELLIPSE
  5
356
100
AcDbEntity
  8
0
100
AcDbEllipse
 62
7
  6
BYLAYER
 10
14.4634988048
 20
114.2014366529
 30
0.0
 11
80.7064965154
 21
3.40669194
 31
0.0
 40
0.5470989334
 41
-0.9896010354
 42
-0.8134608302
  0
ELLIPSE
  5
357
100
AcDbEntity
  8
0
100
AcDbEllipse
 62
7
  6
BYLAYER
 10
14.4634988048
 20
114.2014366529
 30
0.0
 11
80.7064965154
 21
3.40669194
 31
0.0
 40
0.5470989334
 41
-0.8035060126
 42
-0.6273658073
  0
ELLIPSE
  5
358
100
AcDbEntity
  8
0
100
AcDbEllipse
 62
7
  6
BYLAYER
 10
80.0872977137
 20
91.3219667042
 30
0.0
 11
0.9820646916
 21
0.0414538112
 31
0.0
 40
0.5470989334
 41
-0.6273658073
 42
-0.227259124
  0
ELLIPSE
  5
359
100
AcDbEntity
  8
0
100
AcDbEllipse
 62
7
  6
BYLAYER
 10
59.7728938515
 20
79.5935101754
 30
0.0
 11
0.9820646916
 21
0.0414538112
 31
0.0
 40
0.5470989334
 41
-1.3897077187
 42
-0.9896010354
  0
ELLIPSE
  5
35A
100
AcDbEntity
  8
0
100
AcDbEllipse
 62
7
  6
BYLAYER
 10
59.7728938515
 20
79.5642301902
 30
0.0
 11
0.9821057911
 21
0.0378692191
 31
0.0
 40
0.549884267
 41
-2.3707040468
 42
-1.3878182213
  0
ELLIPSE
  5
35B
100
AcDbEntity
  8
0
100
AcDbEllipse
 62
7
  6
BYLAYER
 10
80.0872977137
 20
91.292686719
 30
0.0
 11
0.9821057911
 21
0.0378692191
 31
0.0
 40
0.549884267
 41
-0.2253696266
 42
-0.0211995293
  0
ELLIPSE
  5
35C
100
AcDbEntity
  8
0
100
AcDbEllipse
 62
7
  6
BYLAYER
 10
80.0872977137
 20
29.5277216765
 30
0.0
 11
0.9818893418
 21
-0.0482453858
 31
0.0
 40
0.6073972885
 41
-0.1743339366
 42
0.0298361561
  0
ELLIPSE
  5
35D
100
AcDbEntity
  8
0
100
AcDbEllipse
 62
7
  6
BYLAYER
 10
59.7728938515
 20
17.7992651477
 30
0.0
 11
0.9818893418
 21
-0.0482453858
 31
0.0
 40
0.6073972885
 41
-2.3196683568
 42
-1.3367825312
  0
ELLIPSE
  5
35E
100
AcDbEntity
  8
0
100
AcDbEllipse
 62
7
  6
BYLAYER
 10
13.7804289241
 20
69.2027395775
 30
0.0
 11
-0.6507178677
 21
4.9733093371
 31
0.0
 40
0.1479675409
 41
1.0018246579
 42
1.5465737285
  0
ELLIPSE
  5
35F
100
AcDbEntity
  8
0
100
AcDbEllipse
 62
7
  6
BYLAYER
 10
77.6835130622
 20
95.5976983975
 30
0.0
 11
-0.3388825326
 21
0.3341441308
 31
0.0
 40
0.3088683984
 41
-0.3234931577
 42
-0.1100645307
  0
ELLIPSE
  5
360
100
AcDbEntity
  8
0
100
AcDbEllipse
 62
7
  6
BYLAYER
 10
80.0872977137
 20
91.1841474438
 30
0.0
 11
0.9820365032
 21
0.0437734619
 31
0.0
 40
0.5452789811
 41
6.054715031
 42
6.382202052
  0
ELLIPSE
  5
361
100
AcDbEntity
  8
0
100
AcDbEllipse
 62
7
  6
BYLAYER
 10
14.4634988048
 20
58.8404796768
 30
0.0
 11
80.6945084884
 21
-3.8345821683
 31
0.0
 40
0.6064921996
 41
-0.7516042143
 42
-0.5754640091
  0
ELLIPSE
  5
362
100
AcDbEntity
  8
0
100
AcDbEllipse
 62
7
  6
BYLAYER
 10
59.7728938515
 20
79.455690915
 30
0.0
 11
0.9820365032
 21
0.0437734619
 31
0.0
 40
0.5452789811
 41
3.9093806108
 42
4.8922664364
  0
ELLIPSE
  5
363
100
AcDbEntity
  8
0
100
AcDbEllipse
 62
7
  6
BYLAYER
 10
14.4634988048
 20
58.8404796768
 30
0.0
 11
80.6945084884
 21
-3.8345821683
 31
0.0
 40
0.6064921996
 41
-0.9376992372
 42
-0.7615590319
  0
ELLIPSE
  5
364
100
AcDbEntity
  8
0
100
AcDbEllipse
 62
7
  6
BYLAYER
 10
-64.4988989362
 20
101.2892294224
 30
0.0
 11
104.1197105577
 21
31.1958132975
 31
0.0
 40
0.1710062984
 41
-0.5958112998
 42
-0.5526624651
  0
ELLIPSE
  5
365
100
AcDbEntity
  8
0
100
AcDbEllipse
 62
7
  6
BYLAYER
 10
-64.4988989362
 20
101.2892294224
 30
0.0
 11
104.1197105577
 21
31.1958132975
 31
0.0
 40
0.1710062984
 41
-0.698322132
 42
-0.6551732973
  0
ELLIPSE
  5
366
100
AcDbEntity
  8
0
100
AcDbEllipse
 62
7
  6
BYLAYER
 10
173.6941640399
 20
-36.2284885394
 30
0.0
 11
-142.7536137639
 21
142.0316315694
 31
0.0
 40
0.3146163437
 41
-0.1520325165
 42
-0.1146335656
  0
ELLIPSE
  5
367
100
AcDbEntity
  8
0
100
AcDbEllipse
 62
7
  6
BYLAYER
 10
173.6941640399
 20
-36.2284885394
 30
0.0
 11
-142.7536137639
 21
142.0316315694
 31
0.0
 40
0.3146163437
 41
-0.0552715681
 42
-0.0178726172
  0
ELLIPSE
  5
368
100
AcDbEntity
  8
0
100
AcDbEllipse
 62
7
  6
BYLAYER
 10
91.077028725
 20
11.4694577026
 30
0.0
 11
-55.3884710999
 21
97.670951184
 31
0.0
 40
0.5824332588
 41
6.1219456855
 42
6.2206046301
  0
ELLIPSE
  5
369
100
AcDbEntity
  8
0
100
AcDbEllipse
 62
7
  6
BYLAYER
 10
91.077028725
 20
11.4694577026
 30
0.0
 11
-55.3884710999
 21
97.670951184
 31
0.0
 40
0.5824332588
 41
0.0715792223
 42
0.1702381668
  0
ELLIPSE
  5
36A
100
AcDbEntity
  8
0
100
AcDbEllipse
 62
7
  6
BYLAYER
 10
38.2139104882
 20
107.239144941
 30
0.0
 11
2.8006407475
 21
0.0123281122
 31
0.0
 40
0.5743849744
 41
3.139064267
 42
6.2806569019
  0
ELLIPSE
  5
36B
100
AcDbEntity
  8
0
100
AcDbEllipse
 62
7
  6
BYLAYER
 10
127.689439372
 20
-9.6682492414
 30
0.0
 11
-69.8628708088
 21
103.2439684805
 31
0.0
 40
0.5236490264
 41
-0.2031236766
 42
-0.0631252355
  0
ELLIPSE
  5
36C
100
AcDbEntity
  8
0
100
AcDbEllipse
 62
7
  6
BYLAYER
 10
127.689439372
 20
-9.6682492414
 30
0.0
 11
-69.8628708088
 21
103.2439684805
 31
0.0
 40
0.5236490264
 41
-0.0116443292
 42
0.1283541119
  0
ELLIPSE
  5
36D
100
AcDbEntity
  8
0
100
AcDbEllipse
 62
7
  6
BYLAYER
 10
-11022.6436511924
 20
6427.8339263913
 30
0.0
 11
11086.3439283631
 21
-6334.9907535361
 31
0.0
 40
0.0044241656
 41
0.0231597913
 42
0.0270639149
  0
ELLIPSE
  5
36E
100
AcDbEntity
  8
0
100
AcDbEllipse
 62
7
  6
BYLAYER
 10
-11022.6436511925
 20
6427.8339263914
 30
0.0
 11
11086.3439283632
 21
-6334.9907535362
 31
0.0
 40
0.0044241656
 41
-0.0322252385
 42
-0.0283211149
  0
ELLIPSE
  5
36F
100
AcDbEntity
  8
0
100
AcDbEllipse
 62
7
  6
BYLAYER
 10
55.7776740507
 20
82.9504318414
 30
0.0
 11
0.0104267325
 21
0.4936767812
 31
0.0
 40
0.7172635961
 41
0.1713375927
 42
0.3847662198
  0
ELLIPSE
  5
370
100
AcDbEntity
  8
0
100
AcDbEllipse
 62
7
  6
BYLAYER
 10
-85.5307141235
 20
113.4316788835
 30
0.0
 11
163.8101741331
 21
-11.23513262
 31
0.0
 40
0.2355193533
 41
-0.3071546933
 42
-0.2760461984
  0
ELLIPSE
  5
371
100
AcDbEntity
  8
0
100
AcDbEllipse
 62
7
  6
BYLAYER
 10
-85.5307141235
 20
113.4316788835
 30
0.0
 11
163.8101741331
 21
-11.23513262
 31
0.0
 40
0.2355193533
 41
-0.3976251857
 42
-0.3665166908
  0
ELLIPSE
  5
372
100
AcDbEntity
  8
0
100
AcDbEllipse
 62
7
  6
BYLAYER
 10
-5.2083720396
 20
67.0586021585
 30
0.0
 11
92.5048172735
 21
38.7704325947
 31
0.0
 40
0.1080457396
 41
5.6405981077
 42
5.7713876563
  0
ELLIPSE
  5
373
100
AcDbEntity
  8
0
100
AcDbEllipse
 62
7
  6
BYLAYER
 10
-5.2083720396
 20
67.0586021585
 30
0.0
 11
92.5048172735
 21
38.7704325947
 31
0.0
 40
0.1080457396
 41
-0.8949557353
 42
-0.7641661867
  0
ENDSEC
  0
SECTION
  2
OBJECTS
  0
DICTIONARY
  5
C
100
AcDbDictionary
280
0
281
1
  3
ACAD_GROUP
350
D
  3
ACAD_MLINESTYLE
350
17
  3
ACAD_LAYOUT
350
1A
  3
ACAD_PLOTSETTINGS
350
19
  3
ACAD_PLOTSTYLENAME
350
E
  0
DICTIONARY
  5
D
102
{ACAD_REACTORS
330
C
102
}
100
AcDbDictionary
280
0
281
1
  0
ACDBDICTIONARYWDFLT
  5
E
102
{ACAD_REACTORS
330
C
102
}
100
AcDbDictionary
281
1
  3
Normal
350
F
100
AcDbDictionaryWithDefault
340
F
  0
DICTIONARY
  5
17
102
{ACAD_REACTORS
330
C
102
}
100
AcDbDictionary
280
0
281
1
  3
Standard
350
18
  0
DICTIONARY
  5
19
102
{ACAD_REACTORS
330
C
102
}
100
AcDbDictionary
281
1
  0
DICTIONARY
  5
1A
102
{ACAD_REACTORS
330
C
102
}
100
AcDbDictionary
281
1
  3
Model
350
374
  3
Layout1
350
375
  0
ACDBPLACEHOLDER
  5
F
102
{ACAD_REACTORS
330
E
102
}
  0
MLINESTYLE
  5
18
102
{ACAD_REACTORS
330
17
102
}
100
AcDbMlineStyle
  2
STANDARD
 70
0
  3

 62
256
 51
90.0
 52
90.0
 71
2
 49
0.5
 62
256
  6
BYLAYER
 49
-0.5
 62
256
  6
BYLAYER
  0
LAYOUT
  5
374
102
{ACAD_REACTORS
330
1A
102
}
100
AcDbPlotSettings
  1

  2
none_device
  4

  6

 40
0.0
 41
0.0
 42
0.0
 43
0.0
 44
210.0
 45
297.0
 46
0.0
 47
0.0
 48
0.0
 49
0.0
140
0.0
141
0.0
142
1.0
143
1.0
 70
1024
 72
1
 73
0
 74
0
  7

 75
0
147
1.0
148
0.0
149
0.0
100
AcDbLayout
  1
Model
 70
0
 71
0
 10
0.0
 20
0.0
 11
210.0
 21
297.0
 12
0.0
 22
0.0
 32
0.0
 14
0.0
 24
0.0
 34
0.0
 15
0.0
 25
0.0
 35
0.0
146
0.0
 13
0.0
 23
0.0
 33
0.0
 16
1.0
 26
0.0
 36
0.0
 17
0.0
 27
1.0
 37
0.0
 76
0
330
210
345
0
346
0
  0
LAYOUT
  5
375
102
{ACAD_REACTORS
330
1A
102
}
100
AcDbPlotSettings
  1

  2
none_device
  4

  6

 40
0.0
 41
0.0
 42
0.0
 43
0.0
 44
210.0
 45
297.0
 46
0.0
 47
0.0
 48
0.0
 49
0.0
140
0.0
141
0.0
142
1.0
143
1.0
 70
0
 72
1
 73
0
 74
0
  7

 75
0
147
1.0
148
0.0
149
0.0
100
AcDbLayout
  1
Layout1
 70
0
 71
1
 10
0.0
 20
0.0
 11
210.0
 21
297.0
 12
0.0
 22
0.0
 32
0.0
 14
0.0
 24
0.0
 34
0.0
 15
0.0
 25
0.0
 35
0.0
146
0.0
 13
0.0
 23
0.0
 33
0.0
 16
1.0
 26
0.0
 36
0.0
 17
0.0
 27
1.0
 37
0.0
 76
0
330
211
345
0
346
0
  0
ENDSEC
  0
EOF
