999
DXF file: C:\Users\sesa63760\Dev\_Creo\CAD\MCADID0004832_3D-CAD\drw0001_1.dxf
999
Pro/ENGINEER 2019471 by Parametric Technology Corporation
  0
SECTION
  2
HEADER
  9
$ACADVER
  1
AC1024
  9
$DWGCODEPAGE
  3
ANSI_1252
  9
$EXTMAX
 10
53.4651338283
 20
75.6149749858
 30
0.0
  9
$EXTMIN
 10
0.0
 20
0.0
 30
0.0
  9
$LIMMIN
 10
0.0
 20
0.0
  9
$LIMMAX
 10
53.4651338283
 20
75.6149749858
  9
$VIEWCTR
 10
26.7325669142
 20
37.8074874929
  9
$VIEWSIZE
 40
75.6149749858
  9
$CLAYER
  8
0
  9
$LTSCALE
 40
4.9289761472
  9
$CELTYPE
  6
BYLAYER
  9
$DIMSCALE
 40
1.0
  9
$DIMASZ
 40
0.6364896884
  9
$DIMEXO
 40
1.0
  9
$DIMDLI
 40
3.405474429
  9
$DIMEXE
 40
1.0
  9
$DIMCEN
 40
0.8065597332
  9
$DIMLFAC
 40
1.0
  9
$DIMBLK
  1
_FILLED
  9
$DIMALT
 70
0
  9
$DIMALTF
 40
0.0393700787
  9
$DIMTXT
 40
0.8910855638
  9
$DIMTOL
 70
1
  9
$DIMLIM
 70
0
  9
$DIMTFAC
 40
1.0
  9
$DIMTP
 40
0.01
  9
$DIMTM
 40
0.01
  9
$DIMGAP
 40
0.625
  9
$DIMDSEP
 70
46
  9
$AUNITS
 70
0
  9
$PDMODE
 70
3
  9
$PDSIZE
 40
0.3125
  9
$HANDSEED
  5
2EA
  9
$TILEMODE
 70
1
  9
$MEASUREMENT
 70
1
  9
$INSUNITS
 70
4
  0
ENDSEC
  0
SECTION
  2
CLASSES
  0
CLASS
  1
ACDBDICTIONARYWDFLT
  2
AcDbDictionaryWithDefault
  3
AutoCAD 2000
 90
0
 91
1
280
0
281
0
  0
CLASS
  1
ACDBPLACEHOLDER
  2
AcDbPlaceHolder
  3
AutoCAD 2000
 90
0
 91
1
280
0
281
0
  0
CLASS
  1
LAYOUT
  2
AcDbLayout
  3
AutoCAD 2000
 90
0
 91
0
280
0
281
0
  0
ENDSEC
  0
SECTION
  2
TABLES
  0
TABLE
  2
VPORT
  5
8
100
AcDbSymbolTable
 70
2
  0
VPORT
  5
1F4
100
AcDbSymbolTableRecord
100
AcDbViewportTableRecord
  2
*ACTIVE
 70
0
 10
0.0
 20
0.0
 11
1.0
 21
1.0
 12
26.7325669142
 22
37.8074874929
 13
0.0
 23
0.0
 14
1.0
 24
1.0
 15
0.0
 25
0.0
 16
0.0
 26
0.0
 36
1.0
 17
0.0
 27
0.0
 37
0.0
 40
75.6149749858
 41
0.7070707071
 42
50.0
 43
0.0
 44
0.0
 50
0.0
 51
0.0
 71
0
 72
100
 73
1
 74
1
 75
0
 76
0
 77
0
 78
0
  0
ENDTAB
  0
TABLE
  2
LTYPE
  5
5
100
AcDbSymbolTable
 70
6
  0
LTYPE
  5
14
100
AcDbSymbolTableRecord
100
AcDbLinetypeTableRecord
  2
BYBLOCK
 70
0
  3

 72
65
 73
0
 40
0.0
  0
LTYPE
  5
15
100
AcDbSymbolTableRecord
100
AcDbLinetypeTableRecord
  2
BYLAYER
 70
0
  3

 72
65
 73
0
 40
0.0
  0
LTYPE
  5
16
100
AcDbSymbolTableRecord
100
AcDbLinetypeTableRecord
  2
CONTINUOUS
 70
64
  3
Solid line
 72
65
 73
0
 40
0.0
  0
LTYPE
  5
1F5
100
AcDbSymbolTableRecord
100
AcDbLinetypeTableRecord
  2
CENTER
 70
64
  3
____ _ ____ _ ____ _ ____ _ ____ _ ____ _ ____
 72
65
 73
4
 40
0.6
 49
0.375
 74
0
 49
-0.075
 74
0
 49
0.075
 74
0
 49
-0.075
 74
0
  0
LTYPE
  5
1F6
100
AcDbSymbolTableRecord
100
AcDbLinetypeTableRecord
  2
HIDDEN
 70
64
  3
- - - - - - - - - - - - - - - - - - - -
 72
65
 73
2
 40
0.2
 49
0.1
 74
0
 49
-0.1
 74
0
  0
LTYPE
  5
1F7
100
AcDbSymbolTableRecord
100
AcDbLinetypeTableRecord
  2
PHANTOM
 70
64
  3
_____ _ _ _____ _ _ _____ _ _ _____
 72
65
 73
6
 40
0.8
 49
0.45
 74
0
 49
-0.05
 74
0
 49
0.1
 74
0
 49
-0.05
 74
0
 49
0.1
 74
0
 49
-0.05
 74
0
  0
LTYPE
  5
1F8
100
AcDbSymbolTableRecord
100
AcDbLinetypeTableRecord
  2
DOT
 70
64
  3
. . . . . . . . . . . . . . . . . . . .
 72
65
 73
2
 40
0.2
 49
0.1
 74
0
 49
-0.1
 74
0
  0
LTYPE
  5
1F9
100
AcDbSymbolTableRecord
100
AcDbLinetypeTableRecord
  2
DASHED
 70
64
  3
- - - - - - - - - - - - - - - - - - - -
 72
65
 73
2
 40
0.2
 49
0.1
 74
0
 49
-0.1
 74
0
  0
ENDTAB
  0
TABLE
  2
LAYER
  5
2
100
AcDbSymbolTable
 70
36
  0
LAYER
  5
10
100
AcDbSymbolTableRecord
100
AcDbLayerTableRecord
  2
0
 70
0
 62
7
  6
CONTINUOUS
370
-3
390
F
  0
LAYER
  5
1FA
100
AcDbSymbolTableRecord
100
AcDbLayerTableRecord
  2
DEFAULT_1
 70
0
 62
7
  6
CENTER
370
-3
390
F
  0
LAYER
  5
1FB
100
AcDbSymbolTableRecord
100
AcDbLayerTableRecord
  2
DEFAULT_2
 70
0
 62
7
  6
HIDDEN
370
-3
390
F
  0
LAYER
  5
1FC
100
AcDbSymbolTableRecord
100
AcDbLayerTableRecord
  2
DEFAULT_3
 70
0
 62
7
  6
PHANTOM
370
-3
390
F
  0
LAYER
  5
1FD
100
AcDbSymbolTableRecord
100
AcDbLayerTableRecord
  2
00_COMPONENTS
 70
0
 62
7
  6
CONTINUOUS
370
-3
390
F
  0
LAYER
  5
1FE
100
AcDbSymbolTableRecord
100
AcDbLayerTableRecord
  2
01_1_DEFAULT_DATUMS
 70
0
 62
7
  6
CONTINUOUS
370
-3
390
F
  0
LAYER
  5
1FF
100
AcDbSymbolTableRecord
100
AcDbLayerTableRecord
  2
01_PLANES
 70
0
 62
7
  6
CONTINUOUS
370
-3
390
F
  0
LAYER
  5
200
100
AcDbSymbolTableRecord
100
AcDbLayerTableRecord
  2
02_COORD_SYS
 70
0
 62
7
  6
CONTINUOUS
370
-3
390
F
  0
LAYER
  5
201
100
AcDbSymbolTableRecord
100
AcDbLayerTableRecord
  2
03_AXES
 70
0
 62
7
  6
CONTINUOUS
370
-3
390
F
  0
LAYER
  5
202
100
AcDbSymbolTableRecord
100
AcDbLayerTableRecord
  2
04_POINTS
 70
0
 62
7
  6
CONTINUOUS
370
-3
390
F
  0
LAYER
  5
203
100
AcDbSymbolTableRecord
100
AcDbLayerTableRecord
  2
05_CURVES
 70
0
 62
7
  6
CONTINUOUS
370
-3
390
F
  0
LAYER
  5
204
100
AcDbSymbolTableRecord
100
AcDbLayerTableRecord
  2
06_SURFS
 70
0
 62
7
  6
CONTINUOUS
370
-3
390
F
  0
LAYER
  5
205
100
AcDbSymbolTableRecord
100
AcDbLayerTableRecord
  2
07_COSMETICS
 70
0
 62
7
  6
CONTINUOUS
370
-3
390
F
  0
LAYER
  5
206
100
AcDbSymbolTableRecord
100
AcDbLayerTableRecord
  2
10_NOTES
 70
0
 62
7
  6
CONTINUOUS
370
-3
390
F
  0
LAYER
  5
207
100
AcDbSymbolTableRecord
100
AcDbLayerTableRecord
  2
11_NOTES_PUB
 70
0
 62
7
  6
CONTINUOUS
370
-3
390
F
  0
LAYER
  5
208
100
AcDbSymbolTableRecord
100
AcDbLayerTableRecord
  2
13_REF_GTOL
 70
0
 62
7
  6
CONTINUOUS
370
-3
390
F
  0
LAYER
  5
209
100
AcDbSymbolTableRecord
100
AcDbLayerTableRecord
  2
16_MISC
 70
0
 62
7
  6
CONTINUOUS
370
-3
390
F
  0
LAYER
  5
20A
100
AcDbSymbolTableRecord
100
AcDbLayerTableRecord
  2
17_NO_PRINT
 70
0
 62
7
  6
CONTINUOUS
370
-3
390
F
  0
LAYER
  5
20B
100
AcDbSymbolTableRecord
100
AcDbLayerTableRecord
  2
18_DATUM_CAMS_JOINTS
 70
0
 62
7
  6
CONTINUOUS
370
-3
390
F
  0
LAYER
  5
20C
100
AcDbSymbolTableRecord
100
AcDbLayerTableRecord
  2
19_DATUM_FUNCTIONAL
 70
0
 62
7
  6
CONTINUOUS
370
-3
390
F
  0
LAYER
  5
20D
100
AcDbSymbolTableRecord
100
AcDbLayerTableRecord
  2
20_DATUM_KINEMATIC_SCHEME
 70
0
 62
7
  6
CONTINUOUS
370
-3
390
F
  0
ENDTAB
  0
TABLE
  2
STYLE
  5
3
100
AcDbSymbolTable
 70
1
  0
STYLE
  5
11
100
AcDbSymbolTableRecord
100
AcDbTextStyleTableRecord
  2
STANDARD
 70
0
 40
0.0
 41
1.0
 50
0.0
 71
0
 42
0.2
  3
ARIAL.TTF
  4

  0
STYLE
  5
20E
100
AcDbSymbolTableRecord
100
AcDbTextStyleTableRecord
  2
TEXTSTYLE_1
 70
0
 40
0.0
 41
0.8
 50
0.0
 71
0
 42
0.2
  3
gdt
  4

  0
ENDTAB
  0
TABLE
  2
VIEW
  5
6
100
AcDbSymbolTable
 70
0
  0
ENDTAB
  0
TABLE
  2
UCS
  5
7
100
AcDbSymbolTable
 70
0
  0
ENDTAB
  0
TABLE
  2
APPID
  5
9
100
AcDbSymbolTable
 70
1
  0
APPID
  5
20F
100
AcDbSymbolTableRecord
100
AcDbRegAppTableRecord
  2
ACAD
 70
0
  0
ENDTAB
  0
TABLE
  2
BLOCK_RECORD
  5
1
100
AcDbSymbolTable
 70
0
  0
BLOCK_RECORD
  5
210
100
AcDbSymbolTableRecord
100
AcDbBlockTableRecord
  2
*Model_Space
  0
BLOCK_RECORD
  5
211
100
AcDbSymbolTableRecord
100
AcDbBlockTableRecord
  2
*Paper_Space
  0
BLOCK_RECORD
  5
212
100
AcDbSymbolTableRecord
100
AcDbBlockTableRecord
  2
_FILLED
  0
ENDTAB
  0
TABLE
  2
DIMSTYLE
  5
A
100
AcDbSymbolTable
 70
1
100
AcDbDimStyleTable
 71
0
  0
DIMSTYLE
105
213
100
AcDbSymbolTableRecord
100
AcDbDimStyleTableRecord
  2
STANDARD
 70
0
  3

  4

 40
1.0
 41
0.6364896884
 42
1.0
 43
0.38
 44
1.0
 45
0.0
 46
0.0
 47
0.01
 48
0.01
140
0.8910855638
141
0.09
142
0.0
143
25.4
144
1.0
145
0.0
146
1.0
147
0.625
 71
1
 72
0
 73
0
 74
0
 75
0
 76
0
 77
1
 78
8
 79
2
170
0
171
1
172
0
173
0
174
0
175
0
176
0
177
0
178
0
270
2
179
2
271
2
272
2
273
2
274
2
275
0
280
0
281
0
282
0
283
1
284
8
285
0
286
0
287
3
288
0
340
11
278
46
341
212
342
212
343
212
344
212
  0
ENDTAB
  0
ENDSEC
  0
SECTION
  2
BLOCKS
  0
BLOCK
  5
20
100
AcDbEntity
  8
0
100
AcDbBlockBegin
  2
*Model_Space
 70
0
 10
0.0
 20
0.0
 30
0.0
  3
*Model_Space
  1

  0
ENDBLK
  5
21
100
AcDbEntity
  8
0
100
AcDbBlockEnd
  0
BLOCK
  5
1C
100
AcDbEntity
  8
0
100
AcDbBlockBegin
  2
*Paper_Space
 70
0
 10
0.0
 20
0.0
 30
0.0
  3
*Paper_Space
  1

  0
ENDBLK
  5
1D
100
AcDbEntity
  8
0
100
AcDbBlockEnd
  0
BLOCK
  5
214
100
AcDbEntity
  8
0
100
AcDbBlockBegin
  2
_FILLED
 70
64
 10
0.0
 20
0.0
  3
_FILLED
  1

  0
SOLID
  5
215
100
AcDbEntity
  8
0
  6
BYBLOCK
 62
0
100
AcDbTrace
 10
0.0
 20
0.0
 11
-1.0
 21
0.25
 12
-1.0
 22
-0.25
 13
-1.0
 23
-0.25
  0
ENDBLK
  5
216
100
AcDbEntity
  8
0
  6
BYBLOCK
 62
0
100
AcDbBlockEnd
  0
ENDSEC
  0
SECTION
  2
ENTITIES
  0
LINE
  5
217
100
AcDbEntity
  8
0
100
AcDbLine
 62
7
  6
BYLAYER
 10
11.6735988265
 20
48.614663061
 11
7.9473325853
 21
46.4633150855
  0
LINE
  5
218
100
AcDbEntity
  8
0
100
AcDbLine
 62
7
  6
BYLAYER
 10
9.321684415
 20
43.7926963022
 11
8.7895483204
 21
43.4854692186
  0
LINE
  5
219
100
AcDbEntity
  8
0
100
AcDbLine
 62
7
  6
BYLAYER
 10
23.8301755984
 20
43.3323678742
 11
22.4655354067
 21
42.5444971951
  0
LINE
  5
21A
100
AcDbEntity
  8
0
100
AcDbLine
 62
7
  6
BYLAYER
 10
23.8797430811
 20
43.4260124572
 11
30.2112203965
 21
45.3631525848
  0
LINE
  5
21B
100
AcDbEntity
  8
0
100
AcDbLine
 62
7
  6
BYLAYER
 10
36.373104515
 20
33.1090547021
 11
36.309207629
 21
33.097293855
  0
LINE
  5
21C
100
AcDbEntity
  8
0
100
AcDbLine
 62
7
  6
BYLAYER
 10
36.3727252757
 20
33.1097437632
 11
36.308813568
 21
33.0980085837
  0
LINE
  5
21D
100
AcDbEntity
  8
0
100
AcDbLine
 62
7
  6
BYLAYER
 10
20.1303613998
 20
35.1213185943
 11
22.4655354067
 21
33.4757946114
  0
LINE
  5
21E
100
AcDbEntity
  8
0
100
AcDbLine
 62
7
  6
BYLAYER
 10
22.4655354067
 20
42.5444971951
 11
22.4655354067
 21
33.4757946114
  0
LINE
  5
21F
100
AcDbEntity
  8
0
100
AcDbLine
 62
7
  6
BYLAYER
 10
30.8952685077
 20
44.3876477183
 11
24.5637911924
 21
42.3409660383
  0
LINE
  5
220
100
AcDbEntity
  8
0
100
AcDbLine
 62
7
  6
BYLAYER
 10
37.2757550545
 20
33.6702004757
 11
37.3228148933
 21
33.6745944591
  0
LINE
  5
221
100
AcDbEntity
  8
0
100
AcDbLine
 62
7
  6
BYLAYER
 10
23.8797430811
 20
43.4260124572
 11
23.8797430811
 21
43.4059849469
  0
LWPOLYLINE
  5
222
100
AcDbEntity
  8
0
100
AcDbPolyline
 62
7
  6
BYLAYER
 90
3
 70
0
 10
23.8797430811
 20
43.4059849469
 10
23.8730645015
 20
43.3766075753
 10
23.8301755985
 20
43.3323678742
  0
LINE
  5
223
100
AcDbEntity
  8
0
100
AcDbLine
 62
7
  6
BYLAYER
 10
14.2453286309
 20
35.0883584949
 11
13.789525936
 21
34.8252022572
  0
LINE
  5
224
100
AcDbEntity
  8
0
100
AcDbLine
 62
7
  6
BYLAYER
 10
24.5637911924
 20
33.1422095458
 11
30.8952685077
 21
33.7564962154
  0
LINE
  5
225
100
AcDbEntity
  8
0
100
AcDbLine
 62
7
  6
BYLAYER
 10
24.5637911924
 20
33.1422095458
 11
24.5637911924
 21
42.3409660383
  0
LINE
  5
226
100
AcDbEntity
  8
0
100
AcDbLine
 62
7
  6
BYLAYER
 10
19.6735630114
 20
34.7582359227
 11
15.9472967704
 21
32.6068879472
  0
LINE
  5
227
100
AcDbEntity
  8
0
100
AcDbLine
 62
7
  6
BYLAYER
 10
31.4198324542
 20
33.6236189588
 11
39.2720061875
 21
27.9789168483
  0
LINE
  5
228
100
AcDbEntity
  8
0
100
AcDbLine
 62
7
  6
BYLAYER
 10
24.5637911924
 20
42.3409660383
 11
23.8797430811
 21
43.4260124572
  0
LINE
  5
229
100
AcDbEntity
  8
0
100
AcDbLine
 62
7
  6
BYLAYER
 10
31.6073694086
 20
45.5593878725
 11
31.1744983102
 21
44.4320734231
  0
LINE
  5
22A
100
AcDbEntity
  8
0
100
AcDbLine
 62
7
  6
BYLAYER
 10
36.9928362007
 20
39.8231952355
 11
36.5369420374
 21
39.6497245963
  0
LINE
  5
22B
100
AcDbEntity
  8
0
100
AcDbLine
 62
7
  6
BYLAYER
 10
37.4116561864
 20
31.6285005167
 11
37.4091458762
 21
31.6305036959
  0
LINE
  5
22C
100
AcDbEntity
  8
0
100
AcDbLine
 62
7
  6
BYLAYER
 10
22.4655354067
 20
42.5444971951
 11
19.7711376257
 21
43.7569916546
  0
LINE
  5
22D
100
AcDbEntity
  8
0
100
AcDbLine
 62
7
  6
BYLAYER
 10
34.8858872639
 20
36.758899307
 11
32.8209455335
 21
37.9510670005
  0
LINE
  5
22E
100
AcDbEntity
  8
0
100
AcDbLine
 62
7
  6
BYLAYER
 10
34.9422747089
 20
37.2162461872
 11
32.8209455335
 21
38.4409684508
  0
LINE
  5
22F
100
AcDbEntity
  8
0
100
AcDbLine
 62
7
  6
BYLAYER
 10
37.4106875793
 20
31.6244013546
 11
37.4081977237
 21
31.62653227
  0
LINE
  5
230
100
AcDbEntity
  8
0
100
AcDbLine
 62
7
  6
BYLAYER
 10
30.8952685077
 20
44.3876477183
 11
30.8952685077
 21
33.7564962154
  0
LINE
  5
231
100
AcDbEntity
  8
0
100
AcDbLine
 62
7
  6
BYLAYER
 10
31.4198324542
 20
33.6236189588
 11
31.4198324542
 21
44.3862459193
  0
LINE
  5
232
100
AcDbEntity
  8
0
100
AcDbLine
 62
7
  6
BYLAYER
 10
32.8209455335
 20
37.9510670005
 11
33.0330766847
 21
38.3184909718
  0
LINE
  5
233
100
AcDbEntity
  8
0
100
AcDbLine
 62
7
  6
BYLAYER
 10
39.2720061875
 20
40.9642439088
 11
40.6862138619
 21
41.7807322165
  0
LINE
  5
234
100
AcDbEntity
  8
0
100
AcDbLine
 62
7
  6
BYLAYER
 10
45.9937154472
 20
39.3229313517
 11
45.4028988782
 21
39.4034602441
  0
LINE
  5
235
100
AcDbEntity
  8
0
100
AcDbLine
 62
7
  6
BYLAYER
 10
46.7518025333
 20
39.5476083463
 11
46.4533329413
 21
39.5882900517
  0
LINE
  5
236
100
AcDbEntity
  8
0
100
AcDbLine
 62
7
  6
BYLAYER
 10
18.32117736
 20
45.8623719673
 11
23.6545037926
 21
43.4623444749
  0
LINE
  5
237
100
AcDbEntity
  8
0
100
AcDbLine
 62
7
  6
BYLAYER
 10
32.8209455335
 20
37.9510670005
 11
32.8209455335
 21
38.4409684508
  0
LINE
  5
238
100
AcDbEntity
  8
0
100
AcDbLine
 62
7
  6
BYLAYER
 10
37.0435271341
 20
37.0878239804
 11
35.8248510774
 21
36.3842252309
  0
LINE
  5
239
100
AcDbEntity
  8
0
100
AcDbLine
 62
7
  6
BYLAYER
 10
44.9075066553
 20
39.3186699418
 11
44.1354406473
 21
38.872920085
  0
LINE
  5
23A
100
AcDbEntity
  8
0
100
AcDbLine
 62
7
  6
BYLAYER
 10
46.057019163
 20
39.5204578099
 11
45.7681444406
 21
39.3536769067
  0
LINE
  5
23B
100
AcDbEntity
  8
0
100
AcDbLine
 62
7
  6
BYLAYER
 10
39.2720061874
 20
40.9642439088
 11
31.4198324542
 21
44.3862459193
  0
LINE
  5
23C
100
AcDbEntity
  8
0
100
AcDbLine
 62
7
  6
BYLAYER
 10
36.3702578033
 20
33.1246081079
 11
36.38032123
 21
33.1323140706
  0
LINE
  5
23D
100
AcDbEntity
  8
0
100
AcDbLine
 62
7
  6
BYLAYER
 10
37.5399196883
 20
33.8506432502
 11
37.3538936126
 21
33.7432416865
  0
LINE
  5
23E
100
AcDbEntity
  8
0
100
AcDbLine
 62
7
  6
BYLAYER
 10
36.377086828
 20
33.1285508236
 11
37.524438254
 21
33.7909735172
  0
LINE
  5
23F
100
AcDbEntity
  8
0
100
AcDbLine
 62
7
  6
BYLAYER
 10
37.3793418212
 20
32.9585799276
 11
36.3020871638
 21
32.3366303737
  0
LINE
  5
240
100
AcDbEntity
  8
0
100
AcDbLine
 62
7
  6
BYLAYER
 10
35.9550429993
 20
31.8405709204
 11
38.4550534078
 21
33.2839938711
  0
LINE
  5
241
100
AcDbEntity
  8
0
100
AcDbLine
 62
7
  6
BYLAYER
 10
32.8340401286
 20
45.3142554451
 11
40.6862138619
 21
41.7807322165
  0
LINE
  5
242
100
AcDbEntity
  8
0
100
AcDbLine
 62
7
  6
BYLAYER
 10
37.2757550545
 20
36.1261696143
 11
37.2757550545
 21
33.6702004757
  0
LINE
  5
243
100
AcDbEntity
  8
0
100
AcDbLine
 62
7
  6
BYLAYER
 10
37.2757550545
 20
32.5157950366
 11
37.2757550545
 21
30.059825898
  0
LINE
  5
244
100
AcDbEntity
  8
0
100
AcDbLine
 62
7
  6
BYLAYER
 10
37.3538936126
 20
34.4211769784
 11
37.3538936126
 21
33.7432416865
  0
LINE
  5
245
100
AcDbEntity
  8
0
100
AcDbLine
 62
7
  6
BYLAYER
 10
37.3538936126
 20
32.3525292319
 11
37.3538936126
 21
31.6745939399
  0
LINE
  5
246
100
AcDbEntity
  8
0
100
AcDbLine
 62
7
  6
BYLAYER
 10
37.4246435103
 20
31.6447757509
 11
37.4142192525
 21
31.6368614635
  0
LINE
  5
247
100
AcDbEntity
  8
0
100
AcDbLine
 62
7
  6
BYLAYER
 10
37.3538936126
 20
32.3525292319
 11
37.506484078
 21
32.4406268523
  0
LINE
  5
248
100
AcDbEntity
  8
0
100
AcDbLine
 62
7
  6
BYLAYER
 10
37.4246326918
 20
31.6447695048
 11
38.2904795247
 21
32.1446634229
  0
LINE
  5
249
100
AcDbEntity
  8
0
100
AcDbLine
 62
7
  6
BYLAYER
 10
37.5064758843
 20
31.6412919523
 11
38.3479161122
 21
32.1270947945
  0
LINE
  5
24A
100
AcDbEntity
  8
0
100
AcDbLine
 62
7
  6
BYLAYER
 10
47.657012
 20
36.7491723823
 11
47.3681372776
 21
36.582391479
  0
LINE
  5
24B
100
AcDbEntity
  8
0
100
AcDbLine
 62
7
  6
BYLAYER
 10
46.9074977015
 20
35.8545631572
 11
46.1354275103
 21
35.4088108853
  0
LINE
  5
24C
100
AcDbEntity
  8
0
100
AcDbLine
 62
7
  6
BYLAYER
 10
41.0435092266
 20
30.1596104112
 11
39.8248331699
 21
29.4560116618
  0
LINE
  5
24D
100
AcDbEntity
  8
0
100
AcDbLine
 62
7
  6
BYLAYER
 10
43.3870574585
 20
28.7480130328
 11
43.0088788038
 21
28.4399343805
  0
LINE
  5
24E
100
AcDbEntity
  8
0
100
AcDbLine
 62
7
  6
BYLAYER
 10
45.3062325519
 20
28.001884919
 11
43.8920248775
 21
27.1853966113
  0
LINE
  5
24F
100
AcDbEntity
  8
0
100
AcDbLine
 62
7
  6
BYLAYER
 10
47.3217216287
 20
36.7701350405
 11
47.2286263674
 21
36.2411885959
  0
LINE
  5
250
100
AcDbEntity
  8
0
100
AcDbLine
 62
7
  6
BYLAYER
 10
47.4542974385
 20
36.7931140332
 11
47.5287736476
 21
37.2162711888
  0
LINE
  5
251
100
AcDbEntity
  8
0
100
AcDbLine
 62
7
  6
BYLAYER
 10
47.9883911418
 20
37.4816298888
 11
47.9139149327
 21
37.0584727332
  0
LINE
  5
252
100
AcDbEntity
  8
0
100
AcDbLine
 62
7
  6
BYLAYER
 10
48.0929899882
 20
37.707009611
 11
48.0279090866
 21
37.3373061266
  0
LINE
  5
253
100
AcDbEntity
  8
0
100
AcDbLine
 62
7
  6
BYLAYER
 10
47.4542974385
 20
36.7931140332
 11
47.2286263674
 21
36.2411885959
  0
LINE
  5
254
100
AcDbEntity
  8
0
100
AcDbLine
 62
7
  6
BYLAYER
 10
48.0279197796
 20
37.3372952455
 11
47.9139149327
 21
37.0584727332
  0
ARC
  5
255
100
AcDbEntity
  8
0
100
AcDbCircle
 62
7
  6
BYLAYER
 10
83.7702329725
 20
-225.078962103
 40
262.5032085991
100
AcDbArc
 50
100.4165472598
 51
100.568847999
  0
ARC
  5
256
100
AcDbEntity
  8
0
100
AcDbCircle
 62
7
  6
BYLAYER
 10
-63.3090119229
 20
117.2331739364
 40
132.1109047802
100
AcDbArc
 50
319.6370792259
 51
319.9864017862
  0
ARC
  5
257
100
AcDbEntity
  8
0
100
AcDbCircle
 62
7
  6
BYLAYER
 10
58.7425630848
 20
-88.4033605163
 40
123.5550248077
100
AcDbArc
 50
99.9328636474
 51
100.4310198735
  0
ARC
  5
258
100
AcDbEntity
  8
0
100
AcDbCircle
 62
7
  6
BYLAYER
 10
8.5674139427
 20
97.9551419495
 40
71.2433727028
100
AcDbArc
 50
293.8314515583
 51
294.8041670423
  0
ARC
  5
259
100
AcDbEntity
  8
0
100
AcDbCircle
 62
7
  6
BYLAYER
 10
76.7023143313
 20
-20.9968189844
 40
66.402228306
100
AcDbArc
 50
125.1689608625
 51
126.2754610945
  0
ARC
  5
25A
100
AcDbEntity
  8
0
100
AcDbCircle
 62
7
  6
BYLAYER
 10
76.7493520477
 20
15.4932014857
 40
42.5170106983
100
AcDbArc
 50
157.7580390069
 51
157.9108384085
  0
ARC
  5
25B
100
AcDbEntity
  8
0
100
AcDbCircle
 62
7
  6
BYLAYER
 10
73.1604480904
 20
16.1011024627
 40
39.991601987
100
AcDbArc
 50
156.4195552071
 51
156.5815284209
  0
ARC
  5
25C
100
AcDbEntity
  8
0
100
AcDbCircle
 62
7
  6
BYLAYER
 10
19.4870617864
 20
43.8881019417
 40
13.4327851709
100
AcDbArc
 50
206.1196203602
 51
214.0986177249
  0
ARC
  5
25D
100
AcDbEntity
  8
0
100
AcDbCircle
 62
7
  6
BYLAYER
 10
18.9948918472
 20
43.5475067245
 40
12.834289412
100
AcDbArc
 50
214.0713045452
 51
220.5071887395
  0
ARC
  5
25E
100
AcDbEntity
  8
0
100
AcDbCircle
 62
7
  6
BYLAYER
 10
18.2912977233
 20
42.9599493216
 40
11.9176899511
100
AcDbArc
 50
220.5566143961
 51
223.6989084668
  0
ARC
  5
25F
100
AcDbEntity
  8
0
100
AcDbCircle
 62
7
  6
BYLAYER
 10
17.8990138726
 20
43.2561753986
 40
11.7219005292
100
AcDbArc
 50
195.3430929927
 51
199.992844212
  0
ARC
  5
260
100
AcDbEntity
  8
0
100
AcDbCircle
 62
7
  6
BYLAYER
 10
43.9673994236
 20
39.4862309779
 40
9.7254373399
100
AcDbArc
 50
219.5007382676
 51
219.9164317241
  0
ARC
  5
261
100
AcDbEntity
  8
0
100
AcDbCircle
 62
7
  6
BYLAYER
 10
44.5332767804
 20
38.5429355951
 40
9.2030102895
100
AcDbArc
 50
218.7212195869
 51
219.1450361252
  0
ARC
  5
262
100
AcDbEntity
  8
0
100
AcDbCircle
 62
7
  6
BYLAYER
 10
16.3945434202
 20
42.1027141721
 40
8.7890673083
100
AcDbArc
 50
207.0427553555
 51
214.9687969623
  0
ARC
  5
263
100
AcDbEntity
  8
0
100
AcDbCircle
 62
7
  6
BYLAYER
 10
16.3205647503
 20
42.0664821312
 40
8.7067039303
100
AcDbArc
 50
205.0028169346
 51
207.0517319576
  0
ARC
  5
264
100
AcDbEntity
  8
0
100
AcDbCircle
 62
7
  6
BYLAYER
 10
16.1620667687
 20
41.9406766232
 40
8.5056923863
100
AcDbArc
 50
214.9718647158
 51
217.3879956177
  0
ARC
  5
265
100
AcDbEntity
  8
0
100
AcDbCircle
 62
7
  6
BYLAYER
 10
43.9519591311
 20
36.042564727
 40
7.8836696002
100
AcDbArc
 50
213.9760411839
 51
214.1942910203
  0
ARC
  5
266
100
AcDbEntity
  8
0
100
AcDbCircle
 62
7
  6
BYLAYER
 10
43.9376362383
 20
36.032789806
 40
7.8663290967
100
AcDbArc
 50
214.1940308831
 51
215.0814138405
  0
ARC
  5
267
100
AcDbEntity
  8
0
100
AcDbCircle
 62
7
  6
BYLAYER
 10
43.4539406194
 20
36.599500958
 40
7.7304067486
100
AcDbArc
 50
204.9086339776
 51
205.2664681762
  0
ARC
  5
268
100
AcDbEntity
  8
0
100
AcDbCircle
 62
7
  6
BYLAYER
 10
43.5818264952
 20
35.906929167
 40
7.7175044878
100
AcDbArc
 50
188.7885697029
 51
201.0703216592
  0
ARC
  5
269
100
AcDbEntity
  8
0
100
AcDbCircle
 62
7
  6
BYLAYER
 10
43.2902231039
 20
36.4122410478
 40
7.7174768659
100
AcDbArc
 50
219.7080085034
 51
231.2091946506
  0
ARC
  5
26A
100
AcDbEntity
  8
0
100
AcDbCircle
 62
7
  6
BYLAYER
 10
15.5545014186
 20
39.4958968819
 40
7.5144022943
100
AcDbArc
 50
240.0001492464
 51
240.4132371977
  0
ARC
  5
26B
100
AcDbEntity
  8
0
100
AcDbCircle
 62
7
  6
BYLAYER
 10
15.1575517516
 20
41.636420079
 40
7.4653634342
100
AcDbArc
 50
194.1433226967
 51
197.2467143569
  0
ARC
  5
26C
100
AcDbEntity
  8
0
100
AcDbCircle
 62
7
  6
BYLAYER
 10
8.0904025454
 20
39.4580553585
 40
7.2888846499
100
AcDbArc
 50
59.9333213987
 51
60.346411206
  0
ARC
  5
26D
100
AcDbEntity
  8
0
100
AcDbCircle
 62
7
  6
BYLAYER
 10
15.3852137383
 20
39.3770810967
 40
7.2860675557
100
AcDbArc
 50
240.0001320852
 51
240.4132200367
  0
ARC
  5
26E
100
AcDbEntity
  8
0
100
AcDbCircle
 62
7
  6
BYLAYER
 10
15.3111384119
 20
39.2462814335
 40
7.1357489667
100
AcDbArc
 50
240.4118981919
 51
241.1223742898
  0
ARC
  5
26F
100
AcDbEntity
  8
0
100
AcDbCircle
 62
7
  6
BYLAYER
 10
14.9336497504
 20
40.8138176388
 40
6.8365300676
100
AcDbArc
 50
224.9219845117
 51
229.742670925
  0
ARC
  5
270
100
AcDbEntity
  8
0
100
AcDbCircle
 62
7
  6
BYLAYER
 10
41.4476712268
 20
35.011747319
 40
6.5
100
AcDbArc
 50
194.882299393
 51
225.117793544
  0
ARC
  5
271
100
AcDbEntity
  8
0
100
AcDbCircle
 62
7
  6
BYLAYER
 10
13.8684127909
 20
39.4036688102
 40
5.0672551129
100
AcDbArc
 50
235.8387669056
 51
239.9773871821
  0
ARC
  5
272
100
AcDbEntity
  8
0
100
AcDbCircle
 62
7
  6
BYLAYER
 10
13.3180853484
 20
38.3415917187
 40
3.8700097772
100
AcDbArc
 50
245.6446501514
 51
248.3891107492
  0
ARC
  5
273
100
AcDbEntity
  8
0
100
AcDbCircle
 62
7
  6
BYLAYER
 10
9.6382366428
 20
40.9159793142
 40
2.9263576415
100
AcDbArc
 50
77.3803474171
 51
77.5892533729
  0
ARC
  5
274
100
AcDbEntity
  8
0
100
AcDbCircle
 62
7
  6
BYLAYER
 10
38.8986532183
 20
33.3652835722
 40
2.2901339856
100
AcDbArc
 50
227.5824889032
 51
229.3968583174
  0
ARC
  5
275
100
AcDbEntity
  8
0
100
AcDbCircle
 62
7
  6
BYLAYER
 10
38.8630556665
 20
33.3239037047
 40
2.23554944
100
AcDbArc
 50
229.4833185096
 51
229.8423161457
  0
ARC
  5
276
100
AcDbEntity
  8
0
100
AcDbCircle
 62
7
  6
BYLAYER
 10
38.8509527402
 20
33.3095637045
 40
2.2167846744
100
AcDbArc
 50
229.8423720396
 51
230.1580533358
  0
ARC
  5
277
100
AcDbEntity
  8
0
100
AcDbCircle
 62
7
  6
BYLAYER
 10
36.2126242587
 20
33.3627607944
 40
0.2850052047
100
AcDbArc
 50
306.0435267231
 51
315.3340031519
  0
SPLINE
  5
278
100
AcDbEntity
  8
0
100
AcDbSpline
 62
7
  6
BYLAYER
 70
0
 71
3
 72
30
 73
26
 74
0
 42
0.0000001
 43
0.0000001
 44
0.0000000001
 40
0.0
 40
0.0
 40
0.0
 40
0.0
 40
0.0623710561
 40
0.1286965519
 40
0.1982741355
 40
0.2702354537
 40
0.343597454
 40
0.4173141425
 40
0.4903241709
 40
0.5615970975
 40
0.6301814973
 40
0.6632148154
 40
0.6952820508
 40
0.7263114531
 40
0.7562472492
 40
0.7850521186
 40
0.8127105901
 40
0.8392310773
 40
0.8646487762
 40
0.8890303573
 40
0.9124749887
 40
0.9351150498
 40
0.9571159743
 40
0.9786721168
 40
1.0
 40
1.0
 40
1.0
 40
1.0
 10
7.7539885025
 20
41.1965395105
 30
0.0
 10
7.7539885025
 20
40.9891074336
 30
0.0
 10
7.7820897092
 20
40.5608058705
 30
0.0
 10
7.8977266771
 20
39.9104925854
 30
0.0
 10
8.085725132
 20
39.2441331961
 30
0.0
 10
8.3420686399
 20
38.5759777653
 30
0.0
 10
8.661300214
 20
37.9201832068
 30
0.0
 10
9.0366102448
 20
37.2907465515
 30
0.0
 10
9.4600047107
 20
36.7010793767
 30
0.0
 10
9.9224236786
 20
36.1637973321
 30
0.0
 10
10.3373104243
 20
35.7642114463
 30
0.0
 10
10.6807332963
 20
35.4815504906
 30
0.0
 10
10.9384171998
 20
35.2920200356
 30
0.0
 10
11.198019944
 20
35.1233437642
 30
0.0
 10
11.458162545
 20
34.9764277305
 30
0.0
 10
11.7174589047
 20
34.8520690448
 30
0.0
 10
11.9745327522
 20
34.7509474875
 30
0.0
 10
12.2280204959
 20
34.673627871
 30
0.0
 10
12.4765782455
 20
34.6205568603
 30
0.0
 10
12.7188852979
 20
34.5920657214
 30
0.0
 10
12.9536444787
 20
34.5883688151
 30
0.0
 10
13.1795706702
 20
34.6095574592
 30
0.0
 10
13.3954062849
 20
34.6555969796
 30
0.0
 10
13.5998627466
 20
34.7262717513
 30
0.0
 10
13.7280972665
 20
34.7897363679
 30
0.0
 10
13.7895258843
 20
34.8252023468
 30
0.0
  0
SPLINE
  5
279
100
AcDbEntity
  8
0
100
AcDbSpline
 62
7
  6
BYLAYER
 70
0
 71
3
 72
17
 73
13
 74
0
 42
0.0000001
 43
0.0000001
 44
0.0000000001
 40
0.0
 40
0.0
 40
0.0
 40
0.0
 40
0.0539146795
 40
0.1080880459
 40
0.1627720929
 40
0.2182071714
 40
0.3321235113
 40
0.4514588573
 40
0.5773542304
 40
0.7105543699
 40
0.8514217236
 40
1.0
 40
1.0
 40
1.0
 40
1.0
 10
8.7895483722
 20
43.4854691289
 30
0.0
 10
8.7486213764
 20
43.461839817
 30
0.0
 10
8.6685476217
 20
43.4109456336
 30
0.0
 10
8.5549230128
 20
43.3243920121
 30
0.0
 10
8.4479218549
 20
43.2277545094
 30
0.0
 10
8.3132682487
 20
43.0845608078
 30
0.0
 10
8.1625727461
 20
42.8799301008
 30
0.0
 10
8.0142945872
 20
42.6011265767
 30
0.0
 10
7.8979481876
 20
42.2895706315
 30
0.0
 10
7.8144717598
 20
41.948328348
 30
0.0
 10
7.7644756262
 20
41.5806615867
 30
0.0
 10
7.7539885025
 20
41.3267745909
 30
0.0
 10
7.7539885025
 20
41.1965395105
 30
0.0
  0
SPLINE
  5
27A
100
AcDbEntity
  8
0
100
AcDbSpline
 62
7
  6
BYLAYER
 70
0
 71
3
 72
30
 73
26
 74
0
 42
0.0000001
 43
0.0000001
 44
0.0000000001
 40
0.0
 40
0.0
 40
0.0
 40
0.0
 40
0.0623710561
 40
0.1286965519
 40
0.1982741355
 40
0.2702354537
 40
0.343597454
 40
0.4173141425
 40
0.4903241709
 40
0.5615970975
 40
0.6301814973
 40
0.6632148154
 40
0.6952820508
 40
0.7263114531
 40
0.7562472492
 40
0.7850521186
 40
0.8127105901
 40
0.8392310773
 40
0.8646487762
 40
0.8890303573
 40
0.9124749887
 40
0.9351150498
 40
0.9571159743
 40
0.9786721168
 40
1.0
 40
1.0
 40
1.0
 40
1.0
 10
14.825085754
 20
37.1141319653
 30
0.0
 10
14.825085754
 20
37.3215640422
 30
0.0
 10
14.7969845472
 20
37.7498656053
 30
0.0
 10
14.6813475793
 20
38.4001788904
 30
0.0
 10
14.4933491245
 20
39.0665382796
 30
0.0
 10
14.2370056165
 20
39.7346937105
 30
0.0
 10
13.9177740425
 20
40.390488269
 30
0.0
 10
13.5424640117
 20
41.0199249243
 30
0.0
 10
13.1190695457
 20
41.609592099
 30
0.0
 10
12.6566505778
 20
42.1468741437
 30
0.0
 10
12.2417638321
 20
42.5464600295
 30
0.0
 10
11.8983409601
 20
42.8291209852
 30
0.0
 10
11.6406570566
 20
43.0186514402
 30
0.0
 10
11.3810543124
 20
43.1873277115
 30
0.0
 10
11.1209117115
 20
43.3342437453
 30
0.0
 10
10.8616153517
 20
43.4586024309
 30
0.0
 10
10.6045415043
 20
43.5597239883
 30
0.0
 10
10.3510537605
 20
43.6370436047
 30
0.0
 10
10.102496011
 20
43.6901146154
 30
0.0
 10
9.8601889586
 20
43.7186057543
 30
0.0
 10
9.6254297777
 20
43.7223026607
 30
0.0
 10
9.3995035862
 20
43.7011140166
 30
0.0
 10
9.1836679716
 20
43.6550744962
 30
0.0
 10
8.9792115099
 20
43.5843997245
 30
0.0
 10
8.85097699
 20
43.5209351079
 30
0.0
 10
8.7895483722
 20
43.4854691289
 30
0.0
  0
SPLINE
  5
27B
100
AcDbEntity
  8
0
100
AcDbSpline
 62
7
  6
BYLAYER
 70
0
 71
3
 72
30
 73
26
 74
0
 42
0.0000001
 43
0.0000001
 44
0.0000000001
 40
0.0
 40
0.0
 40
0.0
 40
0.0
 40
0.0665297274
 40
0.1383206213
 40
0.2138817729
 40
0.2914099074
 40
0.3689380998
 40
0.4445007622
 40
0.5162871642
 40
0.5828177807
 40
0.6431462652
 40
0.6709402326
 40
0.6972092264
 40
0.7221106417
 40
0.7458804212
 40
0.7688395547
 40
0.7913731041
 40
0.8139068826
 40
0.8368662454
 40
0.8606378882
 40
0.885536354
 40
0.9118036244
 40
0.9396048915
 40
0.969018104
 40
1.0
 40
1.0
 40
1.0
 40
1.0
 10
11.7138053185
 20
38.5837973218
 30
0.0
 10
11.7138053185
 20
38.6396912516
 30
0.0
 10
11.7035653404
 20
38.756007431
 30
0.0
 10
11.6627556164
 20
38.9314829464
 30
0.0
 10
11.5973683231
 20
39.1092243163
 30
0.0
 10
11.5098667925
 20
39.2825477039
 30
0.0
 10
11.4035095939
 20
39.4449927536
 30
0.0
 10
11.2822875175
 20
39.5904758271
 30
0.0
 10
11.1506754829
 20
39.7135863567
 30
0.0
 10
11.0135400414
 20
39.8097418839
 30
0.0
 10
10.8954294942
 20
39.8659358376
 30
0.0
 10
10.8029940055
 20
39.8929041917
 30
0.0
 10
10.7373956442
 20
39.9038989674
 30
0.0
 10
10.6742733689
 20
39.9061029816
 30
0.0
 10
10.6142334799
 20
39.899400625
 30
0.0
 10
10.5578969268
 20
39.8838237863
 30
0.0
 10
10.5058866308
 20
39.8594719696
 30
0.0
 10
10.4587920341
 20
39.8266064103
 30
0.0
 10
10.4171282053
 20
39.785607644
 30
0.0
 10
10.3813158098
 20
39.7369558409
 30
0.0
 10
10.3516451816
 20
39.6812001766
 30
0.0
 10
10.3283800294
 20
39.6188881941
 30
0.0
 10
10.311676829
 20
39.5506211439
 30
0.0
 10
10.3016967462
 20
39.4770819838
 30
0.0
 10
10.2995858682
 20
39.4263077955
 30
0.0
 10
10.2995858682
 20
39.4002788309
 30
0.0
  0
SPLINE
  5
27C
100
AcDbEntity
  8
0
100
AcDbSpline
 62
7
  6
BYLAYER
 70
0
 71
3
 72
30
 73
26
 74
0
 42
0.0000001
 43
0.0000001
 44
0.0000000001
 40
0.0
 40
0.0
 40
0.0
 40
0.0
 40
0.0665297274
 40
0.1383206213
 40
0.2138817729
 40
0.2914099074
 40
0.3689380998
 40
0.4445007622
 40
0.5162871642
 40
0.5828177807
 40
0.6431462652
 40
0.6709402326
 40
0.6972092264
 40
0.7221106417
 40
0.7458804212
 40
0.7688395547
 40
0.7913731041
 40
0.8139068826
 40
0.8368662454
 40
0.8606378882
 40
0.885536354
 40
0.9118036244
 40
0.9396048915
 40
0.969018104
 40
1.0
 40
1.0
 40
1.0
 40
1.0
 10
10.2995858682
 20
39.4002788309
 30
0.0
 10
10.2995858682
 20
39.3443849011
 30
0.0
 10
10.3098258463
 20
39.2280687217
 30
0.0
 10
10.3506355703
 20
39.0525932062
 30
0.0
 10
10.4160228636
 20
38.8748518363
 30
0.0
 10
10.5035243942
 20
38.7015284488
 30
0.0
 10
10.6098815928
 20
38.5390833991
 30
0.0
 10
10.7311036692
 20
38.3936003256
 30
0.0
 10
10.8627157038
 20
38.270489796
 30
0.0
 10
10.9998511453
 20
38.1743342688
 30
0.0
 10
11.1179616925
 20
38.1181403151
 30
0.0
 10
11.2103971812
 20
38.0911719609
 30
0.0
 10
11.2759955425
 20
38.0801771853
 30
0.0
 10
11.3391178178
 20
38.0779731711
 30
0.0
 10
11.3991577068
 20
38.0846755277
 30
0.0
 10
11.4554942599
 20
38.1002523664
 30
0.0
 10
11.5075045559
 20
38.1246041831
 30
0.0
 10
11.5545991526
 20
38.1574697424
 30
0.0
 10
11.5962629814
 20
38.1984685087
 30
0.0
 10
11.6320753769
 20
38.2471203118
 30
0.0
 10
11.6617460051
 20
38.302875976
 30
0.0
 10
11.6850111573
 20
38.3651879585
 30
0.0
 10
11.7017143577
 20
38.4334550088
 30
0.0
 10
11.7116944405
 20
38.5069941689
 30
0.0
 10
11.7138053185
 20
38.5577683572
 30
0.0
 10
11.7138053185
 20
38.5837973218
 30
0.0
  0
SPLINE
  5
27D
100
AcDbEntity
  8
0
100
AcDbSpline
 62
7
  6
BYLAYER
 70
0
 71
3
 72
17
 73
13
 74
0
 42
0.0000001
 43
0.0000001
 44
0.0000000001
 40
0.0
 40
0.0
 40
0.0
 40
0.0
 40
0.0539146795
 40
0.1080880459
 40
0.1627720929
 40
0.2182071714
 40
0.3321235113
 40
0.4514588573
 40
0.5773542304
 40
0.7105543699
 40
0.8514217236
 40
1.0
 40
1.0
 40
1.0
 40
1.0
 10
13.7895258843
 20
34.8252023468
 30
0.0
 10
13.8304528801
 20
34.8488316588
 30
0.0
 10
13.9105266347
 20
34.8997258422
 30
0.0
 10
14.0241512436
 20
34.9862794637
 30
0.0
 10
14.1311524016
 20
35.0829169664
 30
0.0
 10
14.2658060077
 20
35.226110668
 30
0.0
 10
14.4165015104
 20
35.430741375
 30
0.0
 10
14.5647796692
 20
35.7095448991
 30
0.0
 10
14.6811260688
 20
36.0211008443
 30
0.0
 10
14.7646024967
 20
36.3623431278
 30
0.0
 10
14.8145986302
 20
36.7300098891
 30
0.0
 10
14.825085754
 20
36.9838968848
 30
0.0
 10
14.825085754
 20
37.1141319653
 30
0.0
  0
SPLINE
  5
27E
100
AcDbEntity
  8
0
100
AcDbSpline
 62
7
  6
BYLAYER
 70
0
 71
3
 72
18
 73
14
 74
0
 42
0.0000001
 43
0.0000001
 44
0.0000000001
 40
0.0
 40
0.0
 40
0.0
 40
0.0
 40
0.1502681259
 40
0.291804762
 40
0.4246855784
 40
0.5495441896
 40
0.667517762
 40
0.7244928703
 40
0.7804370641
 40
0.8356414067
 40
0.8904192453
 40
0.9450958741
 40
1.0
 40
1.0
 40
1.0
 40
1.0
 10
39.4713856436
 20
28.563479405
 30
0.0
 10
39.6348225832
 20
28.4691211785
 30
0.0
 10
39.9609267365
 20
28.3003490202
 30
0.0
 10
40.4589240034
 20
28.1063682221
 30
0.0
 10
40.9459968044
 20
27.9814291337
 30
0.0
 10
41.4163466084
 20
27.9273315331
 30
0.0
 10
41.7944305108
 20
27.9425963213
 30
0.0
 10
42.0805133108
 20
27.9919193515
 30
0.0
 10
42.284851301
 20
28.046272367
 30
0.0
 10
42.4807145819
 20
28.1182948483
 30
0.0
 10
42.6674976066
 20
28.2077683305
 30
0.0
 10
42.8445970302
 20
28.3143816082
 30
0.0
 10
42.9554165642
 20
28.39638823
 30
0.0
 10
43.0088756889
 20
28.4399391625
 30
0.0
  0
SPLINE
  5
27F
100
AcDbEntity
  8
0
100
AcDbSpline
 62
7
  6
BYLAYER
 70
0
 71
3
 72
9
 73
5
 74
0
 42
0.0000001
 43
0.0000001
 44
0.0000000001
 40
0.0
 40
0.0
 40
0.0
 40
0.0
 40
0.486698317
 40
1.0
 40
1.0
 40
1.0
 40
1.0
 10
39.4713856436
 20
28.563479405
 30
0.0
 10
39.2772699761
 20
28.6755496025
 30
0.0
 10
38.8908329565
 20
28.9277182014
 30
0.0
 10
38.5300810132
 20
29.2150746799
 30
0.0
 10
38.3515058088
 20
29.3699747195
 30
0.0
  0
SPLINE
  5
280
100
AcDbEntity
  8
0
100
AcDbSpline
 62
7
  6
BYLAYER
 70
0
 71
3
 72
11
 73
7
 74
0
 42
0.0000001
 43
0.0000001
 44
0.0000000001
 40
0.0
 40
0.0
 40
0.0
 40
0.0
 40
0.2666132605
 40
0.5227067984
 40
0.7673648484
 40
1.0
 40
1.0
 40
1.0
 40
1.0
 10
35.0154469654
 20
35.1421630435
 30
0.0
 10
34.9797113965
 20
35.3259564303
 30
0.0
 10
34.9216000548
 20
35.6887646147
 30
0.0
 10
34.8752463682
 20
36.2261767709
 30
0.0
 10
34.8717782946
 20
36.7417593247
 30
0.0
 10
34.8988277954
 20
37.0764264356
 30
0.0
 10
34.9200770403
 20
37.2384119935
 30
0.0
  0
SPLINE
  5
281
100
AcDbEntity
  8
0
100
AcDbSpline
 62
7
  6
BYLAYER
 70
0
 71
3
 72
15
 73
11
 74
0
 42
0.0000001
 43
0.0000001
 44
0.0000000001
 40
0.0
 40
0.0
 40
0.0
 40
0.0
 40
0.1451555727
 40
0.2828073069
 40
0.4134090996
 40
0.5377535396
 40
0.6569832094
 40
0.7725762056
 40
0.8862817195
 40
1.0
 40
1.0
 40
1.0
 40
1.0
 10
34.9200770403
 20
37.2384119935
 30
0.0
 10
34.9392818544
 20
37.3848126083
 30
0.0
 10
34.9895866591
 20
37.6685966973
 30
0.0
 10
35.1052870829
 20
38.0737189832
 30
0.0
 10
35.258438548
 20
38.4435961166
 30
0.0
 10
35.4479443319
 20
38.7749797317
 30
0.0
 10
35.672424342
 20
39.0648559354
 30
0.0
 10
35.9301307588
 20
39.3104129473
 30
0.0
 10
36.2186710154
 20
39.5091354429
 30
0.0
 10
36.4288288802
 20
39.6085840717
 30
0.0
 10
36.5369422003
 20
39.6497242755
 30
0.0
  0
SPLINE
  5
282
100
AcDbEntity
  8
0
100
AcDbSpline
 62
7
  6
BYLAYER
 70
0
 71
3
 72
15
 73
11
 74
0
 42
0.0000001
 43
0.0000001
 44
0.0000000001
 40
0.0
 40
0.0
 40
0.0
 40
0.0
 40
0.1077479001
 40
0.2186055943
 40
0.3338082131
 40
0.4543365879
 40
0.5808886299
 40
0.7139132524
 40
0.8536506029
 40
1.0
 40
1.0
 40
1.0
 40
1.0
 10
36.9928363617
 20
39.8231949186
 30
0.0
 10
37.0946178632
 20
39.8619256848
 30
0.0
 10
37.3072885818
 20
39.9251360205
 30
0.0
 10
37.6420002005
 20
39.9748209738
 30
0.0
 10
37.9932101859
 20
39.9802250165
 30
0.0
 10
38.358129668
 20
39.94148009
 30
0.0
 10
38.7340857685
 20
39.8591096623
 30
0.0
 10
39.1183666367
 20
39.7337993636
 30
0.0
 10
39.5081039365
 20
39.5665765714
 30
0.0
 10
39.76394275
 20
39.4311027582
 30
0.0
 10
39.892042785
 20
39.3571458417
 30
0.0
  0
SPLINE
  5
283
100
AcDbEntity
  8
0
100
AcDbSpline
 62
7
  6
BYLAYER
 70
0
 71
3
 72
30
 73
26
 74
0
 42
0.0000001
 43
0.0000001
 44
0.0000000001
 40
0.0
 40
0.0
 40
0.0
 40
0.0
 40
0.0213668202
 40
0.0431987275
 40
0.0656675554
 40
0.0889197197
 40
0.1130715611
 40
0.138211216
 40
0.1643969493
 40
0.1916620757
 40
0.2494111621
 40
0.3113200084
 40
0.3769443588
 40
0.4456381229
 40
0.5166082565
 40
0.588961962
 40
0.6617490552
 40
0.7340019066
 40
0.804774288
 40
0.8393346978
 40
0.8732005427
 40
0.9062765494
 40
0.9384839728
 40
0.9697516559
 40
1.0
 40
1.0
 40
1.0
 40
1.0
 10
43.387054381
 20
28.7480177574
 30
0.0
 10
43.4559114101
 20
28.8041127242
 30
0.0
 10
43.5883554061
 20
28.9261020709
 30
0.0
 10
43.7665601987
 20
29.1335950216
 30
0.0
 10
43.9251761968
 20
29.3659603053
 30
0.0
 10
44.063363775
 20
29.6219645757
 30
0.0
 10
44.1805605885
 20
29.9002650618
 30
0.0
 10
44.2761815624
 20
30.1994690846
 30
0.0
 10
44.3498622853
 20
30.5180773826
 30
0.0
 10
44.4196549088
 20
30.9753696641
 30
0.0
 10
44.4472397149
 20
31.5873723685
 30
0.0
 10
44.389658675
 20
32.3568937604
 30
0.0
 10
44.2433788746
 20
33.1607100391
 30
0.0
 10
44.0113335311
 20
33.9830804403
 30
0.0
 10
43.6981006366
 20
34.8079644797
 30
0.0
 10
43.3098467111
 20
35.6191403904
 30
0.0
 10
42.8542131335
 20
36.400648099
 30
0.0
 10
42.3402084366
 20
37.1370358462
 30
0.0
 10
41.8678740368
 20
37.7056056257
 30
0.0
 10
41.4690253294
 20
38.1249989229
 30
0.0
 10
41.1643687208
 20
38.4171071858
 30
0.0
 10
40.8533560693
 20
38.6877658661
 30
0.0
 10
40.5375120686
 20
38.9356681594
 30
0.0
 10
40.2184337082
 20
39.1595027982
 30
0.0
 10
40.0009298973
 20
39.2942812603
 30
0.0
 10
39.892042785
 20
39.3571458417
 30
0.0
  0
SPLINE
  5
284
100
AcDbEntity
  8
0
100
AcDbSpline
 62
7
  6
BYLAYER
 70
0
 71
3
 72
30
 73
26
 74
0
 42
0.0000001
 43
0.0000001
 44
0.0000000001
 40
0.0
 40
0.0
 40
0.0
 40
0.0
 40
0.0213668202
 40
0.0431987275
 40
0.0656675554
 40
0.0889197197
 40
0.1130715611
 40
0.138211216
 40
0.1643969493
 40
0.1916620757
 40
0.2494111621
 40
0.3113200084
 40
0.3769443588
 40
0.4456381229
 40
0.5166082565
 40
0.588961962
 40
0.6617490552
 40
0.7340019066
 40
0.804774288
 40
0.8393346978
 40
0.8732005427
 40
0.9062765494
 40
0.9384839728
 40
0.9697516559
 40
1.0
 40
1.0
 40
1.0
 40
1.0
 10
43.0088756889
 20
28.4399391625
 30
0.0
 10
43.0785696079
 20
28.4967159088
 30
0.0
 10
43.2126233312
 20
28.6201879168
 30
0.0
 10
43.3929940289
 20
28.8302027415
 30
0.0
 10
43.5535378493
 20
29.065392198
 30
0.0
 10
43.6934049625
 20
29.3245079501
 30
0.0
 10
43.8120261887
 20
29.6061909065
 30
0.0
 10
43.9088093421
 20
29.9090314617
 30
0.0
 10
43.9833855821
 20
30.2315121322
 30
0.0
 10
44.0540264667
 20
30.6943623543
 30
0.0
 10
44.0819465392
 20
31.3138033533
 30
0.0
 10
44.023665658
 20
32.0926775255
 30
0.0
 10
43.8756079697
 20
32.9062634053
 30
0.0
 10
43.6407423419
 20
33.7386289148
 30
0.0
 10
43.3237024078
 20
34.5735386133
 30
0.0
 10
42.9307296353
 20
35.3945735742
 30
0.0
 10
42.4695582769
 20
36.1855797451
 30
0.0
 10
41.9493063554
 20
36.9309175654
 30
0.0
 10
41.4712311927
 20
37.5063977548
 30
0.0
 10
41.0675348693
 20
37.9308883675
 30
0.0
 10
40.7591754573
 20
38.2265469208
 30
0.0
 10
40.4443827511
 20
38.5004951928
 30
0.0
 10
40.1246999753
 20
38.7514104961
 30
0.0
 10
39.8017435294
 20
38.9779656262
 30
0.0
 10
39.5815961723
 20
39.1143821887
 30
0.0
 10
39.4713856436
 20
39.1780108277
 30
0.0
  0
SPLINE
  5
285
100
AcDbEntity
  8
0
100
AcDbSpline
 62
7
  6
BYLAYER
 70
0
 71
3
 72
15
 73
11
 74
0
 42
0.0000001
 43
0.0000001
 44
0.0000000001
 40
0.0
 40
0.0
 40
0.0
 40
0.0
 40
0.1077479001
 40
0.2186055943
 40
0.3338082131
 40
0.4543365879
 40
0.5808886299
 40
0.7139132524
 40
0.8536506029
 40
1.0
 40
1.0
 40
1.0
 40
1.0
 10
36.5369422003
 20
39.6497242755
 30
0.0
 10
36.6399607565
 20
39.6889257763
 30
0.0
 10
36.8552162798
 20
39.7529043718
 30
0.0
 10
37.1939959911
 20
39.8031931972
 30
0.0
 10
37.5494745904
 20
39.8086629208
 30
0.0
 10
37.9188293122
 20
39.7694470875
 30
0.0
 10
38.2993547916
 20
39.6860755278
 30
0.0
 10
38.6883062181
 20
39.5592422049
 30
0.0
 10
39.0827803937
 20
39.3899869832
 30
0.0
 10
39.3417286779
 20
39.2528666182
 30
0.0
 10
39.4713856436
 20
39.1780108277
 30
0.0
  0
SPLINE
  5
286
100
AcDbEntity
  8
0
100
AcDbSpline
 62
7
  6
BYLAYER
 70
0
 71
3
 72
15
 73
11
 74
0
 42
0.0000001
 43
0.0000001
 44
0.0000000001
 40
0.0
 40
0.0
 40
0.0
 40
0.0
 40
0.1485793398
 40
0.2895082608
 40
0.422723481
 40
0.5486405212
 40
0.6680008704
 40
0.781938221
 40
0.8919868556
 40
1.0
 40
1.0
 40
1.0
 40
1.0
 10
41.8719570809
 20
31.9907541777
 30
0.0
 10
41.8719570809
 20
31.8865851285
 30
0.0
 10
41.8635534118
 20
31.6834710927
 30
0.0
 10
41.8235790017
 20
31.3893370806
 30
0.0
 10
41.7567884771
 20
31.1163266093
 30
0.0
 10
41.663710685
 20
30.867096886
 30
0.0
 10
41.5450758475
 20
30.6440351904
 30
0.0
 10
41.4017903213
 20
30.4494253082
 30
0.0
 10
41.2351766577
 20
30.2854684279
 30
0.0
 10
41.1090913311
 20
30.1974750237
 30
0.0
 10
41.0435070496
 20
30.159614193
 30
0.0
  0
SPLINE
  5
287
100
AcDbEntity
  8
0
100
AcDbSpline
 62
7
  6
BYLAYER
 70
0
 71
3
 72
19
 73
15
 74
0
 42
0.0000001
 43
0.0000001
 44
0.0000000001
 40
0.0
 40
0.0
 40
0.0
 40
0.0
 40
0.1560424182
 40
0.3038781791
 40
0.4422845589
 40
0.5706086247
 40
0.6310328873
 40
0.6890443145
 40
0.7448010941
 40
0.7985290616
 40
0.8505234211
 40
0.9011459282
 40
0.9508167776
 40
1.0
 40
1.0
 40
1.0
 40
1.0
 10
36.8609361609
 20
30.4061138644
 30
0.0
 10
36.9836244998
 20
30.2839282966
 30
0.0
 10
37.2334950427
 20
30.0565977437
 30
0.0
 10
37.6288453292
 20
29.7642419316
 30
0.0
 10
38.0284384967
 20
29.5341292429
 30
0.0
 10
38.3654089525
 20
29.3953588569
 30
0.0
 10
38.6294085563
 20
29.3216740356
 30
0.0
 10
38.8195513574
 20
29.2855392648
 30
0.0
 10
39.0048297186
 20
29.2676389977
 30
0.0
 10
39.1843291547
 20
29.2681054296
 30
0.0
 10
39.357135137
 20
29.2869837152
 30
0.0
 10
39.5223576275
 20
29.3242315393
 30
0.0
 10
39.6790855372
 20
29.379681157
 30
0.0
 10
39.777568624
 20
29.428723997
 30
0.0
 10
39.8248330072
 20
29.4560119436
 30
0.0
  0
SPLINE
  5
288
100
AcDbEntity
  8
0
100
AcDbSpline
 62
7
  6
BYLAYER
 70
0
 71
3
 72
13
 73
9
 74
0
 42
0.0000001
 43
0.0000001
 44
0.0000000001
 40
0.0
 40
0.0
 40
0.0
 40
0.0
 40
0.2772524106
 40
0.5348710798
 40
0.6568836358
 40
0.7747509636
 40
0.8889446805
 40
1.0
 40
1.0
 40
1.0
 40
1.0
 10
37.3530991565
 20
31.4816803645
 30
0.0
 10
37.3746017966
 20
31.2893043926
 30
0.0
 10
37.4370441153
 20
30.9200324397
 30
0.0
 10
37.574125261
 20
30.4805103065
 30
0.0
 10
37.7165268099
 20
30.1633098551
 30
0.0
 10
37.8365386847
 20
29.9468153402
 30
0.0
 10
37.9712652429
 20
29.7483384217
 30
0.0
 10
38.0718263159
 20
29.6270329347
 30
0.0
 10
38.1242867247
 20
29.5699369926
 30
0.0
  0
SPLINE
  5
289
100
AcDbEntity
  8
0
100
AcDbSpline
 62
7
  6
BYLAYER
 70
0
 71
3
 72
9
 73
5
 74
0
 42
0.0000001
 43
0.0000001
 44
0.0000000001
 40
0.0
 40
0.0
 40
0.0
 40
0.0
 40
0.5037480058
 40
1.0
 40
1.0
 40
1.0
 40
1.0
 10
37.5003343762
 20
31.5116972175
 30
0.0
 10
37.6421704668
 20
31.309747808
 30
0.0
 10
37.9427741591
 20
30.9218634961
 30
0.0
 10
38.2797511691
 20
30.565030975
 30
0.0
 10
38.45538794
 20
30.3969423758
 30
0.0
  0
SPLINE
  5
28A
100
AcDbEntity
  8
0
100
AcDbSpline
 62
7
  6
BYLAYER
 70
0
 71
3
 72
9
 73
5
 74
0
 42
0.0000001
 43
0.0000001
 44
0.0000000001
 40
0.0
 40
0.0
 40
0.0
 40
0.0
 40
0.5156234417
 40
1.0
 40
1.0
 40
1.0
 40
1.0
 10
38.6447915896
 20
31.6258509647
 30
0.0
 10
38.6447915896
 20
31.5606322468
 30
0.0
 10
38.6387556331
 20
31.4340447746
 30
0.0
 10
38.6187340548
 20
31.308804978
 30
0.0
 10
38.6051486968
 20
31.2490637358
 30
0.0
  0
SPLINE
  5
28B
100
AcDbEntity
  8
0
100
AcDbSpline
 62
7
  6
BYLAYER
 70
0
 71
3
 72
10
 73
6
 74
0
 42
0.0000001
 43
0.0000001
 44
0.0000000001
 40
0.0
 40
0.0
 40
0.0
 40
0.0
 40
0.2366083098
 40
0.4827184829
 40
1.0
 40
1.0
 40
1.0
 40
1.0
 10
34.9964032231
 20
34.5530814644
 30
0.0
 10
34.9964032231
 20
34.456432079
 30
0.0
 10
35.0039685144
 20
34.2591820607
 30
0.0
 10
35.0478010306
 20
33.8528472632
 30
0.0
 10
35.111441511
 20
33.5465350314
 30
0.0
 10
35.1657107957
 20
33.3423247745
 30
0.0
  0
SPLINE
  5
28C
100
AcDbEntity
  8
0
100
AcDbSpline
 62
7
  6
BYLAYER
 70
0
 71
3
 72
15
 73
11
 74
0
 42
0.0000001
 43
0.0000001
 44
0.0000000001
 40
0.0
 40
0.0
 40
0.0
 40
0.0
 40
0.1080130275
 40
0.2180624487
 40
0.3320008145
 40
0.4513594926
 40
0.5772799838
 40
0.7105030975
 40
0.8513952776
 40
1.0
 40
1.0
 40
1.0
 40
1.0
 10
35.8248512255
 20
36.3842249744
 30
0.0
 10
35.759268754
 20
36.3463609265
 30
0.0
 10
35.6331769507
 20
36.2583758169
 30
0.0
 10
35.4665703992
 20
36.0944082485
 30
0.0
 10
35.3232820276
 20
35.8998012284
 30
0.0
 10
35.2046402754
 20
35.6767398029
 30
0.0
 10
35.111569762
 20
35.4274991815
 30
0.0
 10
35.0447882935
 20
35.1545053561
 30
0.0
 10
35.0047928771
 20
34.8603759454
 30
0.0
 10
34.9964032231
 20
34.6572684785
 30
0.0
 10
34.9964032231
 20
34.5530814644
 30
0.0
  0
SPLINE
  5
28D
100
AcDbEntity
  8
0
100
AcDbSpline
 62
7
  6
BYLAYER
 70
0
 71
3
 72
27
 73
23
 74
0
 42
0.0000001
 43
0.0000001
 44
0.0000000001
 40
0.0
 40
0.0
 40
0.0
 40
0.0
 40
0.02133017
 40
0.042888627
 40
0.064892
 40
0.0875345274
 40
0.1109818644
 40
0.1353662813
 40
0.1872620389
 40
0.2149234043
 40
0.2437312206
 40
0.3046729377
 40
0.3697540637
 40
0.4383443387
 40
0.5096235096
 40
0.5826403068
 40
0.6563643675
 40
0.7297340903
 40
0.8017034487
 40
0.8712894674
 40
0.9376224498
 40
1.0
 40
1.0
 40
1.0
 40
1.0
 10
37.0435293111
 20
37.0878201986
 30
0.0
 10
37.0926738829
 20
37.1161906293
 30
0.0
 10
37.1952602101
 20
37.166965601
 30
0.0
 10
37.3588269642
 20
37.2235048782
 30
0.0
 10
37.531497422
 20
37.2603349782
 30
0.0
 10
37.712237693
 20
37.2772877049
 30
0.0
 10
37.9000563616
 20
37.2743262728
 30
0.0
 10
38.1639161793
 20
37.2432998681
 30
0.0
 10
38.4327586783
 20
37.1719179634
 30
0.0
 10
38.7011756108
 20
37.0663263881
 30
0.0
 10
38.9830484111
 20
36.9311351902
 30
0.0
 10
39.335405653
 20
36.7155519844
 30
0.0
 10
39.7438309772
 20
36.3958022383
 30
0.0
 10
40.1371877023
 20
36.0169694848
 30
0.0
 10
40.5071361772
 20
35.5871296081
 30
0.0
 10
40.8458456986
 20
35.1154071482
 30
0.0
 10
41.1460958936
 20
34.6118588162
 30
0.0
 10
41.4014841208
 20
34.0872230499
 30
0.0
 10
41.6065621377
 20
33.55269353
 30
0.0
 10
41.7569653769
 20
33.0195998215
 30
0.0
 10
41.8494752818
 20
32.4993434685
 30
0.0
 10
41.8719570809
 20
32.1567001337
 30
0.0
 10
41.8719570809
 20
31.9907541777
 30
0.0
  0
SPLINE
  5
28E
100
AcDbEntity
  8
0
100
AcDbSpline
 62
7
  6
BYLAYER
 70
0
 71
3
 72
12
 73
8
 74
0
 42
0.0000001
 43
0.0000001
 44
0.0000000001
 40
0.0
 40
0.0
 40
0.0
 40
0.0
 40
0.0971912978
 40
0.206251712
 40
0.4518949729
 40
0.7207293049
 40
1.0
 40
1.0
 40
1.0
 40
1.0
 10
37.5226696151
 20
32.745670628
 30
0.0
 10
37.5190482144
 20
32.7435797595
 30
0.0
 10
37.5109261565
 20
32.7398917731
 30
0.0
 10
37.4922687034
 20
32.7342945822
 30
0.0
 10
37.4655566824
 20
32.7305935853
 30
0.0
 10
37.4313663682
 20
32.7300817272
 30
0.0
 10
37.407819104
 20
32.7318703904
 30
0.0
 10
37.3958781183
 20
32.7332076559
 30
0.0
  0
SPLINE
  5
28F
100
AcDbEntity
  8
0
100
AcDbSpline
 62
7
  6
BYLAYER
 70
0
 71
3
 72
10
 73
6
 74
0
 42
0.0000001
 43
0.0000001
 44
0.0000000001
 40
0.0
 40
0.0
 40
0.0
 40
0.0
 40
0.4961423971
 40
0.7472470973
 40
1.0
 40
1.0
 40
1.0
 40
1.0
 10
35.9549118895
 20
34.7277783625
 30
0.0
 10
36.012643284
 20
34.4917127991
 30
0.0
 10
36.1177250372
 20
34.1402743488
 30
0.0
 10
36.2918349885
 20
33.6823225142
 30
0.0
 10
36.3904688202
 20
33.4559543722
 30
0.0
 10
36.4426119965
 20
33.3436662815
 30
0.0
  0
SPLINE
  5
290
100
AcDbEntity
  8
0
100
AcDbSpline
 62
7
  6
BYLAYER
 70
0
 71
3
 72
11
 73
7
 74
0
 42
0.0000001
 43
0.0000001
 44
0.0000000001
 40
0.0
 40
0.0
 40
0.0
 40
0.0
 40
0.2895061989
 40
0.5460741024
 40
0.777296019
 40
1.0
 40
1.0
 40
1.0
 40
1.0
 10
36.3020871638
 20
33.1359794655
 30
0.0
 10
36.3077206217
 20
33.13173317
 30
0.0
 10
36.3190873936
 20
33.1246140397
 30
0.0
 10
36.3372279425
 20
33.1184443016
 30
0.0
 10
36.3548629996
 20
33.118043649
 30
0.0
 10
36.3655424215
 20
33.1218996208
 30
0.0
 10
36.3702431218
 20
33.1246112802
 30
0.0
  0
SPLINE
  5
291
100
AcDbEntity
  8
0
100
AcDbSpline
 62
7
  6
BYLAYER
 70
0
 71
3
 72
11
 73
7
 74
0
 42
0.0000001
 43
0.0000001
 44
0.0000000001
 40
0.0
 40
0.0
 40
0.0
 40
0.0
 40
0.1188590941
 40
0.2394018587
 40
0.6115441306
 40
1.0
 40
1.0
 40
1.0
 40
1.0
 10
35.6227091041
 20
33.7702861754
 30
0.0
 10
35.6465250852
 20
33.7421099106
 30
0.0
 10
35.6954384285
 20
33.6861505035
 30
0.0
 10
35.8244664689
 20
33.5469003845
 30
0.0
 10
36.0223700293
 20
33.3575933544
 30
0.0
 10
36.2058019455
 20
33.2085557579
 30
0.0
 10
36.3020871638
 20
33.1359794655
 30
0.0
  0
SPLINE
  5
292
100
AcDbEntity
  8
0
100
AcDbSpline
 62
7
  6
BYLAYER
 70
0
 71
3
 72
9
 73
5
 74
0
 42
0.0000001
 43
0.0000001
 44
0.0000000001
 40
0.0
 40
0.0
 40
0.0
 40
0.0
 40
0.5124637592
 40
1.0
 40
1.0
 40
1.0
 40
1.0
 10
38.6051486968
 20
32.0484128276
 30
0.0
 10
38.6180125138
 20
31.9769910223
 30
0.0
 10
38.6376316944
 20
31.8365611513
 30
0.0
 10
38.6447915896
 20
31.6948919431
 30
0.0
 10
38.6447915896
 20
31.6258509647
 30
0.0
  0
SPLINE
  5
293
100
AcDbEntity
  8
0
100
AcDbSpline
 62
7
  6
BYLAYER
 70
0
 71
3
 72
9
 73
5
 74
0
 42
0.0000001
 43
0.0000001
 44
0.0000000001
 40
0.0
 40
0.0
 40
0.0
 40
0.0
 40
0.4908798903
 40
1.0
 40
1.0
 40
1.0
 40
1.0
 10
37.5064758843
 20
32.4406410441
 30
0.0
 10
37.6811624269
 20
32.3633937765
 30
0.0
 10
38.0432488583
 20
32.2198367981
 30
0.0
 10
38.4144703959
 20
32.1021337527
 30
0.0
 10
38.6051486968
 20
32.0484128276
 30
0.0
  0
SPLINE
  5
294
100
AcDbEntity
  8
0
100
AcDbSpline
 62
7
  6
BYLAYER
 70
0
 71
3
 72
9
 73
5
 74
0
 42
0.0000001
 43
0.0000001
 44
0.0000000001
 40
0.0
 40
0.0
 40
0.0
 40
0.0
 40
0.5175032918
 40
1.0
 40
1.0
 40
1.0
 40
1.0
 10
37.4142192526
 20
32.5354062807
 30
0.0
 10
37.42401879
 20
32.5144144611
 30
0.0
 10
37.4497490306
 20
32.4767398759
 30
0.0
 10
37.4867217077
 20
32.4493764404
 30
0.0
 10
37.5064758843
 20
32.4406410441
 30
0.0
  0
SPLINE
  5
295
100
AcDbEntity
  8
0
100
AcDbSpline
 62
7
  6
BYLAYER
 70
0
 71
3
 72
11
 73
7
 74
0
 42
0.0000001
 43
0.0000001
 44
0.0000000001
 40
0.0
 40
0.0
 40
0.0
 40
0.0
 40
0.2614903419
 40
0.5168475128
 40
0.7637134066
 40
1.0
 40
1.0
 40
1.0
 40
1.0
 10
38.1242867247
 20
35.6362807089
 30
0.0
 10
38.021483714
 20
35.3993037591
 30
0.0
 10
37.8343438353
 20
34.9237324476
 30
0.0
 10
37.6090581985
 20
34.2030132511
 30
0.0
 10
37.4448345933
 20
33.4914641977
 30
0.0
 10
37.3759572854
 20
33.0184566171
 30
0.0
 10
37.3530992498
 20
32.78616141
 30
0.0
  0
SPLINE
  5
296
100
AcDbEntity
  8
0
100
AcDbSpline
 62
7
  6
BYLAYER
 70
0
 71
3
 72
11
 73
7
 74
0
 42
0.0000001
 43
0.0000001
 44
0.0000000001
 40
0.0
 40
0.0
 40
0.0
 40
0.0
 40
0.266205365
 40
0.5190067911
 40
0.7620680974
 40
1.0
 40
1.0
 40
1.0
 40
1.0
 10
47.2286265637
 20
36.241188396
 30
0.0
 10
47.2114506137
 20
36.1991851418
 30
0.0
 10
47.1724569211
 20
36.1193704574
 30
0.0
 10
47.0980205986
 20
36.0122331359
 30
0.0
 10
47.0100064594
 20
35.9224918941
 30
0.0
 10
46.9426233803
 20
35.8748430107
 30
0.0
 10
46.9074958333
 20
35.8545663934
 30
0.0
  0
SPLINE
  5
297
100
AcDbEntity
  8
0
100
AcDbSpline
 62
7
  6
BYLAYER
 70
0
 71
3
 72
9
 73
5
 74
0
 42
0.0000001
 43
0.0000001
 44
0.0000000001
 40
0.0
 40
0.0
 40
0.0
 40
0.0
 40
0.4825265985
 40
1.0
 40
1.0
 40
1.0
 40
1.0
 10
37.3538936126
 20
34.4211769784
 30
0.0
 10
37.4046696493
 20
34.4089257835
 30
0.0
 10
37.5080510385
 20
34.3755380923
 30
0.0
 10
37.6063046524
 20
34.3294711495
 30
0.0
 10
37.6556766919
 20
34.3030098189
 30
0.0
  0
SPLINE
  5
298
100
AcDbEntity
  8
0
100
AcDbSpline
 62
7
  6
BYLAYER
 70
0
 71
3
 72
11
 73
7
 74
0
 42
0.0000001
 43
0.0000001
 44
0.0000000001
 40
0.0
 40
0.0
 40
0.0
 40
0.0
 40
0.266205365
 40
0.5190067911
 40
0.7620680974
 40
1.0
 40
1.0
 40
1.0
 40
1.0
 10
47.9139150897
 20
37.0584725733
 30
0.0
 10
47.9001743297
 20
37.0248699699
 30
0.0
 10
47.8689793756
 20
36.9610182224
 30
0.0
 10
47.8094303177
 20
36.8753083652
 30
0.0
 10
47.7390190063
 20
36.8035153718
 30
0.0
 10
47.685112543
 20
36.7653962651
 30
0.0
 10
47.6570105054
 20
36.7491749712
 30
0.0
  0
SPLINE
  5
299
100
AcDbEntity
  8
0
100
AcDbSpline
 62
7
  6
BYLAYER
 70
0
 71
3
 72
20
 73
16
 74
0
 42
0.0000001
 43
0.0000001
 44
0.0000000001
 40
0.0
 40
0.0
 40
0.0
 40
0.0
 40
0.099170645
 40
0.1541445143
 40
0.2125501124
 40
0.2741049229
 40
0.338401512
 40
0.4049293964
 40
0.4731036641
 40
0.6117318493
 40
0.7490377728
 40
0.8155951251
 40
0.8799301787
 40
0.9415593524
 40
1.0
 40
1.0
 40
1.0
 40
1.0
 10
46.7518034691
 20
39.5476049682
 30
0.0
 10
46.8314226804
 20
39.5367467911
 30
0.0
 10
46.9526711872
 20
39.4991673317
 30
0.0
 10
47.1061847526
 20
39.4209035176
 30
0.0
 10
47.2253280332
 20
39.3435826051
 30
0.0
 10
47.3425981716
 20
39.25089215
 30
0.0
 10
47.4564115466
 20
39.1441205757
 30
0.0
 10
47.5651143454
 20
39.0248103042
 30
0.0
 10
47.7018790276
 20
38.8503955662
 30
0.0
 10
47.8501105368
 20
38.6131104491
 30
0.0
 10
47.9638546144
 20
38.35887779
 30
0.0
 10
48.0301164854
 20
38.151718871
 30
0.0
 10
48.065906987
 20
37.9996976249
 30
0.0
 10
48.0877503947
 20
37.8517018623
 30
0.0
 10
48.0929899882
 20
37.7543630224
 30
0.0
 10
48.0929899882
 20
37.707009611
 30
0.0
  0
SPLINE
  5
29A
100
AcDbEntity
  8
0
100
AcDbSpline
 62
7
  6
BYLAYER
 70
0
 71
3
 72
11
 73
7
 74
0
 42
0.0000001
 43
0.0000001
 44
0.0000000001
 40
0.0
 40
0.0
 40
0.0
 40
0.0
 40
0.2379329496
 40
0.480993245
 40
0.7337794062
 40
1.0
 40
1.0
 40
1.0
 40
1.0
 10
46.0570206577
 20
39.520455221
 30
0.0
 10
46.0851229656
 20
39.5366766709
 30
0.0
 10
46.145083185
 20
39.5643135383
 30
0.0
 10
46.2424667387
 20
39.589375581
 30
0.0
 10
46.3464660583
 20
39.5981179959
 30
0.0
 10
46.4173609921
 20
39.5931884551
 30
0.0
 10
46.453334177
 20
39.5882856027
 30
0.0
  0
SPLINE
  5
29B
100
AcDbEntity
  8
0
100
AcDbSpline
 62
7
  6
BYLAYER
 70
0
 71
3
 72
11
 73
7
 74
0
 42
0.0000001
 43
0.0000001
 44
0.0000000001
 40
0.0
 40
0.0
 40
0.0
 40
0.0
 40
0.2379329496
 40
0.480993245
 40
0.7337794062
 40
1.0
 40
1.0
 40
1.0
 40
1.0
 10
44.9075085236
 20
39.3186667056
 30
0.0
 10
44.9426364086
 20
39.338943518
 30
0.0
 10
45.0175866827
 20
39.3734896023
 30
0.0
 10
45.1393161249
 20
39.4048171556
 30
0.0
 10
45.2693152744
 20
39.4157451743
 30
0.0
 10
45.3579339416
 20
39.4095832483
 30
0.0
 10
45.4029004228
 20
39.4034546828
 30
0.0
  0
SPLINE
  5
29C
100
AcDbEntity
  8
0
100
AcDbSpline
 62
7
  6
BYLAYER
 70
0
 71
3
 72
9
 73
5
 74
0
 42
0.0000001
 43
0.0000001
 44
0.0000000001
 40
0.0
 40
0.0
 40
0.0
 40
0.0
 40
0.5064670862
 40
1.0
 40
1.0
 40
1.0
 40
1.0
 10
37.4546826744
 20
32.6556870077
 30
0.0
 10
37.4454722409
 20
32.6363063416
 30
0.0
 10
37.4299136977
 20
32.5967688688
 30
0.0
 10
37.4186681802
 20
32.5558374349
 30
0.0
 10
37.4142192526
 20
32.5354062807
 30
0.0
  0
SPLINE
  5
29D
100
AcDbEntity
  8
0
100
AcDbSpline
 62
7
  6
BYLAYER
 70
0
 71
3
 72
12
 73
8
 74
0
 42
0.0000001
 43
0.0000001
 44
0.0000000001
 40
0.0
 40
0.0
 40
0.0
 40
0.0
 40
0.0979308297
 40
0.2070088844
 40
0.4513295213
 40
0.7196548909
 40
1.0
 40
1.0
 40
1.0
 40
1.0
 10
37.5226696151
 20
32.745670628
 30
0.0
 10
37.5194423452
 20
32.7438073166
 30
0.0
 10
37.5129700454
 20
32.739257849
 30
0.0
 10
37.5002102052
 20
32.7277210935
 30
0.0
 10
37.4851090737
 20
32.7093591641
 30
0.0
 10
37.4688719299
 20
32.6838790738
 30
0.0
 10
37.4592531298
 20
32.6653172858
 30
0.0
 10
37.454674101
 20
32.6556820578
 30
0.0
  0
SPLINE
  5
29E
100
AcDbEntity
  8
0
100
AcDbSpline
 62
7
  6
BYLAYER
 70
0
 71
3
 72
15
 73
11
 74
0
 42
0.0000001
 43
0.0000001
 44
0.0000000001
 40
0.0
 40
0.0
 40
0.0
 40
0.0
 40
0.1080128375
 40
0.2180619985
 40
0.3319997387
 40
0.451357819
 40
0.5772776605
 40
0.7105008397
 40
0.8513935735
 40
1.0
 40
1.0
 40
1.0
 40
1.0
 10
39.8248330072
 20
29.4560119436
 30
0.0
 10
39.8904154541
 20
29.4938757681
 30
0.0
 10
40.016506999
 20
29.5818607405
 30
0.0
 10
40.1831129564
 20
29.7458278089
 30
0.0
 10
40.3264009243
 20
29.940433805
 30
0.0
 10
40.4450425618
 20
30.1634938008
 30
0.0
 10
40.5381131616
 20
30.4127335079
 30
0.0
 10
40.6048950955
 20
30.6857271944
 30
0.0
 10
40.6448912288
 20
30.9798581607
 30
0.0
 10
40.6532810243
 20
31.1829672193
 30
0.0
 10
40.6532810243
 20
31.2871554283
 30
0.0
  0
SPLINE
  5
29F
100
AcDbEntity
  8
0
100
AcDbSpline
 62
7
  6
BYLAYER
 70
0
 71
3
 72
9
 73
5
 74
0
 42
0.0000001
 43
0.0000001
 44
0.0000000001
 40
0.0
 40
0.0
 40
0.0
 40
0.0
 40
0.5156233422
 40
1.0
 40
1.0
 40
1.0
 40
1.0
 10
35.5830662113
 20
33.3934989465
 30
0.0
 10
35.5830662113
 20
33.4587176518
 30
0.0
 10
35.5891021667
 20
33.5853051239
 30
0.0
 10
35.6091237433
 20
33.7105449209
 30
0.0
 10
35.6227091041
 20
33.7702861754
 30
0.0
  0
SPLINE
  5
2A0
100
AcDbEntity
  8
0
100
AcDbSpline
 62
7
  6
BYLAYER
 70
0
 71
3
 72
15
 73
11
 74
0
 42
0.0000001
 43
0.0000001
 44
0.0000000001
 40
0.0
 40
0.0
 40
0.0
 40
0.0
 40
0.1109237356
 40
0.2286256077
 40
0.3519863695
 40
0.4796145887
 40
0.6099324902
 40
0.741250782
 40
0.8718400173
 40
1.0
 40
1.0
 40
1.0
 40
1.0
 10
40.6532810243
 20
31.2871554283
 30
0.0
 10
40.6532810243
 20
31.4455768485
 30
0.0
 10
40.6328061766
 20
31.7723054596
 30
0.0
 10
40.5482033171
 20
32.2686334447
 30
0.0
 10
40.4104231031
 20
32.7776326894
 30
0.0
 10
40.2221595808
 20
33.2893425839
 30
0.0
 10
39.9870858438
 20
33.7938349403
 30
0.0
 10
39.7097789217
 20
34.2812716195
 30
0.0
 10
39.3956915519
 20
34.742092992
 30
0.0
 10
39.1626233782
 20
35.0295599628
 30
0.0
 10
39.0411611934
 20
35.1664903782
 30
0.0
  0
SPLINE
  5
2A1
100
AcDbEntity
  8
0
100
AcDbSpline
 62
7
  6
BYLAYER
 70
0
 71
3
 72
19
 73
15
 74
0
 42
0.0000001
 43
0.0000001
 44
0.0000000001
 40
0.0
 40
0.0
 40
0.0
 40
0.0
 40
0.1568128237
 40
0.3059235211
 40
0.4456360083
 40
0.5748701793
 40
0.6354936407
 40
0.6934899883
 40
0.7490000568
 40
0.8022467631
 40
0.8535396026
 40
0.9032727024
 40
0.9519166153
 40
1.0
 40
1.0
 40
1.0
 40
1.0
 10
39.0411611934
 20
35.1664903782
 30
0.0
 10
38.9129410086
 20
35.3110394263
 30
0.0
 10
38.6493971756
 20
35.5815609171
 30
0.0
 10
38.2267759904
 20
35.9338207076
 30
0.0
 10
37.794481928
 20
36.2162603828
 30
0.0
 10
37.4263977965
 20
36.3916333833
 30
0.0
 10
37.1364785941
 20
36.4886650212
 30
0.0
 10
36.9275611871
 20
36.5388568612
 30
0.0
 10
36.7237822237
 20
36.567683948
 30
0.0
 10
36.5263182089
 20
36.5749185631
 30
0.0
 10
36.3363456523
 20
36.560449944
 30
0.0
 10
36.1550135395
 20
36.5242834579
 30
0.0
 10
35.9835042184
 20
36.4665950458
 30
0.0
 10
35.8761611389
 20
36.4138487591
 30
0.0
 10
35.8248512255
 20
36.3842249744
 30
0.0
  0
SPLINE
  5
2A2
100
AcDbEntity
  8
0
100
AcDbSpline
 62
7
  6
BYLAYER
 70
0
 71
3
 72
9
 73
5
 74
0
 42
0.0000001
 43
0.0000001
 44
0.0000000001
 40
0.0
 40
0.0
 40
0.0
 40
0.0
 40
0.480033774
 40
1.0
 40
1.0
 40
1.0
 40
1.0
 10
37.2757550545
 20
36.1261696143
 30
0.0
 10
37.422129472
 20
36.0689612679
 30
0.0
 10
37.7171234153
 20
35.9236636661
 30
0.0
 10
37.9890064608
 20
35.7396130133
 30
0.0
 10
38.1242867247
 20
35.6362807089
 30
0.0
  0
SPLINE
  5
2A3
100
AcDbEntity
  8
0
100
AcDbSpline
 62
7
  6
BYLAYER
 70
0
 71
3
 72
11
 73
7
 74
0
 42
0.0000001
 43
0.0000001
 44
0.0000000001
 40
0.0
 40
0.0
 40
0.0
 40
0.0
 40
0.2363519834
 40
0.4831116269
 40
0.7383855314
 40
1.0
 40
1.0
 40
1.0
 40
1.0
 10
36.4630925982
 20
33.2999954083
 30
0.0
 10
36.4871587771
 20
33.5313968144
 30
0.0
 10
36.5596961016
 20
34.002182407
 30
0.0
 10
36.732826904
 20
34.708906209
 30
0.0
 10
36.9703105231
 20
35.4228848456
 30
0.0
 10
37.1674857288
 20
35.8925195085
 30
0.0
 10
37.2757550545
 20
36.1261696143
 30
0.0
  0
SPLINE
  5
2A4
100
AcDbEntity
  8
0
100
AcDbSpline
 62
7
  6
BYLAYER
 70
0
 71
3
 72
9
 73
5
 74
0
 42
0.0000001
 43
0.0000001
 44
0.0000000001
 40
0.0
 40
0.0
 40
0.0
 40
0.0
 40
0.7493441978
 40
1.0
 40
1.0
 40
1.0
 40
1.0
 10
36.4624271417
 20
33.2285533587
 30
0.0
 10
36.4679561525
 20
33.2401870778
 30
0.0
 10
36.4739198981
 20
33.2564852432
 30
0.0
 10
36.4773648677
 20
33.2733380867
 30
0.0
 10
36.4780552412
 20
33.2775910267
 30
0.0
  0
SPLINE
  5
2A5
100
AcDbEntity
  8
0
100
AcDbSpline
 62
7
  6
BYLAYER
 70
0
 71
3
 72
9
 73
5
 74
0
 42
0.0000001
 43
0.0000001
 44
0.0000000001
 40
0.0
 40
0.0
 40
0.0
 40
0.0
 40
0.7491784309
 40
1.0
 40
1.0
 40
1.0
 40
1.0
 10
36.4153247456
 20
33.1624099039
 30
0.0
 10
36.4296038133
 20
33.1768823416
 30
0.0
 10
36.4466554082
 20
33.1984614949
 30
0.0
 10
36.459495508
 20
33.2223999442
 30
0.0
 10
36.4624172494
 20
33.2285476474
 30
0.0
  0
SPLINE
  5
2A6
100
AcDbEntity
  8
0
100
AcDbSpline
 62
7
  6
BYLAYER
 70
0
 71
3
 72
11
 73
7
 74
0
 42
0.0000001
 43
0.0000001
 44
0.0000000001
 40
0.0
 40
0.0
 40
0.0
 40
0.0
 40
0.2176755864
 40
0.4508334182
 40
0.7104800541
 40
1.0
 40
1.0
 40
1.0
 40
1.0
 10
37.3228251237
 20
33.6745767396
 30
0.0
 10
37.3277705157
 20
33.6774320416
 30
0.0
 10
37.3370283572
 20
33.6852097177
 30
0.0
 10
37.346890459
 20
33.7013272968
 30
0.0
 10
37.3527319378
 20
33.7211922159
 30
0.0
 10
37.3538936126
 20
33.7356464404
 30
0.0
 10
37.3538936126
 20
33.7432416865
 30
0.0
  0
SPLINE
  5
2A7
100
AcDbEntity
  8
0
100
AcDbSpline
 62
7
  6
BYLAYER
 70
0
 71
3
 72
9
 73
5
 74
0
 42
0.0000001
 43
0.0000001
 44
0.0000000001
 40
0.0
 40
0.0
 40
0.0
 40
0.0
 40
0.2365636293
 40
1.0
 40
1.0
 40
1.0
 40
1.0
 10
46.453334177
 20
39.5882856027
 30
0.0
 10
46.4765302037
 20
39.585124173
 30
0.0
 10
46.5740097895
 20
39.5675736852
 30
0.0
 10
46.6683093327
 20
39.5343373167
 30
0.0
 10
46.7370961658
 20
39.5030932756
 30
0.0
  0
SPLINE
  5
2A8
100
AcDbEntity
  8
0
100
AcDbSpline
 62
7
  6
BYLAYER
 70
0
 71
3
 72
19
 73
15
 74
0
 42
0.0000001
 43
0.0000001
 44
0.0000000001
 40
0.0
 40
0.0
 40
0.0
 40
0.0
 40
0.053560299
 40
0.1100021254
 40
0.1691310502
 40
0.2306624838
 40
0.3594147092
 40
0.4929785594
 40
0.6275366559
 40
0.7591864215
 40
0.8227917025
 40
0.88435387
 40
0.9435389598
 40
1.0
 40
1.0
 40
1.0
 40
1.0
 10
46.7370961658
 20
39.5030932756
 30
0.0
 10
46.7775032617
 20
39.4847397491
 30
0.0
 10
46.8585658515
 20
39.4427003658
 30
0.0
 10
46.9767782178
 20
39.367134855
 30
0.0
 10
47.093654187
 20
39.2781354206
 30
0.0
 10
47.2483250504
 20
39.1408325038
 30
0.0
 10
47.4296356367
 20
38.9418374776
 30
0.0
 10
47.6195331298
 20
38.6723992021
 30
0.0
 10
47.7770128079
 20
38.3800968422
 30
0.0
 10
47.8768151714
 20
38.1248279983
 30
0.0
 10
47.9342801333
 20
37.9197894408
 30
0.0
 10
47.9651574799
 20
37.7700448381
 30
0.0
 10
47.9839314084
 20
37.6242759838
 30
0.0
 10
47.9883911418
 20
37.5284134506
 30
0.0
 10
47.9883911418
 20
37.4816298888
 30
0.0
  0
SPLINE
  5
2A9
100
AcDbEntity
  8
0
100
AcDbSpline
 62
7
  6
BYLAYER
 70
0
 71
3
 72
11
 73
7
 74
0
 42
0.0000001
 43
0.0000001
 44
0.0000000001
 40
0.0
 40
0.0
 40
0.0
 40
0.0
 40
0.2687364696
 40
0.5324610812
 40
0.7794480636
 40
1.0
 40
1.0
 40
1.0
 40
1.0
 10
36.3803212358
 20
32.2337692568
 30
0.0
 10
36.3753635735
 20
32.2443380419
 30
0.0
 10
36.3644209269
 20
32.2647698068
 30
0.0
 10
36.345458345
 20
32.2928958483
 30
0.0
 10
36.3248442733
 20
32.3171502065
 30
0.0
 10
36.3097378684
 20
32.330863551
 30
0.0
 10
36.3020871638
 20
32.3366303737
 30
0.0
  0
SPLINE
  5
2AA
100
AcDbEntity
  8
0
100
AcDbSpline
 62
7
  6
BYLAYER
 70
0
 71
3
 72
13
 73
9
 74
0
 42
0.0000001
 43
0.0000001
 44
0.0000000001
 40
0.0
 40
0.0
 40
0.0
 40
0.0
 40
0.0882266972
 40
0.1870451546
 40
0.4163972567
 40
0.5468328069
 40
0.6876611793
 40
1.0
 40
1.0
 40
1.0
 40
1.0
 10
35.9549651214
 20
31.8405298312
 30
0.0
 10
35.966025292
 20
31.8535091893
 30
0.0
 10
35.9901494646
 20
31.8804514298
 30
0.0
 10
36.0458556711
 20
31.938552575
 30
0.0
 10
36.1099154234
 20
31.9998770474
 30
0.0
 10
36.1816257155
 20
32.0648399472
 30
0.0
 10
36.2664440145
 20
32.1392098582
 30
0.0
 10
36.3336525873
 20
32.1953973006
 30
0.0
 10
36.3803150421
 20
32.2336997009
 30
0.0
  0
SPLINE
  5
2AB
100
AcDbEntity
  8
0
100
AcDbSpline
 62
7
  6
BYLAYER
 70
0
 71
3
 72
12
 73
8
 74
0
 42
0.0000001
 43
0.0000001
 44
0.0000000001
 40
0.0
 40
0.0
 40
0.0
 40
0.0
 40
0.3098205236
 40
0.5801529869
 40
0.8103215291
 40
0.9102253583
 40
1.0
 40
1.0
 40
1.0
 40
1.0
 10
36.4630934903
 20
31.9955100089
 30
0.0
 10
36.4115846673
 20
31.9764627641
 30
0.0
 10
36.314776936
 20
31.9417328982
 30
0.0
 10
36.1782324552
 20
31.8970976669
 30
0.0
 10
36.0758793322
 20
31.867783599
 30
0.0
 10
36.003543142
 20
31.8502552159
 30
0.0
 10
35.9706149668
 20
31.8434126298
 30
0.0
 10
35.9549651214
 20
31.8405298312
 30
0.0
  0
SPLINE
  5
2AC
100
AcDbEntity
  8
0
100
AcDbSpline
 62
7
  6
BYLAYER
 70
0
 71
3
 72
14
 73
10
 74
0
 42
0.0000001
 43
0.0000001
 44
0.0000000001
 40
0.0
 40
0.0
 40
0.0
 40
0.0
 40
0.1130541659
 40
0.2286560398
 40
0.3473307789
 40
0.4695611597
 40
0.5957146729
 40
0.7260745388
 40
1.0
 40
1.0
 40
1.0
 40
1.0
 10
37.2757550545
 20
30.059825898
 30
0.0
 10
37.2206211803
 20
30.1183936146
 30
0.0
 10
37.1149250628
 20
30.2424573832
 30
0.0
 10
36.9728888665
 20
30.4450812366
 30
0.0
 10
36.8463416104
 20
30.6652859601
 30
0.0
 10
36.7357788747
 20
30.9022026464
 30
0.0
 10
36.641531507
 20
31.1549516486
 30
0.0
 10
36.5363233519
 20
31.5176548256
 30
0.0
 10
36.4858150399
 20
31.8019510455
 30
0.0
 10
36.4630926687
 20
31.9955145165
 30
0.0
  0
SPLINE
  5
2AD
100
AcDbEntity
  8
0
100
AcDbSpline
 62
7
  6
BYLAYER
 70
0
 71
3
 72
10
 73
6
 74
0
 42
0.0000001
 43
0.0000001
 44
0.0000000001
 40
0.0
 40
0.0
 40
0.0
 40
0.0
 40
0.4799116651
 40
0.7352130773
 40
1.0
 40
1.0
 40
1.0
 40
1.0
 10
38.1242867247
 20
29.5699369926
 30
0.0
 10
37.9779103006
 20
29.6271461233
 30
0.0
 10
37.7608466154
 20
29.7340546581
 30
0.0
 10
37.4831173678
 20
29.9077442659
 30
0.0
 10
37.3446634727
 20
30.0071909797
 30
0.0
 10
37.2757550545
 20
30.059825898
 30
0.0
  0
SPLINE
  5
2AE
100
AcDbEntity
  8
0
100
AcDbSpline
 62
7
  6
BYLAYER
 70
0
 71
3
 72
22
 73
18
 74
0
 42
0.0000001
 43
0.0000001
 44
0.0000000001
 40
0.0
 40
0.0
 40
0.0
 40
0.0
 40
0.0991525952
 40
0.1541186177
 40
0.2125133913
 40
0.2740592576
 40
0.3383455971
 40
0.404862126
 40
0.4730256148
 40
0.5421989529
 40
0.6117159099
 40
0.680899876
 40
0.7490854267
 40
0.815632399
 40
0.8799532363
 40
0.9415655208
 40
1.0
 40
1.0
 40
1.0
 40
1.0
 10
45.4029004228
 20
39.4034546828
 30
0.0
 10
45.5168111221
 20
39.3879295814
 30
0.0
 10
45.6902853908
 20
39.3341682182
 30
0.0
 10
45.9099056867
 20
39.2221790393
 30
0.0
 10
46.0803749262
 20
39.1115701299
 30
0.0
 10
46.2481490903
 20
38.9789508432
 30
0.0
 10
46.4109796792
 20
38.826186081
 30
0.0
 10
46.5665040494
 20
38.6555007421
 30
0.0
 10
46.7124784291
 20
38.4693404019
 30
0.0
 10
46.8467971438
 20
38.2704031761
 30
0.0
 10
46.9675267779
 20
38.0615728133
 30
0.0
 10
47.0729042072
 20
37.8458611405
 30
0.0
 10
47.1614080211
 20
37.6263945296
 30
0.0
 10
47.2317722928
 20
37.4063567737
 30
0.0
 10
47.2829726166
 20
37.1888775349
 30
0.0
 10
47.3142311348
 20
36.9771468233
 30
0.0
 10
47.3217216287
 20
36.8378876795
 30
0.0
 10
47.3217216287
 20
36.7701350405
 30
0.0
  0
SPLINE
  5
2AF
100
AcDbEntity
  8
0
100
AcDbSpline
 62
7
  6
BYLAYER
 70
0
 71
3
 72
20
 73
16
 74
0
 42
0.0000001
 43
0.0000001
 44
0.0000000001
 40
0.0
 40
0.0
 40
0.0
 40
0.0
 40
0.0584445739
 40
0.1200675022
 40
0.1843994513
 40
0.2509579198
 40
0.3882635118
 40
0.5268926681
 40
0.5950679324
 40
0.6615959523
 40
0.7258933975
 40
0.7874498961
 40
0.8458547577
 40
0.9008302758
 40
1.0
 40
1.0
 40
1.0
 40
1.0
 10
47.5287736476
 20
37.2162711888
 30
0.0
 10
47.5287736476
 20
37.2704733001
 30
0.0
 10
47.5227812876
 20
37.3818809291
 30
0.0
 10
47.4977743049
 20
37.5512639991
 30
0.0
 10
47.4568147036
 20
37.7252532526
 30
0.0
 10
47.3809796784
 20
37.9623569478
 30
0.0
 10
47.2507955685
 20
38.2533431182
 30
0.0
 10
47.0811290068
 20
38.5249243336
 30
0.0
 10
46.9246040957
 20
38.7245613168
 30
0.0
 10
46.8001789343
 20
38.8611126434
 30
0.0
 10
46.6699159076
 20
38.9833236742
 30
0.0
 10
46.5356962134
 20
39.0894192993
 30
0.0
 10
46.3993209113
 20
39.1779063785
 30
0.0
 10
46.2236246481
 20
39.267497736
 30
0.0
 10
46.0848452423
 20
39.3105068216
 30
0.0
 10
45.9937166828
 20
39.3229269027
 30
0.0
  0
SPLINE
  5
2B0
100
AcDbEntity
  8
0
100
AcDbSpline
 62
7
  6
BYLAYER
 70
0
 71
3
 72
11
 73
7
 74
0
 42
0.0000001
 43
0.0000001
 44
0.0000000001
 40
0.0
 40
0.0
 40
0.0
 40
0.0
 40
0.2309016005
 40
0.4858577638
 40
0.7483026457
 40
1.0
 40
1.0
 40
1.0
 40
1.0
 10
37.3538936126
 20
32.3525292319
 30
0.0
 10
37.3538936126
 20
32.3668055624
 30
0.0
 10
37.3494568861
 20
32.3968768434
 30
0.0
 10
37.3332576983
 20
32.4404896121
 30
0.0
 10
37.3086773987
 20
32.4814933271
 30
0.0
 10
37.2873654816
 20
32.5054327467
 30
0.0
 10
37.2757550545
 20
32.5157950366
 30
0.0
  0
SPLINE
  5
2B1
100
AcDbEntity
  8
0
100
AcDbSpline
 62
7
  6
BYLAYER
 70
0
 71
3
 72
14
 73
10
 74
0
 42
0.0000001
 43
0.0000001
 44
0.0000000001
 40
0.0
 40
0.0
 40
0.0
 40
0.0
 40
0.1247267313
 40
0.2299819749
 40
0.3286363494
 40
0.4331885731
 40
0.5510460247
 40
0.6849289124
 40
1.0
 40
1.0
 40
1.0
 40
1.0
 10
36.4682815191
 20
32.1369019718
 30
0.0
 10
36.470679966
 20
32.1382867621
 30
0.0
 10
36.4754123375
 20
32.1404052439
 30
0.0
 10
36.4828666135
 20
32.1410138943
 30
0.0
 10
36.4895082364
 20
32.1386821457
 30
0.0
 10
36.4950120895
 20
32.1339677385
 30
0.0
 10
36.4995273066
 20
32.1274002929
 30
0.0
 10
36.5047132789
 20
32.1158858323
 30
0.0
 10
36.5070000452
 20
32.1060901806
 30
0.0
 10
36.5081722071
 20
32.0991930381
 30
0.0
  0
SPLINE
  5
2B2
100
AcDbEntity
  8
0
100
AcDbSpline
 62
7
  6
BYLAYER
 70
0
 71
3
 72
9
 73
5
 74
0
 42
0.0000001
 43
0.0000001
 44
0.0000000001
 40
0.0
 40
0.0
 40
0.0
 40
0.0
 40
0.2833064235
 40
1.0
 40
1.0
 40
1.0
 40
1.0
 10
37.5064758843
 20
31.6412919523
 30
0.0
 10
37.500466138
 20
31.6439494924
 30
0.0
 10
37.4788661155
 20
31.6520615381
 30
0.0
 10
37.4541877933
 20
31.6547799723
 30
0.0
 10
37.438161337
 20
31.6503657297
 30
0.0
  0
SPLINE
  5
2B3
100
AcDbEntity
  8
0
100
AcDbSpline
 62
7
  6
BYLAYER
 70
0
 71
3
 72
9
 73
5
 74
0
 42
0.0000001
 43
0.0000001
 44
0.0000000001
 40
0.0
 40
0.0
 40
0.0
 40
0.0
 40
0.2556957386
 40
1.0
 40
1.0
 40
1.0
 40
1.0
 10
37.438161337
 20
31.6503657297
 30
0.0
 10
37.4369570322
 20
31.6500340223
 30
0.0
 10
37.4322873388
 20
31.6485966433
 30
0.0
 10
37.427791739
 20
31.6465808317
 30
0.0
 10
37.424642171
 20
31.6447637372
 30
0.0
  0
SPLINE
  5
2B4
100
AcDbEntity
  8
0
100
AcDbSpline
 62
7
  6
BYLAYER
 70
0
 71
3
 72
9
 73
5
 74
0
 42
0.0000001
 43
0.0000001
 44
0.0000000001
 40
0.0
 40
0.0
 40
0.0
 40
0.0
 40
0.5091201097
 40
1.0
 40
1.0
 40
1.0
 40
1.0
 10
38.6051486968
 20
31.2490637358
 30
0.0
 10
38.4144703959
 20
31.3027846609
 30
0.0
 10
38.0432488583
 20
31.4204877063
 30
0.0
 10
37.6811624269
 20
31.5640446847
 30
0.0
 10
37.5064758843
 20
31.6412919523
 30
0.0
  0
SPLINE
  5
2B5
100
AcDbEntity
  8
0
100
AcDbSpline
 62
7
  6
BYLAYER
 70
0
 71
3
 72
10
 73
6
 74
0
 42
0.0000001
 43
0.0000001
 44
0.0000000001
 40
0.0
 40
0.0
 40
0.0
 40
0.0
 40
0.2126966761
 40
0.4532837839
 40
1.0
 40
1.0
 40
1.0
 40
1.0
 10
36.4624268714
 20
32.1842533857
 30
0.0
 10
36.4574781295
 20
32.1889522862
 30
0.0
 10
36.4460899129
 20
32.1980785265
 30
0.0
 10
36.41913509
 20
32.2155273832
 30
0.0
 10
36.3963947279
 20
32.226745891
 30
0.0
 10
36.3803212358
 20
32.2337692568
 30
0.0
  0
SPLINE
  5
2B6
100
AcDbEntity
  8
0
100
AcDbSpline
 62
7
  6
BYLAYER
 70
0
 71
3
 72
14
 73
10
 74
0
 42
0.0000001
 43
0.0000001
 44
0.0000000001
 40
0.0
 40
0.0
 40
0.0
 40
0.0
 40
0.1305814066
 40
0.2426861763
 40
0.3457345194
 40
0.4509583563
 40
0.5665675311
 40
0.6962279185
 40
1.0
 40
1.0
 40
1.0
 40
1.0
 10
36.4682815191
 20
32.1369019718
 30
0.0
 10
36.4704489891
 20
32.1381534031
 30
0.0
 10
36.4742732292
 20
32.140895718
 30
0.0
 10
36.4784188426
 20
32.1462156707
 30
0.0
 10
36.4802632567
 20
32.1522229377
 30
0.0
 10
36.479866547
 20
32.1585243894
 30
0.0
 10
36.4776444535
 20
32.1649242501
 30
0.0
 10
36.4723242863
 20
32.1740533313
 30
0.0
 10
36.4666404584
 20
32.1802394212
 30
0.0
 10
36.4624182891
 20
32.1842484308
 30
0.0
  0
SPLINE
  5
2B7
100
AcDbEntity
  8
0
100
AcDbSpline
 62
7
  6
BYLAYER
 70
0
 71
3
 72
9
 73
5
 74
0
 42
0.0000001
 43
0.0000001
 44
0.0000000001
 40
0.0
 40
0.0
 40
0.0
 40
0.0
 40
0.5124638588
 40
1.0
 40
1.0
 40
1.0
 40
1.0
 10
35.6227091041
 20
32.9709370835
 30
0.0
 10
35.6098452846
 20
33.0423589028
 30
0.0
 10
35.5902261051
 20
33.182788774
 30
0.0
 10
35.5830662113
 20
33.3244579822
 30
0.0
 10
35.5830662113
 20
33.3934989465
 30
0.0
  0
SPLINE
  5
2B8
100
AcDbEntity
  8
0
100
AcDbSpline
 62
7
  6
BYLAYER
 70
0
 71
3
 72
9
 73
5
 74
0
 42
0.0000001
 43
0.0000001
 44
0.0000000001
 40
0.0
 40
0.0
 40
0.0
 40
0.0
 40
0.2610183282
 40
1.0
 40
1.0
 40
1.0
 40
1.0
 10
36.3020871638
 20
32.3366303737
 30
0.0
 10
36.2374359262
 20
32.3853621231
 30
0.0
 10
35.994404986
 20
32.5780556392
 30
0.0
 10
35.7706736397
 20
32.7958828658
 30
0.0
 10
35.6227091041
 20
32.9709370835
 30
0.0
  0
SPLINE
  5
2B9
100
AcDbEntity
  8
0
100
AcDbSpline
 62
7
  6
BYLAYER
 70
0
 71
3
 72
23
 73
19
 74
0
 42
0.0000001
 43
0.0000001
 44
0.0000000001
 40
0.0
 40
0.0
 40
0.0
 40
0.0
 40
0.0579026288
 40
0.1188463093
 40
0.1824309979
 40
0.2482034298
 40
0.3156214489
 40
0.3841001427
 40
0.4530236805
 40
0.5217639736
 40
0.5896981804
 40
0.6562255722
 40
0.7207862922
 40
0.7828809301
 40
0.8420915596
 40
0.898105841
 40
0.9507455748
 40
1.0
 40
1.0
 40
1.0
 40
1.0
 10
11.3330534814
 20
43.3446220935
 30
0.0
 10
11.4777421605
 20
43.2610879354
 30
0.0
 10
11.7659487092
 20
43.074113563
 30
0.0
 10
12.180380087
 20
42.7485973729
 30
0.0
 10
12.58326389
 20
42.3746621877
 30
0.0
 10
12.9691347314
 20
41.9574679921
 30
0.0
 10
13.3327968033
 20
41.502594453
 30
0.0
 10
13.6693223723
 20
41.016224676
 30
0.0
 10
13.9741554598
 20
40.5049522378
 30
0.0
 10
14.2431608994
 20
39.9757122149
 30
0.0
 10
14.4726900267
 20
39.4356816932
 30
0.0
 10
14.6596244588
 20
38.8921750751
 30
0.0
 10
14.8014347082
 20
38.3525453863
 30
0.0
 10
14.8961980322
 20
37.8240649892
 30
0.0
 10
14.9426149524
 20
37.3138368313
 30
0.0
 10
14.9399837193
 20
36.8286340168
 30
0.0
 10
14.8882516038
 20
36.3750182479
 30
0.0
 10
14.8190245342
 20
36.0882206683
 30
0.0
 10
14.7757032858
 20
35.9528665586
 30
0.0
  0
SPLINE
  5
2BA
100
AcDbEntity
  8
0
100
AcDbSpline
 62
7
  6
BYLAYER
 70
0
 71
3
 72
13
 73
9
 74
0
 42
0.0000001
 43
0.0000001
 44
0.0000000001
 40
0.0
 40
0.0
 40
0.0
 40
0.0
 40
0.2701691267
 40
0.5236857763
 40
0.6456216672
 40
0.7651381756
 40
0.8829916898
 40
1.0
 40
1.0
 40
1.0
 40
1.0
 10
14.7757032858
 20
35.9528665586
 30
0.0
 10
14.7339603063
 20
35.8224436361
 30
0.0
 10
14.6350752116
 20
35.5748145108
 30
0.0
 10
14.4637684797
 20
35.2937942093
 30
0.0
 10
14.3037611606
 20
35.1001018556
 30
0.0
 10
14.1743413363
 20
34.9715186828
 30
0.0
 10
14.034449445
 20
34.8583668675
 30
0.0
 10
13.9344010498
 20
34.7933828706
 30
0.0
 10
13.8830402384
 20
34.7637267801
 30
0.0
  0
SPLINE
  5
2BB
100
AcDbEntity
  8
0
100
AcDbSpline
 62
7
  6
BYLAYER
 70
0
 71
3
 72
30
 73
26
 74
0
 42
0.0000001
 43
0.0000001
 44
0.0000000001
 40
0.0
 40
0.0
 40
0.0
 40
0.0
 40
0.0213278552
 40
0.0428840899
 40
0.0648851342
 40
0.0875252983
 40
0.1109702771
 40
0.1353521775
 40
0.1607704491
 40
0.1872905736
 40
0.2149491792
 40
0.2437540558
 40
0.2736899503
 40
0.3047190597
 40
0.3697934725
 40
0.438376647
 40
0.5096482921
 40
0.5826573383
 40
0.6563735447
 40
0.7297356074
 40
0.8016971353
 40
0.8712762196
 40
0.9376005189
 40
0.9693360568
 40
1.0
 40
1.0
 40
1.0
 40
1.0
 10
11.6736018759
 20
48.614657789
 30
0.0
 10
11.7718861518
 20
48.6714062732
 30
0.0
 10
11.9770658511
 20
48.7729428374
 30
0.0
 10
12.3041950393
 20
48.8860315428
 30
0.0
 10
12.6495370472
 20
48.9596832238
 30
0.0
 10
13.0110217657
 20
48.9935988479
 30
0.0
 10
13.3866413019
 20
48.9876656292
 30
0.0
 10
13.7743418614
 20
48.9420945877
 30
0.0
 10
14.1720341799
 20
48.8571605803
 30
0.0
 10
14.5776209202
 20
48.7334614189
 30
0.0
 10
14.9889337848
 20
48.5716512883
 30
0.0
 10
15.4038117093
 20
48.3726848111
 30
0.0
 10
15.8200435092
 20
48.1376087899
 30
0.0
 10
16.3827340562
 20
47.7719833078
 30
0.0
 10
17.074275666
 20
47.2305567569
 30
0.0
 10
17.8609093247
 20
46.4729600119
 30
0.0
 10
18.6008273828
 20
45.6132589876
 30
0.0
 10
19.2782378105
 20
44.6698204405
 30
0.0
 10
19.8787403214
 20
43.6627206235
 30
0.0
 10
20.3895107719
 20
42.6134591779
 30
0.0
 10
20.7996791507
 20
41.544367953
 30
0.0
 10
21.1004495656
 20
40.4783037341
 30
0.0
 10
21.2569645477
 20
39.5982257771
 30
0.0
 10
21.3196793802
 20
38.9158184863
 30
0.0
 10
21.3304587201
 20
38.583694067
 30
0.0
 10
21.3304587201
 20
38.4205234557
 30
0.0
  0
SPLINE
  5
2BC
100
AcDbEntity
  8
0
100
AcDbSpline
 62
7
  6
BYLAYER
 70
0
 71
3
 72
15
 73
11
 74
0
 42
0.0000001
 43
0.0000001
 44
0.0000000001
 40
0.0
 40
0.0
 40
0.0
 40
0.0
 40
0.1485891375
 40
0.2895060193
 40
0.4227210398
 40
0.54864202
 40
0.6680002038
 40
0.781937377
 40
0.8919870335
 40
1.0
 40
1.0
 40
1.0
 40
1.0
 10
21.3304587201
 20
38.4205234557
 30
0.0
 10
21.3304587201
 20
38.2121714883
 30
0.0
 10
21.3136620092
 20
37.8059456588
 30
0.0
 10
21.23369849
 20
37.2176819447
 30
0.0
 10
21.1001134873
 20
36.6716751514
 30
0.0
 10
20.9139826969
 20
36.1732033597
 30
0.0
 10
20.6766947004
 20
35.7270844205
 30
0.0
 10
20.3901162071
 20
35.3378764981
 30
0.0
 10
20.0569143175
 20
35.009930935
 30
0.0
 10
19.8047223624
 20
34.8339732216
 30
0.0
 10
19.673559962
 20
34.7582411948
 30
0.0
  0
SPLINE
  5
2BD
100
AcDbEntity
  8
0
100
AcDbSpline
 62
7
  6
BYLAYER
 70
0
 71
3
 72
23
 73
19
 74
0
 42
0.0000001
 43
0.0000001
 44
0.0000000001
 40
0.0
 40
0.0
 40
0.0
 40
0.0
 40
0.0562513233
 40
0.1148410699
 40
0.1755294882
 40
0.2380745437
 40
0.3021598341
 40
0.3674316499
 40
0.4335113709
 40
0.4999993121
 40
0.5664872775
 40
0.6325670654
 40
0.6978389894
 40
0.7619244284
 40
0.8244696823
 40
0.8851583004
 40
0.9437482999
 40
1.0
 40
1.0
 40
1.0
 40
1.0
 10
11.7973172229
 20
32.9882238139
 30
0.0
 10
11.6084475317
 20
33.0972653141
 30
0.0
 10
11.2323402843
 20
33.3366338632
 30
0.0
 10
10.6875557789
 20
33.7454316339
 30
0.0
 10
10.1547853579
 20
34.2079001446
 30
0.0
 10
9.6387500124
 20
34.7196125079
 30
0.0
 10
9.1439845796
 20
35.2758899468
 30
0.0
 10
8.6749761777
 20
35.8715572344
 30
0.0
 10
8.2360221057
 20
36.5010763632
 30
0.0
 10
7.8311714873
 20
37.1585848478
 30
0.0
 10
7.4641746012
 20
37.8379486128
 30
0.0
 10
7.1384688756
 20
38.5328529046
 30
0.0
 10
6.8571062121
 20
39.2368595341
 30
0.0
 10
6.6227341848
 20
39.9434781039
 30
0.0
 10
6.4375915861
 20
40.6462350349
 30
0.0
 10
6.3034620907
 20
41.3388635491
 30
0.0
 10
6.2218195061
 20
42.01506221
 30
0.0
 10
6.2025697942
 20
42.4604671644
 30
0.0
 10
6.2025697942
 20
42.6785553261
 30
0.0
  0
SPLINE
  5
2BE
100
AcDbEntity
  8
0
100
AcDbSpline
 62
7
  6
BYLAYER
 70
0
 71
3
 72
16
 73
12
 74
0
 42
0.0000001
 43
0.0000001
 44
0.0000000001
 40
0.0
 40
0.0
 40
0.0
 40
0.0
 40
0.1448959101
 40
0.2830743084
 40
0.414622093
 40
0.4780903848
 40
0.5401121526
 40
0.6601852843
 40
0.7759719261
 40
0.8887413488
 40
1.0
 40
1.0
 40
1.0
 40
1.0
 10
6.2025697942
 20
42.6785553261
 30
0.0
 10
6.2025697942
 20
42.889284136
 30
0.0
 10
6.2197694559
 20
43.3012666557
 30
0.0
 10
6.3017001421
 20
43.8996085007
 30
0.0
 10
6.4178875835
 20
44.3712113884
 30
0.0
 10
6.5394666923
 20
44.7249408962
 30
0.0
 10
6.6764304312
 20
45.0549708876
 30
0.0
 10
6.8814255378
 20
45.4382996889
 30
0.0
 10
7.1841385068
 20
45.847483061
 30
0.0
 10
7.5383893284
 20
46.1950759019
 30
0.0
 10
7.8072020252
 20
46.3824111518
 30
0.0
 10
7.9473325853
 20
46.4633150855
 30
0.0
  0
SPLINE
  5
2BF
100
AcDbEntity
  8
0
100
AcDbSpline
 62
7
  6
BYLAYER
 70
0
 71
3
 72
16
 73
12
 74
0
 42
0.0000001
 43
0.0000001
 44
0.0000000001
 40
0.0
 40
0.0
 40
0.0
 40
0.0
 40
0.1114719367
 40
0.2244261764
 40
0.3403426043
 40
0.460471595
 40
0.5224894604
 40
0.5859323094
 40
0.7173665076
 40
0.8553542035
 40
1.0
 40
1.0
 40
1.0
 40
1.0
 10
15.9472967703
 20
32.6068879472
 30
0.0
 10
15.8086421468
 20
32.5268361408
 30
0.0
 10
15.5153224185
 20
32.3889419879
 30
0.0
 10
15.0427649147
 20
32.2561709537
 30
0.0
 10
14.5430659571
 20
32.1972360746
 30
0.0
 10
14.1136857633
 20
32.2089796882
 30
0.0
 10
13.7634981404
 20
32.2527956578
 30
0.0
 10
13.4007124687
 20
32.3212341517
 30
0.0
 10
12.9396012523
 20
32.4515991471
 30
0.0
 10
12.3866123983
 20
32.672878023
 30
0.0
 10
12.0249961058
 20
32.858730914
 30
0.0
 10
11.8443331284
 20
32.9613048442
 30
0.0
  0
SPLINE
  5
2C0
100
AcDbEntity
  8
0
100
AcDbSpline
 62
7
  6
BYLAYER
 70
0
 71
3
 72
13
 73
9
 74
0
 42
0.0000001
 43
0.0000001
 44
0.0000000001
 40
0.0
 40
0.0
 40
0.0
 40
0.0
 40
0.1169437465
 40
0.2347416871
 40
0.3542142186
 40
0.4761285767
 40
0.7296789271
 40
1.0
 40
1.0
 40
1.0
 40
1.0
 10
8.7830666256
 20
43.5971929232
 30
0.0
 10
8.8346729329
 20
43.6269908103
 30
0.0
 10
8.941503782
 20
43.6813800552
 30
0.0
 10
9.1103182109
 20
43.746121255
 30
0.0
 10
9.2873168299
 20
43.7939651488
 30
0.0
 10
9.5364453159
 20
43.8354756746
 30
0.0
 10
9.8673351832
 20
43.8426658185
 30
0.0
 10
10.1326357422
 20
43.8035581992
 30
0.0
 10
10.2671650726
 20
43.773953785
 30
0.0
  0
SPLINE
  5
2C1
100
AcDbEntity
  8
0
100
AcDbSpline
 62
7
  6
BYLAYER
 70
0
 71
3
 72
10
 73
6
 74
0
 42
0.0000001
 43
0.0000001
 44
0.0000000001
 40
0.0
 40
0.0
 40
0.0
 40
0.0
 40
0.479137897
 40
0.7344923731
 40
1.0
 40
1.0
 40
1.0
 40
1.0
 10
10.2775813205
 20
43.7716416592
 30
0.0
 10
10.455595466
 20
43.7317869742
 30
0.0
 10
10.7232435935
 20
43.6452545551
 30
0.0
 10
11.0705439146
 20
43.4889390487
 30
0.0
 10
11.245509868
 20
43.3951642788
 30
0.0
 10
11.3330534814
 20
43.3446220935
 30
0.0
  0
SPLINE
  5
2C2
100
AcDbEntity
  8
0
100
AcDbSpline
 62
7
  6
BYLAYER
 70
0
 71
3
 72
9
 73
5
 74
0
 42
0.0000001
 43
0.0000001
 44
0.0000000001
 40
0.0
 40
0.0
 40
0.0
 40
0.0
 40
0.4882713763
 40
1.0
 40
1.0
 40
1.0
 40
1.0
 10
6.2433627329
 20
42.5913574845
 30
0.0
 10
6.2433627269
 20
42.3608811567
 30
0.0
 10
6.2655441294
 20
41.888684653
 30
0.0
 10
6.3267196254
 20
41.4200987709
 30
0.0
 10
6.3668635192
 20
41.1819092247
 30
0.0
  0
SPLINE
  5
2C3
100
AcDbEntity
  8
0
100
AcDbSpline
 62
7
  6
BYLAYER
 70
0
 71
3
 72
9
 73
5
 74
0
 42
0.0000001
 43
0.0000001
 44
0.0000000001
 40
0.0
 40
0.0
 40
0.0
 40
0.0
 40
0.2453829106
 40
1.0
 40
1.0
 40
1.0
 40
1.0
 10
6.3668635192
 20
41.1819092247
 30
0.0
 10
6.3811720567
 20
41.0970110318
 30
0.0
 10
6.4440785276
 20
40.75181288
 30
0.0
 10
6.5249259868
 20
40.4099320742
 30
0.0
 10
6.5948973173
 20
40.154578887
 30
0.0
  0
SPLINE
  5
2C4
100
AcDbEntity
  8
0
100
AcDbSpline
 62
7
  6
BYLAYER
 70
0
 71
3
 72
9
 73
5
 74
0
 42
0.0000001
 43
0.0000001
 44
0.0000000001
 40
0.0
 40
0.0
 40
0.0
 40
0.0
 40
0.2475387012
 40
1.0
 40
1.0
 40
1.0
 40
1.0
 10
6.8835298216
 20
39.2484250148
 30
0.0
 10
6.9225143461
 20
39.1409866948
 30
0.0
 10
7.0860478249
 20
38.7091733777
 30
0.0
 10
7.2731550751
 20
38.2863222975
 30
0.0
 10
7.4260746765
 20
37.9743630751
 30
0.0
  0
SPLINE
  5
2C5
100
AcDbEntity
  8
0
100
AcDbSpline
 62
7
  6
BYLAYER
 70
0
 71
3
 72
9
 73
5
 74
0
 42
0.0000001
 43
0.0000001
 44
0.0000000001
 40
0.0
 40
0.0
 40
0.0
 40
0.0
 40
0.5082256513
 40
1.0
 40
1.0
 40
1.0
 40
1.0
 10
9.6750425757
 20
34.7263910992
 30
0.0
 10
9.8414773917
 20
34.5523308681
 30
0.0
 10
10.1797892015
 20
34.2200069745
 30
0.0
 10
10.539824452
 20
33.9112369554
 30
0.0
 10
10.7222082525
 20
33.7661863961
 30
0.0
  0
SPLINE
  5
2C6
100
AcDbEntity
  8
0
100
AcDbSpline
 62
7
  6
BYLAYER
 70
0
 71
3
 72
9
 73
5
 74
0
 42
0.0000001
 43
0.0000001
 44
0.0000000001
 40
0.0
 40
0.0
 40
0.0
 40
0.0
 40
0.2578254774
 40
1.0
 40
1.0
 40
1.0
 40
1.0
 10
10.7222082525
 20
33.7661863961
 30
0.0
 10
10.8054231605
 20
33.70000525
 30
0.0
 10
11.1325179685
 20
33.4488645522
 30
0.0
 10
11.4771357621
 20
33.2201813557
 30
0.0
 10
11.7421945135
 20
33.0671530762
 30
0.0
  0
SPLINE
  5
2C7
100
AcDbEntity
  8
0
100
AcDbSpline
 62
7
  6
BYLAYER
 70
0
 71
3
 72
25
 73
21
 74
0
 42
0.0000001
 43
0.0000001
 44
0.0000000001
 40
0.0
 40
0.0
 40
0.0
 40
0.0
 40
0.0740627936
 40
0.1442980479
 40
0.2107096217
 40
0.2425563285
 40
0.2735392272
 40
0.3331003383
 40
0.3900015715
 40
0.4450121265
 40
0.4990555655
 40
0.5531425927
 40
0.6082798505
 40
0.6653799251
 40
0.7251965587
 40
0.756322932
 40
0.7883210559
 40
0.8550511826
 40
0.9256133278
 40
1.0
 40
1.0
 40
1.0
 40
1.0
 10
11.6966138672
 20
45.7923334817
 30
0.0
 10
11.5221580146
 20
45.8913832297
 30
0.0
 10
11.1739965656
 20
46.0703727642
 30
0.0
 10
10.6433350849
 20
46.2828314819
 30
0.0
 10
10.2031574488
 20
46.4073594154
 30
0.0
 10
9.8589238464
 20
46.4721610311
 30
0.0
 10
9.5297705136
 20
46.5131149581
 30
0.0
 10
9.129158041
 20
46.5236368783
 30
0.0
 10
8.6662483341
 20
46.4680065432
 30
0.0
 10
8.2320650142
 20
46.3440426728
 30
0.0
 10
7.8313943169
 20
46.1526814386
 30
0.0
 10
7.4687336973
 20
45.8959066318
 30
0.0
 10
7.1479871508
 20
45.5766980121
 30
0.0
 10
6.8722898902
 20
45.1987787084
 30
0.0
 10
6.6845042855
 20
44.8429370812
 30
0.0
 10
6.5581538586
 20
44.5346445941
 30
0.0
 10
6.4450263387
 20
44.2013835596
 30
0.0
 10
6.3364417432
 20
43.7547985265
 30
0.0
 10
6.2595246537
 20
43.1857463666
 30
0.0
 10
6.2433627381
 20
42.7928480742
 30
0.0
 10
6.2433627329
 20
42.5913574845
 30
0.0
  0
SPLINE
  5
2C8
100
AcDbEntity
  8
0
100
AcDbSpline
 62
7
  6
BYLAYER
 70
0
 71
3
 72
9
 73
5
 74
0
 42
0.0000001
 43
0.0000001
 44
0.0000000001
 40
0.0
 40
0.0
 40
0.0
 40
0.0
 40
0.244507086
 40
1.0
 40
1.0
 40
1.0
 40
1.0
 10
11.0230292645
 20
35.2107143664
 30
0.0
 10
10.9800028729
 20
35.2398415116
 30
0.0
 10
10.8057386189
 20
35.3614793583
 30
0.0
 10
10.6383006158
 20
35.4928276557
 30
0.0
 10
10.5157363217
 20
35.5965209919
 30
0.0
  0
SPLINE
  5
2C9
100
AcDbEntity
  8
0
100
AcDbSpline
 62
7
  6
BYLAYER
 70
0
 71
3
 72
9
 73
5
 74
0
 42
0.0000001
 43
0.0000001
 44
0.0000000001
 40
0.0
 40
0.0
 40
0.0
 40
0.0
 40
0.2454897717
 40
1.0
 40
1.0
 40
1.0
 40
1.0
 10
10.0929151441
 20
35.9862476666
 30
0.0
 10
10.0322573885
 20
36.0469201616
 30
0.0
 10
9.789521067
 20
36.2983955101
 30
0.0
 10
9.5640598977
 20
36.5664387669
 30
0.0
 10
9.4039381361
 20
36.7759403903
 30
0.0
  0
SPLINE
  5
2CA
100
AcDbEntity
  8
0
100
AcDbSpline
 62
7
  6
BYLAYER
 70
0
 71
3
 72
9
 73
5
 74
0
 42
0.0000001
 43
0.0000001
 44
0.0000000001
 40
0.0
 40
0.0
 40
0.0
 40
0.0
 40
0.2534813661
 40
1.0
 40
1.0
 40
1.0
 40
1.0
 10
8.4297920957
 20
38.3864820981
 30
0.0
 10
8.3900766893
 20
38.471653998
 30
0.0
 10
8.2388911161
 20
38.8101862394
 30
0.0
 10
8.1098701431
 20
39.1587032756
 30
0.0
 10
8.0278538406
 20
39.4230382994
 30
0.0
  0
SPLINE
  5
2CB
100
AcDbEntity
  8
0
100
AcDbSpline
 62
7
  6
BYLAYER
 70
0
 71
3
 72
9
 73
5
 74
0
 42
0.0000001
 43
0.0000001
 44
0.0000000001
 40
0.0
 40
0.0
 40
0.0
 40
0.0
 40
0.2565260434
 40
1.0
 40
1.0
 40
1.0
 40
1.0
 10
7.9184818854
 20
39.8122713248
 30
0.0
 10
7.9000119238
 20
39.885714073
 30
0.0
 10
7.8325539748
 20
40.1731199845
 30
0.0
 10
7.7836329096
 20
40.4649914986
 30
0.0
 10
7.75960285
 20
40.6831546831
 30
0.0
  0
SPLINE
  5
2CC
100
AcDbEntity
  8
0
100
AcDbSpline
 62
7
  6
BYLAYER
 70
0
 71
3
 72
9
 73
5
 74
0
 42
0.0000001
 43
0.0000001
 44
0.0000000001
 40
0.0
 40
0.0
 40
0.0
 40
0.0
 40
0.2551965306
 40
1.0
 40
1.0
 40
1.0
 40
1.0
 10
7.75960285
 20
40.6831546831
 30
0.0
 10
7.7547602503
 20
40.7271194922
 30
0.0
 10
7.7377526981
 20
40.8996055678
 30
0.0
 10
7.7287814556
 20
41.0729097968
 30
0.0
 10
7.7271761408
 20
41.2019892737
 30
0.0
  0
SPLINE
  5
2CD
100
AcDbEntity
  8
0
100
AcDbSpline
 62
7
  6
BYLAYER
 70
0
 71
3
 72
15
 73
11
 74
0
 42
0.0000001
 43
0.0000001
 44
0.0000000001
 40
0.0
 40
0.0
 40
0.0
 40
0.0
 40
0.1490571279
 40
0.290307958
 40
0.4237578377
 40
0.5497525905
 40
0.669022406
 40
0.7827201991
 40
0.8924112131
 40
1.0
 40
1.0
 40
1.0
 40
1.0
 10
7.7271761408
 20
41.2019892737
 30
0.0
 10
7.7254818516
 20
41.3382229624
 30
0.0
 10
7.7331763508
 20
41.6038783299
 30
0.0
 10
7.7808810241
 20
41.9888822745
 30
0.0
 10
7.8640669946
 20
42.3463461759
 30
0.0
 10
7.9820846383
 20
42.6727301773
 30
0.0
 10
8.1340289167
 20
42.9647408751
 30
0.0
 10
8.3186755121
 20
43.2192948022
 30
0.0
 10
8.5342469634
 20
43.4334464803
 30
0.0
 10
8.6979033878
 20
43.548019001
 30
0.0
 10
8.7830666256
 20
43.5971929232
 30
0.0
  0
SPLINE
  5
2CE
100
AcDbEntity
  8
0
100
AcDbSpline
 62
7
  6
BYLAYER
 70
0
 71
3
 72
23
 73
19
 74
0
 42
0.0000001
 43
0.0000001
 44
0.0000000001
 40
0.0
 40
0.0
 40
0.0
 40
0.0
 40
0.0558790582
 40
0.1142852832
 40
0.1749553919
 40
0.2376019911
 40
0.3018752771
 40
0.367393764
 40
0.4337505263
 40
0.5005213391
 40
0.5672739043
 40
0.6335762835
 40
0.6990053321
 40
0.7631559397
 40
0.8256492169
 40
0.8861388231
 40
0.94434168
 40
1.0
 40
1.0
 40
1.0
 40
1.0
 10
17.604192479
 20
36.2691754802
 30
0.0
 10
17.604192479
 20
36.4891868599
 30
0.0
 10
17.5845387485
 20
36.9393251746
 30
0.0
 10
17.5012328267
 20
37.6237125625
 30
0.0
 10
17.3641822902
 20
38.3265459101
 30
0.0
 10
17.1747855175
 20
39.040971357
 30
0.0
 10
16.9348291502
 20
39.7601573287
 30
0.0
 10
16.6466517403
 20
40.4771522244
 30
0.0
 10
16.3130404637
 20
41.185036485
 30
0.0
 10
15.9372149319
 20
41.8769669404
 30
0.0
 10
15.5228037319
 20
42.5462496382
 30
0.0
 10
15.0738195335
 20
43.1864161345
 30
0.0
 10
14.5946051707
 20
43.7912828648
 30
0.0
 10
14.0897819557
 20
44.3550075371
 30
0.0
 10
13.5642192047
 20
44.8721249791
 30
0.0
 10
13.0229531653
 20
45.3377122
 30
0.0
 10
12.4712304904
 20
45.7471747946
 30
0.0
 10
12.0909860388
 20
45.9857739146
 30
0.0
 10
11.900417161
 20
46.0939720582
 30
0.0
  0
SPLINE
  5
2CF
100
AcDbEntity
  8
0
100
AcDbSpline
 62
7
  6
BYLAYER
 70
0
 71
3
 72
40
 73
36
 74
0
 42
0.0000001
 43
0.0000001
 44
0.0000000001
 40
0.0
 40
0.0
 40
0.0
 40
0.0
 40
0.0325421601
 40
0.0665416873
 40
0.1018464825
 40
0.1382955858
 40
0.1756912795
 40
0.2138172648
 40
0.2524434654
 40
0.2913292583
 40
0.3302291166
 40
0.3688974585
 40
0.407092985
 40
0.4445835384
 40
0.4811514633
 40
0.5165985127
 40
0.5507513873
 40
0.5834688162
 40
0.6146483898
 40
0.6442342582
 40
0.67222676
 40
0.6856494923
 40
0.6987047252
 40
0.723784877
 40
0.7477018238
 40
0.7707589111
 40
0.7933280594
 40
0.8158240877
 40
0.8386686094
 40
0.8622516236
 40
0.8869022926
 40
0.9128717664
 40
0.9403263646
 40
0.9693642156
 40
1.0
 40
1.0
 40
1.0
 40
1.0
 10
11.7421947191
 20
45.7661988765
 30
0.0
 10
11.9250686785
 20
45.6606189267
 30
0.0
 10
12.2898279546
 20
45.4285220275
 30
0.0
 10
12.8190505469
 20
45.0317713351
 30
0.0
 10
13.3380662861
 20
44.5820234557
 30
0.0
 10
13.8419557002
 20
44.0836143779
 30
0.0
 10
14.3260188302
 20
43.5411771079
 30
0.0
 10
14.7856978231
 20
42.9598407448
 30
0.0
 10
15.2166652992
 20
42.3450838631
 30
0.0
 10
15.6148448766
 20
41.7026936238
 30
0.0
 10
15.9764906335
 20
41.0387381202
 30
0.0
 10
16.2981950183
 20
40.3594819893
 30
0.0
 10
16.5769141808
 20
39.6713263112
 30
0.0
 10
16.8100183509
 20
38.9807563318
 30
0.0
 10
16.995321521
 20
38.2942754132
 30
0.0
 10
17.1310731989
 20
37.6183329423
 30
0.0
 10
17.2159699507
 20
36.9592618733
 30
0.0
 10
17.2492026421
 20
36.3232279758
 30
0.0
 10
17.2304106135
 20
35.7161358356
 30
0.0
 10
17.1596870601
 20
35.1436774084
 30
0.0
 10
17.056434975
 20
34.6936442791
 30
0.0
 10
16.9475951547
 20
34.3571559297
 30
0.0
 10
16.8253877769
 20
34.0455407412
 30
0.0
 10
16.642880229
 20
33.6851525978
 30
0.0
 10
16.3734658029
 20
33.3009253213
 30
0.0
 10
16.0588387999
 20
32.974704688
 30
0.0
 10
15.7020242463
 20
32.7102438784
 30
0.0
 10
15.306799754
 20
32.5106124899
 30
0.0
 10
14.8775822098
 20
32.3779369677
 30
0.0
 10
14.4190814671
 20
32.3132626909
 30
0.0
 10
13.9360131664
 20
32.3167802958
 30
0.0
 10
13.4330703836
 20
32.3880158291
 30
0.0
 10
12.91487137
 20
32.5258972459
 30
0.0
 10
12.3862281847
 20
32.7289259925
 30
0.0
 10
12.0390712745
 20
32.9018366632
 30
0.0
 10
11.8649964299
 20
32.9978401274
 30
0.0
  0
SPLINE
  5
2D0
100
AcDbEntity
  8
0
100
AcDbSpline
 62
7
  6
BYLAYER
 70
0
 71
3
 72
15
 73
11
 74
0
 42
0.0000001
 43
0.0000001
 44
0.0000000001
 40
0.0
 40
0.0
 40
0.0
 40
0.0
 40
0.1483288833
 40
0.289033795
 40
0.4221184261
 40
0.5479986145
 40
0.6674091458
 40
0.7814858799
 40
0.8917424449
 40
1.0
 40
1.0
 40
1.0
 40
1.0
 10
11.900417161
 20
46.0939720582
 30
0.0
 10
11.721873935
 20
46.1953424699
 30
0.0
 10
11.3655716656
 20
46.3786470813
 30
0.0
 10
10.8224636275
 20
46.5965798488
 30
0.0
 10
10.2892686984
 20
46.7482408198
 30
0.0
 10
9.7709245902
 20
46.8320180635
 30
0.0
 10
9.2721494489
 20
46.8467594924
 30
0.0
 10
8.7976720343
 20
46.7918602387
 30
0.0
 10
8.352431125
 20
46.6674752652
 30
0.0
 10
8.0771054175
 20
46.5382373243
 30
0.0
 10
7.9473326309
 20
46.4633150066
 30
0.0
  0
SPLINE
  5
2D1
100
AcDbEntity
  8
0
100
AcDbSpline
 62
7
  6
BYLAYER
 70
0
 71
3
 72
15
 73
11
 74
0
 42
0.0000001
 43
0.0000001
 44
0.0000000001
 40
0.0
 40
0.0
 40
0.0
 40
0.0
 40
0.1080129423
 40
0.2180622626
 40
0.3319996986
 40
0.4513578959
 40
0.5772797368
 40
0.7104953918
 40
0.8514068667
 40
1.0
 40
1.0
 40
1.0
 40
1.0
 10
15.9472967251
 20
32.6068880262
 30
0.0
 10
16.0784623582
 20
32.6826144824
 30
0.0
 10
16.3306420246
 20
32.8585903516
 30
0.0
 10
16.6638512552
 20
33.1865256321
 30
0.0
 10
16.9504315061
 20
33.57573364
 30
0.0
 10
17.187720129
 20
34.0218541941
 30
0.0
 10
17.3738455463
 20
34.5203305152
 30
0.0
 10
17.5074309089
 20
35.0663313321
 30
0.0
 10
17.5873999911
 20
35.654593592
 30
0.0
 10
17.6041924794
 20
36.0608178439
 30
0.0
 10
17.6041924794
 20
36.2691754804
 30
0.0
  0
SPLINE
  5
2D2
100
AcDbEntity
  8
0
100
AcDbSpline
 62
7
  6
BYLAYER
 70
0
 71
3
 72
14
 73
10
 74
0
 42
0.0000001
 43
0.0000001
 44
0.0000000001
 40
0.0
 40
0.0
 40
0.0
 40
0.0
 40
0.1126972016
 40
0.2267704944
 40
0.3435133328
 40
0.4640717196
 40
0.5894006051
 40
0.7202280116
 40
1.0
 40
1.0
 40
1.0
 40
1.0
 10
13.8830402384
 20
34.7637267801
 30
0.0
 10
13.8160645301
 20
34.7250545393
 30
0.0
 10
13.675768901
 20
34.6564026382
 30
0.0
 10
13.4513552847
 20
34.5820845142
 30
0.0
 10
13.2138875994
 20
34.5365685223
 30
0.0
 10
12.9650003816
 20
34.5200493686
 30
0.0
 10
12.7062396231
 20
34.532561928
 30
0.0
 10
12.3422819572
 20
34.5888757059
 30
0.0
 10
12.0712661214
 20
34.6729365603
 30
0.0
 10
11.8927558979
 20
34.7436184513
 30
0.0
  0
SPLINE
  5
2D3
100
AcDbEntity
  8
0
100
AcDbSpline
 62
7
  6
BYLAYER
 70
0
 71
3
 72
9
 73
5
 74
0
 42
0.0000001
 43
0.0000001
 44
0.0000000001
 40
0.0
 40
0.0
 40
0.0
 40
0.0
 40
0.2448083504
 40
1.0
 40
1.0
 40
1.0
 40
1.0
 10
11.722114153
 20
34.8159922492
 30
0.0
 10
11.6895681808
 20
34.830705837
 30
0.0
 10
11.5574198988
 20
34.8925609656
 30
0.0
 10
11.4284743619
 20
34.961207414
 30
0.0
 10
11.3330534814
 20
35.0162974388
 30
0.0
  0
SPLINE
  5
2D4
100
AcDbEntity
  8
0
100
AcDbSpline
 62
7
  6
BYLAYER
 70
0
 71
3
 72
15
 73
11
 74
0
 42
0.0000001
 43
0.0000001
 44
0.0000000001
 40
0.0
 40
0.0
 40
0.0
 40
0.0
 40
0.1485725082
 40
0.2895091254
 40
0.4227252101
 40
0.5486386723
 40
0.6680004253
 40
0.7819381441
 40
0.8919866204
 40
1.0
 40
1.0
 40
1.0
 40
1.0
 10
39.8920428256
 20
27.5815908199
 30
0.0
 10
40.0724566676
 20
27.4774311976
 30
0.0
 10
40.4326608249
 20
27.2888883679
 30
0.0
 10
40.9820743972
 20
27.0639911062
 30
0.0
 10
41.5217276092
 20
26.9066730754
 30
0.0
 10
42.0464694331
 20
26.8186800399
 30
0.0
 10
42.5514421389
 20
26.8010832467
 30
0.0
 10
43.03178826
 20
26.854674033
 30
0.0
 10
43.4823742548
 20
26.979285544
 30
0.0
 10
43.7608602091
 20
27.1096758866
 30
0.0
 10
43.8920219441
 20
27.1854016921
 30
0.0
  0
SPLINE
  5
2D5
100
AcDbEntity
  8
0
100
AcDbSpline
 62
7
  6
BYLAYER
 70
0
 71
3
 72
9
 73
5
 74
0
 42
0.0000001
 43
0.0000001
 44
0.0000000001
 40
0.0
 40
0.0
 40
0.0
 40
0.0
 40
0.254848779
 40
1.0
 40
1.0
 40
1.0
 40
1.0
 10
39.2720061875
 20
27.9789168483
 30
0.0
 10
39.3231533384
 20
27.9428750531
 30
0.0
 10
39.5253478488
 20
27.8035958645
 30
0.0
 10
39.7336034343
 20
27.6730637745
 30
0.0
 10
39.8920428256
 20
27.5815908199
 30
0.0
  0
SPLINE
  5
2D6
100
AcDbEntity
  8
0
100
AcDbSpline
 62
7
  6
BYLAYER
 70
0
 71
3
 72
15
 73
11
 74
0
 42
0.0000001
 43
0.0000001
 44
0.0000000001
 40
0.0
 40
0.0
 40
0.0
 40
0.0
 40
0.1485730552
 40
0.2895101007
 40
0.4227264568
 40
0.5486400073
 40
0.6680016525
 40
0.7819390827
 40
0.8919871287
 40
1.0
 40
1.0
 40
1.0
 40
1.0
 10
46.9631282606
 20
31.664172452
 30
0.0
 10
46.9631282606
 20
31.4558433195
 30
0.0
 10
46.9463124644
 20
31.0496135286
 30
0.0
 10
46.8663753998
 20
30.4613405442
 30
0.0
 10
46.7327909382
 20
29.915311288
 30
0.0
 10
46.5466227453
 20
29.4168599405
 30
0.0
 10
46.3093720107
 20
28.9707293952
 30
0.0
 10
46.0227822603
 20
28.5815223204
 30
0.0
 10
45.6895648776
 20
28.253601417
 30
0.0
 10
45.437394252
 20
28.0776174788
 30
0.0
 10
45.3062296185
 20
28.0018899998
 30
0.0
  0
SPLINE
  5
2D7
100
AcDbEntity
  8
0
100
AcDbSpline
 62
7
  6
BYLAYER
 70
0
 71
3
 72
19
 73
15
 74
0
 42
0.0000001
 43
0.0000001
 44
0.0000000001
 40
0.0
 40
0.0
 40
0.0
 40
0.0
 40
0.0558400334
 40
0.1142089924
 40
0.1748236341
 40
0.2374061063
 40
0.367016423
 40
0.4999989204
 40
0.6329815681
 40
0.7625923241
 40
0.8251751135
 40
0.8857901288
 40
0.9441595091
 40
1.0
 40
1.0
 40
1.0
 40
1.0
 10
41.3062505001
 20
41.4621178017
 30
0.0
 10
41.4957406749
 20
41.3527180717
 30
0.0
 10
41.8737125255
 20
41.11202725
 30
0.0
 10
42.4219605467
 20
40.7003500567
 30
0.0
 10
42.9594965063
 20
40.233394133
 30
0.0
 10
43.6630235668
 20
39.5351762357
 30
0.0
 10
44.4808236536
 20
38.5536988712
 30
0.0
 10
45.3316079131
 20
37.2542050913
 30
0.0
 10
46.0316177519
 20
35.8676592058
 30
0.0
 10
46.4727095428
 20
34.66868389
 30
0.0
 10
46.7256274614
 20
33.7102999167
 30
0.0
 10
46.8612608144
 20
33.0112988248
 30
0.0
 10
46.943665632
 20
32.3306593002
 30
0.0
 10
46.9631282606
 20
31.8829774149
 30
0.0
 10
46.9631282606
 20
31.664172452
 30
0.0
  0
SPLINE
  5
2D8
100
AcDbEntity
  8
0
100
AcDbSpline
 62
7
  6
BYLAYER
 70
0
 71
3
 72
9
 73
5
 74
0
 42
0.0000001
 43
0.0000001
 44
0.0000000001
 40
0.0
 40
0.0
 40
0.0
 40
0.0
 40
0.2446126411
 40
1.0
 40
1.0
 40
1.0
 40
1.0
 10
40.6862138619
 20
41.7807322165
 30
0.0
 10
40.7380603459
 20
41.7574010013
 30
0.0
 10
40.9487260679
 20
41.6591735713
 30
0.0
 10
41.154200408
 20
41.5499019787
 30
0.0
 10
41.3062505001
 20
41.4621178017
 30
0.0
  0
SPLINE
  5
2D9
100
AcDbEntity
  8
0
100
AcDbSpline
 62
7
  6
BYLAYER
 70
0
 71
3
 72
14
 73
10
 74
0
 42
0.0000001
 43
0.0000001
 44
0.0000000001
 40
0.0
 40
0.0
 40
0.0
 40
0.0
 40
0.112157908
 40
0.2308417071
 40
0.354767284
 40
0.4826221389
 40
0.743399152
 40
0.8731776694
 40
1.0
 40
1.0
 40
1.0
 40
1.0
 10
22.4655354067
 20
33.4757946114
 30
0.0
 10
22.5344614868
 20
33.4332073871
 30
0.0
 10
22.6819543586
 20
33.3544649643
 30
0.0
 10
22.9199837392
 20
33.2584130491
 30
0.0
 10
23.1770667737
 20
33.1825879162
 30
0.0
 10
23.5404676908
 20
33.1098209605
 30
0.0
 10
23.9160425907
 20
33.0827836007
 30
0.0
 10
24.289604656
 20
33.1014009595
 30
0.0
 10
24.4736197145
 20
33.1260112412
 30
0.0
 10
24.5637911924
 20
33.1422095458
 30
0.0
  0
SPLINE
  5
2DA
100
AcDbEntity
  8
0
100
AcDbSpline
 62
7
  6
BYLAYER
 70
0
 71
3
 72
11
 73
7
 74
0
 42
0.0000001
 43
0.0000001
 44
0.0000000001
 40
0.0
 40
0.0
 40
0.0
 40
0.0
 40
0.2490601934
 40
0.5011329834
 40
0.7526420343
 40
1.0
 40
1.0
 40
1.0
 40
1.0
 10
30.2112203965
 20
45.3631525848
 30
0.0
 10
30.3235638973
 20
45.3975245162
 30
0.0
 10
30.5525976834
 20
45.4572429554
 30
0.0
 10
30.9024145389
 20
45.5197881958
 30
0.0
 10
31.2551764927
 20
45.5553857445
 30
0.0
 10
31.4907019557
 20
45.561169137
 30
0.0
 10
31.6073694086
 20
45.5593878725
 30
0.0
  0
SPLINE
  5
2DB
100
AcDbEntity
  8
0
100
AcDbSpline
 62
7
  6
BYLAYER
 70
0
 71
3
 72
11
 73
7
 74
0
 42
0.0000001
 43
0.0000001
 44
0.0000000001
 40
0.0
 40
0.0
 40
0.0
 40
0.0
 40
0.2698972663
 40
0.5284243991
 40
0.7725721166
 40
1.0
 40
1.0
 40
1.0
 40
1.0
 10
31.6073694086
 20
45.5593878725
 30
0.0
 10
31.72059705
 20
45.5575250651
 30
0.0
 10
31.9422623907
 20
45.5446906777
 30
0.0
 10
32.2633743163
 20
45.4970975669
 30
0.0
 10
32.5610252402
 20
45.4225531363
 30
0.0
 10
32.7470213515
 20
45.353414394
 30
0.0
 10
32.8340401286
 20
45.3142554451
 30
0.0
  0
SPLINE
  5
2DC
100
AcDbEntity
  8
0
100
AcDbSpline
 62
7
  6
BYLAYER
 70
0
 71
3
 72
9
 73
5
 74
0
 42
0.0000001
 43
0.0000001
 44
0.0000000001
 40
0.0
 40
0.0
 40
0.0
 40
0.0
 40
0.4922377286
 40
1.0
 40
1.0
 40
1.0
 40
1.0
 10
30.8952685077
 20
33.7564910872
 30
0.0
 10
30.9411987169
 20
33.760947285
 30
0.0
 10
31.0355138019
 20
33.7608985078
 30
0.0
 10
31.1284061335
 20
33.7450948487
 30
0.0
 10
31.1744980409
 20
33.7332030152
 30
0.0
  0
SPLINE
  5
2DD
100
AcDbEntity
  8
0
100
AcDbSpline
 62
7
  6
BYLAYER
 70
0
 71
3
 72
9
 73
5
 74
0
 42
0.0000001
 43
0.0000001
 44
0.0000000001
 40
0.0
 40
0.0
 40
0.0
 40
0.0
 40
0.5177824034
 40
1.0
 40
1.0
 40
1.0
 40
1.0
 10
31.1744980409
 20
33.7332030152
 30
0.0
 10
31.2196834948
 20
33.7219035441
 30
0.0
 10
31.3053416547
 20
33.692951736
 30
0.0
 10
31.3846111681
 20
33.6489383281
 30
0.0
 10
31.4198324542
 20
33.6236187584
 30
0.0
  0
SPLINE
  5
2DE
100
AcDbEntity
  8
0
100
AcDbSpline
 62
7
  6
BYLAYER
 70
0
 71
3
 72
9
 73
5
 74
0
 42
0.0000001
 43
0.0000001
 44
0.0000000001
 40
0.0
 40
0.0
 40
0.0
 40
0.0
 40
0.2554336249
 40
1.0
 40
1.0
 40
1.0
 40
1.0
 10
39.8920428257
 20
40.645629494
 30
0.0
 10
39.8406275624
 20
40.675313439
 30
0.0
 10
39.637980498
 20
40.7891402498
 30
0.0
 10
39.4298184895
 20
40.8932274675
 30
0.0
 10
39.2720061874
 20
40.9642439088
 30
0.0
  0
SPLINE
  5
2DF
100
AcDbEntity
  8
0
100
AcDbSpline
 62
7
  6
BYLAYER
 70
0
 71
3
 72
19
 73
15
 74
0
 42
0.0000001
 43
0.0000001
 44
0.0000000001
 40
0.0
 40
0.0
 40
0.0
 40
0.0
 40
0.0558404909
 40
0.1142098712
 40
0.1748248865
 40
0.2374076759
 40
0.3670184319
 40
0.5000010796
 40
0.632983577
 40
0.7625938937
 40
0.8251763659
 40
0.8857910076
 40
0.9441599666
 40
1.0
 40
1.0
 40
1.0
 40
1.0
 10
45.5489205861
 20
30.8476841443
 30
0.0
 10
45.5489205861
 20
31.0664891072
 30
0.0
 10
45.5294579575
 20
31.5141709924
 30
0.0
 10
45.4470531399
 20
32.194810517
 30
0.0
 10
45.3114197869
 20
32.893811609
 30
0.0
 10
45.0585018684
 20
33.8521955822
 30
0.0
 10
44.6174100775
 20
35.0511708981
 30
0.0
 10
43.9174002387
 20
36.4377167836
 30
0.0
 10
43.0666159792
 20
37.7372105635
 30
0.0
 10
42.2488158924
 20
38.7186879279
 30
0.0
 10
41.5452888319
 20
39.4169058253
 30
0.0
 10
41.0077528723
 20
39.883861749
 30
0.0
 10
40.4595048511
 20
40.2955389422
 30
0.0
 10
40.0815330005
 20
40.5362297639
 30
0.0
 10
39.8920428257
 20
40.645629494
 30
0.0
  0
SPLINE
  5
2E0
100
AcDbEntity
  8
0
100
AcDbSpline
 62
7
  6
BYLAYER
 70
0
 71
3
 72
14
 73
10
 74
0
 42
0.0000001
 43
0.0000001
 44
0.0000000001
 40
0.0
 40
0.0
 40
0.0
 40
0.0
 40
0.1290757742
 40
0.260500761
 40
0.5227172314
 40
0.6503265091
 40
0.7733147446
 40
0.8903183798
 40
1.0
 40
1.0
 40
1.0
 40
1.0
 10
24.5637911924
 20
42.3409660383
 30
0.0
 10
24.4738628965
 20
42.3193259479
 30
0.0
 10
24.2902951058
 20
42.2838245985
 30
0.0
 10
23.9175919087
 20
42.2436687014
 30
0.0
 10
23.5420648354
 20
42.2490413313
 30
0.0
 10
23.1778155909
 20
42.3001781678
 30
0.0
 10
22.9208093989
 20
42.3597531703
 30
0.0
 10
22.6828675185
 20
42.4395202512
 30
0.0
 10
22.5347860786
 20
42.5073229952
 30
0.0
 10
22.4655354067
 20
42.5444971951
 30
0.0
  0
SPLINE
  5
2E1
100
AcDbEntity
  8
0
100
AcDbSpline
 62
7
  6
BYLAYER
 70
0
 71
3
 72
9
 73
5
 74
0
 42
0.0000001
 43
0.0000001
 44
0.0000000001
 40
0.0
 40
0.0
 40
0.0
 40
0.0
 40
0.4981296323
 40
1.0
 40
1.0
 40
1.0
 40
1.0
 10
31.1744988012
 20
44.4320707082
 30
0.0
 10
31.1274136458
 20
44.4319755887
 30
0.0
 10
31.0328007262
 20
44.4240828708
 30
0.0
 10
30.9404075599
 20
44.402238901
 30
0.0
 10
30.8952685077
 20
44.3876474784
 30
0.0
  0
SPLINE
  5
2E2
100
AcDbEntity
  8
0
100
AcDbSpline
 62
7
  6
BYLAYER
 70
0
 71
3
 72
9
 73
5
 74
0
 42
0.0000001
 43
0.0000001
 44
0.0000000001
 40
0.0
 40
0.0
 40
0.0
 40
0.0
 40
0.4707877408
 40
1.0
 40
1.0
 40
1.0
 40
1.0
 10
31.4198324542
 20
44.386242948
 30
0.0
 10
31.3837511934
 20
44.4019672749
 30
0.0
 10
31.3024684226
 20
44.4248225283
 30
0.0
 10
31.2187411874
 20
44.4318090719
 30
0.0
 10
31.1744988012
 20
44.4320707082
 30
0.0
  0
SPLINE
  5
2E3
100
AcDbEntity
  8
0
100
AcDbSpline
 62
7
  6
BYLAYER
 70
0
 71
3
 72
15
 73
11
 74
0
 42
0.0000001
 43
0.0000001
 44
0.0000000001
 40
0.0
 40
0.0
 40
0.0
 40
0.0
 40
0.1080128713
 40
0.2180609173
 40
0.3319983475
 40
0.4513599927
 40
0.5772735432
 40
0.7104898993
 40
0.8514269448
 40
1.0
 40
1.0
 40
1.0
 40
1.0
 10
43.8920219441
 20
27.1854016921
 30
0.0
 10
44.0231865776
 20
27.2611291711
 30
0.0
 10
44.2753572032
 20
27.4371131092
 30
0.0
 10
44.6085745859
 20
27.7650340126
 30
0.0
 10
44.8951643363
 20
28.1542410875
 30
0.0
 10
45.1324150708
 20
28.6003716328
 30
0.0
 10
45.3185832638
 20
29.0988229802
 30
0.0
 10
45.4521677254
 20
29.6448522365
 30
0.0
 10
45.53210479
 20
30.2331252209
 30
0.0
 10
45.5489205861
 20
30.6393550117
 30
0.0
 10
45.5489205861
 20
30.8476841443
 30
0.0
  0
ELLIPSE
  5
2E4
100
AcDbEntity
  8
0
100
AcDbEllipse
 62
7
  6
BYLAYER
 10
36.1813125359
 20
33.1887289734
 30
0.0
 11
4.1562266732
 21
2.2786418546
 31
0.0
 40
0.0226593488
 41
-1.5045000495
 42
-1.316771423
  0
ELLIPSE
  5
2E5
100
AcDbEntity
  8
0
100
AcDbEllipse
 62
7
  6
BYLAYER
 10
37.0857000075
 20
31.275879981
 30
0.0
 11
3.9440392176
 21
2.4012294443
 31
0.0
 40
0.0226577413
 41
1.4692149512
 42
1.4782840288
  0
ELLIPSE
  5
2E6
100
AcDbEntity
  8
0
100
AcDbEllipse
 62
7
  6
BYLAYER
 10
36.1813125359
 20
31.7980165189
 30
0.0
 11
4.1562266732
 21
2.2786418546
 31
0.0
 40
0.0226593488
 41
1.2919268279
 42
1.4796554543
  0
ELLIPSE
  5
2E7
100
AcDbEntity
  8
0
100
AcDbEllipse
 62
7
  6
BYLAYER
 10
24.0080557112
 20
43.6664665518
 30
0.0
 11
0.4995145687
 21
0.0431170556
 31
0.0
 40
0.5108687805
 41
-2.4002589045
 42
-1.883939502
  0
ENDSEC
  0
SECTION
  2
OBJECTS
  0
DICTIONARY
  5
C
100
AcDbDictionary
280
0
281
1
  3
ACAD_GROUP
350
D
  3
ACAD_MLINESTYLE
350
17
  3
ACAD_LAYOUT
350
1A
  3
ACAD_PLOTSETTINGS
350
19
  3
ACAD_PLOTSTYLENAME
350
E
  0
DICTIONARY
  5
D
102
{ACAD_REACTORS
330
C
102
}
100
AcDbDictionary
280
0
281
1
  0
ACDBDICTIONARYWDFLT
  5
E
102
{ACAD_REACTORS
330
C
102
}
100
AcDbDictionary
281
1
  3
Normal
350
F
100
AcDbDictionaryWithDefault
340
F
  0
DICTIONARY
  5
17
102
{ACAD_REACTORS
330
C
102
}
100
AcDbDictionary
280
0
281
1
  3
Standard
350
18
  0
DICTIONARY
  5
19
102
{ACAD_REACTORS
330
C
102
}
100
AcDbDictionary
281
1
  0
DICTIONARY
  5
1A
102
{ACAD_REACTORS
330
C
102
}
100
AcDbDictionary
281
1
  3
Model
350
2E8
  3
Layout1
350
2E9
  0
ACDBPLACEHOLDER
  5
F
102
{ACAD_REACTORS
330
E
102
}
  0
MLINESTYLE
  5
18
102
{ACAD_REACTORS
330
17
102
}
100
AcDbMlineStyle
  2
STANDARD
 70
0
  3

 62
256
 51
90.0
 52
90.0
 71
2
 49
0.5
 62
256
  6
BYLAYER
 49
-0.5
 62
256
  6
BYLAYER
  0
LAYOUT
  5
2E8
102
{ACAD_REACTORS
330
1A
102
}
100
AcDbPlotSettings
  1

  2
none_device
  4

  6

 40
0.0
 41
0.0
 42
0.0
 43
0.0
 44
210.0
 45
297.0
 46
0.0
 47
0.0
 48
0.0
 49
0.0
140
0.0
141
0.0
142
1.0
143
1.0
 70
1024
 72
1
 73
0
 74
0
  7

 75
0
147
1.0
148
0.0
149
0.0
100
AcDbLayout
  1
Model
 70
0
 71
0
 10
0.0
 20
0.0
 11
210.0
 21
297.0
 12
0.0
 22
0.0
 32
0.0
 14
0.0
 24
0.0
 34
0.0
 15
0.0
 25
0.0
 35
0.0
146
0.0
 13
0.0
 23
0.0
 33
0.0
 16
1.0
 26
0.0
 36
0.0
 17
0.0
 27
1.0
 37
0.0
 76
0
330
210
345
0
346
0
  0
LAYOUT
  5
2E9
102
{ACAD_REACTORS
330
1A
102
}
100
AcDbPlotSettings
  1

  2
none_device
  4

  6

 40
0.0
 41
0.0
 42
0.0
 43
0.0
 44
210.0
 45
297.0
 46
0.0
 47
0.0
 48
0.0
 49
0.0
140
0.0
141
0.0
142
1.0
143
1.0
 70
0
 72
1
 73
0
 74
0
  7

 75
0
147
1.0
148
0.0
149
0.0
100
AcDbLayout
  1
Layout1
 70
0
 71
1
 10
0.0
 20
0.0
 11
210.0
 21
297.0
 12
0.0
 22
0.0
 32
0.0
 14
0.0
 24
0.0
 34
0.0
 15
0.0
 25
0.0
 35
0.0
146
0.0
 13
0.0
 23
0.0
 33
0.0
 16
1.0
 26
0.0
 36
0.0
 17
0.0
 27
1.0
 37
0.0
 76
0
330
211
345
0
346
0
  0
ENDSEC
  0
EOF
