999
DXF file: C:\Users\sesa63760\Dev\_Creo\CAD\MCADID0004804_3D-CAD\drw0001_1.dxf
999
Pro/ENGINEER 2019471 by Parametric Technology Corporation
  0
SECTION
  2
HEADER
  9
$ACADVER
  1
AC1024
  9
$DWGCODEPAGE
  3
ANSI_1252
  9
$EXTMAX
 10
84.3762166754
 20
119.3320778695
 30
0.0
  9
$EXTMIN
 10
0.0
 20
0.0
 30
0.0
  9
$LIMMIN
 10
0.0
 20
0.0
  9
$LIMMAX
 10
84.3762166754
 20
119.3320778695
  9
$VIEWCTR
 10
42.1881083377
 20
59.6660389347
  9
$VIEWSIZE
 40
119.3320778695
  9
$CLAYER
  8
0
  9
$LTSCALE
 40
7.7786835945
  9
$CELTYPE
  6
BYLAYER
  9
$DIMSCALE
 40
1.0
  9
$DIMASZ
 40
1.0044787699
  9
$DIMEXO
 40
1.0
  9
$DIMDLI
 40
5.3743632107
  9
$DIMEXE
 40
1.0
  9
$DIMCEN
 40
1.2728754973
  9
$DIMLFAC
 40
1.0
  9
$DIMBLK
  1
_FILLED
  9
$DIMALT
 70
0
  9
$DIMALTF
 40
0.0393700787
  9
$DIMTXT
 40
1.4062702779
  9
$DIMTOL
 70
1
  9
$DIMLIM
 70
0
  9
$DIMTFAC
 40
1.0
  9
$DIMTP
 40
0.01
  9
$DIMTM
 40
0.01
  9
$DIMGAP
 40
0.625
  9
$DIMDSEP
 70
46
  9
$AUNITS
 70
0
  9
$PDMODE
 70
3
  9
$PDSIZE
 40
0.3125
  9
$HANDSEED
  5
2E2
  9
$TILEMODE
 70
1
  9
$MEASUREMENT
 70
1
  9
$INSUNITS
 70
4
  0
ENDSEC
  0
SECTION
  2
CLASSES
  0
CLASS
  1
ACDBDICTIONARYWDFLT
  2
AcDbDictionaryWithDefault
  3
AutoCAD 2000
 90
0
 91
1
280
0
281
0
  0
CLASS
  1
ACDBPLACEHOLDER
  2
AcDbPlaceHolder
  3
AutoCAD 2000
 90
0
 91
1
280
0
281
0
  0
CLASS
  1
LAYOUT
  2
AcDbLayout
  3
AutoCAD 2000
 90
0
 91
0
280
0
281
0
  0
ENDSEC
  0
SECTION
  2
TABLES
  0
TABLE
  2
VPORT
  5
8
100
AcDbSymbolTable
 70
2
  0
VPORT
  5
1F4
100
AcDbSymbolTableRecord
100
AcDbViewportTableRecord
  2
*ACTIVE
 70
0
 10
0.0
 20
0.0
 11
1.0
 21
1.0
 12
42.1881083377
 22
59.6660389347
 13
0.0
 23
0.0
 14
1.0
 24
1.0
 15
0.0
 25
0.0
 16
0.0
 26
0.0
 36
1.0
 17
0.0
 27
0.0
 37
0.0
 40
119.3320778695
 41
0.7070707071
 42
50.0
 43
0.0
 44
0.0
 50
0.0
 51
0.0
 71
0
 72
100
 73
1
 74
1
 75
0
 76
0
 77
0
 78
0
  0
ENDTAB
  0
TABLE
  2
LTYPE
  5
5
100
AcDbSymbolTable
 70
6
  0
LTYPE
  5
14
100
AcDbSymbolTableRecord
100
AcDbLinetypeTableRecord
  2
BYBLOCK
 70
0
  3

 72
65
 73
0
 40
0.0
  0
LTYPE
  5
15
100
AcDbSymbolTableRecord
100
AcDbLinetypeTableRecord
  2
BYLAYER
 70
0
  3

 72
65
 73
0
 40
0.0
  0
LTYPE
  5
16
100
AcDbSymbolTableRecord
100
AcDbLinetypeTableRecord
  2
CONTINUOUS
 70
64
  3
Solid line
 72
65
 73
0
 40
0.0
  0
LTYPE
  5
1F5
100
AcDbSymbolTableRecord
100
AcDbLinetypeTableRecord
  2
CENTER
 70
64
  3
____ _ ____ _ ____ _ ____ _ ____ _ ____ _ ____
 72
65
 73
4
 40
0.6
 49
0.375
 74
0
 49
-0.075
 74
0
 49
0.075
 74
0
 49
-0.075
 74
0
  0
LTYPE
  5
1F6
100
AcDbSymbolTableRecord
100
AcDbLinetypeTableRecord
  2
HIDDEN
 70
64
  3
- - - - - - - - - - - - - - - - - - - -
 72
65
 73
2
 40
0.2
 49
0.1
 74
0
 49
-0.1
 74
0
  0
LTYPE
  5
1F7
100
AcDbSymbolTableRecord
100
AcDbLinetypeTableRecord
  2
PHANTOM
 70
64
  3
_____ _ _ _____ _ _ _____ _ _ _____
 72
65
 73
6
 40
0.8
 49
0.45
 74
0
 49
-0.05
 74
0
 49
0.1
 74
0
 49
-0.05
 74
0
 49
0.1
 74
0
 49
-0.05
 74
0
  0
LTYPE
  5
1F8
100
AcDbSymbolTableRecord
100
AcDbLinetypeTableRecord
  2
DOT
 70
64
  3
. . . . . . . . . . . . . . . . . . . .
 72
65
 73
2
 40
0.2
 49
0.1
 74
0
 49
-0.1
 74
0
  0
LTYPE
  5
1F9
100
AcDbSymbolTableRecord
100
AcDbLinetypeTableRecord
  2
DASHED
 70
64
  3
- - - - - - - - - - - - - - - - - - - -
 72
65
 73
2
 40
0.2
 49
0.1
 74
0
 49
-0.1
 74
0
  0
ENDTAB
  0
TABLE
  2
LAYER
  5
2
100
AcDbSymbolTable
 70
36
  0
LAYER
  5
10
100
AcDbSymbolTableRecord
100
AcDbLayerTableRecord
  2
0
 70
0
 62
7
  6
CONTINUOUS
370
-3
390
F
  0
LAYER
  5
1FA
100
AcDbSymbolTableRecord
100
AcDbLayerTableRecord
  2
DEFAULT_1
 70
0
 62
7
  6
CENTER
370
-3
390
F
  0
LAYER
  5
1FB
100
AcDbSymbolTableRecord
100
AcDbLayerTableRecord
  2
DEFAULT_2
 70
0
 62
7
  6
HIDDEN
370
-3
390
F
  0
LAYER
  5
1FC
100
AcDbSymbolTableRecord
100
AcDbLayerTableRecord
  2
DEFAULT_3
 70
0
 62
7
  6
PHANTOM
370
-3
390
F
  0
LAYER
  5
1FD
100
AcDbSymbolTableRecord
100
AcDbLayerTableRecord
  2
00_COMPONENTS
 70
0
 62
7
  6
CONTINUOUS
370
-3
390
F
  0
LAYER
  5
1FE
100
AcDbSymbolTableRecord
100
AcDbLayerTableRecord
  2
01_1_DEFAULT_DATUMS
 70
0
 62
7
  6
CONTINUOUS
370
-3
390
F
  0
LAYER
  5
1FF
100
AcDbSymbolTableRecord
100
AcDbLayerTableRecord
  2
01_PLANES
 70
0
 62
7
  6
CONTINUOUS
370
-3
390
F
  0
LAYER
  5
200
100
AcDbSymbolTableRecord
100
AcDbLayerTableRecord
  2
02_COORD_SYS
 70
0
 62
7
  6
CONTINUOUS
370
-3
390
F
  0
LAYER
  5
201
100
AcDbSymbolTableRecord
100
AcDbLayerTableRecord
  2
03_AXES
 70
0
 62
7
  6
CONTINUOUS
370
-3
390
F
  0
LAYER
  5
202
100
AcDbSymbolTableRecord
100
AcDbLayerTableRecord
  2
04_POINTS
 70
0
 62
7
  6
CONTINUOUS
370
-3
390
F
  0
LAYER
  5
203
100
AcDbSymbolTableRecord
100
AcDbLayerTableRecord
  2
05_CURVES
 70
0
 62
7
  6
CONTINUOUS
370
-3
390
F
  0
LAYER
  5
204
100
AcDbSymbolTableRecord
100
AcDbLayerTableRecord
  2
06_SURFS
 70
0
 62
7
  6
CONTINUOUS
370
-3
390
F
  0
LAYER
  5
205
100
AcDbSymbolTableRecord
100
AcDbLayerTableRecord
  2
07_COSMETICS
 70
0
 62
7
  6
CONTINUOUS
370
-3
390
F
  0
LAYER
  5
206
100
AcDbSymbolTableRecord
100
AcDbLayerTableRecord
  2
10_NOTES
 70
0
 62
7
  6
CONTINUOUS
370
-3
390
F
  0
LAYER
  5
207
100
AcDbSymbolTableRecord
100
AcDbLayerTableRecord
  2
11_NOTES_PUB
 70
0
 62
7
  6
CONTINUOUS
370
-3
390
F
  0
LAYER
  5
208
100
AcDbSymbolTableRecord
100
AcDbLayerTableRecord
  2
13_REF_GTOL
 70
0
 62
7
  6
CONTINUOUS
370
-3
390
F
  0
LAYER
  5
209
100
AcDbSymbolTableRecord
100
AcDbLayerTableRecord
  2
16_MISC
 70
0
 62
7
  6
CONTINUOUS
370
-3
390
F
  0
LAYER
  5
20A
100
AcDbSymbolTableRecord
100
AcDbLayerTableRecord
  2
17_NO_PRINT
 70
0
 62
7
  6
CONTINUOUS
370
-3
390
F
  0
LAYER
  5
20B
100
AcDbSymbolTableRecord
100
AcDbLayerTableRecord
  2
18_DATUM_CAMS_JOINTS
 70
0
 62
7
  6
CONTINUOUS
370
-3
390
F
  0
LAYER
  5
20C
100
AcDbSymbolTableRecord
100
AcDbLayerTableRecord
  2
19_DATUM_FUNCTIONAL
 70
0
 62
7
  6
CONTINUOUS
370
-3
390
F
  0
LAYER
  5
20D
100
AcDbSymbolTableRecord
100
AcDbLayerTableRecord
  2
20_DATUM_KINEMATIC_SCHEME
 70
0
 62
7
  6
CONTINUOUS
370
-3
390
F
  0
ENDTAB
  0
TABLE
  2
STYLE
  5
3
100
AcDbSymbolTable
 70
1
  0
STYLE
  5
11
100
AcDbSymbolTableRecord
100
AcDbTextStyleTableRecord
  2
STANDARD
 70
0
 40
0.0
 41
1.0
 50
0.0
 71
0
 42
0.2
  3
ARIAL.TTF
  4

  0
STYLE
  5
20E
100
AcDbSymbolTableRecord
100
AcDbTextStyleTableRecord
  2
TEXTSTYLE_1
 70
0
 40
0.0
 41
0.8
 50
0.0
 71
0
 42
0.2
  3
gdt
  4

  0
ENDTAB
  0
TABLE
  2
VIEW
  5
6
100
AcDbSymbolTable
 70
0
  0
ENDTAB
  0
TABLE
  2
UCS
  5
7
100
AcDbSymbolTable
 70
0
  0
ENDTAB
  0
TABLE
  2
APPID
  5
9
100
AcDbSymbolTable
 70
1
  0
APPID
  5
20F
100
AcDbSymbolTableRecord
100
AcDbRegAppTableRecord
  2
ACAD
 70
0
  0
ENDTAB
  0
TABLE
  2
BLOCK_RECORD
  5
1
100
AcDbSymbolTable
 70
0
  0
BLOCK_RECORD
  5
210
100
AcDbSymbolTableRecord
100
AcDbBlockTableRecord
  2
*Model_Space
  0
BLOCK_RECORD
  5
211
100
AcDbSymbolTableRecord
100
AcDbBlockTableRecord
  2
*Paper_Space
  0
BLOCK_RECORD
  5
212
100
AcDbSymbolTableRecord
100
AcDbBlockTableRecord
  2
_FILLED
  0
ENDTAB
  0
TABLE
  2
DIMSTYLE
  5
A
100
AcDbSymbolTable
 70
1
100
AcDbDimStyleTable
 71
0
  0
DIMSTYLE
105
213
100
AcDbSymbolTableRecord
100
AcDbDimStyleTableRecord
  2
STANDARD
 70
0
  3

  4

 40
1.0
 41
1.0044787699
 42
1.0
 43
0.38
 44
1.0
 45
0.0
 46
0.0
 47
0.01
 48
0.01
140
1.4062702779
141
0.09
142
0.0
143
25.4
144
1.0
145
0.0
146
1.0
147
0.625
 71
1
 72
0
 73
0
 74
0
 75
0
 76
0
 77
1
 78
8
 79
2
170
0
171
1
172
0
173
0
174
0
175
0
176
0
177
0
178
0
270
2
179
2
271
2
272
2
273
2
274
2
275
0
280
0
281
0
282
0
283
1
284
8
285
0
286
0
287
3
288
0
340
11
278
46
341
212
342
212
343
212
344
212
  0
ENDTAB
  0
ENDSEC
  0
SECTION
  2
BLOCKS
  0
BLOCK
  5
20
100
AcDbEntity
  8
0
100
AcDbBlockBegin
  2
*Model_Space
 70
0
 10
0.0
 20
0.0
 30
0.0
  3
*Model_Space
  1

  0
ENDBLK
  5
21
100
AcDbEntity
  8
0
100
AcDbBlockEnd
  0
BLOCK
  5
1C
100
AcDbEntity
  8
0
100
AcDbBlockBegin
  2
*Paper_Space
 70
0
 10
0.0
 20
0.0
 30
0.0
  3
*Paper_Space
  1

  0
ENDBLK
  5
1D
100
AcDbEntity
  8
0
100
AcDbBlockEnd
  0
BLOCK
  5
214
100
AcDbEntity
  8
0
100
AcDbBlockBegin
  2
_FILLED
 70
64
 10
0.0
 20
0.0
  3
_FILLED
  1

  0
SOLID
  5
215
100
AcDbEntity
  8
0
  6
BYBLOCK
 62
0
100
AcDbTrace
 10
0.0
 20
0.0
 11
-1.0
 21
0.25
 12
-1.0
 22
-0.25
 13
-1.0
 23
-0.25
  0
ENDBLK
  5
216
100
AcDbEntity
  8
0
  6
BYBLOCK
 62
0
100
AcDbBlockEnd
  0
ENDSEC
  0
SECTION
  2
ENTITIES
  0
LINE
  5
217
100
AcDbEntity
  8
0
100
AcDbLine
 62
7
  6
BYLAYER
 10
26.807915827
 20
105.1619618173
 11
33.8789541991
 21
109.244403356
  0
LINE
  5
218
100
AcDbEntity
  8
0
100
AcDbLine
 62
7
  6
BYLAYER
 10
40.6005247083
 20
9.3516531466
 11
40.5031869531
 21
9.4078498545
  0
LINE
  5
219
100
AcDbEntity
  8
0
100
AcDbLine
 62
7
  6
BYLAYER
 10
33.8699097556
 20
13.2374875921
 11
33.7725720004
 21
13.2936842999
  0
LINE
  5
21A
100
AcDbEntity
  8
0
100
AcDbLine
 62
7
  6
BYLAYER
 10
24.6737205597
 20
93.1848811691
 11
24.850496519
 21
93.2869422076
  0
LINE
  5
21B
100
AcDbEntity
  8
0
100
AcDbLine
 62
7
  6
BYLAYER
 10
35.8078755351
 20
89.5734812867
 11
35.1007716978
 21
89.1652371329
  0
LINE
  5
21C
100
AcDbEntity
  8
0
100
AcDbLine
 62
7
  6
BYLAYER
 10
35.1359407497
 20
29.9797501537
 11
36.691582145
 21
29.0816204937
  0
LINE
  5
21D
100
AcDbEntity
  8
0
100
AcDbLine
 62
7
  6
BYLAYER
 10
34.6865595465
 20
86.6166954328
 11
36.100767221
 21
87.4331837406
  0
LINE
  5
21E
100
AcDbEntity
  8
0
100
AcDbLine
 62
7
  6
BYLAYER
 10
40.545300413
 20
89.4171657003
 11
40.3685244537
 21
89.3151046618
  0
LINE
  5
21F
100
AcDbEntity
  8
0
100
AcDbLine
 62
7
  6
BYLAYER
 10
41.5169089039
 20
29.3168387581
 11
39.3078881281
 21
30.5921886454
  0
LINE
  5
220
100
AcDbEntity
  8
0
100
AcDbLine
 62
7
  6
BYLAYER
 10
32.5196347666
 20
34.5112998888
 11
30.3106139908
 21
35.7866497761
  0
LINE
  5
221
100
AcDbEntity
  8
0
100
AcDbLine
 62
7
  6
BYLAYER
 10
42.9311165783
 20
30.1333270658
 11
40.7220958025
 21
31.4086769531
  0
LINE
  5
222
100
AcDbEntity
  8
0
100
AcDbLine
 62
7
  6
BYLAYER
 10
32.5196347666
 20
36.1442629069
 11
31.7248216652
 21
36.6031380838
  0
LINE
  5
223
100
AcDbEntity
  8
0
100
AcDbLine
 62
7
  6
BYLAYER
 10
30.3106139908
 20
37.5829550938
 11
32.5196347666
 21
36.3076052065
  0
LINE
  5
224
100
AcDbEntity
  8
0
100
AcDbLine
 62
7
  6
BYLAYER
 10
39.3078881281
 20
32.3884939631
 11
41.5169089039
 21
31.1131440758
  0
LINE
  5
225
100
AcDbEntity
  8
0
100
AcDbLine
 62
7
  6
BYLAYER
 10
30.822560828
 20
24.7948645195
 11
31.1761156906
 21
24.1824929337
  0
LINE
  5
226
100
AcDbEntity
  8
0
100
AcDbLine
 62
7
  6
BYLAYER
 10
36.5530516887
 20
38.6970183782
 11
36.5434946198
 21
38.70004085
  0
LINE
  5
227
100
AcDbEntity
  8
0
100
AcDbLine
 62
7
  6
BYLAYER
 10
36.5597793154
 20
38.658553795
 11
36.5501484241
 21
38.6624359968
  0
LINE
  5
228
100
AcDbEntity
  8
0
100
AcDbLine
 62
7
  6
BYLAYER
 10
36.691582145
 20
36.9200436982
 11
35.1359407497
 21
37.8181733581
  0
LINE
  5
229
100
AcDbEntity
  8
0
100
AcDbLine
 62
7
  6
BYLAYER
 10
36.691582145
 20
38.5530067163
 11
36.5501484241
 21
38.6346616659
  0
LWPOLYLINE
  5
22A
100
AcDbEntity
  8
0
100
AcDbPolyline
 62
7
  6
BYLAYER
 90
6
 70
0
 10
21.6301167373
 20
93.7173132767
 10
21.7949135292
 20
90.8414412934
 10
23.094938473
 20
84.7357692711
 10
25.5939191127
 20
78.5483326814
 10
29.112396199
 20
72.7219376406
 10
31.2305148036
 20
70.2314625054
  0
LINE
  5
22B
100
AcDbEntity
  8
0
100
AcDbLine
 62
7
  6
BYLAYER
 10
40.6683840521
 20
80.9852894353
 11
42.0825917265
 21
81.8017777431
  0
LINE
  5
22C
100
AcDbEntity
  8
0
100
AcDbLine
 62
7
  6
BYLAYER
 10
35.1359407497
 20
40.4309810929
 11
36.691582145
 21
39.532851433
  0
LINE
  5
22D
100
AcDbEntity
  8
0
100
AcDbLine
 62
7
  6
BYLAYER
 10
32.3462406523
 20
42.8580811756
 11
39.4812822424
 21
38.7387561845
  0
LINE
  5
22E
100
AcDbEntity
  8
0
100
AcDbLine
 62
7
  6
BYLAYER
 10
31.1761156906
 20
22.9797459537
 11
32.7434136839
 21
14.8163145959
  0
LINE
  5
22F
100
AcDbEntity
  8
0
100
AcDbLine
 62
7
  6
BYLAYER
 10
44.8644106927
 20
81.5280444986
 11
45.041186652
 21
81.630105537
  0
LINE
  5
230
100
AcDbEntity
  8
0
100
AcDbLine
 62
7
  6
BYLAYER
 10
42.8078441969
 20
77.4491075407
 11
42.7019847492
 21
77.3879899249
  0
LINE
  5
231
100
AcDbEntity
  8
0
100
AcDbLine
 62
7
  6
BYLAYER
 10
31.1761156906
 20
69.9066282929
 11
30.822560828
 21
69.7024974616
  0
LINE
  5
232
100
AcDbEntity
  8
0
100
AcDbLine
 62
7
  6
BYLAYER
 10
40.8104856957
 20
42.0538173893
 11
34.1459724147
 21
45.9014888802
  0
LINE
  5
233
100
AcDbEntity
  8
0
100
AcDbLine
 62
7
  6
BYLAYER
 10
30.822560828
 20
24.7948645195
 11
30.822560828
 21
33.5818450007
  0
LINE
  5
234
100
AcDbEntity
  8
0
100
AcDbLine
 62
7
  6
BYLAYER
 10
30.822560828
 20
36.082220656
 11
30.822560828
 21
37.2873891361
  0
LINE
  5
235
100
AcDbEntity
  8
0
100
AcDbLine
 62
7
  6
BYLAYER
 10
30.822560828
 20
39.1505429978
 11
30.822560828
 21
69.7024974616
  0
LINE
  5
236
100
AcDbEntity
  8
0
100
AcDbLine
 62
7
  6
BYLAYER
 10
31.1761156906
 20
22.9797459537
 11
31.1761156906
 21
24.1824929337
  0
LINE
  5
237
100
AcDbEntity
  8
0
100
AcDbLine
 62
7
  6
BYLAYER
 10
33.7047126566
 20
85.0056760368
 11
31.1761156906
 21
69.9066282929
  0
LINE
  5
238
100
AcDbEntity
  8
0
100
AcDbLine
 62
7
  6
BYLAYER
 10
33.562611013
 20
68.1205645379
 11
34.9768186874
 21
68.9370528456
  0
LWPOLYLINE
  5
239
100
AcDbEntity
  8
0
100
AcDbPolyline
 62
7
  6
BYLAYER
 90
5
 70
0
 10
24.8890921993
 20
90.6110318566
 10
25.7401482944
 20
85.6187183058
 10
27.7403481613
 20
80.2379692853
 10
30.6894809166
 20
75.1299498706
 10
31.8217185756
 20
73.7617261655
  0
LINE
  5
23A
100
AcDbEntity
  8
0
100
AcDbLine
 62
7
  6
BYLAYER
 10
32.5196347666
 20
36.3076052065
 11
32.5196347666
 21
34.5112998888
  0
LINE
  5
23B
100
AcDbEntity
  8
0
100
AcDbLine
 62
7
  6
BYLAYER
 10
33.562611013
 20
68.1205645379
 11
33.562611013
 21
45.4196684791
  0
LINE
  5
23C
100
AcDbEntity
  8
0
100
AcDbLine
 62
7
  6
BYLAYER
 10
33.562611013
 20
28.8692124203
 11
33.562611013
 21
23.2129315957
  0
LINE
  5
23D
100
AcDbEntity
  8
0
100
AcDbLine
 62
7
  6
BYLAYER
 10
34.9768186874
 20
68.9370528456
 11
34.9768186874
 21
46.3811753361
  0
LINE
  5
23E
100
AcDbEntity
  8
0
100
AcDbLine
 62
7
  6
BYLAYER
 10
34.9768186874
 20
27.5740690824
 11
34.9768186874
 21
24.0294199035
  0
LINE
  5
23F
100
AcDbEntity
  8
0
100
AcDbLine
 62
7
  6
BYLAYER
 10
35.1359407497
 20
27.4289850619
 11
35.1359407497
 21
29.9797501537
  0
LINE
  5
240
100
AcDbEntity
  8
0
100
AcDbLine
 62
7
  6
BYLAYER
 10
35.1359407497
 20
37.8181733581
 11
35.1359407497
 21
40.4309810929
  0
LINE
  5
241
100
AcDbEntity
  8
0
100
AcDbLine
 62
7
  6
BYLAYER
 10
36.5501484241
 20
28.2454733696
 11
36.5501484241
 21
29.1632754433
  0
LINE
  5
242
100
AcDbEntity
  8
0
100
AcDbLine
 62
7
  6
BYLAYER
 10
36.5501484241
 20
38.6346616659
 11
36.5501484241
 21
39.6145063825
  0
LINE
  5
243
100
AcDbEntity
  8
0
100
AcDbLine
 62
7
  6
BYLAYER
 10
36.691582145
 20
29.0816204937
 11
36.691582145
 21
26.530855402
  0
LINE
  5
244
100
AcDbEntity
  8
0
100
AcDbLine
 62
7
  6
BYLAYER
 10
36.691582145
 20
36.9200436982
 11
36.691582145
 21
39.532851433
  0
LINE
  5
245
100
AcDbEntity
  8
0
100
AcDbLine
 62
7
  6
BYLAYER
 10
38.2471952783
 20
101.0217545127
 11
38.2471952783
 21
90.5398269254
  0
LINE
  5
246
100
AcDbEntity
  8
0
100
AcDbLine
 62
7
  6
BYLAYER
 10
38.2471952783
 20
69.3220821474
 11
38.2471952783
 21
67.2255565783
  0
LINE
  5
247
100
AcDbEntity
  8
0
100
AcDbLine
 62
7
  6
BYLAYER
 10
39.3078881281
 20
30.5921886454
 11
39.3078881281
 21
32.3884939631
  0
LINE
  5
248
100
AcDbEntity
  8
0
100
AcDbLine
 62
7
  6
BYLAYER
 10
40.3685244537
 20
89.3151046618
 11
40.3685244537
 21
99.7970322491
  0
LINE
  5
249
100
AcDbEntity
  8
0
100
AcDbLine
 62
7
  6
BYLAYER
 10
40.545300413
 20
99.6503554716
 11
40.545300413
 21
89.4171657003
  0
LINE
  5
24A
100
AcDbEntity
  8
0
100
AcDbLine
 62
7
  6
BYLAYER
 10
40.7220958025
 20
31.4086769531
 11
40.7220958025
 21
31.5720192527
  0
LINE
  5
24B
100
AcDbEntity
  8
0
100
AcDbLine
 62
7
  6
BYLAYER
 10
40.8104856957
 20
19.0284638619
 11
40.8104856957
 21
27.0394145914
  0
LINE
  5
24C
100
AcDbEntity
  8
0
100
AcDbLine
 62
7
  6
BYLAYER
 10
40.8104856957
 20
31.4086769531
 11
40.8104856957
 21
31.5209884785
  0
LINE
  5
24D
100
AcDbEntity
  8
0
100
AcDbLine
 62
7
  6
BYLAYER
 10
43.1969810181
 20
17.2424001068
 11
43.1969810181
 21
16.0396531269
  0
LINE
  5
24E
100
AcDbEntity
  8
0
100
AcDbLine
 62
7
  6
BYLAYER
 10
44.6111886925
 20
63.7830237738
 11
43.1969810181
 21
62.9665354661
  0
LINE
  5
24F
100
AcDbEntity
  8
0
100
AcDbLine
 62
7
  6
BYLAYER
 10
44.9647435551
 20
63.170652188
 11
43.5505358807
 21
62.3541638803
  0
LWPOLYLINE
  5
250
100
AcDbEntity
  8
0
100
AcDbPolyline
 62
7
  6
BYLAYER
 90
4
 70
0
 10
34.9768186874
 20
66.3970450798
 10
38.1062433096
 20
63.8396930197
 10
40.5196139345
 20
62.447165242
 10
40.8104856957
 20
62.349114504
  0
LWPOLYLINE
  5
251
100
AcDbEntity
  8
0
100
AcDbPolyline
 62
7
  6
BYLAYER
 90
5
 70
0
 10
31.7777477807
 20
73.4991627201
 10
30.5099667733
 20
75.0318478675
 10
27.56563176
 20
80.1315573954
 10
25.5657743062
 20
85.50786293
 10
24.6737205597
 20
90.7353739177
  0
LINE
  5
252
100
AcDbEntity
  8
0
100
AcDbLine
 62
7
  6
BYLAYER
 10
43.5505358807
 20
62.3541638803
 11
43.5505358807
 21
17.4465309381
  0
LINE
  5
253
100
AcDbEntity
  8
0
100
AcDbLine
 62
7
  6
BYLAYER
 10
44.4343877095
 20
68.7195034297
 11
44.4343877095
 21
74.9386882924
  0
LINE
  5
254
100
AcDbEntity
  8
0
100
AcDbLine
 62
7
  6
BYLAYER
 10
44.4343877095
 20
91.0633190448
 11
44.4343877095
 21
96.4234529329
  0
LINE
  5
255
100
AcDbEntity
  8
0
100
AcDbLine
 62
7
  6
BYLAYER
 10
44.6111886925
 20
18.0588884146
 11
44.6111886925
 21
16.8561414346
  0
LINE
  5
256
100
AcDbEntity
  8
0
100
AcDbLine
 62
7
  6
BYLAYER
 10
44.9647435551
 20
63.170652188
 11
44.9647435551
 21
18.2630192459
  0
LINE
  5
257
100
AcDbEntity
  8
0
100
AcDbLine
 62
7
  6
BYLAYER
 10
45.8634883078
 20
45.6973838
 11
45.8634883078
 21
44.0643789658
  0
LINE
  5
258
100
AcDbEntity
  8
0
100
AcDbLine
 62
7
  6
BYLAYER
 10
51.807803905
 20
61.8606270101
 11
58.8788422771
 21
65.9430685488
  0
LINE
  5
259
100
AcDbEntity
  8
0
100
AcDbLine
 62
7
  6
BYLAYER
 10
38.2471952783
 20
67.2255565783
 11
35.0947394726
 21
69.8412519503
  0
LINE
  5
25A
100
AcDbEntity
  8
0
100
AcDbLine
 62
7
  6
BYLAYER
 10
43.5505358807
 20
62.3541638803
 11
43.1969810181
 21
62.9665354661
  0
LINE
  5
25B
100
AcDbEntity
  8
0
100
AcDbLine
 62
7
  6
BYLAYER
 10
44.6111886925
 20
63.7830237738
 11
44.9647435551
 21
63.170652188
  0
LINE
  5
25C
100
AcDbEntity
  8
0
100
AcDbLine
 62
7
  6
BYLAYER
 10
43.1969810181
 20
62.9665354661
 11
40.6683840521
 21
80.9852894353
  0
LINE
  5
25D
100
AcDbEntity
  8
0
100
AcDbLine
 62
7
  6
BYLAYER
 10
42.0825917265
 20
81.8017777431
 11
44.6111886925
 21
63.7830237738
  0
LINE
  5
25E
100
AcDbEntity
  8
0
100
AcDbLine
 62
7
  6
BYLAYER
 10
37.3279396821
 20
47.7385875726
 11
34.1459724147
 21
45.9014888802
  0
LINE
  5
25F
100
AcDbEntity
  8
0
100
AcDbLine
 62
7
  6
BYLAYER
 10
41.6296830248
 20
9.6859406645
 11
43.1969810181
 21
16.0396531269
  0
LINE
  5
260
100
AcDbEntity
  8
0
100
AcDbLine
 62
7
  6
BYLAYER
 10
44.6111886925
 20
16.8561414346
 11
43.0438906992
 21
10.5024289722
  0
LINE
  5
261
100
AcDbEntity
  8
0
100
AcDbLine
 62
7
  6
BYLAYER
 10
30.3106139908
 20
35.7866497761
 11
31.7248216652
 21
36.6031380838
  0
LINE
  5
262
100
AcDbEntity
  8
0
100
AcDbLine
 62
7
  6
BYLAYER
 10
35.1359407497
 20
37.8181733581
 11
36.5501484241
 21
38.6346616659
  0
LINE
  5
263
100
AcDbEntity
  8
0
100
AcDbLine
 62
7
  6
BYLAYER
 10
40.8104856957
 20
40.3186600486
 11
39.5818794402
 21
39.6093281304
  0
LINE
  5
264
100
AcDbEntity
  8
0
100
AcDbLine
 62
7
  6
BYLAYER
 10
24.6737205597
 20
90.7353739177
 11
33.6751785784
 21
85.5384972766
  0
LINE
  5
265
100
AcDbEntity
  8
0
100
AcDbLine
 62
7
  6
BYLAYER
 10
44.8644106927
 20
79.0785372472
 11
53.9419991722
 21
73.8377076583
  0
LINE
  5
266
100
AcDbEntity
  8
0
100
AcDbLine
 62
7
  6
BYLAYER
 10
42.0420339561
 20
35.1554897476
 11
40.6278262817
 21
34.3390014398
  0
LINE
  5
267
100
AcDbEntity
  8
0
100
AcDbLine
 62
7
  6
BYLAYER
 10
53.9419991722
 20
76.2872149097
 11
44.8644106927
 21
81.5280444986
  0
LINE
  5
268
100
AcDbEntity
  8
0
100
AcDbLine
 62
7
  6
BYLAYER
 10
33.7513090393
 20
87.9440515802
 11
24.6737205597
 21
93.1848811691
  0
LINE
  5
269
100
AcDbEntity
  8
0
100
AcDbLine
 62
7
  6
BYLAYER
 10
24.850496519
 20
93.2869422076
 11
33.8010164687
 21
88.119474009
  0
LINE
  5
26A
100
AcDbEntity
  8
0
100
AcDbLine
 62
7
  6
BYLAYER
 10
45.041186652
 20
81.630105537
 11
53.9033601199
 21
76.5136430496
  0
LINE
  5
26B
100
AcDbEntity
  8
0
100
AcDbLine
 62
7
  6
BYLAYER
 10
39.3078881281
 20
30.5921886454
 11
40.7220958025
 21
31.4086769531
  0
LINE
  5
26C
100
AcDbEntity
  8
0
100
AcDbLine
 62
7
  6
BYLAYER
 10
41.5169089039
 20
31.1131440758
 11
42.9311165783
 21
31.9296323835
  0
LINE
  5
26D
100
AcDbEntity
  8
0
100
AcDbLine
 62
7
  6
BYLAYER
 10
36.5501484241
 20
28.2454733696
 11
35.1359407497
 21
27.4289850619
  0
LINE
  5
26E
100
AcDbEntity
  8
0
100
AcDbLine
 62
7
  6
BYLAYER
 10
42.9311165783
 20
30.1333270658
 11
41.5169089039
 21
29.3168387581
  0
LINE
  5
26F
100
AcDbEntity
  8
0
100
AcDbLine
 62
7
  6
BYLAYER
 10
53.0532900854
 20
81.495125907
 11
48.4113204688
 21
84.1751076855
  0
LINE
  5
270
100
AcDbEntity
  8
0
100
AcDbLine
 62
7
  6
BYLAYER
 10
34.4470222865
 20
92.2372166108
 11
29.0610662786
 21
95.3467294152
  0
LINE
  5
271
100
AcDbEntity
  8
0
100
AcDbLine
 62
7
  6
BYLAYER
 10
34.9768186874
 20
24.0294199035
 11
33.562611013
 21
23.2129315957
  0
LINE
  5
272
100
AcDbEntity
  8
0
100
AcDbLine
 62
7
  6
BYLAYER
 10
39.9137435398
 20
26.5216833568
 11
41.3279512143
 21
27.3381716645
  0
LINE
  5
273
100
AcDbEntity
  8
0
100
AcDbLine
 62
7
  6
BYLAYER
 10
39.4493100731
 20
26.3096371927
 11
39.9137413539
 21
26.5216871432
  0
LINE
  5
274
100
AcDbEntity
  8
0
100
AcDbLine
 62
7
  6
BYLAYER
 10
34.6198470531
 20
13.1633043831
 11
34.6866547005
 21
13.2031298404
  0
LINE
  5
275
100
AcDbEntity
  8
0
100
AcDbLine
 62
7
  6
BYLAYER
 10
34.6199063979
 20
13.1632011735
 11
34.6354489536
 21
13.1721746187
  0
LINE
  5
276
100
AcDbEntity
  8
0
100
AcDbLine
 62
7
  6
BYLAYER
 10
44.9647435551
 20
18.2630192459
 11
43.1969810181
 21
17.2424001068
  0
LINE
  5
277
100
AcDbEntity
  8
0
100
AcDbLine
 62
7
  6
BYLAYER
 10
44.6111886925
 20
16.8561414346
 11
43.1969810181
 21
16.0396531269
  0
LINE
  5
278
100
AcDbEntity
  8
0
100
AcDbLine
 62
7
  6
BYLAYER
 10
43.0438906992
 20
10.5024289722
 11
41.6296830248
 21
9.6859406645
  0
LINE
  5
279
100
AcDbEntity
  8
0
100
AcDbLine
 62
7
  6
BYLAYER
 10
41.3505213506
 20
9.2773667281
 11
42.7647290251
 21
10.0938550359
  0
ARC
  5
27A
100
AcDbEntity
  8
0
100
AcDbCircle
 62
7
  6
BYLAYER
 10
36.1631460334
 20
80.9710186537
 40
5.9774574845
100
AcDbArc
 50
7.988944169
 51
8.4990427627
  0
ARC
  5
27B
100
AcDbEntity
  8
0
100
AcDbCircle
 62
7
  6
BYLAYER
 10
39.8460982879
 20
80.1260301262
 40
5.2803728562
100
AcDbArc
 50
347.6296001835
 51
348.0331722622
  0
ARC
  5
27C
100
AcDbEntity
  8
0
100
AcDbCircle
 62
7
  6
BYLAYER
 10
36.6453151731
 20
85.6702236393
 40
5.2802098966
100
AcDbArc
 50
71.9676628925
 51
72.371229978
  0
ARC
  5
27D
100
AcDbEntity
  8
0
100
AcDbCircle
 62
7
  6
BYLAYER
 10
35.517755862
 20
35.4444456302
 40
3.4133659237
100
AcDbArc
 50
70.0082856726
 51
72.343696449
  0
ARC
  5
27E
100
AcDbEntity
  8
0
100
AcDbCircle
 62
7
  6
BYLAYER
 10
41.9592407499
 20
78.9222087599
 40
2.7000259014
100
AcDbArc
 50
289.342319702
 51
299.9651761383
  0
ARC
  5
27F
100
AcDbEntity
  8
0
100
AcDbCircle
 62
7
  6
BYLAYER
 10
39.1838624893
 20
83.4397330517
 40
2.2403876781
100
AcDbArc
 50
204.742346506
 51
215.2981010613
  0
SPLINE
  5
280
100
AcDbEntity
  8
0
100
AcDbSpline
 62
7
  6
BYLAYER
 70
0
 71
3
 72
23
 73
19
 74
0
 42
0.0000001
 43
0.0000001
 44
0.0000000001
 40
0.0
 40
0.0
 40
0.0
 40
0.0
 40
0.048708591
 40
0.1008381677
 40
0.1564165529
 40
0.2152888595
 40
0.2771552806
 40
0.3416010864
 40
0.4081213891
 40
0.4761458136
 40
0.5450597898
 40
0.6142222662
 40
0.6829835883
 40
0.7507094077
 40
0.8167935907
 40
0.8806731812
 40
0.9418852945
 40
1.0
 40
1.0
 40
1.0
 40
1.0
 10
38.0117972703
 20
31.5528463477
 30
0.0
 10
37.9296441751
 20
31.5679720847
 30
0.0
 10
37.7618057481
 20
31.6123068314
 30
0.0
 10
37.5128241326
 20
31.7137207227
 30
0.0
 10
37.261517731
 20
31.8507204926
 30
0.0
 10
37.0113393977
 20
32.0213390122
 30
0.0
 10
36.7656655251
 20
32.2232058219
 30
0.0
 10
36.5278825465
 20
32.4535282126
 30
0.0
 10
36.3012724584
 20
32.7091059502
 30
0.0
 10
36.0889753829
 20
32.9863813218
 30
0.0
 10
35.8939479775
 20
33.2814979043
 30
0.0
 10
35.7189181238
 20
33.5903467106
 30
0.0
 10
35.566311834
 20
33.9086151739
 30
0.0
 10
35.4382588131
 20
34.2318748926
 30
0.0
 10
35.3365516854
 20
34.5556202218
 30
0.0
 10
35.2625807847
 20
34.8753950622
 30
0.0
 10
35.2174323867
 20
35.1867003356
 30
0.0
 10
35.2066399463
 20
35.3914423218
 30
0.0
 10
35.2066399463
 20
35.4911074972
 30
0.0
  0
SPLINE
  5
281
100
AcDbEntity
  8
0
100
AcDbSpline
 62
7
  6
BYLAYER
 70
0
 71
3
 72
10
 73
6
 74
0
 42
0.0000001
 43
0.0000001
 44
0.0000000001
 40
0.0
 40
0.0
 40
0.0
 40
0.0
 40
0.2673394536
 40
0.5233134393
 40
1.0
 40
1.0
 40
1.0
 40
1.0
 10
35.2066399463
 20
35.4911074972
 30
0.0
 10
35.2066399463
 20
35.5569170432
 30
0.0
 10
35.2111506724
 20
35.685826255
 30
0.0
 10
35.2387113471
 20
35.9305409528
 30
0.0
 10
35.2812577501
 20
36.1072272247
 30
0.0
 10
35.3207310606
 20
36.2177321399
 30
0.0
  0
SPLINE
  5
282
100
AcDbEntity
  8
0
100
AcDbSpline
 62
7
  6
BYLAYER
 70
0
 71
3
 72
15
 73
11
 74
0
 42
0.0000001
 43
0.0000001
 44
0.0000000001
 40
0.0
 40
0.0
 40
0.0
 40
0.0
 40
0.1080125522
 40
0.2180618851
 40
0.3319989024
 40
0.4513571252
 40
0.5772781861
 40
0.7104934301
 40
0.8514108124
 40
1.0
 40
1.0
 40
1.0
 40
1.0
 10
35.1007744563
 20
89.1652323614
 30
0.0
 10
34.9860077736
 20
89.0989671384
 30
0.0
 10
34.7653405309
 20
88.9450047417
 30
0.0
 10
34.473789266
 20
88.658053565
 30
0.0
 10
34.2230332892
 20
88.317497149
 30
0.0
 10
34.0154060219
 20
87.9271433161
 30
0.0
 10
33.8525406517
 20
87.4909803998
 30
0.0
 10
33.7356534458
 20
87.0132235043
 30
0.0
 10
33.6656852808
 20
86.4984918294
 30
0.0
 10
33.6509879527
 20
86.1430435695
 30
0.0
 10
33.6509879527
 20
85.9607355415
 30
0.0
  0
SPLINE
  5
283
100
AcDbEntity
  8
0
100
AcDbSpline
 62
7
  6
BYLAYER
 70
0
 71
3
 72
15
 73
11
 74
0
 42
0.0000001
 43
0.0000001
 44
0.0000000001
 40
0.0
 40
0.0
 40
0.0
 40
0.0
 40
0.1485891359
 40
0.2895060163
 40
0.4227210394
 40
0.5486420229
 40
0.6680002083
 40
0.7819373809
 40
0.8919870355
 40
1.0
 40
1.0
 40
1.0
 40
1.0
 10
44.257627942
 20
80.6536091321
 30
0.0
 10
44.257627942
 20
80.4713011626
 30
0.0
 10
44.2429308217
 20
80.1158535652
 30
0.0
 10
44.1729627411
 20
79.601122816
 30
0.0
 10
44.0560758639
 20
79.1233668662
 30
0.0
 10
43.893211418
 20
78.6872040403
 30
0.0
 10
43.6855844168
 20
78.2968499649
 30
0.0
 10
43.4348282351
 20
77.9562930341
 30
0.0
 10
43.1432765835
 20
77.6693406724
 30
0.0
 10
42.9226086269
 20
77.5153776759
 30
0.0
 10
42.8078415287
 20
77.4491121537
 30
0.0
  0
SPLINE
  5
284
100
AcDbEntity
  8
0
100
AcDbSpline
 62
7
  6
BYLAYER
 70
0
 71
3
 72
29
 73
25
 74
0
 42
0.0000001
 43
0.0000001
 44
0.0000000001
 40
0.0
 40
0.0
 40
0.0
 40
0.0
 40
0.0213284413
 40
0.0428852682
 40
0.0648869173
 40
0.0875277036
 40
0.1109733264
 40
0.1353558966
 40
0.1607748668
 40
0.1872957207
 40
0.2149550871
 40
0.2437607563
 40
0.2736974745
 40
0.304727438
 40
0.3698036418
 40
0.4383887028
 40
0.5096623077
 40
0.5826733614
 40
0.6563915936
 40
0.7297556726
 40
0.8017191798
 40
0.8713001796
 40
0.9376263038
 40
1.0
 40
1.0
 40
1.0
 40
1.0
 10
35.8078782033
 20
89.5734766737
 30
0.0
 10
35.8938769428
 20
89.6231315963
 30
0.0
 10
36.0734091754
 20
89.7119760885
 30
0.0
 10
36.3596472086
 20
89.8109287059
 30
0.0
 10
36.66182146
 20
89.8753739255
 30
0.0
 10
36.9781205817
 20
89.9050500997
 30
0.0
 10
37.3067876677
 20
89.8998585373
 30
0.0
 10
37.6460256494
 20
89.8599838795
 30
0.0
 10
37.9940064241
 20
89.7856666281
 30
0.0
 10
38.3488948221
 20
89.6774298651
 30
0.0
 10
38.7087935831
 20
89.5358460044
 30
0.0
 10
39.0718117725
 20
89.3617503353
 30
0.0
 10
39.4360146061
 20
89.1560588163
 30
0.0
 10
39.9283688461
 20
88.8361365123
 30
0.0
 10
40.5334677634
 20
88.3623882824
 30
0.0
 10
41.2217722298
 20
87.6994910877
 30
0.0
 10
41.8692004966
 20
86.947252838
 30
0.0
 10
42.4619347425
 20
86.1217435459
 30
0.0
 10
42.9873739596
 20
85.2405333751
 30
0.0
 10
43.4342998514
 20
84.3224216415
 30
0.0
 10
43.7931908559
 20
83.3869956917
 30
0.0
 10
44.0563874053
 20
82.4540871845
 30
0.0
 10
44.2182882688
 20
81.5436419528
 30
0.0
 10
44.257627942
 20
80.9440191076
 30
0.0
 10
44.257627942
 20
80.6536091321
 30
0.0
  0
SPLINE
  5
285
100
AcDbEntity
  8
0
100
AcDbSpline
 62
7
  6
BYLAYER
 70
0
 71
3
 72
9
 73
5
 74
0
 42
0.0000001
 43
0.0000001
 44
0.0000000001
 40
0.0
 40
0.0
 40
0.0
 40
0.0
 40
0.2432455213
 40
1.0
 40
1.0
 40
1.0
 40
1.0
 10
33.6509879527
 20
85.9607355415
 30
0.0
 10
33.6509879527
 20
85.8864656087
 30
0.0
 10
33.6561597422
 20
85.5811474468
 30
0.0
 10
33.6812735745
 20
85.2762575847
 30
0.0
 10
33.7099669118
 20
85.046986948
 30
0.0
  0
SPLINE
  5
286
100
AcDbEntity
  8
0
100
AcDbSpline
 62
7
  6
BYLAYER
 70
0
 71
3
 72
14
 73
10
 74
0
 42
0.0000001
 43
0.0000001
 44
0.0000000001
 40
0.0
 40
0.0
 40
0.0
 40
0.0
 40
0.1086987356
 40
0.2210455636
 40
0.3377530649
 40
0.4593619436
 40
0.7184364907
 40
0.8564733606
 40
1.0
 40
1.0
 40
1.0
 40
1.0
 10
42.7079820057
 20
77.5420420341
 30
0.0
 10
42.7770744362
 20
77.6207695049
 30
0.0
 10
42.907971645
 20
77.7895368798
 30
0.0
 10
43.077562169
 20
78.0680364282
 30
0.0
 10
43.2224237662
 20
78.3739831203
 30
0.0
 10
43.384977429
 20
78.8255160927
 30
0.0
 10
43.4897667608
 20
79.3170209417
 30
0.0
 10
43.5419831474
 20
79.8355948312
 30
0.0
 10
43.5505241048
 20
80.1070572199
 30
0.0
 10
43.5505241048
 20
80.2453649782
 30
0.0
  0
SPLINE
  5
287
100
AcDbEntity
  8
0
100
AcDbSpline
 62
7
  6
BYLAYER
 70
0
 71
3
 72
29
 73
25
 74
0
 42
0.0000001
 43
0.0000001
 44
0.0000000001
 40
0.0
 40
0.0
 40
0.0
 40
0.0
 40
0.0623735348
 40
0.1286994175
 40
0.1982802458
 40
0.2702437174
 40
0.3436079411
 40
0.4173263923
 40
0.4903376531
 40
0.561611478
 40
0.6301967745
 40
0.6952731465
 40
0.7263031422
 40
0.7562398435
 40
0.785045465
 40
0.812704753
 40
0.839225523
 40
0.8646444079
 40
0.8890269072
 40
0.9124724688
 40
0.9351132099
 40
0.9571148151
 40
0.9786716019
 40
1.0
 40
1.0
 40
1.0
 40
1.0
 10
43.5505241048
 20
80.2453649782
 30
0.0
 10
43.5505241048
 20
80.5357742014
 30
0.0
 10
43.5111847102
 20
81.1353951732
 30
0.0
 10
43.3492846293
 20
82.0458378122
 30
0.0
 10
43.086089361
 20
82.9787444981
 30
0.0
 10
42.727199106
 20
83.9141704258
 30
0.0
 10
42.2802731316
 20
84.8322838222
 30
0.0
 10
41.7548329171
 20
85.7134965026
 30
0.0
 10
41.1620970588
 20
86.539008353
 30
0.0
 10
40.5146666805
 20
87.2912488661
 30
0.0
 10
39.8263598388
 20
87.9541478163
 30
0.0
 10
39.2212588386
 20
88.4278966775
 30
0.0
 10
38.7289036608
 20
88.7478191209
 30
0.0
 10
38.3647005747
 20
88.9535098802
 30
0.0
 10
38.0016828574
 20
89.1276049957
 30
0.0
 10
37.6417847326
 20
89.2691877979
 30
0.0
 10
37.2868973485
 20
89.3774239267
 30
0.0
 10
36.9389175459
 20
89.4517403474
 30
0.0
 10
36.5996805439
 20
89.4916146801
 30
0.0
 10
36.2710142875
 20
89.4968056882
 30
0.0
 10
35.9547158525
 20
89.4671296079
 30
0.0
 10
35.6525423251
 20
89.4026839596
 30
0.0
 10
35.3663047289
 20
89.3037318758
 30
0.0
 10
35.1867730407
 20
89.2148871499
 30
0.0
 10
35.1007744563
 20
89.1652323614
 30
0.0
  0
SPLINE
  5
288
100
AcDbEntity
  8
0
100
AcDbSpline
 62
7
  6
BYLAYER
 70
0
 71
3
 72
23
 73
19
 74
0
 42
0.0000001
 43
0.0000001
 44
0.0000000001
 40
0.0
 40
0.0
 40
0.0
 40
0.0
 40
0.0428141375
 40
0.0873961463
 40
0.135179506
 40
0.187089317
 40
0.2435347191
 40
0.3044908465
 40
0.3695885195
 40
0.4381952301
 40
0.509491928
 40
0.5825281385
 40
0.6562696169
 40
0.7296588629
 40
0.8016489681
 40
0.8712464487
 40
0.9376203927
 40
1.0
 40
1.0
 40
1.0
 40
1.0
 10
35.9708705023
 20
83.0857973369
 30
0.0
 10
36.0029185009
 20
83.1043044808
 30
0.0
 10
36.073572975
 20
83.1336558992
 30
0.0
 10
36.1901915257
 20
83.1507605446
 30
0.0
 10
36.3154272622
 20
83.1415395047
 30
0.0
 10
36.4464895761
 20
83.1067106583
 30
0.0
 10
36.5808115388
 20
83.0473505482
 30
0.0
 10
36.7157183662
 20
82.9648209597
 30
0.0
 10
36.8484629261
 20
82.8608908879
 30
0.0
 10
36.976298426
 20
82.7377753665
 30
0.0
 10
37.096535982
 20
82.5980821651
 30
0.0
 10
37.2066131826
 20
82.4447731274
 30
0.0
 10
37.3041938556
 20
82.2811209976
 30
0.0
 10
37.3871970737
 20
82.1106150299
 30
0.0
 10
37.453846865
 20
81.9368973766
 30
0.0
 10
37.5027411376
 20
81.7636281717
 30
0.0
 10
37.532787385
 20
81.5945395004
 30
0.0
 10
37.5401079273
 20
81.4831737249
 30
0.0
 10
37.5401079273
 20
81.4292536481
 30
0.0
  0
SPLINE
  5
289
100
AcDbEntity
  8
0
100
AcDbSpline
 62
7
  6
BYLAYER
 70
0
 71
3
 72
25
 73
21
 74
0
 42
0.0000001
 43
0.0000001
 44
0.0000000001
 40
0.0
 40
0.0
 40
0.0
 40
0.0
 40
0.0213325323
 40
0.0428935683
 40
0.0648991635
 40
0.0875445582
 40
0.1353201966
 40
0.1872212509
 40
0.2436586921
 40
0.3046061321
 40
0.3696933577
 40
0.4382901163
 40
0.5095760994
 40
0.5825999409
 40
0.6563314977
 40
0.7297074959
 40
0.8016837943
 40
0.8712746853
 40
0.9376182677
 40
1.0
 40
1.0
 40
1.0
 40
1.0
 10
35.6865577895
 20
84.8846373801
 30
0.0
 10
35.7234142719
 20
84.905919556
 30
0.0
 10
35.8003575894
 20
84.9439990044
 30
0.0
 10
35.9230339056
 20
84.9863976379
 30
0.0
 10
36.0525428176
 20
85.0140300025
 30
0.0
 10
36.2364914329
 20
85.0312774129
 30
0.0
 10
36.4817485293
 20
85.0132796867
 30
0.0
 10
36.7841392327
 20
84.932903244
 30
0.0
 10
37.0941347399
 20
84.7959129983
 30
0.0
 10
37.4054502418
 20
84.6054470794
 30
0.0
 10
37.7117968277
 20
84.3656150964
 30
0.0
 10
38.0068032961
 20
84.0814965077
 30
0.0
 10
38.2842645633
 20
83.7591148618
 30
0.0
 10
38.5382950299
 20
83.4053233856
 30
0.0
 10
38.7634794162
 20
83.0276624911
 30
0.0
 10
38.9550225538
 20
82.6341887872
 30
0.0
 10
39.1088236
 20
82.2332959397
 30
0.0
 10
39.2216366812
 20
81.8334748685
 30
0.0
 10
39.2910115705
 20
81.4432811587
 30
0.0
 10
39.3078775298
 20
81.1862951517
 30
0.0
 10
39.3078775298
 20
81.0618396885
 30
0.0
  0
SPLINE
  5
28A
100
AcDbEntity
  8
0
100
AcDbSpline
 62
7
  6
BYLAYER
 70
0
 71
3
 72
15
 73
11
 74
0
 42
0.0000001
 43
0.0000001
 44
0.0000000001
 40
0.0
 40
0.0
 40
0.0
 40
0.0
 40
0.1305746238
 40
0.2584665077
 40
0.3841424041
 40
0.5083110315
 40
0.6315778046
 40
0.754467196
 40
0.8771942236
 40
1.0
 40
1.0
 40
1.0
 40
1.0
 10
34.830906959
 20
83.184691612
 30
0.0
 10
34.830906959
 20
83.2714778697
 30
0.0
 10
34.8386913414
 20
83.4433980989
 30
0.0
 10
34.8758500793
 20
83.696460953
 30
0.0
 10
34.9397720659
 20
83.9398400301
 30
0.0
 10
35.0317591768
 20
84.1708605012
 30
0.0
 10
35.1527993194
 20
84.386086511
 30
0.0
 10
35.3030144159
 20
84.5810148144
 30
0.0
 10
35.4808262171
 20
84.750743475
 30
0.0
 10
35.6158676298
 20
84.8438308717
 30
0.0
 10
35.6865550697
 20
84.8846420405
 30
0.0
  0
SPLINE
  5
28B
100
AcDbEntity
  8
0
100
AcDbSpline
 62
7
  6
BYLAYER
 70
0
 71
3
 72
15
 73
11
 74
0
 42
0.0000001
 43
0.0000001
 44
0.0000000001
 40
0.0
 40
0.0
 40
0.0
 40
0.0
 40
0.1485639602
 40
0.2895078817
 40
0.4227268405
 40
0.5486378607
 40
0.668000296
 40
0.7819370433
 40
0.8919853922
 40
1.0
 40
1.0
 40
1.0
 40
1.0
 10
39.3078775298
 20
81.0618396885
 30
0.0
 10
39.3078775298
 20
80.9837210412
 30
0.0
 10
39.3015685085
 20
80.8313862821
 30
0.0
 10
39.2715980243
 20
80.6107829922
 30
0.0
 10
39.2215021197
 20
80.4060183066
 30
0.0
 10
39.151687335
 20
80.2190996599
 30
0.0
 10
39.0627227908
 20
80.0517990961
 30
0.0
 10
38.9552460137
 20
79.9058513796
 30
0.0
 10
38.8302986774
 20
79.7828692165
 30
0.0
 10
38.7357245988
 20
79.7168879943
 30
0.0
 10
38.6865389192
 20
79.6884865241
 30
0.0
  0
SPLINE
  5
28C
100
AcDbEntity
  8
0
100
AcDbSpline
 62
7
  6
BYLAYER
 70
0
 71
3
 72
26
 73
22
 74
0
 42
0.0000001
 43
0.0000001
 44
0.0000000001
 40
0.0
 40
0.0
 40
0.0
 40
0.0
 40
0.0282562411
 40
0.0564312756
 40
0.0846399464
 40
0.1128865743
 40
0.169482455
 40
0.2267386131
 40
0.2558151508
 40
0.2852669045
 40
0.3455010602
 40
0.4077824706
 40
0.4721245996
 40
0.5382588014
 40
0.6056834821
 40
0.6737391746
 40
0.7416916494
 40
0.8088240043
 40
0.8744996673
 40
0.9383067785
 40
1.0
 40
1.0
 40
1.0
 40
1.0
 10
38.686541639
 20
79.6884818637
 30
0.0
 10
38.6370802845
 20
79.6599255078
 30
0.0
 10
38.5350208463
 20
79.6083679391
 30
0.0
 10
38.374389799
 20
79.5485476892
 30
0.0
 10
38.2081961823
 20
79.5066173586
 30
0.0
 10
37.9816377346
 20
79.4742098915
 30
0.0
 10
37.6924509496
 20
79.4775798559
 30
0.0
 10
37.4076265053
 20
79.5339914245
 30
0.0
 10
37.1849866424
 20
79.6067154015
 30
0.0
 10
36.9628810757
 20
79.698312139
 30
0.0
 10
36.6920705471
 20
79.8453432546
 30
0.0
 10
36.3842041522
 20
80.0655242769
 30
0.0
 10
36.0935344797
 20
80.3260412977
 30
0.0
 10
35.8234463789
 20
80.6219370129
 30
0.0
 10
35.5777483081
 20
80.9477677646
 30
0.0
 10
35.3604579485
 20
81.2974980634
 30
0.0
 10
35.1754414269
 20
81.6646682674
 30
0.0
 10
35.0262812089
 20
82.0426665712
 30
0.0
 10
34.9159844247
 20
82.4251459666
 30
0.0
 10
34.8474110894
 20
82.8061282727
 30
0.0
 10
34.830906959
 20
83.0599941005
 30
0.0
 10
34.830906959
 20
83.184691612
 30
0.0
  0
SPLINE
  5
28D
100
AcDbEntity
  8
0
100
AcDbSpline
 62
7
  6
BYLAYER
 70
0
 71
3
 72
14
 73
10
 74
0
 42
0.0000001
 43
0.0000001
 44
0.0000000001
 40
0.0
 40
0.0
 40
0.0
 40
0.0
 40
0.2892615672
 40
0.4225610906
 40
0.5485065619
 40
0.6678894199
 40
0.7818692966
 40
0.8919544507
 40
1.0
 40
1.0
 40
1.0
 40
1.0
 10
37.5401079273
 20
81.4292536481
 30
0.0
 10
37.5401079273
 20
81.3633645848
 30
0.0
 10
37.5324118017
 20
81.266639188
 30
0.0
 10
37.5026791024
 20
81.1450685076
 30
0.0
 10
37.4724305936
 20
81.0640557599
 30
0.0
 10
37.4338611333
 20
80.9915760529
 30
0.0
 10
37.387301567
 20
80.9283253058
 30
0.0
 10
37.3331535067
 20
80.8750352039
 30
0.0
 10
37.2921726126
 20
80.8464435338
 30
0.0
 10
37.2708600669
 20
80.8341359211
 30
0.0
  0
SPLINE
  5
28E
100
AcDbEntity
  8
0
100
AcDbSpline
 62
7
  6
BYLAYER
 70
0
 71
3
 72
32
 73
28
 74
0
 42
0.0000001
 43
0.0000001
 44
0.0000000001
 40
0.0
 40
0.0
 40
0.0
 40
0.0
 40
0.0665256951
 40
0.1383018374
 40
0.2138561273
 40
0.291375446
 40
0.3688963699
 40
0.4444504521
 40
0.516228805
 40
0.5502446054
 40
0.5828019346
 40
0.6138001454
 40
0.6431904743
 40
0.6709801782
 40
0.6972466955
 40
0.7221446652
 40
0.7459117419
 40
0.7688680859
 40
0.7913995281
 40
0.813930765
 40
0.8368866566
 40
0.8606541744
 40
0.8855529137
 40
0.9118173618
 40
0.9396080322
 40
0.9690114735
 40
1.0
 40
1.0
 40
1.0
 40
1.0
 10
38.1765066799
 20
81.0618369691
 30
0.0
 10
38.1765066799
 20
81.1848108458
 30
0.0
 10
38.15398595
 20
81.4407035176
 30
0.0
 10
38.0641874661
 20
81.8267449615
 30
0.0
 10
37.9203529533
 20
82.2177758318
 30
0.0
 10
37.7278389142
 20
82.5990885268
 30
0.0
 10
37.4938495676
 20
82.9564849715
 30
0.0
 10
37.227177984
 20
83.2765162866
 30
0.0
 10
36.9815802383
 20
83.5062943242
 30
0.0
 10
36.7769172343
 20
83.6600003533
 30
0.0
 10
36.6246110237
 20
83.7569833153
 30
0.0
 10
36.4721926699
 20
83.8367675042
 30
0.0
 10
36.321094155
 20
83.8986125491
 30
0.0
 10
36.1727014013
 20
83.9418663927
 30
0.0
 10
36.0283953145
 20
83.9660765752
 30
0.0
 10
35.8895231597
 20
83.9709077069
 30
0.0
 10
35.757436734
 20
83.9561697235
 30
0.0
 10
35.6334936948
 20
83.921900261
 30
0.0
 10
35.519076683
 20
83.8683130591
 30
0.0
 10
35.4154626404
 20
83.7960171389
 30
0.0
 10
35.3238123808
 20
83.7058150015
 30
0.0
 10
35.2450093082
 20
83.5987891133
 30
0.0
 10
35.1797608814
 20
83.4761068762
 30
0.0
 10
35.128567931
 20
83.3390329479
 30
0.0
 10
35.0918264194
 20
83.1888689903
 30
0.0
 10
35.0698543876
 20
83.027090817
 30
0.0
 10
35.0652238892
 20
82.9153791062
 30
0.0
 10
35.0652238892
 20
82.8580962889
 30
0.0
  0
SPLINE
  5
28F
100
AcDbEntity
  8
0
100
AcDbSpline
 62
7
  6
BYLAYER
 70
0
 71
3
 72
32
 73
28
 74
0
 42
0.0000001
 43
0.0000001
 44
0.0000000001
 40
0.0
 40
0.0
 40
0.0
 40
0.0
 40
0.0665256951
 40
0.1383018374
 40
0.2138561273
 40
0.291375446
 40
0.3688963699
 40
0.4444504521
 40
0.516228805
 40
0.5502446054
 40
0.5828019346
 40
0.6138001454
 40
0.6431904743
 40
0.6709801782
 40
0.6972466955
 40
0.7221446652
 40
0.7459117419
 40
0.7688680859
 40
0.7913995281
 40
0.813930765
 40
0.8368866566
 40
0.8606541744
 40
0.8855529137
 40
0.9118173618
 40
0.9396080322
 40
0.9690114735
 40
1.0
 40
1.0
 40
1.0
 40
1.0
 10
35.0652238892
 20
82.8580962889
 30
0.0
 10
35.0652238892
 20
82.7351224122
 30
0.0
 10
35.0877446192
 20
82.4792297404
 30
0.0
 10
35.1775431031
 20
82.0931882965
 30
0.0
 10
35.3213776158
 20
81.7021574262
 30
0.0
 10
35.5138916549
 20
81.3208447312
 30
0.0
 10
35.7478810015
 20
80.9634482865
 30
0.0
 10
36.0145525852
 20
80.6434169714
 30
0.0
 10
36.2601503308
 20
80.4136389338
 30
0.0
 10
36.4648133348
 20
80.2599329047
 30
0.0
 10
36.6171195454
 20
80.1629499427
 30
0.0
 10
36.7695378993
 20
80.0831657538
 30
0.0
 10
36.9206364141
 20
80.0213207089
 30
0.0
 10
37.0690291678
 20
79.9780668653
 30
0.0
 10
37.2133352547
 20
79.9538566828
 30
0.0
 10
37.3522074094
 20
79.9490255511
 30
0.0
 10
37.4842938352
 20
79.9637635345
 30
0.0
 10
37.6082368744
 20
79.998032997
 30
0.0
 10
37.7226538861
 20
80.0516201989
 30
0.0
 10
37.8262679288
 20
80.1239161191
 30
0.0
 10
37.9179181883
 20
80.2141182565
 30
0.0
 10
37.9967212609
 20
80.3211441447
 30
0.0
 10
38.0619696877
 20
80.4438263818
 30
0.0
 10
38.1131626382
 20
80.5809003101
 30
0.0
 10
38.1499041498
 20
80.7310642677
 30
0.0
 10
38.1718761815
 20
80.892842441
 30
0.0
 10
38.1765066799
 20
81.0045541518
 30
0.0
 10
38.1765066799
 20
81.0618369691
 30
0.0
  0
SPLINE
  5
290
100
AcDbEntity
  8
0
100
AcDbSpline
 62
7
  6
BYLAYER
 70
0
 71
3
 72
14
 73
10
 74
0
 42
0.0000001
 43
0.0000001
 44
0.0000000001
 40
0.0
 40
0.0
 40
0.0
 40
0.0
 40
0.2892615672
 40
0.4225610906
 40
0.5485065619
 40
0.6678894199
 40
0.7818692966
 40
0.8919544507
 40
1.0
 40
1.0
 40
1.0
 40
1.0
 10
35.7016226419
 20
82.4906796099
 30
0.0
 10
35.7016226419
 20
82.5565686732
 30
0.0
 10
35.7093187674
 20
82.65329407
 30
0.0
 10
35.7390514668
 20
82.7748647504
 30
0.0
 10
35.7692999755
 20
82.8558774981
 30
0.0
 10
35.8078694358
 20
82.9283572051
 30
0.0
 10
35.8544290021
 20
82.9916079522
 30
0.0
 10
35.9085770624
 20
83.0448980541
 30
0.0
 10
35.9495579565
 20
83.0734897242
 30
0.0
 10
35.9708705023
 20
83.0857973369
 30
0.0
  0
SPLINE
  5
291
100
AcDbEntity
  8
0
100
AcDbSpline
 62
7
  6
BYLAYER
 70
0
 71
3
 72
23
 73
19
 74
0
 42
0.0000001
 43
0.0000001
 44
0.0000000001
 40
0.0
 40
0.0
 40
0.0
 40
0.0
 40
0.0428141375
 40
0.0873961463
 40
0.135179506
 40
0.187089317
 40
0.2435347191
 40
0.3044908465
 40
0.3695885195
 40
0.4381952301
 40
0.509491928
 40
0.5825281385
 40
0.6562696169
 40
0.7296588629
 40
0.8016489681
 40
0.8712464487
 40
0.9376203927
 40
1.0
 40
1.0
 40
1.0
 40
1.0
 10
37.2708600669
 20
80.8341359211
 30
0.0
 10
37.2388120682
 20
80.8156287772
 30
0.0
 10
37.1681575942
 20
80.7862773588
 30
0.0
 10
37.0515390435
 20
80.7691727134
 30
0.0
 10
36.926303307
 20
80.7783937533
 30
0.0
 10
36.795240993
 20
80.8132225997
 30
0.0
 10
36.6609190303
 20
80.8725827098
 30
0.0
 10
36.526012203
 20
80.9551122983
 30
0.0
 10
36.393267643
 20
81.0590423701
 30
0.0
 10
36.2654321432
 20
81.1821578915
 30
0.0
 10
36.1451945871
 20
81.3218510929
 30
0.0
 10
36.0351173865
 20
81.4751601306
 30
0.0
 10
35.9375367135
 20
81.6388122604
 30
0.0
 10
35.8545334955
 20
81.8093182281
 30
0.0
 10
35.7878837041
 20
81.9830358814
 30
0.0
 10
35.7389894316
 20
82.1563050863
 30
0.0
 10
35.7089431841
 20
82.3253937576
 30
0.0
 10
35.7016226419
 20
82.4367595331
 30
0.0
 10
35.7016226419
 20
82.4906796099
 30
0.0
  0
SPLINE
  5
292
100
AcDbEntity
  8
0
100
AcDbSpline
 62
7
  6
BYLAYER
 70
0
 71
3
 72
12
 73
8
 74
0
 42
0.0000001
 43
0.0000001
 44
0.0000000001
 40
0.0
 40
0.0
 40
0.0
 40
0.0
 40
0.2775581846
 40
0.5344976101
 40
0.7735864126
 40
0.8880591146
 40
1.0
 40
1.0
 40
1.0
 40
1.0
 10
36.691582145
 20
26.530855402
 30
0.0
 10
36.932883593
 20
26.4302223469
 30
0.0
 10
37.4110170915
 20
26.2660372297
 30
0.0
 10
38.1317490302
 20
26.1388415984
 30
0.0
 10
38.7109558698
 20
26.1435669374
 30
0.0
 10
39.1440211123
 20
26.2166543704
 30
0.0
 10
39.3496997951
 20
26.275055903
 30
0.0
 10
39.4493100731
 20
26.3096371927
 30
0.0
  0
SPLINE
  5
293
100
AcDbEntity
  8
0
100
AcDbSpline
 62
7
  6
BYLAYER
 70
0
 71
3
 72
15
 73
11
 74
0
 42
0.0000001
 43
0.0000001
 44
0.0000000001
 40
0.0
 40
0.0
 40
0.0
 40
0.0
 40
0.1175281881
 40
0.2413334875
 40
0.3695386977
 40
0.5000009028
 40
0.6304629869
 40
0.7586678405
 40
0.8824725673
 40
1.0
 40
1.0
 40
1.0
 40
1.0
 10
30.3106139908
 20
35.7866497761
 30
0.0
 10
30.3539114301
 20
35.4015008831
 30
0.0
 10
30.4929206684
 20
34.6157298166
 30
0.0
 10
30.8343169547
 20
33.4438010949
 30
0.0
 10
31.3061922331
 20
32.2719506157
 30
0.0
 10
31.896452806
 20
31.1304371301
 30
0.0
 10
32.5899067118
 20
30.0485040215
 30
0.0
 10
33.3688243098
 20
29.0539294929
 30
0.0
 10
34.2130475317
 20
28.1723161965
 30
0.0
 10
34.8240409075
 20
27.6590522162
 30
0.0
 10
35.1359407497
 20
27.4289850619
 30
0.0
  0
SPLINE
  5
294
100
AcDbEntity
  8
0
100
AcDbSpline
 62
7
  6
BYLAYER
 70
0
 71
3
 72
11
 73
7
 74
0
 42
0.0000001
 43
0.0000001
 44
0.0000000001
 40
0.0
 40
0.0
 40
0.0
 40
0.0
 40
0.228329047
 40
0.4694963213
 40
0.7262062298
 40
1.0
 40
1.0
 40
1.0
 40
1.0
 10
31.199696613
 20
39.7822115001
 30
0.0
 10
31.0804532737
 20
39.6434784872
 30
0.0
 10
30.8612439684
 20
39.3350672782
 30
0.0
 10
30.6050321725
 20
38.8102701597
 30
0.0
 10
30.4160817992
 20
38.2196295595
 30
0.0
 10
30.338719165
 20
37.8005100871
 30
0.0
 10
30.3106139908
 20
37.5829550938
 30
0.0
  0
SPLINE
  5
295
100
AcDbEntity
  8
0
100
AcDbSpline
 62
7
  6
BYLAYER
 70
0
 71
3
 72
11
 73
7
 74
0
 42
0.0000001
 43
0.0000001
 44
0.0000000001
 40
0.0
 40
0.0
 40
0.0
 40
0.0
 40
0.2762197121
 40
0.5336998516
 40
0.7739584511
 40
1.0
 40
1.0
 40
1.0
 40
1.0
 10
32.3462406523
 20
42.8580811756
 30
0.0
 10
32.3197150622
 20
42.552398055
 30
0.0
 10
32.2350592595
 20
41.9638277659
 30
0.0
 10
31.9992443754
 20
41.1340249341
 30
0.0
 10
31.6616899584
 20
40.4005173763
 30
0.0
 10
31.3633659807
 20
39.9726317334
 30
0.0
 10
31.199696613
 20
39.7822115001
 30
0.0
  0
SPLINE
  5
296
100
AcDbEntity
  8
0
100
AcDbSpline
 62
7
  6
BYLAYER
 70
0
 71
3
 72
15
 73
11
 74
0
 42
0.0000001
 43
0.0000001
 44
0.0000000001
 40
0.0
 40
0.0
 40
0.0
 40
0.0
 40
0.1485542476
 40
0.2895079336
 40
0.4227312601
 40
0.5486392753
 40
0.6680006006
 40
0.7819389782
 40
0.8919871068
 40
1.0
 40
1.0
 40
1.0
 40
1.0
 10
38.1058015953
 20
32.1843505869
 30
0.0
 10
38.1058015953
 20
32.1036333101
 30
0.0
 10
38.0992774243
 20
31.946221218
 30
0.0
 10
38.0683158113
 20
31.7182610326
 30
0.0
 10
38.0165443624
 20
31.5066661805
 30
0.0
 10
37.9444066589
 20
31.3135150513
 30
0.0
 10
37.8524683891
 20
31.1406438836
 30
0.0
 10
37.7414142778
 20
30.9898280497
 30
0.0
 10
37.6123041938
 20
30.8627439595
 30
0.0
 10
37.5145755911
 20
30.7945675244
 30
0.0
 10
37.4637493502
 20
30.7652230702
 30
0.0
  0
SPLINE
  5
297
100
AcDbEntity
  8
0
100
AcDbSpline
 62
7
  6
BYLAYER
 70
0
 71
3
 72
18
 73
14
 74
0
 42
0.0000001
 43
0.0000001
 44
0.0000000001
 40
0.0
 40
0.0
 40
0.0
 40
0.0
 40
0.1553260345
 40
0.306453377
 40
0.4498693809
 40
0.5827232392
 40
0.7032225351
 40
0.7587738608
 40
0.8113151603
 40
0.8611595105
 40
0.9087794391
 40
0.9548063112
 40
1.0
 40
1.0
 40
1.0
 40
1.0
 10
40.8099518912
 20
43.9367684934
 30
0.0
 10
40.6137399333
 20
43.9387617381
 30
0.0
 10
40.2264662698
 20
43.9641689677
 30
0.0
 10
39.6660777898
 20
44.0660176532
 30
0.0
 10
39.1492776765
 20
44.2277616529
 30
0.0
 10
38.6949241629
 20
44.4436172046
 30
0.0
 10
38.3730714807
 20
44.6688413486
 30
0.0
 10
38.1654158515
 20
44.8703109249
 30
0.0
 10
38.0391083779
 20
45.0254254365
 30
0.0
 10
37.9392740579
 20
45.187193374
 30
0.0
 10
37.8670491236
 20
45.3542188226
 30
0.0
 10
37.8232933269
 20
45.5248257707
 30
0.0
 10
37.8135023227
 20
45.6402910404
 30
0.0
 10
37.8134969366
 20
45.6973838497
 30
0.0
  0
SPLINE
  5
298
100
AcDbEntity
  8
0
100
AcDbSpline
 62
7
  6
BYLAYER
 70
0
 71
3
 72
25
 73
21
 74
0
 42
0.0000001
 43
0.0000001
 44
0.0000000001
 40
0.0
 40
0.0
 40
0.0
 40
0.0
 40
0.0213324285
 40
0.0428933858
 40
0.0648991481
 40
0.0875441437
 40
0.1353198008
 40
0.1872212146
 40
0.2436590676
 40
0.3046066468
 40
0.3696936832
 40
0.4382901399
 40
0.5095759841
 40
0.5826000095
 40
0.6563313932
 40
0.7297067832
 40
0.8016837581
 40
0.8712733932
 40
0.937620139
 40
1.0
 40
1.0
 40
1.0
 40
1.0
 10
34.3637735445
 20
36.1345707816
 30
0.0
 10
34.40185979
 20
36.1565598185
 30
0.0
 10
34.4813613553
 20
36.195920308
 30
0.0
 10
34.6081303395
 20
36.2397252746
 30
0.0
 10
34.7419556287
 20
36.2682745196
 30
0.0
 10
34.9320341102
 20
36.2861105299
 30
0.0
 10
35.1854673372
 20
36.267509228
 30
0.0
 10
35.4979384421
 20
36.1844519266
 30
0.0
 10
35.8182669522
 20
36.0428898275
 30
0.0
 10
36.1399586255
 20
35.8460725042
 30
0.0
 10
36.4565161126
 20
35.5982466932
 30
0.0
 10
36.7613569714
 20
35.3046604487
 30
0.0
 10
37.0480694493
 20
34.9715356643
 30
0.0
 10
37.31056851
 20
34.6059520673
 30
0.0
 10
37.5432570379
 20
34.2157028249
 30
0.0
 10
37.7411842696
 20
33.8091131941
 30
0.0
 10
37.9001069692
 20
33.3948582514
 30
0.0
 10
38.0166881571
 20
32.981706409
 30
0.0
 10
38.0883693963
 20
32.5785050912
 30
0.0
 10
38.1058015953
 20
32.3129506862
 30
0.0
 10
38.1058015953
 20
32.1843505869
 30
0.0
  0
SPLINE
  5
299
100
AcDbEntity
  8
0
100
AcDbSpline
 62
7
  6
BYLAYER
 70
0
 71
3
 72
9
 73
5
 74
0
 42
0.0000001
 43
0.0000001
 44
0.0000000001
 40
0.0
 40
0.0
 40
0.0
 40
0.0
 40
0.4791728256
 40
1.0
 40
1.0
 40
1.0
 40
1.0
 10
35.2333129561
 20
36.221770744
 30
0.0
 10
35.1997032612
 20
36.1153531803
 30
0.0
 10
35.1503214892
 20
35.8864768247
 30
0.0
 10
35.1359289738
 20
35.6532317068
 30
0.0
 10
35.1359289738
 20
35.5319315727
 30
0.0
  0
SPLINE
  5
29A
100
AcDbEntity
  8
0
100
AcDbSpline
 62
7
  6
BYLAYER
 70
0
 71
3
 72
11
 73
7
 74
0
 42
0.0000001
 43
0.0000001
 44
0.0000000001
 40
0.0
 40
0.0
 40
0.0
 40
0.0
 40
0.2661830533
 40
0.5253345216
 40
0.7715432798
 40
1.0
 40
1.0
 40
1.0
 40
1.0
 10
40.8102288039
 20
45.8250003501
 30
0.0
 10
40.6161925547
 20
45.8230498996
 30
0.0
 10
40.2331091875
 20
45.798164791
 30
0.0
 10
39.6782911958
 20
45.698449943
 30
0.0
 10
39.1658717826
 20
45.5401560763
 30
0.0
 10
38.8510349821
 20
45.3927847706
 30
0.0
 10
38.7068036462
 20
45.309513267
 30
0.0
  0
SPLINE
  5
29B
100
AcDbEntity
  8
0
100
AcDbSpline
 62
7
  6
BYLAYER
 70
0
 71
3
 72
15
 73
11
 74
0
 42
0.0000001
 43
0.0000001
 44
0.0000000001
 40
0.0
 40
0.0
 40
0.0
 40
0.0
 40
0.1268299197
 40
0.2568090231
 40
0.3880619028
 40
0.5187120042
 40
0.6468802267
 40
0.7708013042
 40
0.8889357745
 40
1.0
 40
1.0
 40
1.0
 40
1.0
 10
32.5107821888
 20
43.6917356756
 30
0.0
 10
32.5443906016
 20
43.8056196726
 30
0.0
 10
32.6235349145
 20
44.0330676785
 30
0.0
 10
32.7728675583
 20
44.3647331802
 30
0.0
 10
32.9516729924
 20
44.6856086788
 30
0.0
 10
33.1560655536
 20
44.9887786624
 30
0.0
 10
33.3816978434
 20
45.2677462599
 30
0.0
 10
33.6237484193
 20
45.5165814225
 30
0.0
 10
33.8770335222
 20
45.7299023557
 30
0.0
 10
34.0559233306
 20
45.8494993276
 30
0.0
 10
34.1459724147
 20
45.9014888802
 30
0.0
  0
SPLINE
  5
29C
100
AcDbEntity
  8
0
100
AcDbSpline
 62
7
  6
BYLAYER
 70
0
 71
3
 72
11
 73
7
 74
0
 42
0.0000001
 43
0.0000001
 44
0.0000000001
 40
0.0
 40
0.0
 40
0.0
 40
0.0
 40
0.2608423851
 40
0.515694452
 40
0.7626428392
 40
1.0
 40
1.0
 40
1.0
 40
1.0
 10
42.0420339561
 20
35.1554897476
 30
0.0
 10
42.1576609889
 20
34.8874525302
 30
0.0
 10
42.3689405586
 20
34.3498445509
 30
0.0
 10
42.6260661106
 20
33.5352861621
 30
0.0
 10
42.8174430513
 20
32.729770936
 30
0.0
 10
42.9014419662
 20
32.1936005111
 30
0.0
 10
42.9311165783
 20
31.9296323835
 30
0.0
  0
SPLINE
  5
29D
100
AcDbEntity
  8
0
100
AcDbSpline
 62
7
  6
BYLAYER
 70
0
 71
3
 72
11
 73
7
 74
0
 42
0.0000001
 43
0.0000001
 44
0.0000000001
 40
0.0
 40
0.0
 40
0.0
 40
0.0
 40
0.2308654669
 40
0.4762910113
 40
0.7337242911
 40
1.0
 40
1.0
 40
1.0
 40
1.0
 10
40.8635177475
 20
40.3492779352
 30
0.0
 10
40.8635177475
 20
39.936848375
 30
0.0
 10
40.9190507678
 20
39.0854178547
 30
0.0
 10
41.1477386762
 20
37.7925401904
 30
0.0
 10
41.5195212995
 20
36.4676909302
 30
0.0
 10
41.8536137893
 20
35.5922701092
 30
0.0
 10
42.0420339561
 20
35.1554897476
 30
0.0
  0
SPLINE
  5
29E
100
AcDbEntity
  8
0
100
AcDbSpline
 62
7
  6
BYLAYER
 70
0
 71
3
 72
13
 73
9
 74
0
 42
0.0000001
 43
0.0000001
 44
0.0000000001
 40
0.0
 40
0.0
 40
0.0
 40
0.0
 40
0.1138659386
 40
0.2289604899
 40
0.3464493385
 40
0.4673786071
 40
0.722614163
 40
1.0
 40
1.0
 40
1.0
 40
1.0
 10
45.8634861116
 20
44.0643789658
 30
0.0
 10
45.8634860993
 20
43.9931296806
 30
0.0
 10
45.8542319856
 20
43.8496972322
 30
0.0
 10
45.8128613847
 20
43.6363486129
 30
0.0
 10
45.7441815323
 20
43.4254986184
 30
0.0
 10
45.6146554577
 20
43.1443984704
 30
0.0
 10
45.3822772351
 20
42.8041497826
 30
0.0
 10
45.1451664812
 20
42.5674092795
 30
0.0
 10
45.013515176
 20
42.4542988669
 30
0.0
  0
SPLINE
  5
29F
100
AcDbEntity
  8
0
100
AcDbSpline
 62
7
  6
BYLAYER
 70
0
 71
3
 72
13
 73
9
 74
0
 42
0.0000001
 43
0.0000001
 44
0.0000000001
 40
0.0
 40
0.0
 40
0.0
 40
0.0
 40
0.1138566569
 40
0.2289435031
 40
0.3464284691
 40
0.4673555496
 40
0.7225885771
 40
1.0
 40
1.0
 40
1.0
 40
1.0
 10
45.8634860542
 20
45.6973837999
 30
0.0
 10
45.8634861225
 20
45.7686637426
 30
0.0
 10
45.854224149
 20
45.9121591163
 30
0.0
 10
45.812816361
 20
46.1256010719
 30
0.0
 10
45.7440723498
 20
46.3365409053
 30
0.0
 10
45.6144336128
 20
46.6177576311
 30
0.0
 10
45.38185629
 20
46.9581452249
 30
0.0
 10
45.144537618
 20
47.1949412817
 30
0.0
 10
45.0127779234
 20
47.3080864338
 30
0.0
  0
SPLINE
  5
2A0
100
AcDbEntity
  8
0
100
AcDbSpline
 62
7
  6
BYLAYER
 70
0
 71
3
 72
13
 73
9
 74
0
 42
0.0000001
 43
0.0000001
 44
0.0000000001
 40
0.0
 40
0.0
 40
0.0
 40
0.0
 40
0.2660565436
 40
0.5251860453
 40
0.6502969651
 40
0.7714976654
 40
0.8882497183
 40
1.0
 40
1.0
 40
1.0
 40
1.0
 10
40.8098274081
 20
48.5839260482
 30
0.0
 10
40.4888010715
 20
48.5819333663
 30
0.0
 10
39.854788485
 20
48.5429206536
 30
0.0
 10
39.0802101335
 20
48.4058017158
 30
0.0
 10
38.4918564187
 20
48.2438067734
 30
0.0
 10
38.0776941846
 20
48.0999460773
 30
0.0
 10
37.6894929432
 20
47.9336746398
 30
0.0
 10
37.4447160574
 20
47.8060080419
 30
0.0
 10
37.3279396821
 20
47.7385875726
 30
0.0
  0
SPLINE
  5
2A1
100
AcDbEntity
  8
0
100
AcDbSpline
 62
7
  6
BYLAYER
 70
0
 71
3
 72
15
 73
11
 74
0
 42
0.0000001
 43
0.0000001
 44
0.0000000001
 40
0.0
 40
0.0
 40
0.0
 40
0.0
 40
0.1438083735
 40
0.2811329594
 40
0.4121943624
 40
0.5375378961
 40
0.6579136182
 40
0.7742923552
 40
0.8878620026
 40
1.0
 40
1.0
 40
1.0
 40
1.0
 10
42.9311165783
 20
30.1333270658
 30
0.0
 10
42.9106133533
 20
29.9746168244
 30
0.0
 10
42.8582084898
 20
29.6657503801
 30
0.0
 10
42.7415761863
 20
29.2214817347
 30
0.0
 10
42.5893143452
 20
28.8098311884
 30
0.0
 10
42.402317916
 20
28.4335875588
 30
0.0
 10
42.1816742214
 20
28.0952495375
 30
0.0
 10
41.9286557254
 20
27.797211085
 30
0.0
 10
41.6449634098
 20
27.541692329
 30
0.0
 10
41.4360212
 20
27.4005619965
 30
0.0
 10
41.3279489771
 20
27.3381755398
 30
0.0
  0
SPLINE
  5
2A2
100
AcDbEntity
  8
0
100
AcDbSpline
 62
7
  6
BYLAYER
 70
0
 71
3
 72
19
 73
15
 74
0
 42
0.0000001
 43
0.0000001
 44
0.0000000001
 40
0.0
 40
0.0
 40
0.0
 40
0.0
 40
0.0580084158
 40
0.1190935765
 40
0.1828241418
 40
0.2487506358
 40
0.3848625871
 40
0.5226759515
 40
0.6571479984
 40
0.7216922834
 40
0.7837243067
 40
0.8428255736
 40
0.8986887559
 40
1.0
 40
1.0
 40
1.0
 40
1.0
 10
35.1359289738
 20
35.5319315727
 30
0.0
 10
35.1359289738
 20
35.4298097667
 30
0.0
 10
35.1468984529
 20
35.2200484304
 30
0.0
 10
35.1927915224
 20
34.9011091934
 30
0.0
 10
35.2680076999
 20
34.5734634604
 30
0.0
 10
35.4074222597
 20
34.1264565412
 30
0.0
 10
35.6474014278
 20
33.5760517838
 30
0.0
 10
36.0214993053
 20
32.9597412736
 30
0.0
 10
36.3964351122
 20
32.4974609627
 30
0.0
 10
36.7246855349
 20
32.1752317962
 30
0.0
 10
36.9758637597
 20
31.9654785878
 30
0.0
 10
37.2320869894
 20
31.787196465
 30
0.0
 10
37.5644246857
 20
31.60103314
 30
0.0
 10
37.8277341294
 20
31.5042637277
 30
0.0
 10
38.0024914394
 20
31.4686215432
 30
0.0
  0
SPLINE
  5
2A3
100
AcDbEntity
  8
0
100
AcDbSpline
 62
7
  6
BYLAYER
 70
0
 71
3
 72
9
 73
5
 74
0
 42
0.0000001
 43
0.0000001
 44
0.0000000001
 40
0.0
 40
0.0
 40
0.0
 40
0.0
 40
0.5201665558
 40
1.0
 40
1.0
 40
1.0
 40
1.0
 10
38.7068036462
 20
45.309513267
 30
0.0
 10
38.6062338783
 20
45.2514496311
 30
0.0
 10
38.4193447132
 20
45.1280291858
 30
0.0
 10
38.252090885
 20
44.9784834129
 30
0.0
 10
38.1789678926
 20
44.9001990213
 30
0.0
  0
SPLINE
  5
2A4
100
AcDbEntity
  8
0
100
AcDbSpline
 62
7
  6
BYLAYER
 70
0
 71
3
 72
10
 73
6
 74
0
 42
0.0000001
 43
0.0000001
 44
0.0000000001
 40
0.0
 40
0.0
 40
0.0
 40
0.0
 40
0.2304121414
 40
0.4752128504
 40
1.0
 40
1.0
 40
1.0
 40
1.0
 10
32.3462406523
 20
42.8580811756
 30
0.0
 10
32.3518904537
 20
42.9231899597
 30
0.0
 10
32.3676801022
 20
43.0571402252
 30
0.0
 10
32.4157539074
 20
43.336757319
 30
0.0
 10
32.4686514728
 20
43.5489733752
 30
0.0
 10
32.5107821888
 20
43.6917356756
 30
0.0
  0
SPLINE
  5
2A5
100
AcDbEntity
  8
0
100
AcDbSpline
 62
7
  6
BYLAYER
 70
0
 71
3
 72
15
 73
11
 74
0
 42
0.0000001
 43
0.0000001
 44
0.0000000001
 40
0.0
 40
0.0
 40
0.0
 40
0.0
 40
0.1485542476
 40
0.2895079336
 40
0.4227312601
 40
0.5486392753
 40
0.6680006006
 40
0.7819389782
 40
0.8919871068
 40
1.0
 40
1.0
 40
1.0
 40
1.0
 10
33.7217212994
 20
34.7154432649
 30
0.0
 10
33.7217212994
 20
34.7961605418
 30
0.0
 10
33.7282454704
 20
34.9535726338
 30
0.0
 10
33.7592070834
 20
35.1815328192
 30
0.0
 10
33.8109785323
 20
35.3931276713
 30
0.0
 10
33.8831162358
 20
35.5862788005
 30
0.0
 10
33.9750545056
 20
35.7591499682
 30
0.0
 10
34.0861086169
 20
35.9099658022
 30
0.0
 10
34.2152187009
 20
36.0370498924
 30
0.0
 10
34.3129473036
 20
36.1052263275
 30
0.0
 10
34.3637735445
 20
36.1345707816
 30
0.0
  0
SPLINE
  5
2A6
100
AcDbEntity
  8
0
100
AcDbSpline
 62
7
  6
BYLAYER
 70
0
 71
3
 72
11
 73
7
 74
0
 42
0.0000001
 43
0.0000001
 44
0.0000000001
 40
0.0
 40
0.0
 40
0.0
 40
0.0
 40
0.2373571608
 40
0.484305548
 40
0.7391576149
 40
1.0
 40
1.0
 40
1.0
 40
1.0
 10
41.5169089039
 20
31.1131440758
 30
0.0
 10
41.4872342918
 20
31.3771122033
 30
0.0
 10
41.4032353769
 20
31.9132826283
 30
0.0
 10
41.2118584362
 20
32.7187978544
 30
0.0
 10
40.9547328842
 20
33.5333562432
 30
0.0
 10
40.7434533145
 20
34.0709642225
 30
0.0
 10
40.6278262817
 20
34.3390014399
 30
0.0
  0
SPLINE
  5
2A7
100
AcDbEntity
  8
0
100
AcDbSpline
 62
7
  6
BYLAYER
 70
0
 71
3
 72
15
 73
11
 74
0
 42
0.0000001
 43
0.0000001
 44
0.0000000001
 40
0.0
 40
0.0
 40
0.0
 40
0.0
 40
0.1121379974
 40
0.2257076448
 40
0.3420863818
 40
0.4624621039
 40
0.5878056376
 40
0.7188670406
 40
0.8561916265
 40
1.0
 40
1.0
 40
1.0
 40
1.0
 10
39.9137413026
 20
26.521687232
 30
0.0
 10
40.0218135255
 20
26.5840736887
 30
0.0
 10
40.2307557353
 20
26.7252040212
 30
0.0
 10
40.514448051
 20
26.9807227772
 30
0.0
 10
40.767466547
 20
27.2787612298
 30
0.0
 10
40.9881102416
 20
27.617099251
 30
0.0
 10
41.1751066708
 20
27.9933428807
 30
0.0
 10
41.3273685119
 20
28.404993427
 30
0.0
 10
41.4440008154
 20
28.8492620723
 30
0.0
 10
41.4964056789
 20
29.1581285167
 30
0.0
 10
41.5169089039
 20
29.3168387581
 30
0.0
  0
SPLINE
  5
2A8
100
AcDbEntity
  8
0
100
AcDbSpline
 62
7
  6
BYLAYER
 70
0
 71
3
 72
13
 73
9
 74
0
 42
0.0000001
 43
0.0000001
 44
0.0000000001
 40
0.0
 40
0.0
 40
0.0
 40
0.0
 40
0.2773961267
 40
0.5326346275
 40
0.6535624979
 40
0.7710483505
 40
0.8861387558
 40
1.0
 40
1.0
 40
1.0
 40
1.0
 10
45.0129837139
 20
44.0868472554
 30
0.0
 10
45.1447118719
 20
44.1999772702
 30
0.0
 10
45.3819639701
 20
44.4367650356
 30
0.0
 10
45.6144917925
 20
44.7771078763
 30
0.0
 10
45.7441028359
 20
45.0582951157
 30
0.0
 10
45.8128278091
 20
45.2692119585
 30
0.0
 10
45.854225524
 20
45.4826305237
 30
0.0
 10
45.8634859859
 20
45.6261109231
 30
0.0
 10
45.8634860542
 20
45.6973837999
 30
0.0
  0
SPLINE
  5
2A9
100
AcDbEntity
  8
0
100
AcDbSpline
 62
7
  6
BYLAYER
 70
0
 71
3
 72
9
 73
5
 74
0
 42
0.0000001
 43
0.0000001
 44
0.0000000001
 40
0.0
 40
0.0
 40
0.0
 40
0.0
 40
0.5134063404
 40
1.0
 40
1.0
 40
1.0
 40
1.0
 10
39.5818794402
 20
39.6093281304
 30
0.0
 10
39.5392519427
 20
39.4648824574
 30
0.0
 10
39.4779492146
 20
39.1764414415
 30
0.0
 10
39.4700589769
 20
38.8810532525
 30
0.0
 10
39.4812822424
 20
38.7387561845
 30
0.0
  0
SPLINE
  5
2AA
100
AcDbEntity
  8
0
100
AcDbSpline
 62
7
  6
BYLAYER
 70
0
 71
3
 72
11
 73
7
 74
0
 42
0.0000001
 43
0.0000001
 44
0.0000000001
 40
0.0
 40
0.0
 40
0.0
 40
0.0
 40
0.240837516
 40
0.4939223866
 40
0.7501227512
 40
1.0
 40
1.0
 40
1.0
 40
1.0
 10
40.8068492584
 20
41.5265199512
 30
0.0
 10
40.6661687297
 20
41.4065412719
 30
0.0
 10
40.3984530321
 20
41.1354621013
 30
0.0
 10
40.0555468213
 20
40.6706661099
 30
0.0
 10
39.7749805987
 20
40.1578929937
 30
0.0
 10
39.6361767747
 20
39.7933177021
 30
0.0
 10
39.5818794402
 20
39.6093281304
 30
0.0
  0
SPLINE
  5
2AB
100
AcDbEntity
  8
0
100
AcDbSpline
 62
7
  6
BYLAYER
 70
0
 71
3
 72
11
 73
7
 74
0
 42
0.0000001
 43
0.0000001
 44
0.0000000001
 40
0.0
 40
0.0
 40
0.0
 40
0.0
 40
0.2284546277
 40
0.4746616391
 40
0.7338139053
 40
1.0
 40
1.0
 40
1.0
 40
1.0
 10
38.7068036462
 20
46.9425181013
 30
0.0
 10
38.8510327037
 20
47.0257882895
 30
0.0
 10
39.1658645188
 20
47.1731580866
 30
0.0
 10
39.6782780781
 20
47.3314512757
 30
0.0
 10
40.2330934795
 20
47.4311678533
 30
0.0
 10
40.6161770654
 20
47.4560541869
 30
0.0
 10
40.8102142404
 20
47.4580049924
 30
0.0
  0
SPLINE
  5
2AC
100
AcDbEntity
  8
0
100
AcDbSpline
 62
7
  6
BYLAYER
 70
0
 71
3
 72
15
 73
11
 74
0
 42
0.0000001
 43
0.0000001
 44
0.0000000001
 40
0.0
 40
0.0
 40
0.0
 40
0.0
 40
0.1080099048
 40
0.2180559336
 40
0.3319961996
 40
0.45135272
 40
0.5772582995
 40
0.710490307
 40
0.8514571549
 40
1.0
 40
1.0
 40
1.0
 40
1.0
 10
37.8134969366
 20
45.6973838497
 30
0.0
 10
37.8134914894
 20
45.7551225666
 30
0.0
 10
37.8235269039
 20
45.8719222216
 30
0.0
 10
37.8682688396
 20
46.0444464936
 30
0.0
 10
37.9421622462
 20
46.2132438111
 30
0.0
 10
38.0442043343
 20
46.3766252246
 30
0.0
 10
38.1732991172
 20
46.5330963582
 30
0.0
 10
38.3281196627
 20
46.6813047769
 30
0.0
 10
38.5071284557
 20
46.8198172518
 30
0.0
 10
38.6380356191
 20
46.9028150994
 30
0.0
 10
38.7068036462
 20
46.9425181013
 30
0.0
  0
SPLINE
  5
2AD
100
AcDbEntity
  8
0
100
AcDbSpline
 62
7
  6
BYLAYER
 70
0
 71
3
 72
25
 73
21
 74
0
 42
0.0000001
 43
0.0000001
 44
0.0000000001
 40
0.0
 40
0.0
 40
0.0
 40
0.0
 40
0.0213324285
 40
0.0428933858
 40
0.0648991481
 40
0.0875441437
 40
0.1353198008
 40
0.1872212146
 40
0.2436590676
 40
0.3046066468
 40
0.3696936832
 40
0.4382901399
 40
0.5095759841
 40
0.5826000095
 40
0.6563313932
 40
0.7297067832
 40
0.8016837581
 40
0.8712733932
 40
0.937620139
 40
1.0
 40
1.0
 40
1.0
 40
1.0
 10
37.4637493502
 20
30.7652230702
 30
0.0
 10
37.4256631047
 20
30.7432340333
 30
0.0
 10
37.3461615394
 20
30.7038735439
 30
0.0
 10
37.2193925552
 20
30.6600685772
 30
0.0
 10
37.085567266
 20
30.6315193322
 30
0.0
 10
36.8954887845
 20
30.613683322
 30
0.0
 10
36.6420555575
 20
30.6322846238
 30
0.0
 10
36.3295844526
 20
30.7153419252
 30
0.0
 10
36.0092559425
 20
30.8569040243
 30
0.0
 10
35.6875642693
 20
31.0537213476
 30
0.0
 10
35.3710067821
 20
31.3015471586
 30
0.0
 10
35.0661659233
 20
31.5951334032
 30
0.0
 10
34.7794534454
 20
31.9282581875
 30
0.0
 10
34.5169543847
 20
32.2938417845
 30
0.0
 10
34.2842658568
 20
32.684091027
 30
0.0
 10
34.0863386251
 20
33.0906806578
 30
0.0
 10
33.9274159255
 20
33.5049356005
 30
0.0
 10
33.8108347376
 20
33.9180874428
 30
0.0
 10
33.7391534984
 20
34.3212887607
 30
0.0
 10
33.7217212994
 20
34.5868431657
 30
0.0
 10
33.7217212994
 20
34.7154432649
 30
0.0
  0
SPLINE
  5
2AE
100
AcDbEntity
  8
0
100
AcDbSpline
 62
7
  6
BYLAYER
 70
0
 71
3
 72
11
 73
7
 74
0
 42
0.0000001
 43
0.0000001
 44
0.0000000001
 40
0.0
 40
0.0
 40
0.0
 40
0.0
 40
0.2624250334
 40
0.5180320939
 40
0.7645439478
 40
1.0
 40
1.0
 40
1.0
 40
1.0
 10
40.6278262817
 20
34.3390014399
 30
0.0
 10
40.4696369839
 20
34.7057030508
 30
0.0
 10
40.1832399168
 20
35.4411003523
 30
0.0
 10
39.8437023461
 20
36.5551623219
 30
0.0
 10
39.603429705
 20
37.6528662848
 30
0.0
 10
39.5094565536
 20
38.3815409075
 30
0.0
 10
39.4812822424
 20
38.7387561845
 30
0.0
  0
SPLINE
  5
2AF
100
AcDbEntity
  8
0
100
AcDbSpline
 62
7
  6
BYLAYER
 70
0
 71
3
 72
11
 73
7
 74
0
 42
0.0000001
 43
0.0000001
 44
0.0000000001
 40
0.0
 40
0.0
 40
0.0
 40
0.0
 40
0.2896669608
 40
0.5490252551
 40
0.7822233609
 40
1.0
 40
1.0
 40
1.0
 40
1.0
 10
33.8699097556
 20
13.2374875921
 30
0.0
 10
33.9357198877
 20
13.1994929541
 30
0.0
 10
34.0666467047
 20
13.1372395804
 30
0.0
 10
34.2678800364
 20
13.0885695828
 30
0.0
 10
34.4567252367
 20
13.0933984837
 30
0.0
 10
34.5704167617
 20
13.1346580909
 30
0.0
 10
34.6199047052
 20
13.1632044966
 30
0.0
  0
SPLINE
  5
2B0
100
AcDbEntity
  8
0
100
AcDbSpline
 62
7
  6
BYLAYER
 70
0
 71
3
 72
11
 73
7
 74
0
 42
0.0000001
 43
0.0000001
 44
0.0000000001
 40
0.0
 40
0.0
 40
0.0
 40
0.0
 40
0.2506806407
 40
0.5131799973
 40
0.7686897122
 40
1.0
 40
1.0
 40
1.0
 40
1.0
 10
32.7434136839
 20
14.8163145959
 30
0.0
 10
32.7731098087
 20
14.661639303
 30
0.0
 10
32.8717992047
 20
14.3517330416
 30
0.0
 10
33.1044611398
 20
13.9254750397
 30
0.0
 10
33.4045121222
 20
13.5592127815
 30
0.0
 10
33.6467118374
 20
13.366348055
 30
0.0
 10
33.7725720004
 20
13.2936842999
 30
0.0
  0
SPLINE
  5
2B1
100
AcDbEntity
  8
0
100
AcDbSpline
 62
7
  6
BYLAYER
 70
0
 71
3
 72
11
 73
7
 74
0
 42
0.0000001
 43
0.0000001
 44
0.0000000001
 40
0.0
 40
0.0
 40
0.0
 40
0.0
 40
0.289693374
 40
0.5490892587
 40
0.7822177797
 40
1.0
 40
1.0
 40
1.0
 40
1.0
 10
40.6005247083
 20
9.3516531466
 30
0.0
 10
40.6663407546
 20
9.3136550942
 30
0.0
 10
40.7972770257
 20
9.2513739593
 30
0.0
 10
40.9985201197
 20
9.2027628124
 30
0.0
 10
41.1873572366
 20
9.2075502231
 30
0.0
 10
41.3010285702
 20
9.2488259245
 30
0.0
 10
41.3505165699
 20
9.2773750121
 30
0.0
  0
SPLINE
  5
2B2
100
AcDbEntity
  8
0
100
AcDbSpline
 62
7
  6
BYLAYER
 70
0
 71
3
 72
10
 73
6
 74
0
 42
0.0000001
 43
0.0000001
 44
0.0000000001
 40
0.0
 40
0.0
 40
0.0
 40
0.0
 40
0.5248890069
 40
0.7716870627
 40
1.0
 40
1.0
 40
1.0
 40
1.0
 10
39.7378088149
 20
10.2265784013
 30
0.0
 10
39.8347505222
 20
10.0539347166
 30
0.0
 10
40.0066821733
 20
9.814379963
 30
0.0
 10
40.2813440523
 20
9.5547097221
 30
0.0
 10
40.4286007061
 20
9.4509112701
 30
0.0
 10
40.5031869531
 20
9.4078498545
 30
0.0
  0
SPLINE
  5
2B3
100
AcDbEntity
  8
0
100
AcDbSpline
 62
7
  6
BYLAYER
 70
0
 71
3
 72
14
 73
10
 74
0
 42
0.0000001
 43
0.0000001
 44
0.0000000001
 40
0.0
 40
0.0
 40
0.0
 40
0.0
 40
0.2892627273
 40
0.4225620628
 40
0.54850707
 40
0.6678898919
 40
0.7818699285
 40
0.8919549075
 40
1.0
 40
1.0
 40
1.0
 40
1.0
 10
40.8104856957
 20
19.0284638619
 30
0.0
 10
40.8104856957
 20
18.7687078399
 30
0.0
 10
40.7801446286
 20
18.3873857147
 30
0.0
 10
40.6629294402
 20
17.9081161311
 30
0.0
 10
40.5436803187
 20
17.5887395992
 30
0.0
 10
40.3916270076
 20
17.3030030264
 30
0.0
 10
40.2080755292
 20
17.0536486218
 30
0.0
 10
39.994606802
 20
16.843563658
 30
0.0
 10
39.833048413
 20
16.7308462276
 30
0.0
 10
39.7490281366
 20
16.6823260548
 30
0.0
  0
SPLINE
  5
2B4
100
AcDbEntity
  8
0
100
AcDbSpline
 62
7
  6
BYLAYER
 70
0
 71
3
 72
11
 73
7
 74
0
 42
0.0000001
 43
0.0000001
 44
0.0000000001
 40
0.0
 40
0.0
 40
0.0
 40
0.0
 40
0.2235646803
 40
0.4635362358
 40
0.722273523
 40
1.0
 40
1.0
 40
1.0
 40
1.0
 10
35.4544595089
 20
70.7376795749
 30
0.0
 10
35.3742613693
 20
70.621955108
 30
0.0
 10
35.2322269523
 20
70.3646121925
 30
0.0
 10
35.0838986339
 20
69.9326666215
 30
0.0
 10
34.9951562056
 20
69.4502437452
 30
0.0
 10
34.9768186874
 20
69.1119604025
 30
0.0
 10
34.9768186874
 20
68.9370528456
 30
0.0
  0
SPLINE
  5
2B5
100
AcDbEntity
  8
0
100
AcDbSpline
 62
7
  6
BYLAYER
 70
0
 71
3
 72
22
 73
18
 74
0
 42
0.0000001
 43
0.0000001
 44
0.0000000001
 40
0.0
 40
0.0
 40
0.0
 40
0.0
 40
0.0428193844
 40
0.0874070182
 40
0.1351967743
 40
0.1871137821
 40
0.2435670864
 40
0.3045317802
 40
0.3696386351
 40
0.4382549976
 40
0.5095614454
 40
0.5826071203
 40
0.729623441
 40
0.8016232057
 40
0.871229688
 40
0.9376121555
 40
1.0
 40
1.0
 40
1.0
 40
1.0
 10
34.624068572
 20
70.466702345
 30
0.0
 10
34.7504102624
 20
70.5396623604
 30
0.0
 10
35.0289489886
 20
70.6553746126
 30
0.0
 10
35.4886924847
 20
70.7228054074
 30
0.0
 10
35.9824102861
 20
70.6864570674
 30
0.0
 10
36.4991005226
 20
70.5491504511
 30
0.0
 10
37.0286424254
 20
70.3151331867
 30
0.0
 10
37.5604899375
 20
69.9897750931
 30
0.0
 10
38.0838161931
 20
69.5800444124
 30
0.0
 10
38.5877728144
 20
69.0946928094
 30
0.0
 10
39.0618356119
 20
68.5439333174
 30
0.0
 10
39.6413144571
 20
67.7367440275
 30
0.0
 10
40.1177342224
 20
66.8564566082
 30
0.0
 10
40.4704139294
 20
65.9374249642
 30
0.0
 10
40.66317705
 20
65.2542880674
 30
0.0
 10
40.7816254884
 20
64.5877056951
 30
0.0
 10
40.8104856957
 20
64.1486660013
 30
0.0
 10
40.8104856957
 20
63.936096804
 30
0.0
  0
SPLINE
  5
2B6
100
AcDbEntity
  8
0
100
AcDbSpline
 62
7
  6
BYLAYER
 70
0
 71
3
 72
11
 73
7
 74
0
 42
0.0000001
 43
0.0000001
 44
0.0000000001
 40
0.0
 40
0.0
 40
0.0
 40
0.0
 40
0.2739694543
 40
0.5288239768
 40
0.7685223491
 40
1.0
 40
1.0
 40
1.0
 40
1.0
 10
43.0438906992
 20
10.5024289722
 30
0.0
 10
43.0327828203
 20
10.4573984362
 30
0.0
 10
43.0048470306
 20
10.3718563817
 30
0.0
 10
42.9429467194
 20
10.2565275515
 30
0.0
 10
42.8632135296
 20
10.1617579659
 30
0.0
 10
42.7986678515
 20
10.1134450197
 30
0.0
 10
42.764724248
 20
10.0938633135
 30
0.0
  0
SPLINE
  5
2B7
100
AcDbEntity
  8
0
100
AcDbSpline
 62
7
  6
BYLAYER
 70
0
 71
3
 72
20
 73
16
 74
0
 42
0.0000001
 43
0.0000001
 44
0.0000000001
 40
0.0
 40
0.0
 40
0.0
 40
0.0
 40
0.0428227629
 40
0.0871541813
 40
0.1342608028
 40
0.185015252
 40
0.2398813617
 40
0.2989619392
 40
0.3620550873
 40
0.428733048
 40
0.4983882171
 40
0.5702793955
 40
0.7172962976
 40
0.862810062
 40
1.0
 40
1.0
 40
1.0
 40
1.0
 10
36.1007766531
 20
87.4331674578
 30
0.0
 10
36.2141986521
 20
87.4986776115
 30
0.0
 10
36.461945336
 20
87.6046734601
 30
0.0
 10
36.8694097407
 20
87.6766703673
 30
0.0
 10
37.306844475
 20
87.6628656081
 30
0.0
 10
37.7657607632
 20
87.5649830129
 30
0.0
 10
38.2383711379
 20
87.3858179027
 30
0.0
 10
38.7165662358
 20
87.1289178744
 30
0.0
 10
39.1921688929
 20
86.7991828092
 30
0.0
 10
39.6567834046
 20
86.4025326741
 30
0.0
 10
40.1021335652
 20
85.9460573593
 30
0.0
 10
40.6635562473
 20
85.263933766
 30
0.0
 10
41.2660406103
 20
84.3200868796
 30
0.0
 10
41.7975160189
 20
83.1127366582
 30
0.0
 10
42.0129492029
 20
82.2694580109
 30
0.0
 10
42.0749610683
 20
81.8544443563
 30
0.0
  0
SPLINE
  5
2B8
100
AcDbEntity
  8
0
100
AcDbSpline
 62
7
  6
BYLAYER
 70
0
 71
3
 72
11
 73
7
 74
0
 42
0.0000001
 43
0.0000001
 44
0.0000000001
 40
0.0
 40
0.0
 40
0.0
 40
0.0
 40
0.2276160707
 40
0.465265059
 40
0.7211668159
 40
1.0
 40
1.0
 40
1.0
 40
1.0
 10
34.6865689097
 20
86.6166792723
 30
0.0
 10
34.5587001416
 20
86.5428250295
 30
0.0
 10
34.316643237
 20
86.3556802676
 30
0.0
 10
34.0287658287
 20
85.981347787
 30
0.0
 10
33.8180875048
 20
85.5228401066
 30
0.0
 10
33.7345900169
 20
85.1840831522
 30
0.0
 10
33.7047126566
 20
85.0056760368
 30
0.0
  0
SPLINE
  5
2B9
100
AcDbEntity
  8
0
100
AcDbSpline
 62
7
  6
BYLAYER
 70
0
 71
3
 72
18
 73
14
 74
0
 42
0.0000001
 43
0.0000001
 44
0.0000000001
 40
0.0
 40
0.0
 40
0.0
 40
0.0
 40
0.0449228774
 40
0.0907447423
 40
0.138205092
 40
0.1879619483
 40
0.2405114868
 40
0.2961524403
 40
0.4170213645
 40
0.5503501784
 40
0.6941232261
 40
0.8452554208
 40
1.0
 40
1.0
 40
1.0
 40
1.0
 10
34.6865624356
 20
13.203289671
 30
0.0
 10
34.7696186372
 20
13.2512219917
 30
0.0
 10
34.946183284
 20
13.3335976744
 30
0.0
 10
35.2320072129
 20
13.4117241028
 30
0.0
 10
35.5368655863
 20
13.4440901414
 30
0.0
 10
35.8573235725
 20
13.4308623034
 30
0.0
 10
36.1902852037
 20
13.3724035948
 30
0.0
 10
36.659490905
 20
13.2314905481
 30
0.0
 10
37.2582061653
 20
12.9400996937
 30
0.0
 10
37.9517818586
 20
12.4442791182
 30
0.0
 10
38.6153453519
 20
11.8115565498
 30
0.0
 10
39.2236290511
 20
11.0662679498
 30
0.0
 10
39.5760784291
 20
10.5146043761
 30
0.0
 10
39.7378088149
 20
10.2265784013
 30
0.0
  0
SPLINE
  5
2BA
100
AcDbEntity
  8
0
100
AcDbSpline
 62
7
  6
BYLAYER
 70
0
 71
3
 72
19
 73
15
 74
0
 42
0.0000001
 43
0.0000001
 44
0.0000000001
 40
0.0
 40
0.0
 40
0.0
 40
0.0
 40
0.0595239966
 40
0.1224693946
 40
0.2562458861
 40
0.3963911631
 40
0.536881908
 40
0.6716590968
 40
0.7352709755
 40
0.7956061823
 40
0.8523006006
 40
0.90517312
 40
0.9542889292
 40
1.0
 40
1.0
 40
1.0
 40
1.0
 10
34.9768186874
 20
24.0294199035
 30
0.0
 10
34.9768186874
 20
23.8447254387
 30
0.0
 10
34.9985787208
 20
23.4644985027
 30
0.0
 10
35.1215374672
 20
22.6779981862
 30
0.0
 10
35.4219151493
 20
21.6712970685
 30
0.0
 10
35.9744274577
 20
20.5052249605
 30
0.0
 10
36.6921415713
 20
19.4291481777
 30
0.0
 10
37.4041609949
 20
18.6484605643
 30
0.0
 10
38.0192159783
 20
18.130989339
 30
0.0
 10
38.4814968774
 20
17.8123089569
 30
0.0
 10
38.9460773151
 20
17.5607433545
 30
0.0
 10
39.4058803054
 20
17.3806141779
 30
0.0
 10
39.8535293753
 20
17.2749852202
 30
0.0
 10
40.1489687443
 20
17.2553776382
 30
0.0
 10
40.2907343162
 20
17.2598126477
 30
0.0
  0
SPLINE
  5
2BB
100
AcDbEntity
  8
0
100
AcDbSpline
 62
7
  6
BYLAYER
 70
0
 71
3
 72
14
 73
10
 74
0
 42
0.0000001
 43
0.0000001
 44
0.0000000001
 40
0.0
 40
0.0
 40
0.0
 40
0.0
 40
0.2892627273
 40
0.4225620628
 40
0.54850707
 40
0.6678898919
 40
0.7818699285
 40
0.8919549075
 40
1.0
 40
1.0
 40
1.0
 40
1.0
 10
33.562611013
 20
68.1205645379
 30
0.0
 10
33.562611013
 20
68.3803205599
 30
0.0
 10
33.59295208
 20
68.7616426851
 30
0.0
 10
33.7101672685
 20
69.2409122687
 30
0.0
 10
33.8294163899
 20
69.5602888006
 30
0.0
 10
33.9814697011
 20
69.8460253733
 30
0.0
 10
34.1650211795
 20
70.095379778
 30
0.0
 10
34.3784899067
 20
70.3054647418
 30
0.0
 10
34.5400482957
 20
70.4181821721
 30
0.0
 10
34.624068572
 20
70.466702345
 30
0.0
  0
SPLINE
  5
2BC
100
AcDbEntity
  8
0
100
AcDbSpline
 62
7
  6
BYLAYER
 70
0
 71
3
 72
22
 73
18
 74
0
 42
0.0000001
 43
0.0000001
 44
0.0000000001
 40
0.0
 40
0.0
 40
0.0
 40
0.0
 40
0.0428193844
 40
0.0874070182
 40
0.1351967743
 40
0.1871137821
 40
0.2435670864
 40
0.3045317802
 40
0.3696386351
 40
0.4382549976
 40
0.5095614454
 40
0.5826071203
 40
0.729623441
 40
0.8016232057
 40
0.871229688
 40
0.9376121555
 40
1.0
 40
1.0
 40
1.0
 40
1.0
 10
39.7490281366
 20
16.6823260548
 30
0.0
 10
39.6226864463
 20
16.6093660394
 30
0.0
 10
39.34414772
 20
16.4936537872
 30
0.0
 10
38.884404224
 20
16.4262229924
 30
0.0
 10
38.3906864226
 20
16.4625713323
 30
0.0
 10
37.873996186
 20
16.5998779486
 30
0.0
 10
37.3444542833
 20
16.833895213
 30
0.0
 10
36.8126067712
 20
17.1592533066
 30
0.0
 10
36.2892805156
 20
17.5689839873
 30
0.0
 10
35.7853238943
 20
18.0543355903
 30
0.0
 10
35.3112610968
 20
18.6050950824
 30
0.0
 10
34.7317822516
 20
19.4122843722
 30
0.0
 10
34.2553624863
 20
20.2925717915
 30
0.0
 10
33.9026827793
 20
21.2116034356
 30
0.0
 10
33.7099196587
 20
21.8947403323
 30
0.0
 10
33.5914712202
 20
22.5613227047
 30
0.0
 10
33.562611013
 20
23.0003623984
 30
0.0
 10
33.562611013
 20
23.2129315957
 30
0.0
  0
SPLINE
  5
2BD
100
AcDbEntity
  8
0
100
AcDbSpline
 62
7
  6
BYLAYER
 70
0
 71
3
 72
21
 73
17
 74
0
 42
0.0000001
 43
0.0000001
 44
0.0000000001
 40
0.0
 40
0.0
 40
0.0
 40
0.0
 40
0.0668983066
 40
0.1367853865
 40
0.2820536905
 40
0.4290720801
 40
0.5010315568
 40
0.5707834271
 40
0.6375728438
 40
0.7007798716
 40
0.7599642725
 40
0.8149142015
 40
0.8657255666
 40
0.9128592594
 40
0.9571917265
 40
1.0
 40
1.0
 40
1.0
 40
1.0
 10
40.6683840521
 20
80.9852894353
 30
0.0
 10
40.6397794259
 20
81.1891256846
 30
0.0
 10
40.5597433298
 20
81.6031077008
 30
0.0
 10
40.3182764861
 20
82.4376135953
 30
0.0
 10
39.8729345584
 20
83.4647757574
 30
0.0
 10
39.2717474198
 20
84.416335068
 30
0.0
 10
38.7096307246
 20
85.1053773928
 30
0.0
 10
38.2629501677
 20
85.5670120216
 30
0.0
 10
37.7964139614
 20
85.9685140132
 30
0.0
 10
37.3184457563
 20
86.3026329315
 30
0.0
 10
36.837562612
 20
86.5632910317
 30
0.0
 10
36.3620865146
 20
86.7454803923
 30
0.0
 10
35.900258754
 20
86.845566199
 30
0.0
 10
35.4599890377
 20
86.860665218
 30
0.0
 10
35.0499025931
 20
86.7890067687
 30
0.0
 10
34.8006244604
 20
86.6825552986
 30
0.0
 10
34.6865689097
 20
86.6166792723
 30
0.0
  0
SPLINE
  5
2BE
100
AcDbEntity
  8
0
100
AcDbSpline
 62
7
  6
BYLAYER
 70
0
 71
3
 72
11
 73
7
 74
0
 42
0.0000001
 43
0.0000001
 44
0.0000000001
 40
0.0
 40
0.0
 40
0.0
 40
0.0
 40
0.231477706
 40
0.4711760477
 40
0.726030497
 40
1.0
 40
1.0
 40
1.0
 40
1.0
 10
41.3505165699
 20
9.2773750121
 30
0.0
 10
41.3844601867
 20
9.2969567146
 30
0.0
 10
41.4490058673
 20
9.3452696691
 30
0.0
 10
41.5287390538
 20
9.4400392447
 30
0.0
 10
41.5906393772
 20
9.5553680611
 30
0.0
 10
41.6185751438
 20
9.6409101201
 30
0.0
 10
41.6296830248
 20
9.6859406645
 30
0.0
  0
SPLINE
  5
2BF
100
AcDbEntity
  8
0
100
AcDbSpline
 62
7
  6
BYLAYER
 70
0
 71
3
 72
15
 73
11
 74
0
 42
0.0000001
 43
0.0000001
 44
0.0000000001
 40
0.0
 40
0.0
 40
0.0
 40
0.0
 40
0.1485891619
 40
0.2895060715
 40
0.4227210538
 40
0.5486419841
 40
0.6680001442
 40
0.7819373249
 40
0.8919870078
 40
1.0
 40
1.0
 40
1.0
 40
1.0
 10
64.0566413668
 20
77.3877170894
 30
0.0
 10
64.0566413668
 20
76.7366170845
 30
0.0
 10
64.0041515339
 20
75.4671611446
 30
0.0
 10
63.7542656087
 20
73.6288369672
 30
0.0
 10
63.336812461
 20
71.9225660118
 30
0.0
 10
62.7551539307
 20
70.3648421247
 30
0.0
 10
62.0136291733
 20
68.9707206445
 30
0.0
 10
61.1180713911
 20
67.7544458288
 30
0.0
 10
60.0768153994
 20
66.7296156547
 30
0.0
 10
59.2887153328
 20
66.1797476872
 30
0.0
 10
58.8788327333
 20
65.9430850484
 30
0.0
  0
SPLINE
  5
2C0
100
AcDbEntity
  8
0
100
AcDbSpline
 62
7
  6
BYLAYER
 70
0
 71
3
 72
13
 73
9
 74
0
 42
0.0000001
 43
0.0000001
 44
0.0000000001
 40
0.0
 40
0.0
 40
0.0
 40
0.0
 40
0.2685844008
 40
0.5217617468
 40
0.6439277654
 40
0.7638828861
 40
0.882326063
 40
1.0
 40
1.0
 40
1.0
 40
1.0
 10
44.9759442605
 20
60.9040683836
 30
0.0
 10
45.5957432102
 20
60.7884856394
 30
0.0
 10
46.8176181452
 20
60.6466204225
 30
0.0
 10
48.3355394199
 20
60.717625692
 30
0.0
 10
49.4801233695
 20
60.9302619522
 30
0.0
 10
50.2953670421
 20
61.1627240451
 30
0.0
 10
51.0743973387
 20
61.469135279
 30
0.0
 10
51.5685745358
 20
61.7225209187
 30
0.0
 10
51.8077940483
 20
61.8606440586
 30
0.0
  0
SPLINE
  5
2C1
100
AcDbEntity
  8
0
100
AcDbSpline
 62
7
  6
BYLAYER
 70
0
 71
3
 72
16
 73
12
 74
0
 42
0.0000001
 43
0.0000001
 44
0.0000000001
 40
0.0
 40
0.0
 40
0.0
 40
0.0
 40
0.1461650063
 40
0.2852372869
 40
0.4173095583
 40
0.4808943279
 40
0.5429411383
 40
0.6627908586
 40
0.7779716681
 40
0.8898445659
 40
1.0
 40
1.0
 40
1.0
 40
1.0
 10
53.9419991722
 20
73.8377076583
 30
0.0
 10
53.9112538634
 20
73.3656356707
 30
0.0
 10
53.8138268229
 20
72.4462151337
 30
0.0
 10
53.5492170974
 20
71.1197780141
 30
0.0
 10
53.2300681771
 20
70.0820694926
 30
0.0
 10
52.9176077442
 20
69.3082605999
 30
0.0
 10
52.576940925
 20
68.5900684984
 30
0.0
 10
52.0853811244
 20
67.7603609105
 30
0.0
 10
51.3851690138
 20
66.877916045
 30
0.0
 10
50.5869176243
 20
66.127941337
 30
0.0
 10
49.9915683409
 20
65.71951107
 30
0.0
 10
49.6828082489
 20
65.5412494225
 30
0.0
  0
SPLINE
  5
2C2
100
AcDbEntity
  8
0
100
AcDbSpline
 62
7
  6
BYLAYER
 70
0
 71
3
 72
19
 73
15
 74
0
 42
0.0000001
 43
0.0000001
 44
0.0000000001
 40
0.0
 40
0.0
 40
0.0
 40
0.0
 40
0.0569460315
 40
0.1160289585
 40
0.1769875926
 40
0.2395761419
 40
0.3684091734
 40
0.4999990094
 40
0.6315889805
 40
0.7604224087
 40
0.8230112465
 40
0.8839702229
 40
0.9430535395
 40
1.0
 40
1.0
 40
1.0
 40
1.0
 10
40.3685244537
 20
99.7970322491
 30
0.0
 10
40.8118735498
 20
99.5039657521
 30
0.0
 10
41.6935487496
 20
98.8735202385
 30
0.0
 10
42.9713413139
 20
97.8251734905
 30
0.0
 10
44.2201884415
 20
96.663650953
 30
0.0
 10
45.8487298155
 20
94.9604713061
 30
0.0
 10
47.7453925448
 20
92.6090920588
 30
0.0
 10
49.7372140188
 20
89.5328548167
 30
0.0
 10
51.4054200745
 20
86.2697728449
 30
0.0
 10
52.4934601849
 20
83.4515236673
 30
0.0
 10
53.1542023676
 20
81.189570355
 30
0.0
 10
53.535699756
 20
79.5272689621
 30
0.0
 10
53.8047119794
 20
77.8964860482
 30
0.0
 10
53.9098657841
 20
76.8177034514
 30
0.0
 10
53.9419991722
 20
76.2872149097
 30
0.0
  0
SPLINE
  5
2C3
100
AcDbEntity
  8
0
100
AcDbSpline
 62
7
  6
BYLAYER
 70
0
 71
3
 72
16
 73
12
 74
0
 42
0.0000001
 43
0.0000001
 44
0.0000000001
 40
0.0
 40
0.0
 40
0.0
 40
0.0
 40
0.1101559514
 40
0.2220292927
 40
0.3372104098
 40
0.4570602591
 40
0.5191070581
 40
0.5826917658
 40
0.7147637679
 40
0.8538355976
 40
1.0
 40
1.0
 40
1.0
 40
1.0
 10
28.932911483
 20
101.4813394049
 30
0.0
 10
29.2416640679
 20
101.6595967182
 30
0.0
 10
29.8930344709
 20
101.9709593392
 30
0.0
 10
30.9416305635
 20
102.2872702886
 30
0.0
 10
32.0559260581
 20
102.4524488721
 30
0.0
 10
33.0202270541
 20
102.4633038264
 30
0.0
 10
33.8125107269
 20
102.3992415788
 30
0.0
 10
34.6388549653
 20
102.2829460579
 30
0.0
 10
35.6970803769
 20
102.0405002135
 30
0.0
 10
36.9780766103
 20
101.6064673112
 30
0.0
 10
37.8230080539
 20
101.2311526993
 30
0.0
 10
38.2471952783
 20
101.0217545127
 30
0.0
  0
SPLINE
  5
2C4
100
AcDbEntity
  8
0
100
AcDbSpline
 62
7
  6
BYLAYER
 70
0
 71
3
 72
13
 73
9
 74
0
 42
0.0000001
 43
0.0000001
 44
0.0000000001
 40
0.0
 40
0.0
 40
0.0
 40
0.0
 40
0.1137120232
 40
0.2286770842
 40
0.3460704202
 40
0.4669433325
 40
0.7222831467
 40
1.0
 40
1.0
 40
1.0
 40
1.0
 10
35.3078874729
 20
90.4394911829
 30
0.0
 10
35.2083069574
 20
90.3819986867
 30
0.0
 10
35.0153157199
 20
90.2532399635
 30
0.0
 10
34.7508684807
 20
90.0226953964
 30
0.0
 10
34.5121156951
 20
89.7558204451
 30
0.0
 10
34.2247974716
 20
89.3464428624
 30
0.0
 10
33.9388984601
 20
88.7446067875
 30
0.0
 10
33.8017949098
 20
88.2203032967
 30
0.0
 10
33.7513090393
 20
87.9440515802
 30
0.0
  0
SPLINE
  5
2C5
100
AcDbEntity
  8
0
100
AcDbSpline
 62
7
  6
BYLAYER
 70
0
 71
3
 72
29
 73
25
 74
0
 42
0.0000001
 43
0.0000001
 44
0.0000000001
 40
0.0
 40
0.0
 40
0.0
 40
0.0
 40
0.0213284485
 40
0.0428852823
 40
0.0648869348
 40
0.0875277255
 40
0.1109733581
 40
0.1353559393
 40
0.160774914
 40
0.1872957673
 40
0.2149551305
 40
0.2437607928
 40
0.2736975018
 40
0.3047274538
 40
0.3698036335
 40
0.4383886843
 40
0.5096622866
 40
0.5826733391
 40
0.6563915919
 40
0.7297556932
 40
0.8017191993
 40
0.8713001714
 40
0.9376262851
 40
1.0
 40
1.0
 40
1.0
 40
1.0
 10
33.878963743
 20
109.2443868565
 30
0.0
 10
34.1861022027
 20
109.4217259249
 30
0.0
 10
34.8272889561
 20
109.7390278037
 30
0.0
 10
35.8495679803
 20
110.0924299262
 30
0.0
 10
36.928761955
 20
110.3225915568
 30
0.0
 10
38.0584019967
 20
110.4285776913
 30
0.0
 10
39.232213427
 20
110.4100362201
 30
0.0
 10
40.4437780524
 20
110.2676265511
 30
0.0
 10
41.686566735
 20
110.0022075553
 30
0.0
 10
42.9540252672
 20
109.6156475389
 30
0.0
 10
44.2393777257
 20
109.1099907275
 30
0.0
 10
45.5358709574
 20
108.4882205986
 30
0.0
 10
46.8365948711
 20
107.7536080885
 30
0.0
 10
48.5950022354
 20
106.611028828
 30
0.0
 10
50.7560691731
 20
104.9190713023
 30
0.0
 10
53.2142989514
 20
102.5515817452
 30
0.0
 10
55.5265427569
 20
99.8650168736
 30
0.0
 10
57.6434509351
 20
96.916769171
 30
0.0
 10
59.5200200107
 20
93.7695894487
 30
0.0
 10
61.1161841556
 20
90.4906183148
 30
0.0
 10
62.3979376409
 20
87.1498114318
 30
0.0
 10
63.3379251216
 20
83.8179959619
 30
0.0
 10
63.9161424716
 20
80.5664061795
 30
0.0
 10
64.0566413668
 20
78.424895883
 30
0.0
 10
64.0566413668
 20
77.3877170894
 30
0.0
  0
SPLINE
  5
2C6
100
AcDbEntity
  8
0
100
AcDbSpline
 62
7
  6
BYLAYER
 70
0
 71
3
 72
15
 73
11
 74
0
 42
0.0000001
 43
0.0000001
 44
0.0000000001
 40
0.0
 40
0.0
 40
0.0
 40
0.0
 40
0.1080125837
 40
0.2180619482
 40
0.331998973
 40
0.4513571668
 40
0.5772781715
 40
0.7104933715
 40
0.8514107814
 40
1.0
 40
1.0
 40
1.0
 40
1.0
 10
26.8079256837
 20
105.1619447689
 30
0.0
 10
26.3980445556
 20
104.9252831864
 30
0.0
 10
25.6099470174
 20
104.375417335
 30
0.0
 10
24.5686924032
 20
103.3505913558
 30
0.0
 10
23.6731353475
 20
102.1343183877
 30
0.0
 10
22.9316096626
 20
100.7401977952
 30
0.0
 10
22.3499478715
 20
99.1824736172
 30
0.0
 10
21.9324935415
 20
97.4761993208
 30
0.0
 10
21.6826073148
 20
95.6378718345
 30
0.0
 10
21.6301167373
 20
94.3684135126
 30
0.0
 10
21.6301167373
 20
93.7173132767
 30
0.0
  0
SPLINE
  5
2C7
100
AcDbEntity
  8
0
100
AcDbSpline
 62
7
  6
BYLAYER
 70
0
 71
3
 72
29
 73
25
 74
0
 42
0.0000001
 43
0.0000001
 44
0.0000000001
 40
0.0
 40
0.0
 40
0.0
 40
0.0
 40
0.0623735538
 40
0.1286994294
 40
0.1982802344
 40
0.2702437082
 40
0.343607954
 40
0.4173264284
 40
0.4903377016
 40
0.5616115456
 40
0.6301968499
 40
0.6952732054
 40
0.72630319
 40
0.7562398777
 40
0.7850454869
 40
0.8127047631
 40
0.8392255235
 40
0.8646444028
 40
0.8890269027
 40
0.9124724648
 40
0.9351132025
 40
0.9571148058
 40
0.9786715962
 40
1.0
 40
1.0
 40
1.0
 40
1.0
 10
56.9856029947
 20
73.3052755507
 30
0.0
 10
56.9856029947
 20
74.3424516633
 30
0.0
 10
56.8451050888
 20
76.4839553302
 30
0.0
 10
56.2668905026
 20
79.7355359847
 30
0.0
 10
55.3269075142
 20
83.0673451182
 30
0.0
 10
54.0451566228
 20
86.4081520235
 30
0.0
 10
52.4489920989
 20
89.6871291625
 30
0.0
 10
50.5724192703
 20
92.8343180451
 30
0.0
 10
48.4555048826
 20
95.7825753438
 30
0.0
 10
46.1432528021
 20
98.4691488372
 30
0.0
 10
43.6850137938
 20
100.8366450458
 30
0.0
 10
41.523938803
 20
102.5286047277
 30
0.0
 10
39.7655280074
 20
103.6711844816
 30
0.0
 10
38.4648031087
 20
104.4057938058
 30
0.0
 10
37.1683118306
 20
105.0275618045
 30
0.0
 10
35.8829618569
 20
105.5332143312
 30
0.0
 10
34.6155073632
 20
105.9197718559
 30
0.0
 10
33.3727225787
 20
106.1851875462
 30
0.0
 10
32.1611619317
 20
106.3275958546
 30
0.0
 10
30.9873539171
 20
106.346135233
 30
0.0
 10
29.8577167136
 20
106.2401493424
 30
0.0
 10
28.7785255919
 20
106.0099862336
 30
0.0
 10
27.7562483153
 20
105.6565859975
 30
0.0
 10
27.1150635656
 20
105.3392833487
 30
0.0
 10
26.8079256837
 20
105.1619447689
 30
0.0
  0
SPLINE
  5
2C8
100
AcDbEntity
  8
0
100
AcDbSpline
 62
7
  6
BYLAYER
 70
0
 71
3
 72
15
 73
11
 74
0
 42
0.0000001
 43
0.0000001
 44
0.0000000001
 40
0.0
 40
0.0
 40
0.0
 40
0.0
 40
0.1186194684
 40
0.2426308406
 40
0.3703583675
 40
0.5000008403
 40
0.6296432018
 40
0.7573703995
 40
0.8813812398
 40
1.0
 40
1.0
 40
1.0
 40
1.0
 10
44.8644106927
 20
81.5280444986
 30
0.0
 10
44.8102419075
 20
81.8869959262
 30
0.0
 10
44.6584150653
 20
82.6154492746
 30
0.0
 10
44.3196086006
 20
83.6986704815
 30
0.0
 10
43.8710106631
 20
84.7778590725
 30
0.0
 10
43.3225938881
 20
85.8292678633
 30
0.0
 10
42.6862513185
 20
86.829911235
 30
0.0
 10
41.9759426522
 20
87.7579967891
 30
0.0
 10
41.2072472979
 20
88.5930145108
 30
0.0
 10
40.6523011127
 20
89.0887208748
 30
0.0
 10
40.3685244537
 20
89.3151046618
 30
0.0
  0
SPLINE
  5
2C9
100
AcDbEntity
  8
0
100
AcDbSpline
 62
7
  6
BYLAYER
 70
0
 71
3
 72
11
 73
7
 74
0
 42
0.0000001
 43
0.0000001
 44
0.0000000001
 40
0.0
 40
0.0
 40
0.0
 40
0.0
 40
0.2377303582
 40
0.4806787033
 40
0.733523601
 40
1.0
 40
1.0
 40
1.0
 40
1.0
 10
49.6828082489
 20
65.5412494225
 30
0.0
 10
49.3148664721
 20
65.3288194193
 30
0.0
 10
48.5291458367
 20
64.9676427198
 30
0.0
 10
47.2524863163
 20
64.6424627961
 30
0.0
 10
45.8886980499
 20
64.5333589056
 30
0.0
 10
44.9593591789
 20
64.6024619818
 30
0.0
 10
44.4878271126
 20
64.669229669
 30
0.0
  0
SPLINE
  5
2CA
100
AcDbEntity
  8
0
100
AcDbSpline
 62
7
  6
BYLAYER
 70
0
 71
3
 72
13
 73
9
 74
0
 42
0.0000001
 43
0.0000001
 44
0.0000000001
 40
0.0
 40
0.0
 40
0.0
 40
0.0
 40
0.1137120232
 40
0.2286770842
 40
0.3460704202
 40
0.4669433325
 40
0.7222831467
 40
1.0
 40
1.0
 40
1.0
 40
1.0
 10
43.3078322591
 20
76.5830976445
 30
0.0
 10
43.4074127746
 20
76.6405901408
 30
0.0
 10
43.6004040121
 20
76.7693488639
 30
0.0
 10
43.8648512513
 20
76.9998934311
 30
0.0
 10
44.1036040369
 20
77.2667683824
 30
0.0
 10
44.3909222603
 20
77.676145965
 30
0.0
 10
44.6768212718
 20
78.2779820399
 30
0.0
 10
44.8139248221
 20
78.8022855307
 30
0.0
 10
44.8644106927
 20
79.0785372472
 30
0.0
  0
SPLINE
  5
2CB
100
AcDbEntity
  8
0
100
AcDbSpline
 62
7
  6
BYLAYER
 70
0
 71
3
 72
15
 73
11
 74
0
 42
0.0000001
 43
0.0000001
 44
0.0000000001
 40
0.0
 40
0.0
 40
0.0
 40
0.0
 40
0.1100199376
 40
0.2219793267
 40
0.3373621885
 40
0.4574295524
 40
0.5831547349
 40
0.7152477584
 40
0.8541720474
 40
1.0
 40
1.0
 40
1.0
 40
1.0
 10
28.936851792
 20
101.4802404398
 30
0.0
 10
28.6400718195
 20
101.2971691435
 30
0.0
 10
28.0684499117
 20
100.8816602433
 30
0.0
 10
27.3035489583
 20
100.1294176698
 30
0.0
 10
26.6327345471
 20
99.2518804904
 30
0.0
 10
26.061188508
 20
98.2565820264
 30
0.0
 10
25.5924065462
 20
97.1516125353
 30
0.0
 10
25.2295191781
 20
95.9452900626
 30
0.0
 10
24.9749364243
 20
94.6469896932
 30
0.0
 10
24.8805348625
 20
93.7481592527
 30
0.0
 10
24.850496519
 20
93.2869422076
 30
0.0
  0
SPLINE
  5
2CC
100
AcDbEntity
  8
0
100
AcDbSpline
 62
7
  6
BYLAYER
 70
0
 71
3
 72
13
 73
9
 74
0
 42
0.0000001
 43
0.0000001
 44
0.0000000001
 40
0.0
 40
0.0
 40
0.0
 40
0.0
 40
0.1146645627
 40
0.2304605242
 40
0.3484564915
 40
0.4696158569
 40
0.7243750997
 40
1.0
 40
1.0
 40
1.0
 40
1.0
 10
35.4846597825
 20
90.5415585428
 30
0.0
 10
35.5788122743
 20
90.5959171867
 30
0.0
 10
35.7749514192
 20
90.6936789249
 30
0.0
 10
36.0870592092
 20
90.8043127583
 30
0.0
 10
36.4160247935
 20
90.8788780867
 30
0.0
 10
36.8823233168
 20
90.9306026007
 30
0.0
 10
37.5036520446
 20
90.8988095482
 30
0.0
 10
37.9953603335
 20
90.7816100783
 30
0.0
 10
38.2444187132
 20
90.7024681107
 30
0.0
  0
SPLINE
  5
2CD
100
AcDbEntity
  8
0
100
AcDbSpline
 62
7
  6
BYLAYER
 70
0
 71
3
 72
11
 73
7
 74
0
 42
0.0000001
 43
0.0000001
 44
0.0000000001
 40
0.0
 40
0.0
 40
0.0
 40
0.0
 40
0.2498233876
 40
0.5014946121
 40
0.7523191407
 40
1.0
 40
1.0
 40
1.0
 40
1.0
 10
34.4470222865
 20
92.2372166108
 30
0.0
 10
34.52119862
 20
92.0642775688
 30
0.0
 10
34.6510276337
 20
91.7086462671
 30
0.0
 10
34.7890564801
 20
91.1580142033
 30
0.0
 10
34.8678414466
 20
90.5974248935
 30
0.0
 10
34.8778236515
 20
90.220964883
 30
0.0
 10
34.870520586
 20
90.0345461468
 30
0.0
  0
SPLINE
  5
2CE
100
AcDbEntity
  8
0
100
AcDbSpline
 62
7
  6
BYLAYER
 70
0
 71
3
 72
14
 73
10
 74
0
 42
0.0000001
 43
0.0000001
 44
0.0000000001
 40
0.0
 40
0.0
 40
0.0
 40
0.0
 40
0.0921167318
 40
0.1955296463
 40
0.3103897703
 40
0.4367555728
 40
0.719492248
 40
0.8662658955
 40
1.0
 40
1.0
 40
1.0
 40
1.0
 10
29.0610662786
 20
95.3467294152
 30
0.0
 10
28.9242129953
 20
95.3015139861
 30
0.0
 10
28.6363611188
 20
95.1974973107
 30
0.0
 10
28.1867409085
 20
95.0136761327
 30
0.0
 10
27.6946684431
 20
94.7929206878
 30
0.0
 10
26.956112406
 20
94.436898594
 30
0.0
 10
26.185647301
 20
94.0328533203
 30
0.0
 10
25.4136198474
 20
93.6078712366
 30
0.0
 10
25.0317086307
 20
93.3915644445
 30
0.0
 10
24.850496519
 20
93.2869422076
 30
0.0
  0
SPLINE
  5
2CF
100
AcDbEntity
  8
0
100
AcDbSpline
 62
7
  6
BYLAYER
 70
0
 71
3
 72
15
 73
11
 74
0
 42
0.0000001
 43
0.0000001
 44
0.0000000001
 40
0.0
 40
0.0
 40
0.0
 40
0.0
 40
0.1322262005
 40
0.2589971755
 40
0.3816974459
 40
0.5021459571
 40
0.6223007732
 40
0.7441286507
 40
0.8695147319
 40
1.0
 40
1.0
 40
1.0
 40
1.0
 10
34.4470222865
 20
92.2372166108
 30
0.0
 10
34.5362961415
 20
92.4251770442
 30
0.0
 10
34.7338158663
 20
92.7832400286
 30
0.0
 10
35.0938923168
 20
93.2664624604
 30
0.0
 10
35.5082711351
 20
93.6785649872
 30
0.0
 10
35.9732465055
 20
94.0153097455
 30
0.0
 10
36.4844762898
 20
94.2735573795
 30
0.0
 10
37.0372005728
 20
94.4508025917
 30
0.0
 10
37.6260039205
 20
94.5457259966
 30
0.0
 10
38.0299950705
 20
94.5537216205
 30
0.0
 10
38.2351535369
 20
94.544987788
 30
0.0
  0
SPLINE
  5
2D0
100
AcDbEntity
  8
0
100
AcDbSpline
 62
7
  6
BYLAYER
 70
0
 71
3
 72
19
 73
15
 74
0
 42
0.0000001
 43
0.0000001
 44
0.0000000001
 40
0.0
 40
0.0
 40
0.0
 40
0.0
 40
0.1363940494
 40
0.2630916778
 40
0.3236078579
 40
0.3827036229
 40
0.440834991
 40
0.4985029058
 40
0.5562285224
 40
0.6145301975
 40
0.6739013644
 40
0.73478584
 40
0.8624539938
 40
1.0
 40
1.0
 40
1.0
 40
1.0
 10
38.2410536453
 20
100.8051651275
 30
0.0
 10
37.7083976027
 20
100.9535314144
 30
0.0
 10
36.657388446
 20
101.1646049838
 30
0.0
 10
35.3368135305
 20
101.1885039469
 30
0.0
 10
34.3462269712
 20
101.0498356257
 30
0.0
 10
33.6462059797
 20
100.8727228189
 30
0.0
 10
32.9815553492
 20
100.6214104874
 30
0.0
 10
32.3554432399
 20
100.2972101353
 30
0.0
 10
31.7710412501
 20
99.9015291
 30
0.0
 10
31.2310915916
 20
99.4364942128
 30
0.0
 10
30.7382554236
 20
98.9042777778
 30
0.0
 10
30.1374479731
 20
98.0964420049
 30
0.0
 10
29.5178478058
 20
96.9188034696
 30
0.0
 10
29.1909530671
 20
95.8889937409
 30
0.0
 10
29.0610662786
 20
95.3467294152
 30
0.0
  0
SPLINE
  5
2D1
100
AcDbEntity
  8
0
100
AcDbSpline
 62
7
  6
BYLAYER
 70
0
 71
3
 72
16
 73
12
 74
0
 42
0.0000001
 43
0.0000001
 44
0.0000000001
 40
0.0
 40
0.0
 40
0.0
 40
0.0
 40
0.1461650063
 40
0.2852372869
 40
0.4173095583
 40
0.4808943279
 40
0.5429411383
 40
0.6627908586
 40
0.7779716681
 40
0.8898445659
 40
1.0
 40
1.0
 40
1.0
 40
1.0
 10
24.6737205597
 20
93.1848811691
 30
0.0
 10
24.7044658686
 20
93.6569531567
 30
0.0
 10
24.8018929091
 20
94.5763736938
 30
0.0
 10
25.0665026346
 20
95.9028108133
 30
0.0
 10
25.3856515548
 20
96.9405193349
 30
0.0
 10
25.6981119878
 20
97.7143282276
 30
0.0
 10
26.038778807
 20
98.4325203291
 30
0.0
 10
26.5303386076
 20
99.2622279169
 30
0.0
 10
27.2305507182
 20
100.1446727824
 30
0.0
 10
28.0288021076
 20
100.8946474904
 30
0.0
 10
28.6241513911
 20
101.3030777574
 30
0.0
 10
28.932911483
 20
101.4813394049
 30
0.0
  0
SPLINE
  5
2D2
100
AcDbEntity
  8
0
100
AcDbSpline
 62
7
  6
BYLAYER
 70
0
 71
3
 72
9
 73
5
 74
0
 42
0.0000001
 43
0.0000001
 44
0.0000000001
 40
0.0
 40
0.0
 40
0.0
 40
0.0
 40
0.5105044121
 40
1.0
 40
1.0
 40
1.0
 40
1.0
 10
35.1537678666
 20
69.9261680135
 30
0.0
 10
35.6469232309
 20
69.4655302099
 30
0.0
 10
36.6454107022
 20
68.5972103465
 30
0.0
 10
37.7088724943
 20
67.8092302197
 30
0.0
 10
38.2451147674
 20
67.4471204078
 30
0.0
  0
SPLINE
  5
2D3
100
AcDbEntity
  8
0
100
AcDbSpline
 62
7
  6
BYLAYER
 70
0
 71
3
 72
11
 73
7
 74
0
 42
0.0000001
 43
0.0000001
 44
0.0000000001
 40
0.0
 40
0.0
 40
0.0
 40
0.0
 40
0.2397008903
 40
0.4882940524
 40
0.7428128818
 40
1.0
 40
1.0
 40
1.0
 40
1.0
 10
29.1069391989
 20
88.1688215489
 30
0.0
 10
29.2592648233
 20
87.401136423
 30
0.0
 10
29.6474644897
 20
85.8519479778
 30
0.0
 10
30.4449873216
 20
83.5584384537
 30
0.0
 10
31.4550088115
 20
81.2877524692
 30
0.0
 10
32.2565979699
 20
79.8193802102
 30
0.0
 10
32.688350898
 20
79.0991281026
 30
0.0
  0
SPLINE
  5
2D4
100
AcDbEntity
  8
0
100
AcDbSpline
 62
7
  6
BYLAYER
 70
0
 71
3
 72
13
 73
9
 74
0
 42
0.0000001
 43
0.0000001
 44
0.0000000001
 40
0.0
 40
0.0
 40
0.0
 40
0.0
 40
0.2777157106
 40
0.5330552341
 40
0.6539282982
 40
0.7713219551
 40
0.8862874638
 40
1.0
 40
1.0
 40
1.0
 40
1.0
 10
38.2471952783
 20
90.5398269254
 30
0.0
 10
37.9827200518
 20
90.634223699
 30
0.0
 10
37.4601253053
 20
90.7776284732
 30
0.0
 10
36.7959936871
 20
90.8309421006
 30
0.0
 10
36.2978200442
 20
90.7868042438
 30
0.0
 10
35.9473343228
 20
90.7134767032
 30
0.0
 10
35.6154632395
 20
90.5997342488
 30
0.0
 10
35.4074650985
 20
90.4969820107
 30
0.0
 10
35.3078874729
 20
90.4394911829
 30
0.0
  0
SPLINE
  5
2D5
100
AcDbEntity
  8
0
100
AcDbSpline
 62
7
  6
BYLAYER
 70
0
 71
3
 72
15
 73
11
 74
0
 42
0.0000001
 43
0.0000001
 44
0.0000000001
 40
0.0
 40
0.0
 40
0.0
 40
0.0
 40
0.1080125837
 40
0.2180619482
 40
0.331998973
 40
0.4513571668
 40
0.5772781715
 40
0.7104933715
 40
0.8514107814
 40
1.0
 40
1.0
 40
1.0
 40
1.0
 10
51.8077940483
 20
61.8606440586
 30
0.0
 10
52.2176751763
 20
62.097305641
 30
0.0
 10
53.0057727145
 20
62.6471714925
 30
0.0
 10
54.0470273287
 20
63.6719974717
 30
0.0
 10
54.9425843844
 20
64.8882704397
 30
0.0
 10
55.6841100694
 20
66.2823910323
 30
0.0
 10
56.2657718604
 20
67.8401152102
 30
0.0
 10
56.6832261904
 20
69.5463895067
 30
0.0
 10
56.9331124172
 20
71.3847169929
 30
0.0
 10
56.9856029947
 20
72.6541753148
 30
0.0
 10
56.9856029947
 20
73.3052755507
 30
0.0
  0
SPLINE
  5
2D6
100
AcDbEntity
  8
0
100
AcDbSpline
 62
7
  6
BYLAYER
 70
0
 71
3
 72
11
 73
7
 74
0
 42
0.0000001
 43
0.0000001
 44
0.0000000001
 40
0.0
 40
0.0
 40
0.0
 40
0.0
 40
0.2670833955
 40
0.5202759844
 40
0.7630895813
 40
1.0
 40
1.0
 40
1.0
 40
1.0
 10
44.4719098198
 20
64.8003488638
 30
0.0
 10
44.9426913436
 20
64.7250275885
 30
0.0
 10
45.8709783585
 20
64.6378413617
 30
0.0
 10
47.2365496397
 20
64.7157900338
 30
0.0
 10
48.5184798868
 20
65.0070045195
 30
0.0
 10
49.3115742464
 20
65.344514344
 30
0.0
 10
49.6838260644
 20
65.545210977
 30
0.0
  0
SPLINE
  5
2D7
100
AcDbEntity
  8
0
100
AcDbSpline
 62
7
  6
BYLAYER
 70
0
 71
3
 72
9
 73
5
 74
0
 42
0.0000001
 43
0.0000001
 44
0.0000000001
 40
0.0
 40
0.0
 40
0.0
 40
0.0
 40
0.2360363749
 40
1.0
 40
1.0
 40
1.0
 40
1.0
 10
44.4343877095
 20
68.7195034297
 30
0.0
 10
44.4025466305
 20
68.69111596
 30
0.0
 10
44.2666436492
 20
68.5719755154
 30
0.0
 10
44.1270434672
 20
68.4570861276
 30
0.0
 10
44.0189397577
 20
68.3711999073
 30
0.0
  0
SPLINE
  5
2D8
100
AcDbEntity
  8
0
100
AcDbSpline
 62
7
  6
BYLAYER
 70
0
 71
3
 72
15
 73
11
 74
0
 42
0.0000001
 43
0.0000001
 44
0.0000000001
 40
0.0
 40
0.0
 40
0.0
 40
0.0
 40
0.1304866762
 40
0.2558737891
 40
0.3777022609
 40
0.4978572164
 40
0.6183054311
 40
0.7410050197
 40
0.8677750055
 40
1.0
 40
1.0
 40
1.0
 40
1.0
 10
48.3270054218
 20
77.065550597
 30
0.0
 10
48.2319930405
 20
76.8835052752
 30
0.0
 10
48.0230791247
 20
76.5376246424
 30
0.0
 10
47.6464791751
 20
76.0751491332
 30
0.0
 10
47.2166247042
 20
75.6850803266
 30
0.0
 10
46.7373659876
 20
75.371448675
 30
0.0
 10
46.21325262
 20
75.1371239967
 30
0.0
 10
45.6491744789
 20
74.9842972714
 30
0.0
 10
45.0506546914
 20
74.9140590978
 30
0.0
 10
44.6418031978
 20
74.9220253243
 30
0.0
 10
44.4343877095
 20
74.9386882924
 30
0.0
  0
SPLINE
  5
2D9
100
AcDbEntity
  8
0
100
AcDbSpline
 62
7
  6
BYLAYER
 70
0
 71
3
 72
19
 73
15
 74
0
 42
0.0000001
 43
0.0000001
 44
0.0000000001
 40
0.0
 40
0.0
 40
0.0
 40
0.0
 40
0.1375445982
 40
0.2652115453
 40
0.3260955445
 40
0.3854663448
 40
0.4437677797
 40
0.501493295
 40
0.5591612541
 40
0.6172928126
 40
0.6763889077
 40
0.7369055463
 40
0.8636044142
 40
1.0
 40
1.0
 40
1.0
 40
1.0
 10
44.4343877095
 20
68.7195034297
 30
0.0
 10
44.9689442224
 20
68.5608652784
 30
0.0
 10
46.0242297634
 20
68.3290778645
 30
0.0
 10
47.3538876464
 20
68.2768750366
 30
0.0
 10
48.353889864
 20
68.3932941328
 30
0.0
 10
49.0612148405
 20
68.5540116699
 30
0.0
 10
49.7339148965
 20
68.7891218443
 30
0.0
 10
50.3687781866
 20
69.0974060727
 30
0.0
 10
50.9625917356
 20
69.4775528136
 30
0.0
 10
51.5125509912
 20
69.9275189481
 30
0.0
 10
52.0159361365
 20
70.4452163972
 30
0.0
 10
52.6313064864
 20
71.233779985
 30
0.0
 10
53.2708781396
 20
72.389410636
 30
0.0
 10
53.6135722623
 20
73.4051684166
 30
0.0
 10
53.7514035831
 20
73.9406554056
 30
0.0
  0
SPLINE
  5
2DA
100
AcDbEntity
  8
0
100
AcDbSpline
 62
7
  6
BYLAYER
 70
0
 71
3
 72
11
 73
7
 74
0
 42
0.0000001
 43
0.0000001
 44
0.0000000001
 40
0.0
 40
0.0
 40
0.0
 40
0.0
 40
0.2494410658
 40
0.5007976678
 40
0.7516301618
 40
1.0
 40
1.0
 40
1.0
 40
1.0
 10
44.4343877095
 20
74.9386882924
 30
0.0
 10
44.3291433014
 20
75.0794481025
 30
0.0
 10
44.1031269199
 20
75.3513210143
 30
0.0
 10
43.7258551239
 20
75.7241437381
 30
0.0
 10
43.3142476804
 20
76.0575182812
 30
0.0
 10
43.0187406695
 20
76.2498431642
 30
0.0
 10
42.8667122299
 20
76.3365168069
 30
0.0
  0
SPLINE
  5
2DB
100
AcDbEntity
  8
0
100
AcDbSpline
 62
7
  6
BYLAYER
 70
0
 71
3
 72
13
 73
9
 74
0
 42
0.0000001
 43
0.0000001
 44
0.0000000001
 40
0.0
 40
0.0
 40
0.0
 40
0.0
 40
0.2756260873
 40
0.5303856198
 40
0.6515448239
 40
0.7695404587
 40
0.8853359611
 40
1.0
 40
1.0
 40
1.0
 40
1.0
 10
45.0038771748
 20
78.9948119975
 30
0.0
 10
44.9478883673
 20
78.7395389663
 30
0.0
 10
44.8035329864
 20
78.2550863988
 30
0.0
 10
44.5203973384
 20
77.7010789597
 30
0.0
 10
44.2424459974
 20
77.3230993197
 30
0.0
 10
44.0133810345
 20
77.0754801497
 30
0.0
 10
43.7615073297
 20
76.8604966456
 30
0.0
 10
43.5787673426
 20
76.7395127276
 30
0.0
 10
43.484611868
 20
76.6851523616
 30
0.0
  0
SPLINE
  5
2DC
100
AcDbEntity
  8
0
100
AcDbSpline
 62
7
  6
BYLAYER
 70
0
 71
3
 72
11
 73
7
 74
0
 42
0.0000001
 43
0.0000001
 44
0.0000000001
 40
0.0
 40
0.0
 40
0.0
 40
0.0
 40
0.2470160652
 40
0.4999994578
 40
0.7529831265
 40
1.0
 40
1.0
 40
1.0
 40
1.0
 10
44.4343877095
 20
91.0633190448
 30
0.0
 10
44.8840304466
 20
90.58025066
 30
0.0
 10
45.7351971079
 20
89.5461418518
 30
0.0
 10
46.8358911583
 20
87.8576859691
 30
0.0
 10
47.7477993271
 20
86.0602314272
 30
0.0
 10
48.2177880458
 20
84.8060448511
 30
0.0
 10
48.4113204688
 20
84.1751076855
 30
0.0
  0
SPLINE
  5
2DD
100
AcDbEntity
  8
0
100
AcDbSpline
 62
7
  6
BYLAYER
 70
0
 71
3
 72
15
 73
11
 74
0
 42
0.0000001
 43
0.0000001
 44
0.0000000001
 40
0.0
 40
0.0
 40
0.0
 40
0.0
 40
0.0934667557
 40
0.2014705595
 40
0.3220028012
 40
0.4530006093
 40
0.5917447133
 40
0.7341298336
 40
0.8734502979
 40
1.0
 40
1.0
 40
1.0
 40
1.0
 10
48.4113204688
 20
84.1751076855
 30
0.0
 10
48.3258018237
 20
84.0744707066
 30
0.0
 10
48.1306280123
 20
83.8667393274
 30
0.0
 10
47.7979051557
 20
83.5561144479
 30
0.0
 10
47.4089431862
 20
83.2290321271
 30
0.0
 10
46.9721589095
 20
82.8922001288
 30
0.0
 10
46.4986169472
 20
82.5531182199
 30
0.0
 10
46.0053918607
 20
82.2218249507
 30
0.0
 10
45.5181961686
 20
81.9128623558
 30
0.0
 10
45.1960411839
 20
81.7195103091
 30
0.0
 10
45.041186652
 20
81.630105537
 30
0.0
  0
SPLINE
  5
2DE
100
AcDbEntity
  8
0
100
AcDbSpline
 62
7
  6
BYLAYER
 70
0
 71
3
 72
15
 73
11
 74
0
 42
0.0000001
 43
0.0000001
 44
0.0000000001
 40
0.0
 40
0.0
 40
0.0
 40
0.0
 40
0.118618049
 40
0.242628418
 40
0.3703560936
 40
0.4999991596
 40
0.6296423371
 40
0.7573703419
 40
0.8813812428
 40
1.0
 40
1.0
 40
1.0
 40
1.0
 10
40.545300413
 20
89.4171657003
 30
0.0
 10
40.829075425
 20
89.1907832271
 30
0.0
 10
41.3840201547
 20
88.695080533
 30
0.0
 10
42.1527154683
 20
87.8600653864
 30
0.0
 10
42.8630275638
 20
86.9319794085
 30
0.0
 10
43.4993736835
 20
85.9313311167
 30
0.0
 10
44.0477929445
 20
84.8799167913
 30
0.0
 10
44.4963895345
 20
83.8007250185
 30
0.0
 10
44.8351937894
 20
82.7175051344
 30
0.0
 10
44.9870181811
 20
81.9890548815
 30
0.0
 10
45.041186652
 20
81.630105537
 30
0.0
  0
SPLINE
  5
2DF
100
AcDbEntity
  8
0
100
AcDbSpline
 62
7
  6
BYLAYER
 70
0
 71
3
 72
15
 73
11
 74
0
 42
0.0000001
 43
0.0000001
 44
0.0000000001
 40
0.0
 40
0.0
 40
0.0
 40
0.0
 40
0.0934652939
 40
0.2014659339
 40
0.3219977256
 40
0.4529970011
 40
0.5917437926
 40
0.7341327346
 40
0.8734525404
 40
1.0
 40
1.0
 40
1.0
 40
1.0
 10
44.4343877095
 20
91.0633190448
 30
0.0
 10
44.3044769366
 20
91.0395736925
 30
0.0
 10
44.0269948335
 20
90.9744211261
 30
0.0
 10
43.5916370154
 20
90.841570203
 30
0.0
 10
43.1139060645
 20
90.6682401267
 30
0.0
 10
42.6038035815
 20
90.4583920207
 30
0.0
 10
42.0733619439
 20
90.2178440234
 30
0.0
 10
41.5398612544
 20
89.9562880848
 30
0.0
 10
41.0286576755
 20
89.6889137809
 30
0.0
 10
40.7001520057
 20
89.5065687753
 30
0.0
 10
40.545300413
 20
89.4171657003
 30
0.0
  0
ENDSEC
  0
SECTION
  2
OBJECTS
  0
DICTIONARY
  5
C
100
AcDbDictionary
280
0
281
1
  3
ACAD_GROUP
350
D
  3
ACAD_MLINESTYLE
350
17
  3
ACAD_LAYOUT
350
1A
  3
ACAD_PLOTSETTINGS
350
19
  3
ACAD_PLOTSTYLENAME
350
E
  0
DICTIONARY
  5
D
102
{ACAD_REACTORS
330
C
102
}
100
AcDbDictionary
280
0
281
1
  0
ACDBDICTIONARYWDFLT
  5
E
102
{ACAD_REACTORS
330
C
102
}
100
AcDbDictionary
281
1
  3
Normal
350
F
100
AcDbDictionaryWithDefault
340
F
  0
DICTIONARY
  5
17
102
{ACAD_REACTORS
330
C
102
}
100
AcDbDictionary
280
0
281
1
  3
Standard
350
18
  0
DICTIONARY
  5
19
102
{ACAD_REACTORS
330
C
102
}
100
AcDbDictionary
281
1
  0
DICTIONARY
  5
1A
102
{ACAD_REACTORS
330
C
102
}
100
AcDbDictionary
281
1
  3
Model
350
2E0
  3
Layout1
350
2E1
  0
ACDBPLACEHOLDER
  5
F
102
{ACAD_REACTORS
330
E
102
}
  0
MLINESTYLE
  5
18
102
{ACAD_REACTORS
330
17
102
}
100
AcDbMlineStyle
  2
STANDARD
 70
0
  3

 62
256
 51
90.0
 52
90.0
 71
2
 49
0.5
 62
256
  6
BYLAYER
 49
-0.5
 62
256
  6
BYLAYER
  0
LAYOUT
  5
2E0
102
{ACAD_REACTORS
330
1A
102
}
100
AcDbPlotSettings
  1

  2
none_device
  4

  6

 40
0.0
 41
0.0
 42
0.0
 43
0.0
 44
210.0
 45
297.0
 46
0.0
 47
0.0
 48
0.0
 49
0.0
140
0.0
141
0.0
142
1.0
143
1.0
 70
1024
 72
1
 73
0
 74
0
  7

 75
0
147
1.0
148
0.0
149
0.0
100
AcDbLayout
  1
Model
 70
0
 71
0
 10
0.0
 20
0.0
 11
210.0
 21
297.0
 12
0.0
 22
0.0
 32
0.0
 14
0.0
 24
0.0
 34
0.0
 15
0.0
 25
0.0
 35
0.0
146
0.0
 13
0.0
 23
0.0
 33
0.0
 16
1.0
 26
0.0
 36
0.0
 17
0.0
 27
1.0
 37
0.0
 76
0
330
210
345
0
346
0
  0
LAYOUT
  5
2E1
102
{ACAD_REACTORS
330
1A
102
}
100
AcDbPlotSettings
  1

  2
none_device
  4

  6

 40
0.0
 41
0.0
 42
0.0
 43
0.0
 44
210.0
 45
297.0
 46
0.0
 47
0.0
 48
0.0
 49
0.0
140
0.0
141
0.0
142
1.0
143
1.0
 70
0
 72
1
 73
0
 74
0
  7

 75
0
147
1.0
148
0.0
149
0.0
100
AcDbLayout
  1
Layout1
 70
0
 71
1
 10
0.0
 20
0.0
 11
210.0
 21
297.0
 12
0.0
 22
0.0
 32
0.0
 14
0.0
 24
0.0
 34
0.0
 15
0.0
 25
0.0
 35
0.0
146
0.0
 13
0.0
 23
0.0
 33
0.0
 16
1.0
 26
0.0
 36
0.0
 17
0.0
 27
1.0
 37
0.0
 76
0
330
211
345
0
346
0
  0
ENDSEC
  0
EOF
