999
DXF file: C:\Users\sesa63760\Dev\_Creo\CAD\MCADID0004755_3D-CAD\drw0001_4.dxf
999
Pro/ENGINEER 2019471 by Parametric Technology Corporation
  0
SECTION
  2
HEADER
  9
$ACADVER
  1
AC1024
  9
$DWGCODEPAGE
  3
ANSI_1252
  9
$EXTMAX
 10
201.751121125
 20
285.3337284483
 30
0.0
  9
$EXTMIN
 10
0.0
 20
0.0
 30
0.0
  9
$LIMMIN
 10
0.0
 20
0.0
  9
$LIMMAX
 10
201.751121125
 20
285.3337284483
  9
$VIEWCTR
 10
100.8755605625
 20
142.6668642241
  9
$VIEWSIZE
 40
285.3337284483
  9
$CLAYER
  8
0
  9
$LTSCALE
 40
18.5995319285
  9
$CELTYPE
  6
BYLAYER
  9
$DIMSCALE
 40
1.0
  9
$DIMASZ
 40
2.401799061
  9
$DIMEXO
 40
1.0
  9
$DIMDLI
 40
12.850585696
  9
$DIMEXE
 40
1.0
  9
$DIMCEN
 40
3.0435597701
  9
$DIMLFAC
 40
1.0
  9
$DIMBLK
  1
_FILLED
  9
$DIMALT
 70
0
  9
$DIMALTF
 40
0.0393700787
  9
$DIMTXT
 40
3.3625186854
  9
$DIMTOL
 70
1
  9
$DIMLIM
 70
0
  9
$DIMTFAC
 40
1.0
  9
$DIMTP
 40
0.01
  9
$DIMTM
 40
0.01
  9
$DIMGAP
 40
0.625
  9
$DIMDSEP
 70
46
  9
$AUNITS
 70
0
  9
$PDMODE
 70
3
  9
$PDSIZE
 40
0.3125
  9
$HANDSEED
  5
348
  9
$TILEMODE
 70
1
  9
$MEASUREMENT
 70
1
  9
$INSUNITS
 70
4
  0
ENDSEC
  0
SECTION
  2
CLASSES
  0
CLASS
  1
ACDBDICTIONARYWDFLT
  2
AcDbDictionaryWithDefault
  3
AutoCAD 2000
 90
0
 91
1
280
0
281
0
  0
CLASS
  1
ACDBPLACEHOLDER
  2
AcDbPlaceHolder
  3
AutoCAD 2000
 90
0
 91
1
280
0
281
0
  0
CLASS
  1
LAYOUT
  2
AcDbLayout
  3
AutoCAD 2000
 90
0
 91
0
280
0
281
0
  0
ENDSEC
  0
SECTION
  2
TABLES
  0
TABLE
  2
VPORT
  5
8
100
AcDbSymbolTable
 70
2
  0
VPORT
  5
1F4
100
AcDbSymbolTableRecord
100
AcDbViewportTableRecord
  2
*ACTIVE
 70
0
 10
0.0
 20
0.0
 11
1.0
 21
1.0
 12
100.8755605625
 22
142.6668642241
 13
0.0
 23
0.0
 14
1.0
 24
1.0
 15
0.0
 25
0.0
 16
0.0
 26
0.0
 36
1.0
 17
0.0
 27
0.0
 37
0.0
 40
285.3337284483
 41
0.7070707071
 42
50.0
 43
0.0
 44
0.0
 50
0.0
 51
0.0
 71
0
 72
100
 73
1
 74
1
 75
0
 76
0
 77
0
 78
0
  0
ENDTAB
  0
TABLE
  2
LTYPE
  5
5
100
AcDbSymbolTable
 70
6
  0
LTYPE
  5
14
100
AcDbSymbolTableRecord
100
AcDbLinetypeTableRecord
  2
BYBLOCK
 70
0
  3

 72
65
 73
0
 40
0.0
  0
LTYPE
  5
15
100
AcDbSymbolTableRecord
100
AcDbLinetypeTableRecord
  2
BYLAYER
 70
0
  3

 72
65
 73
0
 40
0.0
  0
LTYPE
  5
16
100
AcDbSymbolTableRecord
100
AcDbLinetypeTableRecord
  2
CONTINUOUS
 70
64
  3
Solid line
 72
65
 73
0
 40
0.0
  0
LTYPE
  5
1F5
100
AcDbSymbolTableRecord
100
AcDbLinetypeTableRecord
  2
CENTER
 70
64
  3
____ _ ____ _ ____ _ ____ _ ____ _ ____ _ ____
 72
65
 73
4
 40
0.6
 49
0.375
 74
0
 49
-0.075
 74
0
 49
0.075
 74
0
 49
-0.075
 74
0
  0
LTYPE
  5
1F6
100
AcDbSymbolTableRecord
100
AcDbLinetypeTableRecord
  2
HIDDEN
 70
64
  3
- - - - - - - - - - - - - - - - - - - -
 72
65
 73
2
 40
0.2
 49
0.1
 74
0
 49
-0.1
 74
0
  0
LTYPE
  5
1F7
100
AcDbSymbolTableRecord
100
AcDbLinetypeTableRecord
  2
PHANTOM
 70
64
  3
_____ _ _ _____ _ _ _____ _ _ _____
 72
65
 73
6
 40
0.8
 49
0.45
 74
0
 49
-0.05
 74
0
 49
0.1
 74
0
 49
-0.05
 74
0
 49
0.1
 74
0
 49
-0.05
 74
0
  0
LTYPE
  5
1F8
100
AcDbSymbolTableRecord
100
AcDbLinetypeTableRecord
  2
DOT
 70
64
  3
. . . . . . . . . . . . . . . . . . . .
 72
65
 73
2
 40
0.2
 49
0.1
 74
0
 49
-0.1
 74
0
  0
LTYPE
  5
1F9
100
AcDbSymbolTableRecord
100
AcDbLinetypeTableRecord
  2
DASHED
 70
64
  3
- - - - - - - - - - - - - - - - - - - -
 72
65
 73
2
 40
0.2
 49
0.1
 74
0
 49
-0.1
 74
0
  0
ENDTAB
  0
TABLE
  2
LAYER
  5
2
100
AcDbSymbolTable
 70
36
  0
LAYER
  5
10
100
AcDbSymbolTableRecord
100
AcDbLayerTableRecord
  2
0
 70
0
 62
7
  6
CONTINUOUS
370
-3
390
F
  0
LAYER
  5
1FA
100
AcDbSymbolTableRecord
100
AcDbLayerTableRecord
  2
DEFAULT_1
 70
0
 62
7
  6
CENTER
370
-3
390
F
  0
LAYER
  5
1FB
100
AcDbSymbolTableRecord
100
AcDbLayerTableRecord
  2
DEFAULT_2
 70
0
 62
7
  6
HIDDEN
370
-3
390
F
  0
LAYER
  5
1FC
100
AcDbSymbolTableRecord
100
AcDbLayerTableRecord
  2
DEFAULT_3
 70
0
 62
7
  6
PHANTOM
370
-3
390
F
  0
LAYER
  5
1FD
100
AcDbSymbolTableRecord
100
AcDbLayerTableRecord
  2
00_COMPONENTS
 70
0
 62
7
  6
CONTINUOUS
370
-3
390
F
  0
LAYER
  5
1FE
100
AcDbSymbolTableRecord
100
AcDbLayerTableRecord
  2
01_1_DEFAULT_DATUMS
 70
0
 62
7
  6
CONTINUOUS
370
-3
390
F
  0
LAYER
  5
1FF
100
AcDbSymbolTableRecord
100
AcDbLayerTableRecord
  2
01_PLANES
 70
0
 62
7
  6
CONTINUOUS
370
-3
390
F
  0
LAYER
  5
200
100
AcDbSymbolTableRecord
100
AcDbLayerTableRecord
  2
02_COORD_SYS
 70
0
 62
7
  6
CONTINUOUS
370
-3
390
F
  0
LAYER
  5
201
100
AcDbSymbolTableRecord
100
AcDbLayerTableRecord
  2
03_AXES
 70
0
 62
7
  6
CONTINUOUS
370
-3
390
F
  0
LAYER
  5
202
100
AcDbSymbolTableRecord
100
AcDbLayerTableRecord
  2
04_POINTS
 70
0
 62
7
  6
CONTINUOUS
370
-3
390
F
  0
LAYER
  5
203
100
AcDbSymbolTableRecord
100
AcDbLayerTableRecord
  2
05_CURVES
 70
0
 62
7
  6
CONTINUOUS
370
-3
390
F
  0
LAYER
  5
204
100
AcDbSymbolTableRecord
100
AcDbLayerTableRecord
  2
06_SURFS
 70
0
 62
7
  6
CONTINUOUS
370
-3
390
F
  0
LAYER
  5
205
100
AcDbSymbolTableRecord
100
AcDbLayerTableRecord
  2
07_COSMETICS
 70
0
 62
7
  6
CONTINUOUS
370
-3
390
F
  0
LAYER
  5
206
100
AcDbSymbolTableRecord
100
AcDbLayerTableRecord
  2
10_NOTES
 70
0
 62
7
  6
CONTINUOUS
370
-3
390
F
  0
LAYER
  5
207
100
AcDbSymbolTableRecord
100
AcDbLayerTableRecord
  2
11_NOTES_PUB
 70
0
 62
7
  6
CONTINUOUS
370
-3
390
F
  0
LAYER
  5
208
100
AcDbSymbolTableRecord
100
AcDbLayerTableRecord
  2
13_REF_GTOL
 70
0
 62
7
  6
CONTINUOUS
370
-3
390
F
  0
LAYER
  5
209
100
AcDbSymbolTableRecord
100
AcDbLayerTableRecord
  2
16_MISC
 70
0
 62
7
  6
CONTINUOUS
370
-3
390
F
  0
LAYER
  5
20A
100
AcDbSymbolTableRecord
100
AcDbLayerTableRecord
  2
17_NO_PRINT
 70
0
 62
7
  6
CONTINUOUS
370
-3
390
F
  0
LAYER
  5
20B
100
AcDbSymbolTableRecord
100
AcDbLayerTableRecord
  2
18_DATUM_CAMS_JOINTS
 70
0
 62
7
  6
CONTINUOUS
370
-3
390
F
  0
LAYER
  5
20C
100
AcDbSymbolTableRecord
100
AcDbLayerTableRecord
  2
19_DATUM_FUNCTIONAL
 70
0
 62
7
  6
CONTINUOUS
370
-3
390
F
  0
LAYER
  5
20D
100
AcDbSymbolTableRecord
100
AcDbLayerTableRecord
  2
20_DATUM_KINEMATIC_SCHEME
 70
0
 62
7
  6
CONTINUOUS
370
-3
390
F
  0
ENDTAB
  0
TABLE
  2
STYLE
  5
3
100
AcDbSymbolTable
 70
1
  0
STYLE
  5
11
100
AcDbSymbolTableRecord
100
AcDbTextStyleTableRecord
  2
STANDARD
 70
0
 40
0.0
 41
1.0
 50
0.0
 71
0
 42
0.2
  3
ARIAL.TTF
  4

  0
STYLE
  5
20E
100
AcDbSymbolTableRecord
100
AcDbTextStyleTableRecord
  2
TEXTSTYLE_1
 70
0
 40
0.0
 41
0.8
 50
0.0
 71
0
 42
0.2
  3
gdt
  4

  0
ENDTAB
  0
TABLE
  2
VIEW
  5
6
100
AcDbSymbolTable
 70
0
  0
ENDTAB
  0
TABLE
  2
UCS
  5
7
100
AcDbSymbolTable
 70
0
  0
ENDTAB
  0
TABLE
  2
APPID
  5
9
100
AcDbSymbolTable
 70
1
  0
APPID
  5
20F
100
AcDbSymbolTableRecord
100
AcDbRegAppTableRecord
  2
ACAD
 70
0
  0
ENDTAB
  0
TABLE
  2
BLOCK_RECORD
  5
1
100
AcDbSymbolTable
 70
0
  0
BLOCK_RECORD
  5
210
100
AcDbSymbolTableRecord
100
AcDbBlockTableRecord
  2
*Model_Space
  0
BLOCK_RECORD
  5
211
100
AcDbSymbolTableRecord
100
AcDbBlockTableRecord
  2
*Paper_Space
  0
BLOCK_RECORD
  5
212
100
AcDbSymbolTableRecord
100
AcDbBlockTableRecord
  2
_FILLED
  0
ENDTAB
  0
TABLE
  2
DIMSTYLE
  5
A
100
AcDbSymbolTable
 70
1
100
AcDbDimStyleTable
 71
0
  0
DIMSTYLE
105
213
100
AcDbSymbolTableRecord
100
AcDbDimStyleTableRecord
  2
STANDARD
 70
0
  3

  4

 40
1.0
 41
2.401799061
 42
1.0
 43
0.38
 44
1.0
 45
0.0
 46
0.0
 47
0.01
 48
0.01
140
3.3625186854
141
0.09
142
0.0
143
25.4
144
1.0
145
0.0
146
1.0
147
0.625
 71
1
 72
0
 73
0
 74
0
 75
0
 76
0
 77
1
 78
8
 79
2
170
0
171
1
172
0
173
0
174
0
175
0
176
0
177
0
178
0
270
2
179
2
271
2
272
2
273
2
274
2
275
0
280
0
281
0
282
0
283
1
284
8
285
0
286
0
287
3
288
0
340
11
278
46
341
212
342
212
343
212
344
212
  0
ENDTAB
  0
ENDSEC
  0
SECTION
  2
BLOCKS
  0
BLOCK
  5
20
100
AcDbEntity
  8
0
100
AcDbBlockBegin
  2
*Model_Space
 70
0
 10
0.0
 20
0.0
 30
0.0
  3
*Model_Space
  1

  0
ENDBLK
  5
21
100
AcDbEntity
  8
0
100
AcDbBlockEnd
  0
BLOCK
  5
1C
100
AcDbEntity
  8
0
100
AcDbBlockBegin
  2
*Paper_Space
 70
0
 10
0.0
 20
0.0
 30
0.0
  3
*Paper_Space
  1

  0
ENDBLK
  5
1D
100
AcDbEntity
  8
0
100
AcDbBlockEnd
  0
BLOCK
  5
214
100
AcDbEntity
  8
0
100
AcDbBlockBegin
  2
_FILLED
 70
64
 10
0.0
 20
0.0
  3
_FILLED
  1

  0
SOLID
  5
215
100
AcDbEntity
  8
0
  6
BYBLOCK
 62
0
100
AcDbTrace
 10
0.0
 20
0.0
 11
-1.0
 21
0.25
 12
-1.0
 22
-0.25
 13
-1.0
 23
-0.25
  0
ENDBLK
  5
216
100
AcDbEntity
  8
0
  6
BYBLOCK
 62
0
100
AcDbBlockEnd
  0
ENDSEC
  0
SECTION
  2
ENTITIES
  0
LINE
  5
217
100
AcDbEntity
  8
0
100
AcDbLine
 62
7
  6
BYLAYER
 10
22.4699032349
 20
137.54375
 11
22.4699032349
 21
156.04375
  0
LINE
  5
218
100
AcDbEntity
  8
0
100
AcDbLine
 62
7
  6
BYLAYER
 10
23.7699032349
 20
135.39375
 11
23.7699032349
 21
137.54375
  0
LINE
  5
219
100
AcDbEntity
  8
0
100
AcDbLine
 62
7
  6
BYLAYER
 10
24.1199032349
 20
131.14375
 11
24.1199032349
 21
131.74375
  0
LINE
  5
21A
100
AcDbEntity
  8
0
100
AcDbLine
 62
7
  6
BYLAYER
 10
24.1199032349
 20
132.94375
 11
24.1199032349
 21
134.09375
  0
LINE
  5
21B
100
AcDbEntity
  8
0
100
AcDbLine
 62
7
  6
BYLAYER
 10
24.7199032349
 20
127.54375
 11
24.7199032349
 21
131.14375
  0
LINE
  5
21C
100
AcDbEntity
  8
0
100
AcDbLine
 62
7
  6
BYLAYER
 10
24.8699032349
 20
131.74375
 11
24.8699032349
 21
132.94375
  0
LINE
  5
21D
100
AcDbEntity
  8
0
100
AcDbLine
 62
7
  6
BYLAYER
 10
24.9699032349
 20
134.09375
 11
24.9699032349
 21
135.39375
  0
LINE
  5
21E
100
AcDbEntity
  8
0
100
AcDbLine
 62
7
  6
BYLAYER
 10
30.4699032349
 20
142.9206443744
 11
30.4699032349
 21
155.0176802992
  0
LINE
  5
21F
100
AcDbEntity
  8
0
100
AcDbLine
 62
7
  6
BYLAYER
 10
35.9699032349
 20
135.39375
 11
35.9699032349
 21
134.09375
  0
LINE
  5
220
100
AcDbEntity
  8
0
100
AcDbLine
 62
7
  6
BYLAYER
 10
36.0699032349
 20
132.94375
 11
36.0699032349
 21
131.74375
  0
LINE
  5
221
100
AcDbEntity
  8
0
100
AcDbLine
 62
7
  6
BYLAYER
 10
36.2199032349
 20
131.14375
 11
36.2199032349
 21
127.54375
  0
LINE
  5
222
100
AcDbEntity
  8
0
100
AcDbLine
 62
7
  6
BYLAYER
 10
36.8199032349
 20
134.09375
 11
36.8199032349
 21
132.94375
  0
LINE
  5
223
100
AcDbEntity
  8
0
100
AcDbLine
 62
7
  6
BYLAYER
 10
36.8199032349
 20
131.74375
 11
36.8199032349
 21
131.14375
  0
LINE
  5
224
100
AcDbEntity
  8
0
100
AcDbLine
 62
7
  6
BYLAYER
 10
37.1699032349
 20
137.54375
 11
37.1699032349
 21
135.39375
  0
LINE
  5
225
100
AcDbEntity
  8
0
100
AcDbLine
 62
7
  6
BYLAYER
 10
38.4699032349
 20
138.04375
 11
38.4699032349
 21
137.54375
  0
LINE
  5
226
100
AcDbEntity
  8
0
100
AcDbLine
 62
7
  6
BYLAYER
 10
53.1199032349
 20
156.0436656166
 11
53.1199032349
 21
138.0437575772
  0
LINE
  5
227
100
AcDbEntity
  8
0
100
AcDbLine
 62
7
  6
BYLAYER
 10
54.0199032349
 20
139.54375
 11
54.0199032349
 21
154.54375
  0
LINE
  5
228
100
AcDbEntity
  8
0
100
AcDbLine
 62
7
  6
BYLAYER
 10
54.5199032349
 20
154.54375
 11
54.5199032349
 21
139.5439696452
  0
LINE
  5
229
100
AcDbEntity
  8
0
100
AcDbLine
 62
7
  6
BYLAYER
 10
54.7199032349
 20
154.3437216933
 11
54.7199032349
 21
139.7439638104
  0
LINE
  5
22A
100
AcDbEntity
  8
0
100
AcDbLine
 62
7
  6
BYLAYER
 10
55.9199032349
 20
139.7437500223
 11
55.9199032349
 21
154.3436440358
  0
LINE
  5
22B
100
AcDbEntity
  8
0
100
AcDbLine
 62
7
  6
BYLAYER
 10
56.1199032349
 20
139.54375
 11
56.1199032349
 21
154.5436411555
  0
LINE
  5
22C
100
AcDbEntity
  8
0
100
AcDbLine
 62
7
  6
BYLAYER
 10
58.3199032349
 20
154.54375
 11
58.3199032349
 21
139.54375
  0
LINE
  5
22D
100
AcDbEntity
  8
0
100
AcDbLine
 62
7
  6
BYLAYER
 10
59.4199032349
 20
153.44375
 11
59.4199032349
 21
140.64375
  0
LINE
  5
22E
100
AcDbEntity
  8
0
100
AcDbLine
 62
7
  6
BYLAYER
 10
60.9392779634
 20
151.79375
 11
60.9392779634
 21
142.29375
  0
LWPOLYLINE
  5
22F
100
AcDbEntity
  8
0
100
AcDbPolyline
 62
7
  6
BYLAYER
 90
4
 70
0
 10
70.3647465473
 20
146.5973670448
 10
70.2765618064
 20
147.6325316658
 10
70.2142929438
 20
148.3179111749
 10
70.1535237205
 20
148.8817228175
  0
LINE
  5
230
100
AcDbEntity
  8
0
100
AcDbLine
 62
7
  6
BYLAYER
 10
68.5199032349
 20
150.4039207349
 11
68.5199032349
 21
143.6835792651
  0
LINE
  5
231
100
AcDbEntity
  8
0
100
AcDbLine
 62
7
  6
BYLAYER
 10
68.5999032375
 20
144.1037500019
 11
68.5999032375
 21
149.9833672968
  0
LINE
  5
232
100
AcDbEntity
  8
0
100
AcDbLine
 62
7
  6
BYLAYER
 10
71.6475894794
 20
146.7838622663
 11
71.7060396311
 21
147.3047951925
  0
LINE
  5
233
100
AcDbEntity
  8
0
100
AcDbLine
 62
7
  6
BYLAYER
 10
69.3674299985
 20
144.7670049422
 11
69.388832075
 21
144.6449919747
  0
LWPOLYLINE
  5
234
100
AcDbEntity
  8
0
100
AcDbPolyline
 62
7
  6
BYLAYER
 90
3
 70
0
 10
75.4530250152
 20
147.9013402107
 10
75.3931001501
 20
148.5280902174
 10
75.3331193385
 20
149.0397109766
  0
LWPOLYLINE
  5
235
100
AcDbEntity
  8
0
100
AcDbPolyline
 62
7
  6
BYLAYER
 90
4
 70
0
 10
72.9903020464
 20
147.4715628945
 10
73.0779064148
 20
146.4426373649
 10
73.1383631355
 20
145.7790404172
 10
73.1976737205
 20
145.2235159218
  0
LWPOLYLINE
  5
236
100
AcDbEntity
  8
0
100
AcDbPolyline
 62
7
  6
BYLAYER
 90
4
 70
0
 10
72.9689384985
 20
146.5480912543
 10
72.8865707751
 20
147.5174391687
 10
72.8276626471
 20
148.1773978251
 10
72.7672215933
 20
148.7652369727
  0
LWPOLYLINE
  5
237
100
AcDbEntity
  8
0
100
AcDbPolyline
 62
7
  6
BYLAYER
 90
4
 70
0
 10
74.2733632311
 20
146.4975357619
 10
74.1899243613
 20
147.4774750957
 10
74.1279239512
 20
148.175517757
 10
74.06352913
 20
148.7973035884
  0
LINE
  5
238
100
AcDbEntity
  8
0
100
AcDbLine
 62
7
  6
BYLAYER
 10
72.9477931341
 20
146.785988938
 11
73.0057601743
 21
147.3028249839
  0
LINE
  5
239
100
AcDbEntity
  8
0
100
AcDbLine
 62
7
  6
BYLAYER
 10
75.5483142304
 20
146.7910373626
 11
75.6055800387
 21
147.3010091815
  0
LINE
  5
23A
100
AcDbEntity
  8
0
100
AcDbLine
 62
7
  6
BYLAYER
 10
72.9482809088
 20
146.7896148585
 11
73.0056738368
 21
147.2910719085
  0
LWPOLYLINE
  5
23B
100
AcDbEntity
  8
0
100
AcDbPolyline
 62
7
  6
BYLAYER
 90
3
 70
0
 10
75.5481887795
 20
146.7920498062
 10
75.5510141459
 20
146.8146900591
 10
75.6058168146
 20
147.2894798494
  0
LWPOLYLINE
  5
23C
100
AcDbEntity
  8
0
100
AcDbPolyline
 62
7
  6
BYLAYER
 90
7
 70
0
 10
70.5635079492
 20
144.8692819745
 10
70.565089819
 20
144.8650928729
 10
70.5498416463
 20
144.9302152606
 10
70.5121173332
 20
145.1556179366
 10
70.4669658216
 20
145.5199326049
 10
70.4177537854
 20
146.006169213
 10
70.3647465473
 20
146.5973670448
  0
LWPOLYLINE
  5
23D
100
AcDbEntity
  8
0
100
AcDbPolyline
 62
7
  6
BYLAYER
 90
7
 70
0
 10
73.1631930999
 20
144.8695306156
 10
73.1643564333
 20
144.8663370186
 10
73.1468748091
 20
144.9429825035
 10
73.109009472
 20
145.1785312236
 10
73.065785185
 20
145.5320264513
 10
73.0190655538
 20
145.9914746045
 10
72.9689384985
 20
146.5480912543
  0
LWPOLYLINE
  5
23E
100
AcDbEntity
  8
0
100
AcDbPolyline
 62
7
  6
BYLAYER
 90
4
 70
0
 10
69.388832075
 20
144.6449919747
 10
69.4758909545
 20
144.3753033319
 10
69.739417283
 20
144.0796792902
 10
70.0519745606
 20
143.9937759065
  0
LWPOLYLINE
  5
23F
100
AcDbEntity
  8
0
100
AcDbPolyline
 62
7
  6
BYLAYER
 90
11
 70
0
 10
71.8648840024
 20
144.8640374295
 10
71.8611360966
 20
144.8789145958
 10
71.8288321318
 20
145.0465933297
 10
71.7872338216
 20
145.3462452496
 10
71.7418121602
 20
145.7580103886
 10
71.6935041957
 20
146.269542516
 10
71.642464441
 20
146.8582813298
 10
71.5888753945
 20
147.4899919636
 10
71.5329406619
 20
148.1204287768
 10
71.475628533
 20
148.6917664534
 10
71.4183800463
 20
149.1448886945
  0
LWPOLYLINE
  5
240
100
AcDbEntity
  8
0
100
AcDbPolyline
 62
7
  6
BYLAYER
 90
11
 70
0
 10
70.1894696854
 20
149.2190328315
 10
70.1916084112
 20
149.2099956598
 10
70.2211677556
 20
149.0629486788
 10
70.2607838756
 20
148.7862187518
 10
70.3042348003
 20
148.4007298403
 10
70.3500270822
 20
147.9267541232
 10
70.3982559662
 20
147.3793102313
 10
70.4491815915
 20
146.7786878107
 10
70.5031976017
 20
146.1555472282
 10
70.5610394045
 20
145.5518667222
 10
70.6211294761
 20
145.0420464021
  0
LWPOLYLINE
  5
241
100
AcDbEntity
  8
0
100
AcDbPolyline
 62
7
  6
BYLAYER
 90
5
 70
0
 10
70.0949141151
 20
149.2891324633
 10
70.0265529572
 20
149.5869896864
 10
69.8630174716
 20
149.8872066302
 10
69.4612291404
 20
150.0900569901
 10
69.4023763388
 20
150.0930077439
  0
LWPOLYLINE
  5
242
100
AcDbEntity
  8
0
100
AcDbPolyline
 62
7
  6
BYLAYER
 90
5
 70
0
 10
73.2564306503
 20
144.8090803721
 10
73.3245305169
 20
144.509788442
 10
73.4761207233
 20
144.2183701627
 10
73.8730394447
 20
144.0001028287
 10
73.9525499351
 20
143.9947364548
  0
LWPOLYLINE
  5
243
100
AcDbEntity
  8
0
100
AcDbPolyline
 62
7
  6
BYLAYER
 90
11
 70
0
 10
71.4904695782
 20
149.2169609558
 10
71.4923712794
 20
149.2085793102
 10
71.5220892037
 20
149.0580623425
 10
71.5620593342
 20
148.7746707609
 10
71.6056707246
 20
148.3864497317
 10
71.651701014
 20
147.9094567801
 10
71.7001783366
 20
147.3570891225
 10
71.7513963377
 20
146.7518112045
 10
71.8056989179
 20
146.1274371348
 10
71.863418547
 20
145.5305241223
 10
71.9230611365
 20
145.0270795529
  0
LWPOLYLINE
  5
244
100
AcDbEntity
  8
0
100
AcDbPolyline
 62
7
  6
BYLAYER
 90
5
 70
0
 10
74.000657223
 20
149.2563173815
 10
73.9307646023
 20
149.5742216108
 10
73.7652885657
 20
149.8834934799
 10
73.3634200572
 20
150.0882974429
 10
73.3023678551
 20
150.0914684819
  0
LWPOLYLINE
  5
245
100
AcDbEntity
  8
0
100
AcDbPolyline
 62
7
  6
BYLAYER
 90
5
 70
0
 10
72.7055465952
 20
149.2281597402
 10
72.6354380789
 20
149.5571715187
 10
72.4737642517
 20
149.8723092394
 10
72.0693223262
 20
150.0870498076
 10
72.0012150369
 20
150.0909829298
  0
LWPOLYLINE
  5
246
100
AcDbEntity
  8
0
100
AcDbPolyline
 62
7
  6
BYLAYER
 90
5
 70
0
 10
71.4183800463
 20
149.1448886945
 10
71.3575834765
 20
149.4727277814
 10
71.2641313895
 20
149.7386000184
 10
70.9813774913
 20
150.0249831194
 10
70.7010374055
 20
150.0932678929
  0
LWPOLYLINE
  5
247
100
AcDbEntity
  8
0
100
AcDbPolyline
 62
7
  6
BYLAYER
 90
5
 70
0
 10
75.8270275352
 20
144.9986079654
 10
75.8885478738
 20
144.6462045641
 10
75.9805542987
 20
144.365322931
 10
76.2520056774
 20
144.0723843276
 10
76.5517283548
 20
143.9937532082
  0
LWPOLYLINE
  5
248
100
AcDbEntity
  8
0
100
AcDbPolyline
 62
7
  6
BYLAYER
 90
5
 70
0
 10
74.5251004129
 20
145.011318424
 10
74.5867771002
 20
144.653227553
 10
74.6783782597
 20
144.3714813863
 10
74.9487023486
 20
144.0763738938
 10
75.2525403765
 20
143.9956205211
  0
LWPOLYLINE
  5
249
100
AcDbEntity
  8
0
100
AcDbPolyline
 62
7
  6
BYLAYER
 90
5
 70
0
 10
71.9230611365
 20
145.0270795529
 10
71.9849982003
 20
144.6600188554
 10
72.0743130874
 20
144.3794638297
 10
72.3426011077
 20
144.0805640558
 10
72.651958512
 20
143.9967439703
  0
LWPOLYLINE
  5
24A
100
AcDbEntity
  8
0
100
AcDbPolyline
 62
7
  6
BYLAYER
 90
5
 70
0
 10
70.6211294761
 20
145.0420464021
 10
70.6828694013
 20
144.6709056977
 10
70.7699617769
 20
144.3868575095
 10
71.0382194657
 20
144.0813787486
 10
71.3510307098
 20
143.9954739008
  0
LWPOLYLINE
  5
24B
100
AcDbEntity
  8
0
100
AcDbPolyline
 62
7
  6
BYLAYER
 90
11
 70
0
 10
74.0906092303
 20
149.2178099495
 10
74.0913480396
 20
149.2131026588
 10
74.1205250872
 20
149.0663869286
 10
74.1601627997
 20
148.7893567104
 10
74.2038858868
 20
148.4044729829
 10
74.2506221317
 20
147.9215039369
 10
74.3002023313
 20
147.356239616
 10
74.3526055602
 20
146.7372668751
 10
74.4079805974
 20
146.1030392805
 10
74.4660728126
 20
145.5052050743
 10
74.5251004129
 20
145.011318424
  0
LINE
  5
24C
100
AcDbEntity
  8
0
100
AcDbLine
 62
7
  6
BYLAYER
 10
70.1535237205
 20
148.8817228175
 11
70.0949141151
 21
149.2891324633
  0
LINE
  5
24D
100
AcDbEntity
  8
0
100
AcDbLine
 62
7
  6
BYLAYER
 10
73.1976737205
 20
145.2235159218
 11
73.2564306503
 21
144.8090803721
  0
LINE
  5
24E
100
AcDbEntity
  8
0
100
AcDbLine
 62
7
  6
BYLAYER
 10
74.06352913
 20
148.7973035884
 11
74.000657223
 21
149.2563173815
  0
LINE
  5
24F
100
AcDbEntity
  8
0
100
AcDbLine
 62
7
  6
BYLAYER
 10
72.7672215933
 20
148.7652369727
 11
72.7055465952
 21
149.2281597402
  0
LWPOLYLINE
  5
250
100
AcDbEntity
  8
0
100
AcDbPolyline
 62
7
  6
BYLAYER
 90
3
 70
0
 10
80.6740607093
 20
147.6623770911
 10
80.616042957
 20
148.2986037898
 10
80.5568295492
 20
148.8543042344
  0
LWPOLYLINE
  5
251
100
AcDbEntity
  8
0
100
AcDbPolyline
 62
7
  6
BYLAYER
 90
4
 70
0
 10
79.4716555242
 20
147.6865596076
 10
79.5869466591
 20
146.3383546325
 10
79.6501743813
 20
145.6589710238
 10
79.7131122273
 20
145.1017893914
  0
LWPOLYLINE
  5
252
100
AcDbEntity
  8
0
100
AcDbPolyline
 62
7
  6
BYLAYER
 90
4
 70
0
 10
80.7923307832
 20
147.4481336579
 10
80.8779527098
 20
146.4418546428
 10
80.9372182218
 20
145.7908826996
 10
80.9962867526
 20
145.2353612759
  0
LWPOLYLINE
  5
253
100
AcDbEntity
  8
0
100
AcDbPolyline
 62
7
  6
BYLAYER
 90
4
 70
0
 10
79.4658013789
 20
146.5843199688
 10
79.3834836843
 20
147.5533633721
 10
79.3253614112
 20
148.2018837541
 10
79.2653019653
 20
148.7818388572
  0
LINE
  5
254
100
AcDbEntity
  8
0
100
AcDbLine
 62
7
  6
BYLAYER
 10
78.1475404817
 20
146.7834013506
 11
78.2060161952
 21
147.3046611176
  0
LINE
  5
255
100
AcDbEntity
  8
0
100
AcDbLine
 62
7
  6
BYLAYER
 10
80.7475990564
 20
146.7841445118
 11
80.8058800833
 21
147.3038589149
  0
LINE
  5
256
100
AcDbEntity
  8
0
100
AcDbLine
 62
7
  6
BYLAYER
 10
79.448245524
 20
146.7897407952
 11
79.5050541755
 21
147.2959268738
  0
LINE
  5
257
100
AcDbEntity
  8
0
100
AcDbLine
 62
7
  6
BYLAYER
 10
79.4475074639
 20
146.7987001769
 11
79.5057521505
 21
147.2886874814
  0
LWPOLYLINE
  5
258
100
AcDbEntity
  8
0
100
AcDbPolyline
 62
7
  6
BYLAYER
 90
3
 70
0
 10
79.6744041817
 20
144.2815579114
 10
79.7984887988
 20
144.5782441719
 10
79.8041790556
 20
144.6073228958
  0
LINE
  5
259
100
AcDbEntity
  8
0
100
AcDbLine
 62
7
  6
BYLAYER
 10
69.3810108451
 20
144.6895807076
 11
68.5999032375
 21
144.1037500019
  0
LWPOLYLINE
  5
25A
100
AcDbEntity
  8
0
100
AcDbPolyline
 62
7
  6
BYLAYER
 90
7
 70
0
 10
74.463482803
 20
144.8698302298
 10
74.4648612113
 20
144.8661171095
 10
74.4487695908
 20
144.9346549527
 10
74.4127237639
 20
145.1508324519
 10
74.370152532
 20
145.4920652196
 10
74.3235840376
 20
145.9450541931
 10
74.2733632311
 20
146.4975357619
  0
LWPOLYLINE
  5
25B
100
AcDbEntity
  8
0
100
AcDbPolyline
 62
7
  6
BYLAYER
 90
7
 70
0
 10
72.7897413537
 20
149.2203776817
 10
72.7883612205
 20
149.2241465218
 10
72.8046100299
 20
149.1532817145
 10
72.8427193408
 20
148.9205881884
 10
72.8877068509
 20
148.5559179762
 10
72.9369752729
 20
148.0688452821
 10
72.9903020464
 20
147.4715628945
  0
LWPOLYLINE
  5
25C
100
AcDbEntity
  8
0
100
AcDbPolyline
 62
7
  6
BYLAYER
 90
7
 70
0
 10
79.663810194
 20
144.8680013366
 10
79.6647454709
 20
144.8653614426
 10
79.6454962793
 20
144.9500098173
 10
79.6073635569
 20
145.1903593091
 10
79.563532729
 20
145.5525889264
 10
79.5163701459
 20
146.0201288994
 10
79.4658013789
 20
146.5843199688
  0
LWPOLYLINE
  5
25D
100
AcDbEntity
  8
0
100
AcDbPolyline
 62
7
  6
BYLAYER
 90
7
 70
0
 10
75.7642443369
 20
144.8677123277
 10
75.7583923613
 20
144.8904751683
 10
75.7210425606
 20
145.0942924732
 10
75.6741061489
 20
145.4575148648
 10
75.6229470727
 20
145.9515530307
 10
75.5685221444
 20
146.5528923331
 10
75.4530250152
 20
147.9013402107
  0
LWPOLYLINE
  5
25E
100
AcDbEntity
  8
0
100
AcDbPolyline
 62
7
  6
BYLAYER
 90
11
 70
0
 10
77.9900841208
 20
149.2181952574
 10
77.9934339108
 20
149.2046056663
 10
78.0252940604
 20
149.0382212212
 10
78.0664049896
 20
148.7392278096
 10
78.1108386537
 20
148.3360660633
 10
78.1570909751
 20
147.8501528779
 10
78.2054293996
 20
147.2953492844
 10
78.2567233196
 20
146.6889820562
 10
78.31181317
 20
146.0603160356
 10
78.3694193178
 20
145.4741096369
 10
78.4273254485
 20
144.996280116
  0
LWPOLYLINE
  5
25F
100
AcDbEntity
  8
0
100
AcDbPolyline
 62
7
  6
BYLAYER
 90
11
 70
0
 10
77.0644870323
 20
144.8665382287
 10
77.0618228262
 20
144.8775002229
 10
77.0309381958
 20
145.0332968544
 10
76.9901659961
 20
145.321214566
 10
76.9457635363
 20
145.7197439906
 10
76.8989776173
 20
146.2094844927
 10
76.8498296136
 20
146.7712974821
 10
76.7982031707
 20
147.3801120476
 10
76.7442138403
 20
147.9983140535
 10
76.6876042414
 20
148.5815819017
 10
76.6283448623
 20
149.0744831733
  0
LWPOLYLINE
  5
260
100
AcDbEntity
  8
0
100
AcDbPolyline
 62
7
  6
BYLAYER
 90
6
 70
0
 10
79.2901732408
 20
149.2174182801
 10
79.2932627641
 20
149.2046963557
 10
79.3273385216
 20
149.0257603726
 10
79.3717416199
 20
148.6950690555
 10
79.4202101037
 20
148.2420158906
 10
79.4716555242
 20
147.6865596076
  0
LWPOLYLINE
  5
261
100
AcDbEntity
  8
0
100
AcDbPolyline
 62
7
  6
BYLAYER
 90
11
 70
0
 10
78.3641445053
 20
144.8659631461
 10
78.3620148147
 20
144.875232819
 10
78.3317382932
 20
145.028794318
 10
78.2910408147
 20
145.3156611612
 10
78.2456099286
 20
145.7207134588
 10
78.1965262169
 20
146.2357860354
 10
78.1444553077
 20
146.8348159389
 10
78.0897798971
 20
147.4795841959
 10
78.0329968326
 20
148.1198211247
 10
77.9757039025
 20
148.6909288953
 10
77.9188316267
 20
149.1420716194
  0
LWPOLYLINE
  5
262
100
AcDbEntity
  8
0
100
AcDbPolyline
 62
7
  6
BYLAYER
 90
5
 70
0
 10
81.0553305177
 20
144.815047502
 10
81.1232287966
 20
144.5139468388
 10
81.2725333134
 20
144.2231378275
 10
81.671210647
 20
144.0009380342
 10
81.7525825321
 20
143.995321195
  0
LWPOLYLINE
  5
263
100
AcDbEntity
  8
0
100
AcDbPolyline
 62
7
  6
BYLAYER
 90
5
 70
0
 10
79.2042224596
 20
149.2362017682
 10
79.134053815
 20
149.5620654791
 10
78.9715780968
 20
149.8748639873
 10
78.5678130872
 20
150.0870961138
 10
78.5013606409
 20
150.0908425878
  0
LWPOLYLINE
  5
264
100
AcDbEntity
  8
0
100
AcDbPolyline
 62
7
  6
BYLAYER
 90
5
 70
0
 10
77.9188316267
 20
149.1420716194
 10
77.8581904699
 20
149.4702760133
 10
77.7665826757
 20
149.7336086935
 10
77.4883980254
 20
150.0210707903
 10
77.2009220823
 20
150.093007427
  0
LWPOLYLINE
  5
265
100
AcDbEntity
  8
0
100
AcDbPolyline
 62
7
  6
BYLAYER
 90
11
 70
0
 10
76.6902442975
 20
149.2169406579
 10
76.691211737
 20
149.2115836975
 10
76.7214305882
 20
149.0616135117
 10
76.7621335351
 20
148.7753184287
 10
76.8065220233
 20
148.3783870237
 10
76.8533129701
 20
147.8908021984
 10
76.9023196228
 20
147.3319108833
 10
76.9535102806
 20
146.7276383784
 10
77.0073749235
 20
146.1090623237
 10
77.0646334593
 20
145.5178312943
 10
77.1239491008
 20
145.0216071195
  0
LWPOLYLINE
  5
266
100
AcDbEntity
  8
0
100
AcDbPolyline
 62
7
  6
BYLAYER
 90
5
 70
0
 10
78.4273254485
 20
144.996280116
 10
78.4881420193
 20
144.6459790001
 10
78.5768504974
 20
144.3741704918
 10
78.841987508
 20
144.0806797747
 10
79.1521000271
 20
143.9964095151
  0
LWPOLYLINE
  5
267
100
AcDbEntity
  8
0
100
AcDbPolyline
 62
7
  6
BYLAYER
 90
5
 70
0
 10
76.6283448623
 20
149.0744831733
 10
76.5664583868
 20
149.4347794092
 10
76.4750232941
 20
149.7185838381
 10
76.1951168291
 20
150.0183572419
 10
75.9023755354
 20
150.0931433303
  0
LWPOLYLINE
  5
268
100
AcDbEntity
  8
0
100
AcDbPolyline
 62
7
  6
BYLAYER
 90
5
 70
0
 10
77.1239491008
 20
145.0216071195
 10
77.1851914899
 20
144.6598492251
 10
77.2739413374
 20
144.3784007946
 10
77.5441716538
 20
144.0782488985
 10
77.8510711761
 20
143.9957654301
  0
LWPOLYLINE
  5
269
100
AcDbEntity
  8
0
100
AcDbPolyline
 62
7
  6
BYLAYER
 90
5
 70
0
 10
75.3331193385
 20
149.0397109766
 10
75.2713411363
 20
149.4139367855
 10
75.1790291206
 20
149.70922395
 10
74.9012383224
 20
150.0128023161
 10
74.6020227307
 20
150.0909495477
  0
LWPOLYLINE
  5
26A
100
AcDbEntity
  8
0
100
AcDbPolyline
 62
7
  6
BYLAYER
 90
5
 70
0
 10
79.7131122273
 20
145.1017893914
 10
79.7766270775
 20
144.6998211838
 10
79.8683074009
 20
144.3920293827
 10
80.1407144179
 20
144.0815315857
 10
80.4517117207
 20
143.9967686273
  0
LINE
  5
26B
100
AcDbEntity
  8
0
100
AcDbLine
 62
7
  6
BYLAYER
 10
80.5568295492
 20
148.8543042344
 11
80.4972752469
 21
149.2777781839
  0
LINE
  5
26C
100
AcDbEntity
  8
0
100
AcDbLine
 62
7
  6
BYLAYER
 10
80.9962867526
 20
145.2353612759
 11
81.0553305177
 21
144.815047502
  0
LINE
  5
26D
100
AcDbEntity
  8
0
100
AcDbLine
 62
7
  6
BYLAYER
 10
79.2653019653
 20
148.7818388572
 11
79.2042224596
 21
149.2362017682
  0
LWPOLYLINE
  5
26E
100
AcDbEntity
  8
0
100
AcDbPolyline
 62
7
  6
BYLAYER
 90
11
 70
0
 10
81.8896998998
 20
149.2196026024
 10
81.8900068356
 20
149.2165274996
 10
81.917417266
 20
149.0837336628
 10
81.9556164064
 20
148.8261237628
 10
81.998469636
 20
148.4568817316
 10
82.0447784324
 20
147.9842363235
 10
82.0946834693
 20
147.4203182493
 10
82.1487502703
 20
146.7835316888
 10
82.206874527
 20
146.115502903
 10
82.2666487894
 20
145.4983885475
 10
82.3260626724
 20
145.0056447698
  0
LWPOLYLINE
  5
26F
100
AcDbEntity
  8
0
100
AcDbPolyline
 62
7
  6
BYLAYER
 90
3
 70
0
 10
84.8016267123
 20
146.1731751224
 10
84.8619280302
 20
145.5432575981
 10
84.9227233674
 20
145.0304013684
  0
LWPOLYLINE
  5
270
100
AcDbEntity
  8
0
100
AcDbPolyline
 62
7
  6
BYLAYER
 90
7
 70
0
 10
83.4441578425
 20
145.7353846569
 10
83.3955240795
 20
146.247702244
 10
83.3442751533
 20
146.8366239604
 10
83.2907014751
 20
147.4680870772
 10
83.2350973999
 20
148.0977978488
 10
83.1779835817
 20
148.6708925793
 10
83.1207387331
 20
149.1276263501
  0
LWPOLYLINE
  5
271
100
AcDbEntity
  8
0
100
AcDbPolyline
 62
7
  6
BYLAYER
 90
3
 70
0
 10
83.4951309573
 20
146.246143135
 10
83.541477522
 20
145.7461341409
 10
83.6005516089
 20
145.1994888003
  0
LWPOLYLINE
  5
272
100
AcDbEntity
  8
0
100
AcDbPolyline
 62
7
  6
BYLAYER
 90
3
 70
0
 10
87.1742404448
 20
147.6603693476
 10
87.1173302743
 20
148.2854309956
 10
87.0590806526
 20
148.8352433825
  0
LWPOLYLINE
  5
273
100
AcDbEntity
  8
0
100
AcDbPolyline
 62
7
  6
BYLAYER
 90
3
 70
0
 10
85.8750315932
 20
147.6503234296
 10
85.8190623809
 20
148.2674472429
 10
85.7610829706
 20
148.8196478783
  0
LWPOLYLINE
  5
274
100
AcDbEntity
  8
0
100
AcDbPolyline
 62
7
  6
BYLAYER
 90
6
 70
0
 10
84.7041011181
 20
146.1526554597
 10
84.6445982914
 20
146.8334577904
 10
84.5827339527
 20
147.5616726498
 10
84.5242750674
 20
148.2125201376
 10
84.4686112039
 20
148.7540323175
 10
84.4141278881
 20
149.1733926632
  0
LINE
  5
275
100
AcDbEntity
  8
0
100
AcDbLine
 62
7
  6
BYLAYER
 10
84.7451729482
 20
146.8260102215
 11
84.8016267123
 21
146.1731751224
  0
LWPOLYLINE
  5
276
100
AcDbEntity
  8
0
100
AcDbPolyline
 62
7
  6
BYLAYER
 90
4
 70
0
 10
82.0645441763
 20
146.5989656569
 10
81.9804487934
 20
147.5881448247
 10
81.9215223208
 20
148.2429912405
 10
81.8617392515
 20
148.8123443942
  0
LWPOLYLINE
  5
277
100
AcDbEntity
  8
0
100
AcDbPolyline
 62
7
  6
BYLAYER
 90
4
 70
0
 10
85.9836597288
 20
147.549252669
 10
86.0648622801
 20
146.5937015217
 10
86.1255762978
 20
145.9118167022
 10
86.188364128
 20
145.3038572556
  0
LWPOLYLINE
  5
278
100
AcDbEntity
  8
0
100
AcDbPolyline
 62
7
  6
BYLAYER
 90
8
 70
0
 10
84.4905306183
 20
149.2163815992
 10
84.4903462504
 20
149.2147214534
 10
84.5180633842
 20
149.0808803827
 10
84.5565761654
 20
148.8193885835
 10
84.5993684596
 20
148.4475586603
 10
84.6449665962
 20
147.9817813381
 10
84.6933216774
 20
147.4366933228
 10
84.7451729482
 20
146.8260102215
  0
LINE
  5
279
100
AcDbEntity
  8
0
100
AcDbLine
 62
7
  6
BYLAYER
 10
87.2474700952
 20
146.7830658971
 11
87.305900253
 21
147.3040551715
  0
LINE
  5
27A
100
AcDbEntity
  8
0
100
AcDbLine
 62
7
  6
BYLAYER
 10
85.9475967709
 20
146.7839573357
 11
86.0058161847
 21
147.3027572173
  0
LINE
  5
27B
100
AcDbEntity
  8
0
100
AcDbLine
 62
7
  6
BYLAYER
 10
84.6483554088
 20
146.7913444728
 11
84.7055663725
 21
147.300337025
  0
LWPOLYLINE
  5
27C
100
AcDbEntity
  8
0
100
AcDbPolyline
 62
7
  6
BYLAYER
 90
3
 70
0
 10
84.6480190335
 20
146.7940636209
 10
84.6558582882
 20
146.8575553457
 10
84.7058748733
 20
147.2888469055
  0
LINE
  5
27D
100
AcDbEntity
  8
0
100
AcDbLine
 62
7
  6
BYLAYER
 10
79.6361698798
 20
144.2291801154
 11
79.6744041817
 21
144.2815579114
  0
LINE
  5
27E
100
AcDbEntity
  8
0
100
AcDbLine
 62
7
  6
BYLAYER
 10
79.6361698798
 20
144.2291801154
 11
79.6244798282
 21
144.215140469
  0
LWPOLYLINE
  5
27F
100
AcDbEntity
  8
0
100
AcDbPolyline
 62
7
  6
BYLAYER
 90
7
 70
0
 10
84.8620936511
 20
144.8730822132
 10
84.8653551206
 20
144.8645983447
 10
84.8498895631
 20
144.930066603
 10
84.8333103923
 20
145.019015747
 10
84.794083038
 20
145.2898644179
 10
84.7503746073
 20
145.6747882921
 10
84.7041011181
 20
146.1526554597
  0
LWPOLYLINE
  5
280
100
AcDbEntity
  8
0
100
AcDbPolyline
 62
7
  6
BYLAYER
 90
7
 70
0
 10
80.5897661416
 20
149.2201812696
 10
80.5884750378
 20
149.2237590502
 10
80.6078626096
 20
149.13706584
 10
80.6469355618
 20
148.8902089937
 10
80.6915299866
 20
148.5207761302
 10
80.739954089
 20
148.0371040804
 10
80.7923307832
 20
147.4481336579
  0
LWPOLYLINE
  5
281
100
AcDbEntity
  8
0
100
AcDbPolyline
 62
7
  6
BYLAYER
 90
7
 70
0
 10
82.2641751569
 20
144.8679876466
 10
82.2651132995
 20
144.8653560028
 10
82.245763865
 20
144.9492827921
 10
82.2076951838
 20
145.1868936782
 10
82.1636460729
 20
145.5511732741
 10
82.1160827913
 20
146.0239492756
 10
82.0645441763
 20
146.5989656569
  0
LWPOLYLINE
  5
282
100
AcDbEntity
  8
0
100
AcDbPolyline
 62
7
  6
BYLAYER
 90
8
 70
0
 10
80.9639443173
 20
144.8670975172
 10
80.9648480121
 20
144.8645262202
 10
80.9441336056
 20
144.9574417101
 10
80.9035345829
 20
145.2190331071
 10
80.8577708718
 20
145.6055201376
 10
80.8088374797
 20
146.1004739825
 10
80.756955084
 20
146.6875394273
 10
80.6740607093
 20
147.6623770911
  0
LWPOLYLINE
  5
283
100
AcDbEntity
  8
0
100
AcDbPolyline
 62
7
  6
BYLAYER
 90
5
 70
0
 10
80.4972752469
 20
149.2777781839
 10
80.428102233
 20
149.5807145176
 10
80.27222529
 20
149.8741674519
 10
79.8665833348
 20
150.0876977328
 10
79.8010252773
 20
150.0913435541
  0
LWPOLYLINE
  5
284
100
AcDbEntity
  8
0
100
AcDbPolyline
 62
7
  6
BYLAYER
 90
5
 70
0
 10
85.7000483684
 20
149.260062813
 10
85.6298496061
 20
149.5748238185
 10
85.4715114663
 20
149.8766570638
 10
85.0674455565
 20
150.0897036504
 10
85.0011195357
 20
150.0934432291
  0
LWPOLYLINE
  5
285
100
AcDbEntity
  8
0
100
AcDbPolyline
 62
7
  6
BYLAYER
 90
5
 70
0
 10
81.8018775573
 20
149.2493382877
 10
81.7328940754
 20
149.5671451127
 10
81.5744335812
 20
149.8725888336
 10
81.1682006625
 20
150.0873671384
 10
81.102158801
 20
150.0910714039
  0
LWPOLYLINE
  5
286
100
AcDbEntity
  8
0
100
AcDbPolyline
 62
7
  6
BYLAYER
 90
5
 70
0
 10
86.2501392119
 20
144.8459750544
 10
86.3182058736
 20
144.5289410339
 10
86.4736058441
 20
144.2221429482
 10
86.8707890419
 20
144.002344845
 10
86.9518480142
 20
143.9967762454
  0
LWPOLYLINE
  5
287
100
AcDbEntity
  8
0
100
AcDbPolyline
 62
7
  6
BYLAYER
 90
5
 70
0
 10
84.4141278881
 20
149.1733926632
 10
84.3544462242
 20
149.4857851452
 10
84.259080949
 20
149.7477709792
 10
83.9772807227
 20
150.0264831862
 10
83.7008837501
 20
150.09273491
  0
LWPOLYLINE
  5
288
100
AcDbEntity
  8
0
100
AcDbPolyline
 62
7
  6
BYLAYER
 90
8
 70
0
 10
83.1906147321
 20
149.2159766647
 10
83.1919748331
 20
149.2088236568
 10
83.2220680939
 20
149.0580292555
 10
83.2623637752
 20
148.7732771853
 10
83.3064554667
 20
148.3787960057
 10
83.3531416015
 20
147.8926524846
 10
83.4026385839
 20
147.3283424772
 10
83.4951475955
 20
146.2461537215
  0
LWPOLYLINE
  5
289
100
AcDbEntity
  8
0
100
AcDbPolyline
 62
7
  6
BYLAYER
 90
5
 70
0
 10
83.1207387331
 20
149.1276263501
 10
83.0605363128
 20
149.4607612727
 10
82.9682252237
 20
149.7322106342
 10
82.6878846654
 20
150.0223443887
 10
82.4022750065
 20
150.0933842895
  0
LWPOLYLINE
  5
28A
100
AcDbEntity
  8
0
100
AcDbPolyline
 62
7
  6
BYLAYER
 90
5
 70
0
 10
83.5637219503
 20
144.8683371149
 10
83.5626988707
 20
144.8740313858
 10
83.5315001082
 20
145.0301001801
 10
83.4899002265
 20
145.3234619968
 10
83.4441578425
 20
145.7353846569
  0
LWPOLYLINE
  5
28B
100
AcDbEntity
  8
0
100
AcDbPolyline
 62
7
  6
BYLAYER
 90
5
 70
0
 10
82.3260626724
 20
145.0056447698
 10
82.3869540966
 20
144.6532787103
 10
82.4764289707
 20
144.3736471944
 10
82.7452906014
 20
144.0760868328
 10
83.0515124108
 20
143.9938199597
  0
LWPOLYLINE
  5
28C
100
AcDbEntity
  8
0
100
AcDbPolyline
 62
7
  6
BYLAYER
 90
5
 70
0
 10
84.9227233674
 20
145.0304013684
 10
84.9843953262
 20
144.6639497172
 10
85.0758875746
 20
144.3740647547
 10
85.3495724443
 20
144.0746791707
 10
85.6509985851
 20
143.9952357385
  0
LWPOLYLINE
  5
28D
100
AcDbEntity
  8
0
100
AcDbPolyline
 62
7
  6
BYLAYER
 90
6
 70
0
 10
83.6005516089
 20
145.1994888003
 10
83.6593061193
 20
144.7937257518
 10
83.6899706046
 20
144.6401465126
 10
83.7786119472
 20
144.3698972501
 10
84.047869494
 20
144.0750177737
 10
84.3521543885
 20
143.99386975
  0
LINE
  5
28E
100
AcDbEntity
  8
0
100
AcDbLine
 62
7
  6
BYLAYER
 10
85.7610829706
 20
148.8196478783
 11
85.7000483684
 21
149.260062813
  0
LINE
  5
28F
100
AcDbEntity
  8
0
100
AcDbLine
 62
7
  6
BYLAYER
 10
81.8617392515
 20
148.8123443942
 11
81.8018775573
 21
149.2493382877
  0
LINE
  5
290
100
AcDbEntity
  8
0
100
AcDbLine
 62
7
  6
BYLAYER
 10
86.188364128
 20
145.3038572556
 11
86.2501392119
 21
144.8459750544
  0
LWPOLYLINE
  5
291
100
AcDbEntity
  8
0
100
AcDbPolyline
 62
7
  6
BYLAYER
 90
7
 70
0
 10
88.6662601136
 20
146.7235401735
 10
88.7000508313
 20
146.3701957028
 10
88.7334439048
 20
146.0382752544
 10
88.7664936813
 20
145.7325033193
 10
88.7829187376
 20
145.5902397123
 10
88.8156705261
 20
145.3279355302
 10
88.8485355259
 20
145.09580613
  0
LINE
  5
292
100
AcDbEntity
  8
0
100
AcDbLine
 62
7
  6
BYLAYER
 10
88.5620594101
 20
147.8427195373
 11
88.6662601136
 21
146.7235401735
  0
LWPOLYLINE
  5
293
100
AcDbEntity
  8
0
100
AcDbPolyline
 62
7
  6
BYLAYER
 90
5
 70
0
 10
89.8827057342
 20
146.5520251189
 10
89.7728867692
 20
147.733240845
 10
89.7165917421
 20
148.3143925234
 10
89.6592277787
 20
148.8372677647
 10
89.6151968059
 20
149.1664614132
  0
LWPOLYLINE
  5
294
100
AcDbEntity
  8
0
100
AcDbPolyline
 62
7
  6
BYLAYER
 90
4
 70
0
 10
88.5648365281
 20
146.5956818179
 10
88.4824441186
 20
147.5648551219
 10
88.4246957677
 20
148.2097200706
 10
88.3654154319
 20
148.7809899467
  0
LWPOLYLINE
  5
295
100
AcDbEntity
  8
0
100
AcDbPolyline
 62
7
  6
BYLAYER
 90
3
 70
0
 10
90.6539171556
 20
147.1287510043
 10
90.737694763
 20
147.8154564461
 10
90.8104468952
 20
148.3429250085
  0
LWPOLYLINE
  5
296
100
AcDbEntity
  8
0
100
AcDbPolyline
 62
7
  6
BYLAYER
 90
3
 70
0
 10
89.7819245858
 20
149.3226494173
 10
89.6822441313
 20
148.837540038
 10
89.6689058098
 20
148.7490520525
  0
LINE
  5
297
100
AcDbEntity
  8
0
100
AcDbLine
 62
7
  6
BYLAYER
 10
89.9075395746
 20
149.6811013264
 11
89.7819245858
 21
149.3226494173
  0
LINE
  5
298
100
AcDbEntity
  8
0
100
AcDbLine
 62
7
  6
BYLAYER
 10
90.2041337342
 20
150.0085222859
 11
89.9075395746
 21
149.6811013264
  0
LWPOLYLINE
  5
299
100
AcDbEntity
  8
0
100
AcDbPolyline
 62
7
  6
BYLAYER
 90
11
 70
0
 10
87.091099496
 20
149.2168070991
 10
87.0904028643
 20
149.2165159388
 10
87.118467189
 20
149.0781906386
 10
87.1572398872
 20
148.8124013199
 10
87.2001372042
 20
148.4406474754
 10
87.2459339304
 20
147.9725657049
 10
87.2944916091
 20
147.4228476637
 10
87.3466601261
 20
146.8074081468
 10
87.403620164
 20
146.1514990225
 10
87.4638937754
 20
145.5256510058
 10
87.5245120103
 20
145.015449552
  0
LINE
  5
29A
100
AcDbEntity
  8
0
100
AcDbLine
 62
7
  6
BYLAYER
 10
36.2199032349
 20
127.54375
 11
24.7199032349
 21
127.54375
  0
LINE
  5
29B
100
AcDbEntity
  8
0
100
AcDbLine
 62
7
  6
BYLAYER
 10
36.8199032349
 20
131.14375
 11
24.1199032349
 21
131.14375
  0
LINE
  5
29C
100
AcDbEntity
  8
0
100
AcDbLine
 62
7
  6
BYLAYER
 10
68.5999032375
 20
149.9837499981
 11
68.8691109301
 21
149.7818442286
  0
LWPOLYLINE
  5
29D
100
AcDbEntity
  8
0
100
AcDbPolyline
 62
7
  6
BYLAYER
 90
4
 70
0
 10
88.3945044123
 20
149.2079435853
 10
88.3880386333
 20
149.2240355457
 10
88.4021675656
 20
149.164516293
 10
88.4252568328
 20
149.0375914128
  0
LWPOLYLINE
  5
29E
100
AcDbEntity
  8
0
100
AcDbPolyline
 62
7
  6
BYLAYER
 90
7
 70
0
 10
85.7905736532
 20
149.2165361991
 10
85.7892221769
 20
149.2201822562
 10
85.8055365056
 20
149.1496957217
 10
85.8433828911
 20
148.9170564042
 10
85.8871419997
 20
148.5601412343
 10
85.9340369156
 20
148.0991813273
 10
85.9836597288
 20
147.549252669
  0
LWPOLYLINE
  5
29F
100
AcDbEntity
  8
0
100
AcDbPolyline
 62
7
  6
BYLAYER
 90
8
 70
0
 10
87.4631663865
 20
144.8694256857
 10
87.4644217634
 20
144.8659754326
 10
87.4455072586
 20
144.9500966236
 10
87.4046926066
 20
145.2102818067
 10
87.3582714534
 20
145.6009845084
 10
87.3087217927
 20
146.1017979539
 10
87.2565903008
 20
146.6917145656
 10
87.1742404448
 20
147.6603693476
  0
LWPOLYLINE
  5
2A0
100
AcDbEntity
  8
0
100
AcDbPolyline
 62
7
  6
BYLAYER
 90
7
 70
0
 10
88.7640922958
 20
144.8682543405
 10
88.7651373653
 20
144.8653540125
 10
88.7461392904
 20
144.9476007646
 10
88.7079377102
 20
145.1850339353
 10
88.6636567766
 20
145.5509457842
 10
88.6158475471
 20
146.0265336572
 10
88.5648365281
 20
146.5956818179
  0
LWPOLYLINE
  5
2A1
100
AcDbEntity
  8
0
100
AcDbPolyline
 62
7
  6
BYLAYER
 90
8
 70
0
 10
86.1654051804
 20
144.8626940855
 10
86.1661584313
 20
144.8605160387
 10
86.1438640662
 20
144.960302769
 10
86.1026272322
 20
145.2257448357
 10
86.0562741701
 20
145.6183296943
 10
86.0070702016
 20
146.1200669775
 10
85.9556825122
 20
146.7030957359
 10
85.8750315932
 20
147.6503234296
  0
LWPOLYLINE
  5
2A2
100
AcDbEntity
  8
0
100
AcDbPolyline
 62
7
  6
BYLAYER
 90
6
 70
0
 10
90.0992148704
 20
144.9089922156
 10
90.0847090839
 20
144.967501284
 10
90.0397058634
 20
145.2058467873
 10
89.9889550623
 20
145.565843412
 10
89.9363477682
 20
146.0210614481
 10
89.8827057342
 20
146.5520251189
  0
LINE
  5
2A3
100
AcDbEntity
  8
0
100
AcDbLine
 62
7
  6
BYLAYER
 10
88.9022931536
 20
150.0935251609
 11
89.0199032213
 21
149.6078420424
  0
LWPOLYLINE
  5
2A4
100
AcDbEntity
  8
0
100
AcDbPolyline
 62
7
  6
BYLAYER
 90
5
 70
0
 10
86.998461212
 20
149.2709060741
 10
86.9273232523
 20
149.5833743333
 10
86.7638144549
 20
149.8836267438
 10
86.362356341
 20
150.0879447325
 10
86.3011309114
 20
150.0911253289
  0
LWPOLYLINE
  5
2A5
100
AcDbEntity
  8
0
100
AcDbPolyline
 62
7
  6
BYLAYER
 90
5
 70
0
 10
88.3040489061
 20
149.2359137098
 10
88.2337182676
 20
149.5644678515
 10
88.0723771771
 20
149.875247348
 10
87.6672435547
 20
150.0876924342
 10
87.6022836072
 20
150.0912790881
  0
LWPOLYLINE
  5
2A6
100
AcDbEntity
  8
0
100
AcDbPolyline
 62
7
  6
BYLAYER
 90
6
 70
0
 10
89.6152062825
 20
149.1652014571
 10
89.5765724894
 20
149.3870490103
 10
89.5056581901
 20
149.6467823498
 10
89.4404209611
 20
149.7825125533
 10
89.1532606903
 20
150.0391533383
 10
88.9021990068
 20
150.0935253633
  0
LWPOLYLINE
  5
2A7
100
AcDbEntity
  8
0
100
AcDbPolyline
 62
7
  6
BYLAYER
 90
5
 70
0
 10
87.5245120103
 20
145.015449552
 10
87.5867498421
 20
144.6537994054
 10
87.6788773753
 20
144.3702695233
 10
87.9496188934
 20
144.0753142077
 10
88.2525779
 20
143.995014431
  0
LWPOLYLINE
  5
2A8
100
AcDbEntity
  8
0
100
AcDbPolyline
 62
7
  6
BYLAYER
 90
9
 70
0
 10
88.8485355259
 20
145.09580613
 10
88.8825125255
 20
144.890962461
 10
88.9185474974
 20
144.7138588491
 10
88.9587155496
 20
144.5620445576
 10
89.010316081
 20
144.4216403672
 10
89.0943909896
 20
144.2718161628
 10
89.2395169927
 20
144.122679965
 10
89.4390282984
 20
144.0225538394
 10
89.6166514248
 20
143.9960849576
  0
LINE
  5
2A9
100
AcDbEntity
  8
0
100
AcDbLine
 62
7
  6
BYLAYER
 10
88.4252099715
 20
149.0390074649
 11
88.4254381966
 21
149.0376063173
  0
LINE
  5
2AA
100
AcDbEntity
  8
0
100
AcDbLine
 62
7
  6
BYLAYER
 10
89.6153821424
 20
149.1652285792
 11
89.6151968059
 21
149.1664614132
  0
LWPOLYLINE
  5
2AB
100
AcDbEntity
  8
0
100
AcDbPolyline
 62
7
  6
BYLAYER
 90
5
 70
0
 10
88.4252099715
 20
149.0390074649
 10
88.4504219564
 20
148.866634732
 10
88.4885672465
 20
148.556323764
 10
88.5258167954
 20
148.2095836098
 10
88.5620594101
 20
147.8427195373
  0
LINE
  5
2AC
100
AcDbEntity
  8
0
100
AcDbLine
 62
7
  6
BYLAYER
 10
87.0590806526
 20
148.8352433825
 11
86.998461212
 21
149.2709060741
  0
LINE
  5
2AD
100
AcDbEntity
  8
0
100
AcDbLine
 62
7
  6
BYLAYER
 10
88.3654154319
 20
148.7809899467
 11
88.3040489061
 21
149.2359137098
  0
LINE
  5
2AE
100
AcDbEntity
  8
0
100
AcDbLine
 62
7
  6
BYLAYER
 10
24.1199032349
 20
131.74375
 11
36.8199032349
 21
131.74375
  0
LINE
  5
2AF
100
AcDbEntity
  8
0
100
AcDbLine
 62
7
  6
BYLAYER
 10
36.8199032349
 20
132.94375
 11
24.1199032349
 21
132.94375
  0
LINE
  5
2B0
100
AcDbEntity
  8
0
100
AcDbLine
 62
7
  6
BYLAYER
 10
24.1199032349
 20
134.09375
 11
36.8199032349
 21
134.09375
  0
LINE
  5
2B1
100
AcDbEntity
  8
0
100
AcDbLine
 62
7
  6
BYLAYER
 10
37.1699032349
 20
135.39375
 11
23.7699032349
 21
135.39375
  0
LWPOLYLINE
  5
2B2
100
AcDbEntity
  8
0
100
AcDbPolyline
 62
7
  6
BYLAYER
 90
11
 70
0
 10
75.3903947896
 20
149.2180353917
 10
75.3894748069
 20
149.2186860096
 10
75.4169844881
 20
149.0861679362
 10
75.4562211803
 20
148.8212537479
 10
75.5004012224
 20
148.4385733932
 10
75.5478311663
 20
147.9511478019
 10
75.5983314889
 20
147.3777008502
 10
75.6522264212
 20
146.7425027192
 10
75.7091911056
 20
146.0899982951
 10
75.7677272937
 20
145.4883196408
 10
75.8270275352
 20
144.9986079654
  0
LWPOLYLINE
  5
2B3
100
AcDbEntity
  8
0
100
AcDbPolyline
 62
7
  6
BYLAYER
 90
5
 70
0
 10
90.3887165534
 20
148.831878382
 10
90.976593103
 20
148.1502954044
 10
91.3968693191
 20
147.6439905157
 10
92.4900698744
 20
146.7195699876
 10
93.5198799167
 20
146.4441193393
  0
LINE
  5
2B4
100
AcDbEntity
  8
0
100
AcDbLine
 62
7
  6
BYLAYER
 10
38.4699032349
 20
137.54375
 11
22.4699032349
 21
137.54375
  0
LINE
  5
2B5
100
AcDbEntity
  8
0
100
AcDbLine
 62
7
  6
BYLAYER
 10
53.1199032349
 20
138.04375
 11
38.4699032349
 21
138.04375
  0
LINE
  5
2B6
100
AcDbEntity
  8
0
100
AcDbLine
 62
7
  6
BYLAYER
 10
58.3199032349
 20
139.54375
 11
56.1199032349
 21
139.54375
  0
LINE
  5
2B7
100
AcDbEntity
  8
0
100
AcDbLine
 62
7
  6
BYLAYER
 10
54.5199032349
 20
139.54375
 11
54.0199032349
 21
139.54375
  0
LINE
  5
2B8
100
AcDbEntity
  8
0
100
AcDbLine
 62
7
  6
BYLAYER
 10
90.8342303823
 20
150.0039950781
 11
90.8343054858
 21
150.0039490517
  0
LINE
  5
2B9
100
AcDbEntity
  8
0
100
AcDbLine
 62
7
  6
BYLAYER
 10
90.2008771834
 20
148.9858871262
 11
90.2005470039
 21
148.9860943333
  0
LINE
  5
2BA
100
AcDbEntity
  8
0
100
AcDbLine
 62
7
  6
BYLAYER
 10
90.2004392296
 20
148.9858698146
 11
90.3887165534
 21
148.831878382
  0
LWPOLYLINE
  5
2BB
100
AcDbEntity
  8
0
100
AcDbPolyline
 62
7
  6
BYLAYER
 90
5
 70
0
 10
88.2525071151
 20
143.9950143458
 10
88.5407721919
 20
144.0673853731
 10
88.8226763588
 20
144.3639415891
 10
88.9165685321
 20
144.6527233516
 10
88.9237004783
 20
144.694383268
  0
LWPOLYLINE
  5
2BC
100
AcDbEntity
  8
0
100
AcDbPolyline
 62
7
  6
BYLAYER
 90
8
 70
0
 10
89.6165789611
 20
143.9961036087
 10
89.6841897035
 20
143.9999335451
 10
90.0931946932
 20
144.2139776024
 10
90.2701626989
 20
144.5442201053
 10
90.359528951
 20
144.9105909801
 10
90.4425597368
 20
145.4157918294
 10
90.5271816904
 20
146.0576276736
 10
90.6539171556
 20
147.1287510043
  0
LWPOLYLINE
  5
2BD
100
AcDbEntity
  8
0
100
AcDbPolyline
 62
7
  6
BYLAYER
 90
5
 70
0
 10
85.6508494346
 20
143.9952356937
 10
85.7156041453
 20
143.9987954143
 10
86.1189963565
 20
144.2090970078
 10
86.2792045822
 20
144.5107221311
 10
86.3011414732
 20
144.6084218742
  0
LWPOLYLINE
  5
2BE
100
AcDbEntity
  8
0
100
AcDbPolyline
 62
7
  6
BYLAYER
 90
5
 70
0
 10
86.9517131308
 20
143.9967761506
 10
87.0158851976
 20
144.0002712185
 10
87.4199322836
 20
144.2104739415
 10
87.5815972533
 20
144.5167057471
 10
87.6015764083
 20
144.6081694574
  0
LWPOLYLINE
  5
2BF
100
AcDbEntity
  8
0
100
AcDbPolyline
 62
7
  6
BYLAYER
 90
5
 70
0
 10
70.0518580051
 20
143.9937757753
 10
70.1154581614
 20
143.997220081
 10
70.5164005276
 20
144.2041768984
 10
70.6779508624
 20
144.5059272338
 10
70.7015918132
 20
144.6098433241
  0
LWPOLYLINE
  5
2C0
100
AcDbEntity
  8
0
100
AcDbPolyline
 62
7
  6
BYLAYER
 90
5
 70
0
 10
72.6518492682
 20
143.9967438457
 10
72.713962473
 20
144.0000216065
 10
73.1130592882
 20
144.2026304145
 10
73.2821026281
 20
144.518170382
 10
73.3019722263
 20
144.6089298157
  0
LWPOLYLINE
  5
2C1
100
AcDbEntity
  8
0
100
AcDbPolyline
 62
7
  6
BYLAYER
 90
5
 70
0
 10
73.9524754534
 20
143.9947363042
 10
74.001332908
 20
143.9967720982
 10
74.4020412055
 20
144.1885955559
 10
74.5673771828
 20
144.472574312
 10
74.6011579405
 20
144.6089950712
  0
LINE
  5
2C2
100
AcDbEntity
  8
0
100
AcDbLine
 62
7
  6
BYLAYER
 10
73.9524754534
 20
143.9947363042
 11
73.9525786085
 21
143.9947364549
  0
LINE
  5
2C3
100
AcDbEntity
  8
0
100
AcDbLine
 62
7
  6
BYLAYER
 10
80.4515740045
 20
143.9967684835
 11
80.4517036452
 21
143.9967686276
  0
LINE
  5
2C4
100
AcDbEntity
  8
0
100
AcDbLine
 62
7
  6
BYLAYER
 10
70.0518580051
 20
143.9937757753
 11
70.0519877257
 21
143.9937759063
  0
LINE
  5
2C5
100
AcDbEntity
  8
0
100
AcDbLine
 62
7
  6
BYLAYER
 10
71.3508565564
 20
143.9954737659
 11
71.3509871048
 21
143.9954739036
  0
LINE
  5
2C6
100
AcDbEntity
  8
0
100
AcDbLine
 62
7
  6
BYLAYER
 10
81.7524935569
 20
143.9953210778
 11
81.7526221436
 21
143.9953211954
  0
LINE
  5
2C7
100
AcDbEntity
  8
0
100
AcDbLine
 62
7
  6
BYLAYER
 10
72.6518492682
 20
143.9967438457
 11
72.6519743608
 21
143.9967439702
  0
LINE
  5
2C8
100
AcDbEntity
  8
0
100
AcDbLine
 62
7
  6
BYLAYER
 10
88.2525071151
 20
143.9950143458
 11
88.2526214284
 21
143.9950144317
  0
LINE
  5
2C9
100
AcDbEntity
  8
0
100
AcDbLine
 62
7
  6
BYLAYER
 10
86.9517131308
 20
143.9967761506
 11
86.9518439743
 21
143.9967762455
  0
LINE
  5
2CA
100
AcDbEntity
  8
0
100
AcDbLine
 62
7
  6
BYLAYER
 10
75.2524519179
 20
143.9956204359
 11
75.2525699692
 21
143.9956205212
  0
LINE
  5
2CB
100
AcDbEntity
  8
0
100
AcDbLine
 62
7
  6
BYLAYER
 10
77.850909211
 20
143.9957653327
 11
77.8510313766
 21
143.9957654325
  0
LINE
  5
2CC
100
AcDbEntity
  8
0
100
AcDbLine
 62
7
  6
BYLAYER
 10
84.3520366104
 20
143.9938696804
 11
84.3521549846
 21
143.99386975
  0
LINE
  5
2CD
100
AcDbEntity
  8
0
100
AcDbLine
 62
7
  6
BYLAYER
 10
83.0513724105
 20
143.9938198903
 11
83.0514980246
 21
143.9938199602
  0
LINE
  5
2CE
100
AcDbEntity
  8
0
100
AcDbLine
 62
7
  6
BYLAYER
 10
76.551609776
 20
143.9937531435
 11
76.5517332614
 21
143.9937532081
  0
LINE
  5
2CF
100
AcDbEntity
  8
0
100
AcDbLine
 62
7
  6
BYLAYER
 10
79.1519214362
 20
143.9964094288
 11
79.1520620811
 21
143.9964095176
  0
LINE
  5
2D0
100
AcDbEntity
  8
0
100
AcDbLine
 62
7
  6
BYLAYER
 10
85.6508494346
 20
143.9952356937
 11
85.6509704821
 21
143.9952357398
  0
LINE
  5
2D1
100
AcDbEntity
  8
0
100
AcDbLine
 62
7
  6
BYLAYER
 10
53.1199032349
 20
142.9206443744
 11
30.4699032349
 21
142.9206443744
  0
LINE
  5
2D2
100
AcDbEntity
  8
0
100
AcDbLine
 62
7
  6
BYLAYER
 10
93.5199037026
 20
146.44375
 11
184.5199032349
 21
146.44375
  0
LINE
  5
2D3
100
AcDbEntity
  8
0
100
AcDbLine
 62
7
  6
BYLAYER
 10
184.5199032349
 20
147.64375
 11
93.5199027373
 21
147.64375
  0
LINE
  5
2D4
100
AcDbEntity
  8
0
100
AcDbLine
 62
7
  6
BYLAYER
 10
89.6165789611
 20
143.9961036087
 11
89.616684242
 21
143.9961034454
  0
LWPOLYLINE
  5
2D5
100
AcDbEntity
  8
0
100
AcDbPolyline
 62
7
  6
BYLAYER
 90
6
 70
0
 10
93.5199082861
 20
147.6433807241
 10
92.8791391344
 20
147.889101652
 10
92.2582269509
 20
148.4805820857
 10
91.7024983904
 20
149.1628118605
 10
91.1623442681
 20
149.7494889397
 10
90.8346128085
 20
150.0045899583
  0
LINE
  5
2D6
100
AcDbEntity
  8
0
100
AcDbLine
 62
7
  6
BYLAYER
 10
90.5049117647
 20
150.0932907539
 11
90.2041337342
 21
150.0085222859
  0
LWPOLYLINE
  5
2D7
100
AcDbEntity
  8
0
100
AcDbPolyline
 62
7
  6
BYLAYER
 90
3
 70
0
 10
79.1519214362
 20
143.9964094288
 10
79.4511495439
 20
144.0745364075
 10
79.6244872473
 20
144.2151282994
  0
LWPOLYLINE
  5
2D8
100
AcDbEntity
  8
0
100
AcDbPolyline
 62
7
  6
BYLAYER
 90
4
 70
0
 10
83.0513724105
 20
143.9938198903
 10
83.3472955252
 20
144.0703398658
 10
83.6239101899
 20
144.3678224661
 10
83.7012989281
 20
144.6056087791
  0
LWPOLYLINE
  5
2D9
100
AcDbEntity
  8
0
100
AcDbPolyline
 62
7
  6
BYLAYER
 90
4
 70
0
 10
81.7524935569
 20
143.9953210778
 10
82.0476063033
 20
144.0713234923
 10
82.3245543445
 20
144.3678454814
 10
82.4011462299
 20
144.6089247194
  0
LWPOLYLINE
  5
2DA
100
AcDbEntity
  8
0
100
AcDbPolyline
 62
7
  6
BYLAYER
 90
4
 70
0
 10
76.551609776
 20
143.9937531435
 10
76.8449292598
 20
144.0688928491
 10
77.1230806815
 20
144.3658507952
 10
77.2016785616
 20
144.6075645106
  0
LWPOLYLINE
  5
2DB
100
AcDbEntity
  8
0
100
AcDbPolyline
 62
7
  6
BYLAYER
 90
4
 70
0
 10
84.3520366104
 20
143.9938696804
 10
84.6441327555
 20
144.0683457399
 10
84.922464639
 20
144.3641022941
 10
85.0021089
 20
144.6078258515
  0
LWPOLYLINE
  5
2DC
100
AcDbEntity
  8
0
100
AcDbPolyline
 62
7
  6
BYLAYER
 90
4
 70
0
 10
71.3508565564
 20
143.9954737659
 10
71.6397233122
 20
144.0680763416
 10
71.9194789589
 20
144.3601108208
 10
72.0019516987
 20
144.6067646967
  0
LWPOLYLINE
  5
2DD
100
AcDbEntity
  8
0
100
AcDbPolyline
 62
7
  6
BYLAYER
 90
4
 70
0
 10
75.2524519179
 20
143.9956204359
 10
75.5405867733
 20
144.0678782513
 10
75.8254902255
 20
144.3699043668
 10
75.9009182166
 20
144.6084397873
  0
LWPOLYLINE
  5
2DE
100
AcDbEntity
  8
0
100
AcDbPolyline
 62
7
  6
BYLAYER
 90
4
 70
0
 10
77.850909211
 20
143.9957653327
 10
78.1391281296
 20
144.0680139396
 10
78.4185546074
 20
144.358330847
 10
78.5018177157
 20
144.6040757828
  0
LWPOLYLINE
  5
2DF
100
AcDbEntity
  8
0
100
AcDbPolyline
 62
7
  6
BYLAYER
 90
4
 70
0
 10
80.4515740045
 20
143.9967684835
 10
80.7389578848
 20
144.0685481569
 10
81.0202204226
 20
144.3610638881
 10
81.102172953
 20
144.6073207587
  0
LWPOLYLINE
  5
2E0
100
AcDbEntity
  8
0
100
AcDbPolyline
 62
7
  6
BYLAYER
 90
5
 70
0
 10
81.1022798139
 20
150.0910712916
 10
81.0197013151
 20
150.0852918906
 10
80.6198740159
 20
149.8606356122
 10
80.4704237584
 20
149.5651189438
 10
80.4514451337
 20
149.4784866057
  0
LWPOLYLINE
  5
2E1
100
AcDbEntity
  8
0
100
AcDbPolyline
 62
7
  6
BYLAYER
 90
5
 70
0
 10
73.3024543211
 20
150.0914683462
 10
73.220271647
 20
150.0857422085
 10
72.8221723402
 20
149.8635294626
 10
72.6693639512
 20
149.5612113734
 10
72.6518187639
 20
149.4802987135
  0
LWPOLYLINE
  5
2E2
100
AcDbEntity
  8
0
100
AcDbPolyline
 62
7
  6
BYLAYER
 90
5
 70
0
 10
87.6023807827
 20
150.0912789972
 10
87.5223201475
 20
150.08584449
 10
87.1241951984
 20
149.8658928197
 10
86.9729383843
 20
149.5730985544
 10
86.9514579537
 20
149.4773644313
  0
LWPOLYLINE
  5
2E3
100
AcDbEntity
  8
0
100
AcDbPolyline
 62
7
  6
BYLAYER
 90
5
 70
0
 10
75.9024680241
 20
150.0931432394
 10
75.8230381816
 20
150.0877858302
 10
75.4259808162
 20
149.8693223901
 10
75.275627282
 20
149.5812287125
 10
75.2516228816
 20
149.4770114293
  0
LWPOLYLINE
  5
2E4
100
AcDbEntity
  8
0
100
AcDbPolyline
 62
7
  6
BYLAYER
 90
5
 70
0
 10
82.4023618661
 20
150.0933841701
 10
82.3248185169
 20
150.0882765815
 10
81.9243256743
 20
149.867626633
 10
81.7721623398
 20
149.5701289789
 10
81.751996949
 20
149.4791381948
  0
LWPOLYLINE
  5
2E5
100
AcDbEntity
  8
0
100
AcDbPolyline
 62
7
  6
BYLAYER
 90
4
 70
0
 10
69.4024348805
 20
150.0930077101
 10
69.3331549634
 20
150.0889283992
 10
68.9409791353
 20
149.886477158
 10
68.8691109301
 20
149.7818442286
  0
LINE
  5
2E6
100
AcDbEntity
  8
0
100
AcDbLine
 62
7
  6
BYLAYER
 10
90.5049117647
 20
150.0932907539
 11
90.5061592966
 21
150.0933221973
  0
LINE
  5
2E7
100
AcDbEntity
  8
0
100
AcDbLine
 62
7
  6
BYLAYER
 10
74.6020227307
 20
150.0909495477
 11
74.6021429729
 21
150.090949556
  0
LINE
  5
2E8
100
AcDbEntity
  8
0
100
AcDbLine
 62
7
  6
BYLAYER
 10
72.0012150369
 20
150.0909829298
 11
72.0013417908
 21
150.0909829113
  0
LINE
  5
2E9
100
AcDbEntity
  8
0
100
AcDbLine
 62
7
  6
BYLAYER
 10
85.0011195357
 20
150.0934432291
 11
85.0012365818
 21
150.0934432093
  0
LINE
  5
2EA
100
AcDbEntity
  8
0
100
AcDbLine
 62
7
  6
BYLAYER
 10
69.4023763388
 20
150.0930077439
 11
69.4024728402
 21
150.0930077095
  0
LINE
  5
2EB
100
AcDbEntity
  8
0
100
AcDbLine
 62
7
  6
BYLAYER
 10
75.9023755354
 20
150.0931433303
 11
75.9024978176
 21
150.0931432393
  0
LINE
  5
2EC
100
AcDbEntity
  8
0
100
AcDbLine
 62
7
  6
BYLAYER
 10
79.8010252773
 20
150.0913435541
 11
79.8011594505
 21
150.0913434756
  0
LINE
  5
2ED
100
AcDbEntity
  8
0
100
AcDbLine
 62
7
  6
BYLAYER
 10
87.6022836072
 20
150.0912790881
 11
87.6024140373
 21
150.091278997
  0
LINE
  5
2EE
100
AcDbEntity
  8
0
100
AcDbLine
 62
7
  6
BYLAYER
 10
86.3011309114
 20
150.0911253289
 11
86.3012472678
 21
150.0911252613
  0
LINE
  5
2EF
100
AcDbEntity
  8
0
100
AcDbLine
 62
7
  6
BYLAYER
 10
78.5013606409
 20
150.0908425878
 11
78.501499453
 21
150.0908424787
  0
LINE
  5
2F0
100
AcDbEntity
  8
0
100
AcDbLine
 62
7
  6
BYLAYER
 10
81.102158801
 20
150.0910714039
 11
81.1022983619
 21
150.0910712918
  0
LINE
  5
2F1
100
AcDbEntity
  8
0
100
AcDbLine
 62
7
  6
BYLAYER
 10
77.2009220823
 20
150.093007427
 11
77.2010376381
 21
150.09300734
  0
LINE
  5
2F2
100
AcDbEntity
  8
0
100
AcDbLine
 62
7
  6
BYLAYER
 10
73.3023678551
 20
150.0914684819
 11
73.3024935878
 21
150.0914683459
  0
LINE
  5
2F3
100
AcDbEntity
  8
0
100
AcDbLine
 62
7
  6
BYLAYER
 10
82.4022750065
 20
150.0933842895
 11
82.4023909697
 21
150.0933841701
  0
LINE
  5
2F4
100
AcDbEntity
  8
0
100
AcDbLine
 62
7
  6
BYLAYER
 10
83.7008837501
 20
150.09273491
 11
83.7009916932
 21
150.0927347814
  0
LINE
  5
2F5
100
AcDbEntity
  8
0
100
AcDbLine
 62
7
  6
BYLAYER
 10
70.7010374055
 20
150.0932678929
 11
70.7011485261
 21
150.0932677484
  0
LINE
  5
2F6
100
AcDbEntity
  8
0
100
AcDbLine
 62
7
  6
BYLAYER
 10
88.9021990068
 20
150.0935253633
 11
88.9022931536
 21
150.0935251609
  0
LWPOLYLINE
  5
2F7
100
AcDbEntity
  8
0
100
AcDbPolyline
 62
7
  6
BYLAYER
 90
4
 70
0
 10
78.5015101613
 20
150.0908424791
 10
78.1891233286
 20
150.005265588
 10
77.9218665258
 20
149.7036324185
 10
77.8531944131
 20
149.4846375101
  0
LWPOLYLINE
  5
2F8
100
AcDbEntity
  8
0
100
AcDbPolyline
 62
7
  6
BYLAYER
 90
4
 70
0
 10
88.9022794888
 20
150.0935251607
 10
88.5912068031
 20
150.0085170272
 10
88.3242255964
 20
149.7081875908
 10
88.2518973512
 20
149.4795430827
  0
LWPOLYLINE
  5
2F9
100
AcDbEntity
  8
0
100
AcDbPolyline
 62
7
  6
BYLAYER
 90
4
 70
0
 10
70.7011671187
 20
150.0932677492
 10
70.3928269066
 20
150.0098450382
 10
70.1225166203
 20
149.705988473
 10
70.0516555359
 20
149.4776149388
  0
LWPOLYLINE
  5
2FA
100
AcDbEntity
  8
0
100
AcDbPolyline
 62
7
  6
BYLAYER
 90
4
 70
0
 10
79.8011861987
 20
150.0913434769
 10
79.4930621454
 20
150.0081886997
 10
79.221523745
 20
149.7036155449
 10
79.1523139346
 20
149.477265347
  0
LWPOLYLINE
  5
2FB
100
AcDbEntity
  8
0
100
AcDbPolyline
 62
7
  6
BYLAYER
 90
4
 70
0
 10
83.7010316822
 20
150.0927347838
 10
83.3953044421
 20
150.0108463794
 10
83.1230039647
 20
149.7072898094
 10
83.0532433361
 20
149.4822069506
  0
LWPOLYLINE
  5
2FC
100
AcDbEntity
  8
0
100
AcDbPolyline
 62
7
  6
BYLAYER
 90
4
 70
0
 10
77.2010737642
 20
150.093007342
 10
76.8967147418
 20
150.0118681459
 10
76.6248013419
 20
149.7110463096
 10
76.5518784342
 20
149.4800339717
  0
LWPOLYLINE
  5
2FD
100
AcDbEntity
  8
0
100
AcDbPolyline
 62
7
  6
BYLAYER
 90
4
 70
0
 10
86.3012787277
 20
150.0911252629
 10
86.0000746173
 20
150.0118773265
 10
85.7276589502
 20
149.7163362043
 10
85.6511982849
 20
149.4790994582
  0
LWPOLYLINE
  5
2FE
100
AcDbEntity
  8
0
100
AcDbPolyline
 62
7
  6
BYLAYER
 90
4
 70
0
 10
72.0013684714
 20
150.0909829125
 10
71.7012557157
 20
150.0123474096
 10
71.4281184262
 20
149.717074032
 10
71.353314311
 20
149.4848736052
  0
LWPOLYLINE
  5
2FF
100
AcDbEntity
  8
0
100
AcDbPolyline
 62
7
  6
BYLAYER
 90
4
 70
0
 10
85.0012508234
 20
150.0934432097
 10
84.7028865696
 20
150.0155971289
 10
84.4313987081
 20
149.7244906708
 10
84.3530389821
 20
149.4896510962
  0
LWPOLYLINE
  5
300
100
AcDbEntity
  8
0
100
AcDbPolyline
 62
7
  6
BYLAYER
 90
4
 70
0
 10
74.6021297
 20
150.0909495559
 10
74.3083721528
 20
150.0157815309
 10
74.0321131268
 20
149.7239007999
 10
73.9514822457
 20
149.479988108
  0
LINE
  5
301
100
AcDbEntity
  8
0
100
AcDbLine
 62
7
  6
BYLAYER
 10
54.0199032349
 20
154.54375
 11
54.5199032349
 21
154.54375
  0
LINE
  5
302
100
AcDbEntity
  8
0
100
AcDbLine
 62
7
  6
BYLAYER
 10
56.1199032349
 20
154.54375
 11
58.3199032349
 21
154.54375
  0
LINE
  5
303
100
AcDbEntity
  8
0
100
AcDbLine
 62
7
  6
BYLAYER
 10
30.4699032349
 20
155.0176802992
 11
53.1199032349
 21
155.0176802992
  0
LINE
  5
304
100
AcDbEntity
  8
0
100
AcDbLine
 62
7
  6
BYLAYER
 10
22.4699032349
 20
156.04375
 11
53.1199032349
 21
156.04375
  0
LINE
  5
305
100
AcDbEntity
  8
0
100
AcDbLine
 62
7
  6
BYLAYER
 10
184.5199032349
 20
147.64375
 11
184.5199032349
 21
146.44375
  0
ARC
  5
306
100
AcDbEntity
  8
0
100
AcDbCircle
 62
7
  6
BYLAYER
 10
54.3323335599
 20
147.7636275023
 40
15.2992929333
100
AcDbArc
 50
5.8707998456
 51
6.2811158648
  0
ARC
  5
307
100
AcDbEntity
  8
0
100
AcDbCircle
 62
7
  6
BYLAYER
 10
82.4211182213
 20
142.0750553093
 40
10.9081836848
100
AcDbArc
 50
39.1514580448
 51
39.4880957861
  0
ARC
  5
308
100
AcDbEntity
  8
0
100
AcDbCircle
 62
7
  6
BYLAYER
 10
83.83477533
 20
143.2420006779
 40
9.0751030189
100
AcDbArc
 50
39.4778168115
 51
40.544752606
  0
ARC
  5
309
100
AcDbEntity
  8
0
100
AcDbCircle
 62
7
  6
BYLAYER
 10
64.5361516059
 20
150.04375
 40
4.0
100
AcDbArc
 50
5.1660626584
 51
154.0555202277
  0
ARC
  5
30A
100
AcDbEntity
  8
0
100
AcDbCircle
 62
7
  6
BYLAYER
 10
64.5361516059
 20
144.04375
 40
4.0
100
AcDbArc
 50
205.9444797723
 51
354.8339373416
  0
ARC
  5
30B
100
AcDbEntity
  8
0
100
AcDbCircle
 62
7
  6
BYLAYER
 10
74.2448594928
 20
143.0023144554
 40
3.7582409358
100
AcDbArc
 50
88.2799656026
 51
89.9993340041
  0
ARC
  5
30C
100
AcDbEntity
  8
0
100
AcDbCircle
 62
7
  6
BYLAYER
 10
58.3199032349
 20
153.44375
 40
1.1
100
AcDbArc
 50
0.0
 51
90.0
  0
ARC
  5
30D
100
AcDbEntity
  8
0
100
AcDbCircle
 62
7
  6
BYLAYER
 10
58.3199032349
 20
140.64375
 40
1.1
100
AcDbArc
 50
270.0
 51
360.0
  0
ARC
  5
30E
100
AcDbEntity
  8
0
100
AcDbCircle
 62
7
  6
BYLAYER
 10
60.2199032349
 20
152.14375
 40
0.8
100
AcDbArc
 50
180.0
 51
334.0555202276
  0
ARC
  5
30F
100
AcDbEntity
  8
0
100
AcDbCircle
 62
7
  6
BYLAYER
 10
60.2199032349
 20
141.94375
 40
0.8
100
AcDbArc
 50
25.9444797724
 51
180.0
  0
ARC
  5
310
100
AcDbEntity
  8
0
100
AcDbCircle
 62
7
  6
BYLAYER
 10
55.3199032349
 20
154.04375
 40
0.6
100
AcDbArc
 50
180.0
 51
360.0
  0
ARC
  5
311
100
AcDbEntity
  8
0
100
AcDbCircle
 62
7
  6
BYLAYER
 10
55.3199032349
 20
140.04375
 40
0.6
100
AcDbArc
 50
0.0
 51
180.0
  0
ARC
  5
312
100
AcDbEntity
  8
0
100
AcDbCircle
 62
7
  6
BYLAYER
 10
90.5199101979
 20
149.5234580345
 40
0.5700300439
100
AcDbArc
 50
90.0029290915
 51
91.3822868647
  0
ARC
  5
313
100
AcDbEntity
  8
0
100
AcDbCircle
 62
7
  6
BYLAYER
 10
90.8380485289
 20
148.5739300326
 40
0.4753262434
100
AcDbArc
 50
150.1829708392
 51
151.2952361058
  0
ARC
  5
314
100
AcDbEntity
  8
0
100
AcDbCircle
 62
7
  6
BYLAYER
 10
88.8330100364
 20
149.1049981201
 40
0.4131048927
100
AcDbArc
 50
180.0479172699
 51
189.1907763162
  0
ARC
  5
315
100
AcDbEntity
  8
0
100
AcDbCircle
 62
7
  6
BYLAYER
 10
54.5199032349
 20
154.34375
 40
0.2
100
AcDbArc
 50
0.0
 51
90.0
  0
ARC
  5
316
100
AcDbEntity
  8
0
100
AcDbCircle
 62
7
  6
BYLAYER
 10
54.5199032349
 20
139.74375
 40
0.2
100
AcDbArc
 50
270.0
 51
360.0
  0
ARC
  5
317
100
AcDbEntity
  8
0
100
AcDbCircle
 62
7
  6
BYLAYER
 10
56.1199032349
 20
154.34375
 40
0.2
100
AcDbArc
 50
90.0
 51
180.0
  0
ARC
  5
318
100
AcDbEntity
  8
0
100
AcDbCircle
 62
7
  6
BYLAYER
 10
56.1199032349
 20
139.74375
 40
0.2
100
AcDbArc
 50
180.0
 51
270.0
  0
ARC
  5
319
100
AcDbEntity
  8
0
100
AcDbCircle
 62
7
  6
BYLAYER
 10
68.7199032349
 20
150.14375
 40
0.2
100
AcDbArc
 50
180.0000016725
 51
233.1301023542
  0
ARC
  5
31A
100
AcDbEntity
  8
0
100
AcDbCircle
 62
7
  6
BYLAYER
 10
68.7199032349
 20
143.94375
 40
0.2
100
AcDbArc
 50
126.8698976458
 51
179.9999983275
  0
SPLINE
  5
31B
100
AcDbEntity
  8
0
100
AcDbSpline
 62
7
  6
BYLAYER
 70
0
 71
3
 72
9
 73
5
 74
0
 42
0.0000001
 43
0.0000001
 44
0.0000000001
 40
0.0
 40
0.0
 40
0.0
 40
0.0
 40
0.4998426685
 40
1.0
 40
1.0
 40
1.0
 40
1.0
 10
90.0106904187
 20
149.8104129842
 30
0.0
 10
90.0621029815
 20
149.8936470781
 30
0.0
 10
90.2098359559
 20
150.0357663209
 30
0.0
 10
90.407051734
 20
150.0907149593
 30
0.0
 10
90.5049117652
 20
150.0932907377
 30
0.0
  0
SPLINE
  5
31C
100
AcDbEntity
  8
0
100
AcDbSpline
 62
7
  6
BYLAYER
 70
0
 71
3
 72
9
 73
5
 74
0
 42
0.0000001
 43
0.0000001
 44
0.0000000001
 40
0.0
 40
0.0
 40
0.0
 40
0.0
 40
0.499198357
 40
1.0
 40
1.0
 40
1.0
 40
1.0
 10
90.5198810577
 20
150.0934577285
 30
0.0
 10
90.5747831757
 20
150.093491028
 30
0.0
 10
90.6853383757
 20
150.0780828198
 30
0.0
 10
90.7872257866
 20
150.0327621881
 30
0.0
 10
90.8341932347
 20
150.0039924921
 30
0.0
  0
SPLINE
  5
31D
100
AcDbEntity
  8
0
100
AcDbSpline
 62
7
  6
BYLAYER
 70
0
 71
3
 72
11
 73
7
 74
0
 42
0.0000001
 43
0.0000001
 44
0.0000000001
 40
0.0
 40
0.0
 40
0.0
 40
0.0
 40
0.2497791299
 40
0.5000162098
 40
0.750029314
 40
1.0
 40
1.0
 40
1.0
 40
1.0
 10
90.2004767016
 20
148.9859574165
 30
0.0
 10
90.1347428167
 20
149.0273238803
 30
0.0
 10
90.0188092076
 20
149.13768168
 30
0.0
 10
89.9198356419
 20
149.3553671152
 30
0.0
 10
89.9137047366
 20
149.5944512991
 30
0.0
 10
89.9696480664
 20
149.7444060989
 30
0.0
 10
90.0106904187
 20
149.8104129842
 30
0.0
  0
SPLINE
  5
31E
100
AcDbEntity
  8
0
100
AcDbSpline
 62
7
  6
BYLAYER
 70
0
 71
3
 72
15
 73
11
 74
0
 42
0.0000001
 43
0.0000001
 44
0.0000000001
 40
0.0
 40
0.0
 40
0.0
 40
0.0
 40
0.1302263001
 40
0.260283802
 40
0.3897121793
 40
0.5180444295
 40
0.6445081122
 40
0.7681392204
 40
0.8874790394
 40
1.0
 40
1.0
 40
1.0
 40
1.0
 10
93.5199032243
 20
146.9291649218
 30
0.0
 10
93.3704236257
 20
146.9289743546
 30
0.0
 10
93.0702042414
 20
146.9738722867
 30
0.0
 10
92.6563018521
 20
147.1524621438
 30
0.0
 10
92.2860867609
 20
147.4029118815
 30
0.0
 10
91.9553489664
 20
147.6958669553
 30
0.0
 10
91.6559465147
 20
148.0110263643
 30
0.0
 10
91.3809233558
 20
148.3339645953
 30
0.0
 10
91.1264741461
 20
148.6529824151
 30
0.0
 10
90.9617443999
 20
148.8620288396
 30
0.0
 10
90.880192976
 20
148.9621828381
 30
0.0
  0
SPLINE
  5
31F
100
AcDbEntity
  8
0
100
AcDbSpline
 62
7
  6
BYLAYER
 70
0
 71
3
 72
15
 73
11
 74
0
 42
0.0000001
 43
0.0000001
 44
0.0000000001
 40
0.0
 40
0.0
 40
0.0
 40
0.0
 40
0.2182384299
 40
0.4136456819
 40
0.584043517
 40
0.7280728992
 40
0.9293987586
 40
0.9821369068
 40
0.9955631208
 40
1.0
 40
1.0
 40
1.0
 40
1.0
 10
90.730932162
 20
149.1411968733
 30
0.0
 10
90.6842428886
 20
149.1956930593
 30
0.0
 10
90.5944376598
 20
149.2977769592
 30
0.0
 10
90.4610141167
 20
149.4364909066
 30
0.0
 10
90.3399303588
 20
149.5510143941
 30
0.0
 10
90.2088586344
 20
149.664317221
 30
0.0
 10
90.1166008705
 20
149.7372256605
 30
0.0
 10
90.0307580677
 20
149.7978692371
 30
0.0
 10
90.0199155201
 20
149.804194504
 30
0.0
 10
90.0093111372
 20
149.8115828889
 30
0.0
 10
90.0103888011
 20
149.8105994486
 30
0.0
  0
SPLINE
  5
320
100
AcDbEntity
  8
0
100
AcDbSpline
 62
7
  6
BYLAYER
 70
0
 71
3
 72
29
 73
25
 74
0
 42
0.0000001
 43
0.0000001
 44
0.0000000001
 40
0.0
 40
0.0
 40
0.0
 40
0.0
 40
0.0040621155
 40
0.0074509875
 40
0.011919612
 40
0.0242775657
 40
0.0412301448
 40
0.0880083358
 40
0.1501558287
 40
0.2254247336
 40
0.3114065261
 40
0.4047440238
 40
0.5016650298
 40
0.598393359
 40
0.6912364504
 40
0.7768974005
 40
0.8522004224
 40
0.9139831435
 40
0.9596111124
 40
0.9760366931
 40
0.9881232083
 40
0.9925490521
 40
0.9959301679
 40
1.0
 40
1.0
 40
1.0
 40
1.0
 10
87.6023807968
 20
150.0912789972
 30
0.0
 10
87.6107194227
 20
150.0912350516
 30
0.0
 10
87.623302951
 20
150.0778046707
 30
0.0
 10
87.6340460941
 20
150.0568018651
 30
0.0
 10
87.649230519
 20
150.0176528066
 30
0.0
 10
87.666244844
 20
149.9505740767
 30
0.0
 10
87.6957423917
 20
149.7970045242
 30
0.0
 10
87.7295055107
 20
149.5407622114
 30
0.0
 10
87.7687158685
 20
149.1646577661
 30
0.0
 10
87.8081552027
 20
148.7077484634
 30
0.0
 10
87.8477948137
 20
148.1866291292
 30
0.0
 10
87.8875379361
 20
147.620953795
 30
0.0
 10
87.92738335
 20
147.0331741014
 30
0.0
 10
87.9672314302
 20
146.4464117529
 30
0.0
 10
88.0070776977
 20
145.882817705
 30
0.0
 10
88.0467919914
 20
145.3633127012
 30
0.0
 10
88.0860435047
 20
144.9077306789
 30
0.0
 10
88.124940748
 20
144.5346476238
 30
0.0
 10
88.1589462382
 20
144.2826514798
 30
0.0
 10
88.18867032
 20
144.1331948597
 30
0.0
 10
88.2057337777
 20
144.0679223571
 30
0.0
 10
88.2208313998
 20
144.0294489235
 30
0.0
 10
88.2315805691
 20
144.0085726096
 30
0.0
 10
88.2441090177
 20
143.9950420291
 30
0.0
 10
88.2524635542
 20
143.9950143434
 30
0.0
  0
SPLINE
  5
321
100
AcDbEntity
  8
0
100
AcDbSpline
 62
7
  6
BYLAYER
 70
0
 71
3
 72
14
 73
10
 74
0
 42
0.0000001
 43
0.0000001
 44
0.0000000001
 40
0.0
 40
0.0
 40
0.0
 40
0.0
 40
0.059125179
 40
0.1330577502
 40
0.2291700747
 40
0.3488235079
 40
0.4907849221
 40
0.6505666916
 40
1.0
 40
1.0
 40
1.0
 40
1.0
 10
84.6946703932
 20
146.2568144948
 30
0.0
 10
84.6958500332
 20
146.2436866686
 30
0.0
 10
84.6873147163
 20
146.2131086825
 30
0.0
 10
84.6507451339
 20
146.1759553501
 30
0.0
 10
84.5952365646
 20
146.1423057597
 30
0.0
 10
84.5207753392
 20
146.11293178
 30
0.0
 10
84.4297501362
 20
146.0891048916
 30
0.0
 10
84.2865560912
 20
146.0646032234
 30
0.0
 10
84.172802082
 20
146.057424621
 30
0.0
 10
84.0949032486
 20
146.0574249871
 30
0.0
  0
SPLINE
  5
322
100
AcDbEntity
  8
0
100
AcDbSpline
 62
7
  6
BYLAYER
 70
0
 71
3
 72
18
 73
14
 74
0
 42
0.0000001
 43
0.0000001
 44
0.0000000001
 40
0.0
 40
0.0
 40
0.0
 40
0.0
 40
0.0054728918
 40
0.0209860387
 40
0.046350496
 40
0.0813318138
 40
0.1254570454
 40
0.1781721214
 40
0.3068926772
 40
0.4612039054
 40
0.6338116528
 40
0.8165794461
 40
1.0
 40
1.0
 40
1.0
 40
1.0
 10
93.519908758
 20
147.643744855
 30
0.0
 10
93.5205651705
 20
147.6426185658
 30
0.0
 10
93.5193378698
 20
147.6372082562
 30
0.0
 10
93.5206218944
 20
147.6265518124
 30
0.0
 10
93.5199413167
 20
147.6082692133
 30
0.0
 10
93.5201474605
 20
147.583477224
 30
0.0
 10
93.519914121
 20
147.5520434748
 30
0.0
 10
93.5198153111
 20
147.4983321689
 30
0.0
 10
93.5198499546
 20
147.4183491877
 30
0.0
 10
93.5199636373
 20
147.3098224268
 30
0.0
 10
93.5198998243
 20
147.1884166052
 30
0.0
 10
93.5198827352
 20
147.0600787741
 30
0.0
 10
93.5198979799
 20
146.9728546706
 30
0.0
 10
93.5199032243
 20
146.9291649207
 30
0.0
  0
SPLINE
  5
323
100
AcDbEntity
  8
0
100
AcDbSpline
 62
7
  6
BYLAYER
 70
0
 71
3
 72
29
 73
25
 74
0
 42
0.0000001
 43
0.0000001
 44
0.0000000001
 40
0.0
 40
0.0
 40
0.0
 40
0.0
 40
0.0040518406
 40
0.0074027968
 40
0.0117942889
 40
0.0238311293
 40
0.0402837336
 40
0.0863612261
 40
0.1484669718
 40
0.2237916259
 40
0.3094556302
 40
0.4025138255
 40
0.4994643365
 40
0.5964772997
 40
0.6897185949
 40
0.7754711279
 40
0.8507741652
 40
0.9129809586
 40
0.9594780791
 40
0.9760987457
 40
0.9882019924
 40
0.9926021891
 40
0.9959529153
 40
1.0
 40
1.0
 40
1.0
 40
1.0
 10
86.301278742
 20
150.0911252629
 30
0.0
 10
86.3095943021
 20
150.0910867916
 30
0.0
 10
86.3221488599
 20
150.0778417404
 30
0.0
 10
86.3329370007
 20
150.0571327274
 30
0.0
 10
86.3480670633
 20
150.0189539807
 30
0.0
 10
86.3651623845
 20
149.9538081809
 30
0.0
 10
86.3949986255
 20
149.8035239376
 30
0.0
 10
86.4287069954
 20
149.5498825836
 30
0.0
 10
86.4677144905
 20
149.1752740511
 30
0.0
 10
86.5070589685
 20
148.7190906574
 30
0.0
 10
86.5468542881
 20
148.1992249037
 30
0.0
 10
86.5866614533
 20
147.6348578404
 30
0.0
 10
86.6265092659
 20
147.0471486818
 30
0.0
 10
86.6663673991
 20
146.459063655
 30
0.0
 10
86.7061200956
 20
145.8940054164
 30
0.0
 10
86.7459092105
 20
145.373624492
 30
0.0
 10
86.785297477
 20
144.9170984265
 30
0.0
 10
86.8244524081
 20
144.5414759789
 30
0.0
 10
86.8580375192
 20
144.28639925
 30
0.0
 10
86.8877891461
 20
144.1347304749
 30
0.0
 10
86.9048955801
 20
144.0690680564
 30
0.0
 10
86.9200502708
 20
144.0307340146
 30
0.0
 10
86.9308349016
 20
144.0100075812
 30
0.0
 10
86.9434115255
 20
143.9968078032
 30
0.0
 10
86.9517173536
 20
143.9967761507
 30
0.0
  0
LINE
  5
324
100
AcDbEntity
  8
0
100
AcDbLine
 62
7
  6
BYLAYER
 10
70.3482067236
 20
146.7899733787
 11
70.4052418649
 21
147.2974395987
  0
SPLINE
  5
325
100
AcDbEntity
  8
0
100
AcDbSpline
 62
7
  6
BYLAYER
 70
0
 71
3
 72
11
 73
7
 74
0
 42
0.0000001
 43
0.0000001
 44
0.0000000001
 40
0.0
 40
0.0
 40
0.0
 40
0.0
 40
0.2501235904
 40
0.5000876483
 40
0.749727947
 40
1.0
 40
1.0
 40
1.0
 40
1.0
 10
79.5942488531
 20
145.0271164622
 30
0.0
 10
79.6456830022
 20
144.9758965736
 30
0.0
 10
79.7293404273
 20
144.8527676381
 30
0.0
 10
79.7830703759
 20
144.6369897494
 30
0.0
 10
79.7525884024
 20
144.4164971312
 30
0.0
 10
79.6817750364
 20
144.2857019848
 30
0.0
 10
79.6361776899
 20
144.229168036
 30
0.0
  0
SPLINE
  5
326
100
AcDbEntity
  8
0
100
AcDbSpline
 62
7
  6
BYLAYER
 70
0
 71
3
 72
29
 73
25
 74
0
 42
0.0000001
 43
0.0000001
 44
0.0000000001
 40
0.0
 40
0.0
 40
0.0
 40
0.0
 40
0.0040975348
 40
0.0075247255
 40
0.0120107174
 40
0.0242368126
 40
0.0407913097
 40
0.0864783259
 40
0.1480435339
 40
0.2233282549
 40
0.3090560345
 40
0.4018827998
 40
0.4984463011
 40
0.5951961044
 40
0.6884401024
 40
0.7744848221
 40
0.8497554321
 40
0.9117108329
 40
0.9583827441
 40
0.9754017999
 40
0.9879335761
 40
0.9924825567
 40
0.9959194628
 40
1.0
 40
1.0
 40
1.0
 40
1.0
 10
85.0012508371
 20
150.0934432097
 30
0.0
 10
85.0096641236
 20
150.0934057788
 30
0.0
 10
85.0221542567
 20
150.0794877505
 30
0.0
 10
85.0328574808
 20
150.0583347251
 30
0.0
 10
85.047929951
 20
150.0192737234
 30
0.0
 10
85.0649629195
 20
149.9533039163
 30
0.0
 10
85.0945835291
 20
149.8030958981
 30
0.0
 10
85.1286045311
 20
149.5511212022
 30
0.0
 10
85.167644899
 20
149.1783247029
 30
0.0
 10
85.2067859902
 20
148.7229779546
 30
0.0
 10
85.2464462485
 20
148.2032830013
 30
0.0
 10
85.2862478617
 20
147.6397920882
 30
0.0
 10
85.3261048069
 20
147.0536210139
 30
0.0
 10
85.3659327208
 20
146.4665893264
 30
0.0
 10
85.4056762366
 20
145.901199862
 30
0.0
 10
85.4452392558
 20
145.3800143805
 30
0.0
 10
85.4845874858
 20
144.9232559056
 30
0.0
 10
85.523841767
 20
144.5476762291
 30
0.0
 10
85.5576609721
 20
144.2918721302
 30
0.0
 10
85.5871629144
 20
144.1379782032
 30
0.0
 10
85.6041022306
 20
144.0702137578
 30
0.0
 10
85.6192221071
 20
144.0303403468
 30
0.0
 10
85.6299053642
 20
144.0090159078
 30
0.0
 10
85.6424991331
 20
143.9952686169
 30
0.0
 10
85.6508775374
 20
143.9952356935
 30
0.0
  0
SPLINE
  5
327
100
AcDbEntity
  8
0
100
AcDbSpline
 62
7
  6
BYLAYER
 70
0
 71
3
 72
9
 73
5
 74
0
 42
0.0000001
 43
0.0000001
 44
0.0000000001
 40
0.0
 40
0.0
 40
0.0
 40
0.0
 40
0.2406664101
 40
1.0
 40
1.0
 40
1.0
 40
1.0
 10
84.5831149158
 20
146.2356513409
 30
0.0
 10
84.5886463717
 20
146.2801944173
 30
0.0
 10
84.611196939
 20
146.4653305584
 30
0.0
 10
84.6324412155
 20
146.650622829
 30
0.0
 10
84.6483554088
 20
146.7913444728
 30
0.0
  0
SPLINE
  5
328
100
AcDbEntity
  8
0
100
AcDbSpline
 62
7
  6
BYLAYER
 70
0
 71
3
 72
19
 73
15
 74
0
 42
0.0000001
 43
0.0000001
 44
0.0000000001
 40
0.0
 40
0.0
 40
0.0
 40
0.0
 40
0.007982936
 40
0.014831296
 40
0.0239128065
 40
0.0490973272
 40
0.0837680955
 40
0.1274504931
 40
0.1795073935
 40
0.3060950442
 40
0.4581648384
 40
0.6298628841
 40
0.8133035697
 40
1.0
 40
1.0
 40
1.0
 40
1.0
 10
74.6021297137
 20
150.0909495559
 30
0.0
 10
74.611338715
 20
150.0909116802
 30
0.0
 10
74.6248709357
 20
150.0750097665
 30
0.0
 10
74.6362889614
 20
150.0511748067
 30
0.0
 10
74.6526876776
 20
150.0059937435
 30
0.0
 10
74.6710205983
 20
149.9288582086
 30
0.0
 10
74.6922507704
 20
149.8111367966
 30
0.0
 10
74.71352779
 20
149.6622424455
 30
0.0
 10
74.7442957563
 20
149.4075828119
 30
0.0
 10
74.7812147181
 20
149.0278382213
 30
0.0
 10
74.8238206632
 20
148.5100498844
 30
0.0
 10
74.8664247629
 20
147.9264850233
 30
0.0
 10
74.9092149176
 20
147.3028925518
 30
0.0
 10
74.9379521325
 20
146.8768721057
 30
0.0
 10
74.952651859
 20
146.6620021725
 30
0.0
  0
SPLINE
  5
329
100
AcDbEntity
  8
0
100
AcDbSpline
 62
7
  6
BYLAYER
 70
0
 71
3
 72
17
 73
13
 74
0
 42
0.0000001
 43
0.0000001
 44
0.0000000001
 40
0.0
 40
0.0
 40
0.0
 40
0.0
 40
0.1999849814
 40
0.3886699104
 40
0.5604674281
 40
0.7098932401
 40
0.8314935886
 40
0.9207662376
 40
0.952798726
 40
0.9763709072
 40
0.991671803
 40
1.0
 40
1.0
 40
1.0
 40
1.0
 10
74.952651859
 20
146.6620021725
 30
0.0
 10
74.9649221484
 20
146.4826439884
 30
0.0
 10
74.9890467247
 20
146.1340819405
 30
0.0
 10
75.0258775182
 20
145.6315880826
 30
0.0
 10
75.0625208757
 20
145.174680447
 30
0.0
 10
75.0988603081
 20
144.7782044763
 30
0.0
 10
75.1345212085
 20
144.4563770196
 30
0.0
 10
75.1664872005
 20
144.2400054678
 30
0.0
 10
75.1931822773
 20
144.1127916199
 30
0.0
 10
75.211911866
 20
144.0511358545
 30
0.0
 10
75.2272010958
 20
144.0128306076
 30
0.0
 10
75.2449357015
 20
143.9956461487
 30
0.0
 10
75.2524223281
 20
143.9956204346
 30
0.0
  0
SPLINE
  5
32A
100
AcDbEntity
  8
0
100
AcDbSpline
 62
7
  6
BYLAYER
 70
0
 71
3
 72
29
 73
25
 74
0
 42
0.0000001
 43
0.0000001
 44
0.0000000001
 40
0.0
 40
0.0
 40
0.0
 40
0.0
 40
0.0040927972
 40
0.0075099194
 40
0.0119820798
 40
0.0241740946
 40
0.0406938264
 40
0.0863455703
 40
0.1479509409
 40
0.2232423035
 40
0.3089535819
 40
0.4017754609
 40
0.4983700191
 40
0.5951611587
 40
0.6884346243
 40
0.7744766237
 40
0.8497396949
 40
0.9117412905
 40
0.9584527561
 40
0.9754692812
 40
0.9879737266
 40
0.9925021081
 40
0.9959257285
 40
1.0
 40
1.0
 40
1.0
 40
1.0
 10
70.7011671326
 20
150.0932677492
 30
0.0
 10
70.7095702603
 20
150.0932229417
 30
0.0
 10
70.7220627082
 20
150.0793878834
 30
0.0
 10
70.7327796129
 20
150.0582934705
 30
0.0
 10
70.7478559902
 20
150.0193704832
 30
0.0
 10
70.7648970201
 20
149.9535756779
 30
0.0
 10
70.7945389006
 20
149.8035996107
 30
0.0
 10
70.8285690145
 20
149.5516961983
 30
0.0
 10
70.8675701112
 20
149.1788909186
 30
0.0
 10
70.9067330575
 20
148.7235049727
 30
0.0
 10
70.9464051242
 20
148.2038659053
 30
0.0
 10
70.9862194258
 20
147.6403825724
 30
0.0
 10
71.0260759562
 20
147.05410022
 30
0.0
 10
71.0659068357
 20
146.4668868524
 30
0.0
 10
71.1056515894
 20
145.9013839922
 30
0.0
 10
71.1452241785
 20
145.3801844373
 30
0.0
 10
71.1846014952
 20
144.9233754841
 30
0.0
 10
71.2238508229
 20
144.5476537933
 30
0.0
 10
71.2576516184
 20
144.2916834107
 30
0.0
 10
71.2871605393
 20
144.1377821145
 30
0.0
 10
71.304091959
 20
144.0701178186
 30
0.0
 10
71.3192418105
 20
144.0303979869
 30
0.0
 10
71.3299391792
 20
144.0091604712
 30
0.0
 10
71.342535068
 20
143.9955036773
 30
0.0
 10
71.350900225
 20
143.9954737649
 30
0.0
  0
SPLINE
  5
32B
100
AcDbEntity
  8
0
100
AcDbSpline
 62
7
  6
BYLAYER
 70
0
 71
3
 72
13
 73
9
 74
0
 42
0.0000001
 43
0.0000001
 44
0.0000000001
 40
0.0
 40
0.0
 40
0.0
 40
0.0
 40
0.2939641002
 40
0.5915308227
 40
0.7253910491
 40
0.8413524496
 40
0.9338540153
 40
1.0
 40
1.0
 40
1.0
 40
1.0
 10
89.9133917319
 20
146.2205290087
 30
0.0
 10
89.9562333384
 20
146.4752843085
 30
0.0
 10
90.0350482705
 20
146.9891096605
 30
0.0
 10
90.1334810779
 20
147.6189982952
 30
0.0
 10
90.219408926
 20
148.0922826614
 30
0.0
 10
90.2815595635
 20
148.3868205277
 30
0.0
 10
90.3441068325
 20
148.6197632131
 30
0.0
 10
90.393209354
 20
148.7512475403
 30
0.0
 10
90.4211369185
 20
148.8022275288
 30
0.0
  0
SPLINE
  5
32C
100
AcDbEntity
  8
0
100
AcDbSpline
 62
7
  6
BYLAYER
 70
0
 71
3
 72
16
 73
12
 74
0
 42
0.0000001
 43
0.0000001
 44
0.0000000001
 40
0.0
 40
0.0
 40
0.0
 40
0.0
 40
0.2082690408
 40
0.4004784651
 40
0.5717508741
 40
0.7173643093
 40
0.8343281169
 40
0.9208862784
 40
0.975609888
 40
0.9910741514
 40
1.0
 40
1.0
 40
1.0
 40
1.0
 10
84.0948941091
 20
146.0574223879
 30
0.0
 10
84.1052888476
 20
145.9125473746
 30
0.0
 10
84.1257685588
 20
145.6340004217
 30
0.0
 10
84.1573664979
 20
145.2365216683
 30
0.0
 10
84.1887873114
 20
144.882827213
 30
0.0
 10
84.2200225335
 20
144.5819617352
 30
0.0
 10
84.2511244564
 20
144.3401516815
 30
0.0
 10
84.2809475182
 20
144.1631343244
 30
0.0
 10
84.3082903092
 20
144.0558004781
 30
0.0
 10
84.3309067163
 20
144.0063437018
 30
0.0
 10
84.3458109808
 20
143.9938932623
 30
0.0
 10
84.3520358493
 20
143.9938696804
 30
0.0
  0
SPLINE
  5
32D
100
AcDbEntity
  8
0
100
AcDbSpline
 62
7
  6
BYLAYER
 70
0
 71
3
 72
31
 73
27
 74
0
 42
0.0000001
 43
0.0000001
 44
0.0000000001
 40
0.0
 40
0.0
 40
0.0
 40
0.0
 40
0.0041086562
 40
0.0075971729
 40
0.0121911957
 40
0.0247383841
 40
0.0416911456
 40
0.0628804624
 40
0.0881096883
 40
0.1498513714
 40
0.2251299123
 40
0.3110957623
 40
0.4041675243
 40
0.5007433003
 40
0.597229078
 40
0.6901130631
 40
0.7759258605
 40
0.8512040089
 40
0.9127438007
 40
0.9377591127
 40
0.9587137326
 40
0.975452088
 40
0.9878461146
 40
0.9923988974
 40
0.9958751349
 40
1.0
 40
1.0
 40
1.0
 40
1.0
 10
75.9024680385
 20
150.0931432394
 30
0.0
 10
75.9109050924
 20
150.0930994765
 30
0.0
 10
75.9234730088
 20
150.0789597595
 30
0.0
 10
75.934064895
 20
150.0573633051
 30
0.0
 10
75.9491371631
 20
150.0172024913
 30
0.0
 10
75.9660875672
 20
149.9494684945
 30
0.0
 10
75.9858493702
 20
149.8471223696
 30
0.0
 10
76.0056137051
 20
149.7185201349
 30
0.0
 10
76.0342245289
 20
149.4982312538
 30
0.0
 10
76.0686083393
 20
149.1667972257
 30
0.0
 10
76.1079493778
 20
148.7105754631
 30
0.0
 10
76.1474589196
 20
148.1898258437
 30
0.0
 10
76.187201157
 20
147.6252470754
 30
0.0
 10
76.2270161058
 20
147.0390197989
 30
0.0
 10
76.2668508922
 20
146.453180364
 30
0.0
 10
76.3066124943
 20
145.8894897434
 30
0.0
 10
76.3461728504
 20
145.3694469013
 30
0.0
 10
76.385408233
 20
144.913949024
 30
0.0
 10
76.4197553046
 20
144.5833685085
 30
0.0
 10
76.4484318022
 20
144.3644333806
 30
0.0
 10
76.4682088305
 20
144.237212327
 30
0.0
 10
76.4879785817
 20
144.1361212906
 30
0.0
 10
76.5049691356
 20
144.0692731406
 30
0.0
 10
76.5200233322
 20
144.0295463981
 30
0.0
 10
76.5306751035
 20
144.0081024219
 30
0.0
 10
76.5431343695
 20
143.9937877424
 30
0.0
 10
76.5516047514
 20
143.9937531434
 30
0.0
  0
SPLINE
  5
32E
100
AcDbEntity
  8
0
100
AcDbSpline
 62
7
  6
BYLAYER
 70
0
 71
3
 72
29
 73
25
 74
0
 42
0.0000001
 43
0.0000001
 44
0.0000000001
 40
0.0
 40
0.0
 40
0.0
 40
0.0
 40
0.0040502163
 40
0.0073995907
 40
0.0117906204
 40
0.0238348299
 40
0.0403139145
 40
0.0864903567
 40
0.1486304182
 40
0.2239542616
 40
0.3096315628
 40
0.4027351208
 40
0.4997093614
 40
0.5967183617
 40
0.6899248945
 40
0.7756489776
 40
0.8509574058
 40
0.9131504255
 40
0.9595615291
 40
0.9761320905
 40
0.9882109998
 40
0.9926057317
 40
0.9959538872
 40
1.0
 40
1.0
 40
1.0
 40
1.0
 10
72.0013684855
 20
150.0909829125
 30
0.0
 10
72.0096806072
 20
150.0909451008
 30
0.0
 10
72.0222400421
 20
150.0777216341
 30
0.0
 10
72.0330298038
 20
150.0570187074
 30
0.0
 10
72.048165437
 20
150.0188319973
 30
0.0
 10
72.0652641609
 20
149.9536156174
 30
0.0
 10
72.0951002553
 20
149.8030557985
 30
0.0
 10
72.1287605055
 20
149.5490808441
 30
0.0
 10
72.1678065396
 20
149.1742089164
 30
0.0
 10
72.2071597429
 20
148.7179354092
 30
0.0
 10
72.2469624136
 20
148.1979580218
 30
0.0
 10
72.2867562199
 20
147.6334278096
 30
0.0
 10
72.3266071976
 20
147.0455925734
 30
0.0
 10
72.3664645542
 20
146.4575459968
 30
0.0
 10
72.4062264868
 20
145.8926339079
 30
0.0
 10
72.4460268181
 20
145.3723798019
 30
0.0
 10
72.4854033236
 20
144.9159342628
 30
0.0
 10
72.5245355553
 20
144.5405100903
 30
0.0
 10
72.5581210227
 20
144.2857440222
 30
0.0
 10
72.5879127662
 20
144.1344208898
 30
0.0
 10
72.6050170545
 20
144.0689282312
 30
0.0
 10
72.6201673872
 20
144.0306653591
 30
0.0
 10
72.6309537872
 20
144.009960505
 30
0.0
 10
72.6435298475
 20
143.9967715549
 30
0.0
 10
72.6518335874
 20
143.9967438452
 30
0.0
  0
SPLINE
  5
32F
100
AcDbEntity
  8
0
100
AcDbSpline
 62
7
  6
BYLAYER
 70
0
 71
3
 72
11
 73
7
 74
0
 42
0.0000001
 43
0.0000001
 44
0.0000000001
 40
0.0
 40
0.0
 40
0.0
 40
0.0
 40
0.2307012218
 40
0.4738599232
 40
0.7323707185
 40
1.0
 40
1.0
 40
1.0
 40
1.0
 10
89.6151982127
 20
149.1664521048
 30
0.0
 10
89.6059342223
 20
149.2274624368
 30
0.0
 10
89.5588610213
 20
149.3496253507
 30
0.0
 10
89.421059147
 20
149.4950902694
 30
0.0
 10
89.232936745
 20
149.586987174
 30
0.0
 10
89.0914907201
 20
149.6093477247
 30
0.0
 10
89.0199032712
 20
149.6093475301
 30
0.0
  0
SPLINE
  5
330
100
AcDbEntity
  8
0
100
AcDbSpline
 62
7
  6
BYLAYER
 70
0
 71
3
 72
29
 73
25
 74
0
 42
0.0000001
 43
0.0000001
 44
0.0000000001
 40
0.0
 40
0.0
 40
0.0
 40
0.0
 40
0.004084514
 40
0.0074879305
 40
0.0119421112
 40
0.0240918039
 40
0.0405709428
 40
0.0861934272
 40
0.1478576323
 40
0.2231551868
 40
0.3088471144
 40
0.4016701751
 40
0.498311082
 40
0.5951541648
 40
0.6884598023
 40
0.7744902142
 40
0.8497501096
 40
0.9118088847
 40
0.9585582244
 40
0.975561584
 40
0.9880195882
 40
0.9925233718
 40
0.9959321222
 40
1.0
 40
1.0
 40
1.0
 40
1.0
 10
77.2010737783
 20
150.093007342
 30
0.0
 10
77.2094593898
 20
150.0929661667
 30
0.0
 10
77.2219636903
 20
150.0792456885
 30
0.0
 10
77.2326940023
 20
150.0582338544
 30
0.0
 10
77.2477777582
 20
150.0194872276
 30
0.0
 10
77.2648277447
 20
149.9539062125
 30
0.0
 10
77.2944990114
 20
149.8041834781
 30
0.0
 10
77.3285320398
 20
149.5523145356
 30
0.0
 10
77.3674874971
 20
149.1794563415
 30
0.0
 10
77.406682275
 20
148.7240075747
 30
0.0
 10
77.4463697404
 20
148.2044272975
 30
0.0
 10
77.4861992007
 20
147.6409226185
 30
0.0
 10
77.5260539698
 20
147.0544725024
 30
0.0
 10
77.5658901533
 20
146.467028163
 30
0.0
 10
77.6056359892
 20
145.9014118022
 30
0.0
 10
77.6452273411
 20
145.38021088
 30
0.0
 10
77.6846359544
 20
144.9233457684
 30
0.0
 10
77.723874316
 20
144.547459069
 30
0.0
 10
77.757659018
 20
144.2913299429
 30
0.0
 10
77.7871673564
 20
144.1374874358
 30
0.0
 10
77.8041115445
 20
144.0700000264
 30
0.0
 10
77.8192876518
 20
144.0304891096
 30
0.0
 10
77.8300013622
 20
144.0093513469
 30
0.0
 10
77.8425974987
 20
143.9957945522
 30
0.0
 10
77.8509490051
 20
143.9957653319
 30
0.0
  0
LINE
  5
331
100
AcDbEntity
  8
0
100
AcDbLine
 62
7
  6
BYLAYER
 10
76.8483188589
 20
146.7908742495
 11
76.9054096088
 21
147.2988906852
  0
SPLINE
  5
332
100
AcDbEntity
  8
0
100
AcDbSpline
 62
7
  6
BYLAYER
 70
0
 71
3
 72
27
 73
23
 74
0
 42
0.0000001
 43
0.0000001
 44
0.0000000001
 40
0.0
 40
0.0
 40
0.0
 40
0.0
 40
0.0040504914
 40
0.0074004104
 40
0.0117940555
 40
0.0238557473
 40
0.0403787524
 40
0.0866802238
 40
0.1488520872
 40
0.2658885554
 40
0.403010537
 40
0.5487314407
 40
0.6901262387
 40
0.7552508493
 40
0.8149273789
 40
0.8679883426
 40
0.9132719868
 40
0.9496295716
 40
0.9760985849
 40
0.9925406724
 40
0.9971929594
 40
1.0
 40
1.0
 40
1.0
 40
1.0
 10
78.5015101754
 20
150.0908424791
 30
0.0
 10
78.5098233726
 20
150.090795886
 30
0.0
 10
78.522381547
 20
150.0775766993
 30
0.0
 10
78.5331734648
 20
150.0568620684
 30
0.0
 10
78.5483140231
 20
150.0186294752
 30
0.0
 10
78.5654167944
 20
149.9532724813
 30
0.0
 10
78.5952362064
 20
149.8023090499
 30
0.0
 10
78.628857673
 20
149.5478973098
 30
0.0
 10
78.6767533266
 20
149.0875193927
 30
0.0
 10
78.7296110119
 20
148.440381158
 30
0.0
 10
78.7878903976
 20
147.621735392
 30
0.0
 10
78.8461900268
 20
146.7529713298
 30
0.0
 10
78.8959275209
 20
146.0317355108
 30
0.0
 10
78.9372196833
 20
145.4869449023
 30
0.0
 10
78.9672671687
 20
145.1231396126
 30
0.0
 10
78.9971624808
 20
144.800159841
 30
0.0
 10
79.0267897455
 20
144.5253476373
 30
0.0
 10
79.0559550843
 20
144.3051416977
 30
0.0
 10
79.084391876
 20
144.1453476165
 30
0.0
 10
79.1101818168
 20
144.0500721533
 30
0.0
 10
79.1322805279
 20
144.0065753869
 30
0.0
 10
79.1462035877
 20
143.9964340284
 30
0.0
 10
79.1519647741
 20
143.996409428
 30
0.0
  0
SPLINE
  5
333
100
AcDbEntity
  8
0
100
AcDbSpline
 62
7
  6
BYLAYER
 70
0
 71
3
 72
19
 73
15
 74
0
 42
0.0000001
 43
0.0000001
 44
0.0000000001
 40
0.0
 40
0.0
 40
0.0
 40
0.0
 40
0.0080078918
 40
0.0149183956
 40
0.0241067873
 40
0.0496273146
 40
0.0845143912
 40
0.128245797
 40
0.1802416728
 40
0.3066124459
 40
0.4587218604
 40
0.6304674283
 40
0.8136876784
 40
1.0
 40
1.0
 40
1.0
 40
1.0
 10
73.302454335
 20
150.0914683462
 30
0.0
 10
73.3117031172
 20
150.0914174676
 30
0.0
 10
73.3252307584
 20
150.0752679979
 30
0.0
 10
73.3366196007
 20
150.051172212
 30
0.0
 10
73.3530217171
 20
150.0052909306
 30
0.0
 10
73.3712382599
 20
149.927265876
 30
0.0
 10
73.3925197443
 20
149.8087012447
 30
0.0
 10
73.4138117688
 20
149.6593899508
 30
0.0
 10
73.4445948886
 20
149.40468941
 30
0.0
 10
73.4815669678
 20
149.0247675095
 30
0.0
 10
73.5241074044
 20
148.5064999206
 30
0.0
 10
73.5666767363
 20
147.9223852005
 30
0.0
 10
73.6094784893
 20
147.2986886858
 30
0.0
 10
73.6382247366
 20
146.8728565776
 30
0.0
 10
73.6529262878
 20
146.6581731271
 30
0.0
  0
SPLINE
  5
334
100
AcDbEntity
  8
0
100
AcDbSpline
 62
7
  6
BYLAYER
 70
0
 71
3
 72
17
 73
13
 74
0
 42
0.0000001
 43
0.0000001
 44
0.0000000001
 40
0.0
 40
0.0
 40
0.0
 40
0.0
 40
0.1998700693
 40
0.3886680236
 40
0.560628315
 40
0.7100058218
 40
0.831150443
 40
0.9203356822
 40
0.9524912711
 40
0.9762174012
 40
0.9916407114
 40
1.0
 40
1.0
 40
1.0
 40
1.0
 10
73.6529262878
 20
146.6581731271
 30
0.0
 10
73.6651876135
 20
146.4791237404
 30
0.0
 10
73.6893171611
 20
146.1309641927
 30
0.0
 10
73.7260959217
 20
145.6288989469
 30
0.0
 10
73.7626904838
 20
145.1723090357
 30
0.0
 10
73.7989326656
 20
144.7765863033
 30
0.0
 10
73.8346809553
 20
144.4556784175
 30
0.0
 10
73.8666663547
 20
144.2399353941
 30
0.0
 10
73.8932766551
 20
144.1127033687
 30
0.0
 10
73.9119973987
 20
144.0507107291
 30
0.0
 10
73.9272111075
 20
144.0122139641
 30
0.0
 10
73.9449407628
 20
143.9947530377
 30
0.0
 10
73.9524467747
 20
143.9947363031
 30
0.0
  0
LINE
  5
335
100
AcDbEntity
  8
0
100
AcDbLine
 62
7
  6
BYLAYER
 10
74.2448940641
 20
146.7605565605
 11
74.2481516822
 21
146.7893963904
  0
SPLINE
  5
336
100
AcDbEntity
  8
0
100
AcDbSpline
 62
7
  6
BYLAYER
 70
0
 71
3
 72
11
 73
7
 74
0
 42
0.0000001
 43
0.0000001
 44
0.0000000001
 40
0.0
 40
0.0
 40
0.0
 40
0.0
 40
0.269503131
 40
0.5281529338
 40
0.7701509482
 40
1.0
 40
1.0
 40
1.0
 40
1.0
 10
89.0199032711
 20
149.6093466662
 30
0.0
 10
88.9423612386
 20
149.6093464344
 30
0.0
 10
88.7894834834
 20
149.5833161729
 30
0.0
 10
88.5901911251
 20
149.4759752616
 30
0.0
 10
88.4545373515
 20
149.3078555921
 30
0.0
 10
88.4199075129
 20
149.1707853083
 30
0.0
 10
88.4199052882
 20
149.1046526346
 30
0.0
  0
SPLINE
  5
337
100
AcDbEntity
  8
0
100
AcDbSpline
 62
7
  6
BYLAYER
 70
0
 71
3
 72
20
 73
16
 74
0
 42
0.0000001
 43
0.0000001
 44
0.0000000001
 40
0.0
 40
0.0
 40
0.0
 40
0.0
 40
0.0080551442
 40
0.0152844087
 40
0.0248923567
 40
0.0513385002
 40
0.0873467837
 40
0.1326921065
 40
0.1870492572
 40
0.2495963037
 40
0.3192571835
 40
0.4755836284
 40
0.6473332761
 40
0.8254365533
 40
1.0
 40
1.0
 40
1.0
 40
1.0
 10
83.7010316961
 20
150.0927347838
 30
0.0
 10
83.7119554184
 20
150.0926796371
 30
0.0
 10
83.726831301
 20
150.0713258693
 30
0.0
 10
83.7394138942
 20
150.0420051121
 30
0.0
 10
83.7577577431
 20
149.9852138852
 30
0.0
 10
83.7783126949
 20
149.8901854813
 30
0.0
 10
83.8023144573
 20
149.7456764231
 30
0.0
 10
83.826283277
 20
149.5632785517
 30
0.0
 10
83.8504374225
 20
149.3445322261
 30
0.0
 10
83.874659147
 20
149.0926924263
 30
0.0
 10
83.9084038283
 20
148.7028503018
 30
0.0
 10
83.9494358231
 20
148.1650202778
 30
0.0
 10
83.9973224667
 20
147.4802438623
 30
0.0
 10
84.0451979734
 20
146.7706781556
 30
0.0
 10
84.0780062191
 20
146.2935399428
 30
0.0
 10
84.0949123748
 20
146.0574128208
 30
0.0
  0
LINE
  5
338
100
AcDbEntity
  8
0
100
AcDbLine
 62
7
  6
BYLAYER
 10
83.3476940599
 20
146.7852563197
 11
83.4054601786
 21
147.2993284421
  0
SPLINE
  5
339
100
AcDbEntity
  8
0
100
AcDbSpline
 62
7
  6
BYLAYER
 70
0
 71
3
 72
29
 73
25
 74
0
 42
0.0000001
 43
0.0000001
 44
0.0000000001
 40
0.0
 40
0.0
 40
0.0
 40
0.0
 40
0.0041187138
 40
0.007614483
 40
0.0122074312
 40
0.0247303669
 40
0.0416373446
 40
0.0627698747
 40
0.0879420358
 40
0.1496117895
 40
0.266736886
 40
0.4038110431
 40
0.5488030968
 40
0.6205175814
 40
0.6897334804
 40
0.7549721001
 40
0.8147564717
 40
0.8676196118
 40
0.9124265776
 40
0.9485223219
 40
0.9753167875
 40
0.9923210191
 40
0.9971591424
 40
1.0
 40
1.0
 40
1.0
 40
1.0
 10
82.4023618802
 20
150.0933841701
 30
0.0
 10
82.4108200251
 20
150.0933395922
 30
0.0
 10
82.4233526101
 20
150.0790729684
 30
0.0
 10
82.4339432036
 20
150.0574599976
 30
0.0
 10
82.449008688
 20
150.0173262003
 30
0.0
 10
82.4659661262
 20
149.9497472376
 30
0.0
 10
82.485729119
 20
149.8476580302
 30
0.0
 10
82.5054939792
 20
149.719381725
 30
0.0
 10
82.5341179015
 20
149.4994667773
 30
0.0
 10
82.5773322472
 20
149.0827915863
 30
0.0
 10
82.6299270905
 20
148.4362159752
 30
0.0
 10
82.6879540639
 20
147.6184868878
 30
0.0
 10
82.7367625063
 20
146.8935968706
 30
0.0
 10
82.777046888
 20
146.3078047473
 30
0.0
 10
82.8071140054
 20
145.8854815207
 30
0.0
 10
82.8371222284
 20
145.4877148947
 30
0.0
 10
82.8670108082
 20
145.1236348078
 30
0.0
 10
82.8968149423
 20
144.8016227174
 30
0.0
 10
82.926490749
 20
144.5285928426
 30
0.0
 10
82.9559002286
 20
144.3091267153
 30
0.0
 10
82.9841863196
 20
144.1479829366
 30
0.0
 10
83.0099753634
 20
144.0502372512
 30
0.0
 10
83.0315237608
 20
144.0049620173
 30
0.0
 10
83.0455527271
 20
143.9938437919
 30
0.0
 10
83.0513867127
 20
143.9938198904
 30
0.0
  0
SPLINE
  5
33A
100
AcDbEntity
  8
0
100
AcDbSpline
 62
7
  6
BYLAYER
 70
0
 71
3
 72
12
 73
8
 74
0
 42
0.0000001
 43
0.0000001
 44
0.0000000001
 40
0.0
 40
0.0
 40
0.0
 40
0.0
 40
0.0912843758
 40
0.2044774906
 40
0.4743202167
 40
0.7582358981
 40
1.0
 40
1.0
 40
1.0
 40
1.0
 10
89.0199042373
 20
149.609346672
 30
0.0
 10
89.0377857801
 20
149.4663542103
 30
0.0
 10
89.0711519161
 20
149.1452330498
 30
0.0
 10
89.1363933259
 20
148.399295808
 30
0.0
 10
89.2138563175
 20
147.3492213263
 30
0.0
 10
89.306347454
 20
146.096842746
 30
0.0
 10
89.3776699158
 20
145.2698780718
 30
0.0
 10
89.4200925233
 20
144.8905819015
 30
0.0
  0
SPLINE
  5
33B
100
AcDbEntity
  8
0
100
AcDbSpline
 62
7
  6
BYLAYER
 70
0
 71
3
 72
14
 73
10
 74
0
 42
0.0000001
 43
0.0000001
 44
0.0000000001
 40
0.0
 40
0.0
 40
0.0
 40
0.0
 40
0.413727941
 40
0.7223816909
 40
0.8331549611
 40
0.9148128133
 40
0.9450659135
 40
0.9687037698
 40
1.0
 40
1.0
 40
1.0
 40
1.0
 10
89.4200925233
 20
144.8905819015
 30
0.0
 10
89.4343520223
 20
144.7630891877
 30
0.0
 10
89.461579966
 20
144.5407767134
 30
0.0
 10
89.5018822002
 20
144.2853620158
 30
0.0
 10
89.5379290376
 20
144.1341058094
 30
0.0
 10
89.5589577437
 20
144.068277277
 30
0.0
 10
89.5774144386
 20
144.0301399864
 30
0.0
 10
89.5913932972
 20
144.0083480848
 30
0.0
 10
89.6068425355
 20
143.9961416452
 30
0.0
 10
89.6165467133
 20
143.9961036069
 30
0.0
  0
LINE
  5
33C
100
AcDbEntity
  8
0
100
AcDbLine
 62
7
  6
BYLAYER
 10
82.0479977145
 20
146.7882628291
 11
82.1057183193
 21
147.3021306539
  0
SPLINE
  5
33D
100
AcDbEntity
  8
0
100
AcDbSpline
 62
7
  6
BYLAYER
 70
0
 71
3
 72
12
 73
8
 74
0
 42
0.0000001
 43
0.0000001
 44
0.0000000001
 40
0.0
 40
0.0
 40
0.0
 40
0.0
 40
0.3443931496
 40
0.6447186285
 40
0.7660123028
 40
0.864971834
 40
1.0
 40
1.0
 40
1.0
 40
1.0
 10
84.0949032485
 20
146.0574059758
 30
0.0
 10
84.0195655705
 20
146.0574063883
 30
0.0
 10
83.8784028096
 20
146.0664496594
 30
0.0
 10
83.7131810932
 20
146.0972314287
 30
0.0
 10
83.6055257881
 20
146.1375131216
 30
0.0
 10
83.53871668
 20
146.1739540703
 30
0.0
 10
83.4977563727
 20
146.2167310653
 30
0.0
 10
83.4951475969
 20
146.2461537061
 30
0.0
  0
SPLINE
  5
33E
100
AcDbEntity
  8
0
100
AcDbSpline
 62
7
  6
BYLAYER
 70
0
 71
3
 72
29
 73
25
 74
0
 42
0.0000001
 43
0.0000001
 44
0.0000000001
 40
0.0
 40
0.0
 40
0.0
 40
0.0
 40
0.0040587616
 40
0.0074376726
 40
0.0118886989
 40
0.0241849796
 40
0.0410884503
 40
0.0878514903
 40
0.1500324597
 40
0.2253069725
 40
0.3112456925
 40
0.4045836502
 40
0.5015379586
 40
0.5983157236
 40
0.691184423
 40
0.7768350714
 40
0.8521437775
 40
0.9140003103
 40
0.9596745932
 40
0.976085768
 40
0.9881486712
 40
0.9925631053
 40
0.995935195
 40
1.0
 40
1.0
 40
1.0
 40
1.0
 10
81.1022798278
 20
150.0910712916
 30
0.0
 10
81.1106110081
 20
150.0910240371
 30
0.0
 10
81.12318996
 20
150.0776562579
 30
0.0
 10
81.13394631
 20
150.0567227842
 30
0.0
 10
81.1491248692
 20
150.0177767983
 30
0.0
 10
81.1661822302
 20
149.9509811629
 30
0.0
 10
81.1956911287
 20
149.7976867879
 30
0.0
 10
81.2294319924
 20
149.5415204562
 30
0.0
 10
81.2686277498
 20
149.1653907171
 30
0.0
 10
81.3080698893
 20
148.7085197335
 30
0.0
 10
81.3477419562
 20
148.1875132425
 30
0.0
 10
81.3874825519
 20
147.6218938063
 30
0.0
 10
81.427332169
 20
147.0339816822
 30
0.0
 10
81.4671767463
 20
146.4470345711
 30
0.0
 10
81.5070247376
 20
145.8833442075
 30
0.0
 10
81.5467551496
 20
145.3638313875
 30
0.0
 10
81.5860340468
 20
144.9081384764
 30
0.0
 10
81.6249205415
 20
144.5348215463
 30
0.0
 10
81.6588881349
 20
144.2826143726
 30
0.0
 10
81.6886410754
 20
144.1331581484
 30
0.0
 10
81.7057121012
 20
144.0679918294
 30
0.0
 10
81.7208158787
 20
144.0296264671
 30
0.0
 10
81.7315761621
 20
144.0088027522
 30
0.0
 10
81.7441102096
 20
143.9953514229
 30
0.0
 10
81.7524538738
 20
143.9953210757
 30
0.0
  0
SPLINE
  5
33F
100
AcDbEntity
  8
0
100
AcDbSpline
 62
7
  6
BYLAYER
 70
0
 71
3
 72
12
 73
8
 74
0
 42
0.0000001
 43
0.0000001
 44
0.0000000001
 40
0.0
 40
0.0
 40
0.0
 40
0.0
 40
0.0298280578
 40
0.0837452331
 40
0.2787599173
 40
0.5870745613
 40
1.0
 40
1.0
 40
1.0
 40
1.0
 10
69.4024354615
 20
150.0930077101
 30
0.0
 10
69.4091845557
 20
150.092981776
 30
0.0
 10
69.4254365959
 20
150.0784194471
 30
0.0
 10
69.449163834
 20
150.0212023479
 30
0.0
 10
69.4784170863
 20
149.8967652743
 30
0.0
 10
69.5100417724
 20
149.6926533737
 30
0.0
 10
69.5295571362
 20
149.5303430714
 30
0.0
 10
69.539785891
 20
149.4374727343
 30
0.0
  0
SPLINE
  5
340
100
AcDbEntity
  8
0
100
AcDbSpline
 62
7
  6
BYLAYER
 70
0
 71
3
 72
21
 73
17
 74
0
 42
0.0000001
 43
0.0000001
 44
0.0000000001
 40
0.0
 40
0.0
 40
0.0
 40
0.0
 40
0.1314353562
 40
0.2899450291
 40
0.4604540802
 40
0.5454458668
 40
0.6278049705
 40
0.7057298728
 40
0.7774209487
 40
0.841082318
 40
0.8950584752
 40
0.9384267379
 40
0.9705399135
 40
0.9908688137
 40
0.996635726
 40
1.0
 40
1.0
 40
1.0
 40
1.0
 10
69.5513828494
 20
149.328524619
 30
0.0
 10
69.5755061764
 20
149.094384999
 30
0.0
 10
69.6193801283
 20
148.5769379294
 30
0.0
 10
69.6786783936
 20
147.7544841855
 30
0.0
 10
69.7285539985
 20
147.0147350334
 30
0.0
 10
69.7698490236
 20
146.4110945417
 30
0.0
 10
69.8007602222
 20
145.9729352597
 30
0.0
 10
69.8316105299
 20
145.5586484362
 30
0.0
 10
69.862354882
 20
145.1779499366
 30
0.0
 10
69.8929331165
 20
144.8402349542
 30
0.0
 10
69.923390514
 20
144.5535895503
 30
0.0
 10
69.9536413671
 20
144.3234444954
 30
0.0
 10
69.982707338
 20
144.1548784741
 30
0.0
 10
70.0092599397
 20
144.0527016729
 30
0.0
 10
70.0313733227
 20
144.0055320133
 30
0.0
 10
70.0458198006
 20
143.9937987443
 30
0.0
 10
70.0518446167
 20
143.9937757749
 30
0.0
  0
SPLINE
  5
341
100
AcDbEntity
  8
0
100
AcDbSpline
 62
7
  6
BYLAYER
 70
0
 71
3
 72
29
 73
25
 74
0
 42
0.0000001
 43
0.0000001
 44
0.0000000001
 40
0.0
 40
0.0
 40
0.0
 40
0.0
 40
0.0040556647
 40
0.0074108625
 40
0.011805951
 40
0.0238416383
 40
0.0402716284
 40
0.0862319457
 40
0.1482904504
 40
0.2236178398
 40
0.3092735906
 40
0.4022779725
 40
0.4991936415
 40
0.5962042875
 40
0.6894820637
 40
0.7752744861
 40
0.8505666906
 40
0.9127778125
 40
0.9593639938
 40
0.9760532693
 40
0.9881910159
 40
0.9925988699
 40
0.9959529023
 40
1.0
 40
1.0
 40
1.0
 40
1.0
 10
79.8011862131
 20
150.0913434769
 30
0.0
 10
79.8095098316
 20
150.0912996238
 30
0.0
 10
79.8220548271
 20
150.0780096934
 30
0.0
 10
79.832840353
 20
150.0572778574
 30
0.0
 10
79.8479627676
 20
150.0190780159
 30
0.0
 10
79.8650537637
 20
149.9539745829
 30
0.0
 10
79.894879258
 20
149.8039780654
 30
0.0
 10
79.9286569733
 20
149.5507266922
 30
0.0
 10
79.9676183771
 20
149.1764344111
 30
0.0
 10
80.0069513948
 20
148.7203463482
 30
0.0
 10
80.0467335598
 20
148.2005866628
 30
0.0
 10
80.0865567465
 20
147.6364040863
 30
0.0
 10
80.1264016437
 20
147.0488650476
 30
0.0
 10
80.166259732
 20
146.4607646019
 30
0.0
 10
80.206004628
 20
145.8955374397
 30
0.0
 10
80.2457721297
 20
145.3750047678
 30
0.0
 10
80.2851776004
 20
144.9183989932
 30
0.0
 10
80.3243498573
 20
144.5425952736
 30
0.0
 10
80.3579604637
 20
144.2871838715
 30
0.0
 10
80.3876461044
 20
144.1350957093
 30
0.0
 10
80.4047528884
 20
144.0691970468
 30
0.0
 10
80.4199144963
 20
144.0307621507
 30
0.0
 10
80.4306932611
 20
144.0100089798
 30
0.0
 10
80.4432762366
 20
143.9967965658
 30
0.0
 10
80.4515823403
 20
143.9967684836
 30
0.0
  0
SPLINE
  5
342
100
AcDbEntity
  8
0
100
AcDbSpline
 62
7
  6
BYLAYER
 70
0
 71
3
 72
18
 73
14
 74
0
 42
0.0000001
 43
0.0000001
 44
0.0000000001
 40
0.0
 40
0.0
 40
0.0
 40
0.0
 40
0.2042267827
 40
0.3961378119
 40
0.5690401334
 40
0.7179382549
 40
0.8385087445
 40
0.8870876629
 40
0.9273535109
 40
0.958941283
 40
0.9816470272
 40
0.9953608168
 40
1.0
 40
1.0
 40
1.0
 40
1.0
 10
93.5199032243
 20
146.9291649207
 30
0.0
 10
93.5198758676
 20
146.8961180472
 30
0.0
 10
93.5198128651
 20
146.8320166947
 30
0.0
 10
93.5198117976
 20
146.7399396326
 30
0.0
 10
93.5200488413
 20
146.6568074458
 30
0.0
 10
93.5202513565
 20
146.5852447382
 30
0.0
 10
93.5198883424
 20
146.5337332493
 30
0.0
 10
93.5195759674
 20
146.4999231126
 30
0.0
 10
93.5192571013
 20
146.4802764804
 30
0.0
 10
93.5194857823
 20
146.4653933643
 30
0.0
 10
93.5188596838
 20
146.4534346261
 30
0.0
 10
93.5202350161
 20
146.4484794998
 30
0.0
 10
93.5191530148
 20
146.44375
 30
0.0
 10
93.5199037026
 20
146.44375
 30
0.0
  0
LINE
  5
343
100
AcDbEntity
  8
0
100
AcDbLine
 62
7
  6
BYLAYER
 10
88.548111257
 20
146.7892838834
 11
88.6096218893
 21
147.3364776436
  0
SPLINE
  5
344
100
AcDbEntity
  8
0
100
AcDbSpline
 62
7
  6
BYLAYER
 70
0
 71
3
 72
11
 73
7
 74
0
 42
0.0000001
 43
0.0000001
 44
0.0000000001
 40
0.0
 40
0.0
 40
0.0
 40
0.0
 40
0.0779333814
 40
0.2966616274
 40
0.6199109709
 40
1.0
 40
1.0
 40
1.0
 40
1.0
 10
22.4699032349
 20
156.04375
 30
0.0
 10
22.6735197337
 20
155.9923569545
 30
0.0
 10
23.4503142948
 20
155.8033096351
 30
0.0
 10
25.0863500841
 20
155.4622133404
 30
0.0
 10
27.5489622831
 20
155.11330815
 30
0.0
 10
29.4456674247
 20
155.0176802992
 30
0.0
 10
30.4699032349
 20
155.0176802992
 30
0.0
  0
SPLINE
  5
345
100
AcDbEntity
  8
0
100
AcDbSpline
 62
7
  6
BYLAYER
 70
0
 71
3
 72
18
 73
14
 74
0
 42
0.0000001
 43
0.0000001
 44
0.0000000001
 40
0.0
 40
0.0
 40
0.0
 40
0.0
 40
0.0447129793
 40
0.0893041569
 40
0.1776634836
 40
0.2646032319
 40
0.3497289047
 40
0.4326810441
 40
0.5130466632
 40
0.6638841095
 40
0.7967623247
 40
0.9037988801
 40
1.0
 40
1.0
 40
1.0
 40
1.0
 10
30.4699032349
 20
142.9206443744
 30
0.0
 10
30.6121159188
 20
142.9206443744
 30
0.0
 10
30.8963728225
 20
142.9058327222
 30
0.0
 10
31.4556524314
 20
142.8198200563
 30
0.0
 10
32.1291371311
 20
142.6191801531
 30
0.0
 10
32.885841524
 20
142.2787323557
 30
0.0
 10
33.5933871748
 20
141.8806548103
 30
0.0
 10
34.2574180076
 20
141.4517342274
 30
0.0
 10
35.0731393636
 20
140.8743379521
 30
0.0
 10
35.9884665502
 20
140.1643001998
 30
0.0
 10
36.9456491471
 20
139.3714625333
 30
0.0
 10
37.7561859477
 20
138.6743602691
 30
0.0
 10
38.2411838
 20
138.2469818107
 30
0.0
 10
38.4699032349
 20
138.04375
 30
0.0
  0
ENDSEC
  0
SECTION
  2
OBJECTS
  0
DICTIONARY
  5
C
100
AcDbDictionary
280
0
281
1
  3
ACAD_GROUP
350
D
  3
ACAD_MLINESTYLE
350
17
  3
ACAD_LAYOUT
350
1A
  3
ACAD_PLOTSETTINGS
350
19
  3
ACAD_PLOTSTYLENAME
350
E
  0
DICTIONARY
  5
D
102
{ACAD_REACTORS
330
C
102
}
100
AcDbDictionary
280
0
281
1
  0
ACDBDICTIONARYWDFLT
  5
E
102
{ACAD_REACTORS
330
C
102
}
100
AcDbDictionary
281
1
  3
Normal
350
F
100
AcDbDictionaryWithDefault
340
F
  0
DICTIONARY
  5
17
102
{ACAD_REACTORS
330
C
102
}
100
AcDbDictionary
280
0
281
1
  3
Standard
350
18
  0
DICTIONARY
  5
19
102
{ACAD_REACTORS
330
C
102
}
100
AcDbDictionary
281
1
  0
DICTIONARY
  5
1A
102
{ACAD_REACTORS
330
C
102
}
100
AcDbDictionary
281
1
  3
Model
350
346
  3
Layout1
350
347
  0
ACDBPLACEHOLDER
  5
F
102
{ACAD_REACTORS
330
E
102
}
  0
MLINESTYLE
  5
18
102
{ACAD_REACTORS
330
17
102
}
100
AcDbMlineStyle
  2
STANDARD
 70
0
  3

 62
256
 51
90.0
 52
90.0
 71
2
 49
0.5
 62
256
  6
BYLAYER
 49
-0.5
 62
256
  6
BYLAYER
  0
LAYOUT
  5
346
102
{ACAD_REACTORS
330
1A
102
}
100
AcDbPlotSettings
  1

  2
none_device
  4

  6

 40
0.0
 41
0.0
 42
0.0
 43
0.0
 44
210.0
 45
297.0
 46
0.0
 47
0.0
 48
0.0
 49
0.0
140
0.0
141
0.0
142
1.0
143
1.0
 70
1024
 72
1
 73
0
 74
0
  7

 75
0
147
1.0
148
0.0
149
0.0
100
AcDbLayout
  1
Model
 70
0
 71
0
 10
0.0
 20
0.0
 11
210.0
 21
297.0
 12
0.0
 22
0.0
 32
0.0
 14
0.0
 24
0.0
 34
0.0
 15
0.0
 25
0.0
 35
0.0
146
0.0
 13
0.0
 23
0.0
 33
0.0
 16
1.0
 26
0.0
 36
0.0
 17
0.0
 27
1.0
 37
0.0
 76
0
330
210
345
0
346
0
  0
LAYOUT
  5
347
102
{ACAD_REACTORS
330
1A
102
}
100
AcDbPlotSettings
  1

  2
none_device
  4

  6

 40
0.0
 41
0.0
 42
0.0
 43
0.0
 44
210.0
 45
297.0
 46
0.0
 47
0.0
 48
0.0
 49
0.0
140
0.0
141
0.0
142
1.0
143
1.0
 70
0
 72
1
 73
0
 74
0
  7

 75
0
147
1.0
148
0.0
149
0.0
100
AcDbLayout
  1
Layout1
 70
0
 71
1
 10
0.0
 20
0.0
 11
210.0
 21
297.0
 12
0.0
 22
0.0
 32
0.0
 14
0.0
 24
0.0
 34
0.0
 15
0.0
 25
0.0
 35
0.0
146
0.0
 13
0.0
 23
0.0
 33
0.0
 16
1.0
 26
0.0
 36
0.0
 17
0.0
 27
1.0
 37
0.0
 76
0
330
211
345
0
346
0
  0
ENDSEC
  0
EOF
