999
DXF file: C:\Users\sesa63760\Dev\_Creo\CAD\MCADID0004134_3D-CAD\drw0001_2.dxf
999
Pro/ENGINEER 2019471 by Parametric Technology Corporation
  0
SECTION
  2
HEADER
  9
$ACADVER
  1
AC1024
  9
$DWGCODEPAGE
  3
ANSI_1252
  9
$EXTMAX
 10
63.0187407441
 20
89.1265047666
 30
0.0
  9
$EXTMIN
 10
0.0
 20
0.0
 30
0.0
  9
$LIMMIN
 10
0.0
 20
0.0
  9
$LIMMAX
 10
63.0187407441
 20
89.1265047666
  9
$VIEWCTR
 10
31.509370372
 20
44.5632523833
  9
$VIEWSIZE
 40
89.1265047666
  9
$CLAYER
  8
0
  9
$LTSCALE
 40
5.8097277181
  9
$CELTYPE
  6
BYLAYER
  9
$DIMSCALE
 40
1.0
  9
$DIMASZ
 40
0.7502231041
  9
$DIMEXO
 40
1.0
  9
$DIMDLI
 40
4.0139936962
  9
$DIMEXE
 40
1.0
  9
$DIMCEN
 40
0.9506827175
  9
$DIMLFAC
 40
1.0
  9
$DIMBLK
  1
_FILLED
  9
$DIMALT
 70
0
  9
$DIMALTF
 40
0.0393700787
  9
$DIMTXT
 40
1.0503123457
  9
$DIMTOL
 70
1
  9
$DIMLIM
 70
0
  9
$DIMTFAC
 40
1.0
  9
$DIMTP
 40
0.01
  9
$DIMTM
 40
0.01
  9
$DIMGAP
 40
0.625
  9
$DIMDSEP
 70
46
  9
$AUNITS
 70
0
  9
$PDMODE
 70
3
  9
$PDSIZE
 40
0.3125
  9
$HANDSEED
  5
2BA
  9
$TILEMODE
 70
1
  9
$MEASUREMENT
 70
1
  9
$INSUNITS
 70
4
  0
ENDSEC
  0
SECTION
  2
CLASSES
  0
CLASS
  1
ACDBDICTIONARYWDFLT
  2
AcDbDictionaryWithDefault
  3
AutoCAD 2000
 90
0
 91
1
280
0
281
0
  0
CLASS
  1
ACDBPLACEHOLDER
  2
AcDbPlaceHolder
  3
AutoCAD 2000
 90
0
 91
1
280
0
281
0
  0
CLASS
  1
LAYOUT
  2
AcDbLayout
  3
AutoCAD 2000
 90
0
 91
0
280
0
281
0
  0
ENDSEC
  0
SECTION
  2
TABLES
  0
TABLE
  2
VPORT
  5
8
100
AcDbSymbolTable
 70
2
  0
VPORT
  5
1F4
100
AcDbSymbolTableRecord
100
AcDbViewportTableRecord
  2
*ACTIVE
 70
0
 10
0.0
 20
0.0
 11
1.0
 21
1.0
 12
31.509370372
 22
44.5632523833
 13
0.0
 23
0.0
 14
1.0
 24
1.0
 15
0.0
 25
0.0
 16
0.0
 26
0.0
 36
1.0
 17
0.0
 27
0.0
 37
0.0
 40
89.1265047666
 41
0.7070707071
 42
50.0
 43
0.0
 44
0.0
 50
0.0
 51
0.0
 71
0
 72
100
 73
1
 74
1
 75
0
 76
0
 77
0
 78
0
  0
ENDTAB
  0
TABLE
  2
LTYPE
  5
5
100
AcDbSymbolTable
 70
6
  0
LTYPE
  5
14
100
AcDbSymbolTableRecord
100
AcDbLinetypeTableRecord
  2
BYBLOCK
 70
0
  3

 72
65
 73
0
 40
0.0
  0
LTYPE
  5
15
100
AcDbSymbolTableRecord
100
AcDbLinetypeTableRecord
  2
BYLAYER
 70
0
  3

 72
65
 73
0
 40
0.0
  0
LTYPE
  5
16
100
AcDbSymbolTableRecord
100
AcDbLinetypeTableRecord
  2
CONTINUOUS
 70
64
  3
Solid line
 72
65
 73
0
 40
0.0
  0
LTYPE
  5
1F5
100
AcDbSymbolTableRecord
100
AcDbLinetypeTableRecord
  2
CENTER
 70
64
  3
____ _ ____ _ ____ _ ____ _ ____ _ ____ _ ____
 72
65
 73
4
 40
0.6
 49
0.375
 74
0
 49
-0.075
 74
0
 49
0.075
 74
0
 49
-0.075
 74
0
  0
LTYPE
  5
1F6
100
AcDbSymbolTableRecord
100
AcDbLinetypeTableRecord
  2
HIDDEN
 70
64
  3
- - - - - - - - - - - - - - - - - - - -
 72
65
 73
2
 40
0.2
 49
0.1
 74
0
 49
-0.1
 74
0
  0
LTYPE
  5
1F7
100
AcDbSymbolTableRecord
100
AcDbLinetypeTableRecord
  2
PHANTOM
 70
64
  3
_____ _ _ _____ _ _ _____ _ _ _____
 72
65
 73
6
 40
0.8
 49
0.45
 74
0
 49
-0.05
 74
0
 49
0.1
 74
0
 49
-0.05
 74
0
 49
0.1
 74
0
 49
-0.05
 74
0
  0
LTYPE
  5
1F8
100
AcDbSymbolTableRecord
100
AcDbLinetypeTableRecord
  2
DOT
 70
64
  3
. . . . . . . . . . . . . . . . . . . .
 72
65
 73
2
 40
0.2
 49
0.1
 74
0
 49
-0.1
 74
0
  0
LTYPE
  5
1F9
100
AcDbSymbolTableRecord
100
AcDbLinetypeTableRecord
  2
DASHED
 70
64
  3
- - - - - - - - - - - - - - - - - - - -
 72
65
 73
2
 40
0.2
 49
0.1
 74
0
 49
-0.1
 74
0
  0
ENDTAB
  0
TABLE
  2
LAYER
  5
2
100
AcDbSymbolTable
 70
36
  0
LAYER
  5
10
100
AcDbSymbolTableRecord
100
AcDbLayerTableRecord
  2
0
 70
0
 62
7
  6
CONTINUOUS
370
-3
390
F
  0
LAYER
  5
1FA
100
AcDbSymbolTableRecord
100
AcDbLayerTableRecord
  2
DEFAULT_1
 70
0
 62
7
  6
CENTER
370
-3
390
F
  0
LAYER
  5
1FB
100
AcDbSymbolTableRecord
100
AcDbLayerTableRecord
  2
DEFAULT_2
 70
0
 62
7
  6
HIDDEN
370
-3
390
F
  0
LAYER
  5
1FC
100
AcDbSymbolTableRecord
100
AcDbLayerTableRecord
  2
DEFAULT_3
 70
0
 62
7
  6
PHANTOM
370
-3
390
F
  0
LAYER
  5
1FD
100
AcDbSymbolTableRecord
100
AcDbLayerTableRecord
  2
00_COMPONENTS
 70
0
 62
7
  6
CONTINUOUS
370
-3
390
F
  0
LAYER
  5
1FE
100
AcDbSymbolTableRecord
100
AcDbLayerTableRecord
  2
01_1_DEFAULT_DATUMS
 70
0
 62
7
  6
CONTINUOUS
370
-3
390
F
  0
LAYER
  5
1FF
100
AcDbSymbolTableRecord
100
AcDbLayerTableRecord
  2
01_PLANES
 70
0
 62
7
  6
CONTINUOUS
370
-3
390
F
  0
LAYER
  5
200
100
AcDbSymbolTableRecord
100
AcDbLayerTableRecord
  2
02_COORD_SYS
 70
0
 62
7
  6
CONTINUOUS
370
-3
390
F
  0
LAYER
  5
201
100
AcDbSymbolTableRecord
100
AcDbLayerTableRecord
  2
03_AXES
 70
0
 62
7
  6
CONTINUOUS
370
-3
390
F
  0
LAYER
  5
202
100
AcDbSymbolTableRecord
100
AcDbLayerTableRecord
  2
04_POINTS
 70
0
 62
7
  6
CONTINUOUS
370
-3
390
F
  0
LAYER
  5
203
100
AcDbSymbolTableRecord
100
AcDbLayerTableRecord
  2
05_CURVES
 70
0
 62
7
  6
CONTINUOUS
370
-3
390
F
  0
LAYER
  5
204
100
AcDbSymbolTableRecord
100
AcDbLayerTableRecord
  2
06_SURFS
 70
0
 62
7
  6
CONTINUOUS
370
-3
390
F
  0
LAYER
  5
205
100
AcDbSymbolTableRecord
100
AcDbLayerTableRecord
  2
07_COSMETICS
 70
0
 62
7
  6
CONTINUOUS
370
-3
390
F
  0
LAYER
  5
206
100
AcDbSymbolTableRecord
100
AcDbLayerTableRecord
  2
10_NOTES
 70
0
 62
7
  6
CONTINUOUS
370
-3
390
F
  0
LAYER
  5
207
100
AcDbSymbolTableRecord
100
AcDbLayerTableRecord
  2
11_NOTES_PUB
 70
0
 62
7
  6
CONTINUOUS
370
-3
390
F
  0
LAYER
  5
208
100
AcDbSymbolTableRecord
100
AcDbLayerTableRecord
  2
13_REF_GTOL
 70
0
 62
7
  6
CONTINUOUS
370
-3
390
F
  0
LAYER
  5
209
100
AcDbSymbolTableRecord
100
AcDbLayerTableRecord
  2
16_MISC
 70
0
 62
7
  6
CONTINUOUS
370
-3
390
F
  0
LAYER
  5
20A
100
AcDbSymbolTableRecord
100
AcDbLayerTableRecord
  2
17_NO_PRINT
 70
0
 62
7
  6
CONTINUOUS
370
-3
390
F
  0
LAYER
  5
20B
100
AcDbSymbolTableRecord
100
AcDbLayerTableRecord
  2
18_DATUM_CAMS_JOINTS
 70
0
 62
7
  6
CONTINUOUS
370
-3
390
F
  0
LAYER
  5
20C
100
AcDbSymbolTableRecord
100
AcDbLayerTableRecord
  2
19_DATUM_FUNCTIONAL
 70
0
 62
7
  6
CONTINUOUS
370
-3
390
F
  0
LAYER
  5
20D
100
AcDbSymbolTableRecord
100
AcDbLayerTableRecord
  2
20_DATUM_KINEMATIC_SCHEME
 70
0
 62
7
  6
CONTINUOUS
370
-3
390
F
  0
ENDTAB
  0
TABLE
  2
STYLE
  5
3
100
AcDbSymbolTable
 70
1
  0
STYLE
  5
11
100
AcDbSymbolTableRecord
100
AcDbTextStyleTableRecord
  2
STANDARD
 70
0
 40
0.0
 41
1.0
 50
0.0
 71
0
 42
0.2
  3
ARIAL.TTF
  4

  0
STYLE
  5
20E
100
AcDbSymbolTableRecord
100
AcDbTextStyleTableRecord
  2
TEXTSTYLE_1
 70
0
 40
0.0
 41
0.8
 50
0.0
 71
0
 42
0.2
  3
gdt
  4

  0
ENDTAB
  0
TABLE
  2
VIEW
  5
6
100
AcDbSymbolTable
 70
0
  0
ENDTAB
  0
TABLE
  2
UCS
  5
7
100
AcDbSymbolTable
 70
0
  0
ENDTAB
  0
TABLE
  2
APPID
  5
9
100
AcDbSymbolTable
 70
1
  0
APPID
  5
20F
100
AcDbSymbolTableRecord
100
AcDbRegAppTableRecord
  2
ACAD
 70
0
  0
ENDTAB
  0
TABLE
  2
BLOCK_RECORD
  5
1
100
AcDbSymbolTable
 70
0
  0
BLOCK_RECORD
  5
210
100
AcDbSymbolTableRecord
100
AcDbBlockTableRecord
  2
*Model_Space
  0
BLOCK_RECORD
  5
211
100
AcDbSymbolTableRecord
100
AcDbBlockTableRecord
  2
*Paper_Space
  0
BLOCK_RECORD
  5
212
100
AcDbSymbolTableRecord
100
AcDbBlockTableRecord
  2
_FILLED
  0
ENDTAB
  0
TABLE
  2
DIMSTYLE
  5
A
100
AcDbSymbolTable
 70
1
100
AcDbDimStyleTable
 71
0
  0
DIMSTYLE
105
213
100
AcDbSymbolTableRecord
100
AcDbDimStyleTableRecord
  2
STANDARD
 70
0
  3

  4

 40
1.0
 41
0.7502231041
 42
1.0
 43
0.38
 44
1.0
 45
0.0
 46
0.0
 47
0.01
 48
0.01
140
1.0503123457
141
0.09
142
0.0
143
25.4
144
1.0
145
0.0
146
1.0
147
0.625
 71
1
 72
0
 73
0
 74
0
 75
0
 76
0
 77
1
 78
8
 79
2
170
0
171
1
172
0
173
0
174
0
175
0
176
0
177
0
178
0
270
2
179
2
271
2
272
2
273
2
274
2
275
0
280
0
281
0
282
0
283
1
284
8
285
0
286
0
287
3
288
0
340
11
278
46
341
212
342
212
343
212
344
212
  0
ENDTAB
  0
ENDSEC
  0
SECTION
  2
BLOCKS
  0
BLOCK
  5
20
100
AcDbEntity
  8
0
100
AcDbBlockBegin
  2
*Model_Space
 70
0
 10
0.0
 20
0.0
 30
0.0
  3
*Model_Space
  1

  0
ENDBLK
  5
21
100
AcDbEntity
  8
0
100
AcDbBlockEnd
  0
BLOCK
  5
1C
100
AcDbEntity
  8
0
100
AcDbBlockBegin
  2
*Paper_Space
 70
0
 10
0.0
 20
0.0
 30
0.0
  3
*Paper_Space
  1

  0
ENDBLK
  5
1D
100
AcDbEntity
  8
0
100
AcDbBlockEnd
  0
BLOCK
  5
214
100
AcDbEntity
  8
0
100
AcDbBlockBegin
  2
_FILLED
 70
64
 10
0.0
 20
0.0
  3
_FILLED
  1

  0
SOLID
  5
215
100
AcDbEntity
  8
0
  6
BYBLOCK
 62
0
100
AcDbTrace
 10
0.0
 20
0.0
 11
-1.0
 21
0.25
 12
-1.0
 22
-0.25
 13
-1.0
 23
-0.25
  0
ENDBLK
  5
216
100
AcDbEntity
  8
0
  6
BYBLOCK
 62
0
100
AcDbBlockEnd
  0
ENDSEC
  0
SECTION
  2
ENTITIES
  0
LINE
  5
217
100
AcDbEntity
  8
0
100
AcDbLine
 62
7
  6
BYLAYER
 10
7.4159910186
 20
14.3216512931
 11
8.1524369088
 21
13.8996635102
  0
LINE
  5
218
100
AcDbEntity
  8
0
100
AcDbLine
 62
7
  6
BYLAYER
 10
8.159582336
 20
12.899617429
 11
7.5235619531
 21
13.535637813
  0
LINE
  5
219
100
AcDbEntity
  8
0
100
AcDbLine
 62
7
  6
BYLAYER
 10
7.4159541282
 20
15.3216588787
 11
8.1524037991
 21
14.8996732028
  0
LINE
  5
21A
100
AcDbEntity
  8
0
100
AcDbLine
 62
7
  6
BYLAYER
 10
7.4159245881
 20
16.3216519774
 11
8.1523689814
 21
15.8996743975
  0
LINE
  5
21B
100
AcDbEntity
  8
0
100
AcDbLine
 62
7
  6
BYLAYER
 10
7.4159065642
 20
17.3216310619
 11
8.1523403038
 21
16.8996648101
  0
LINE
  5
21C
100
AcDbEntity
  8
0
100
AcDbLine
 62
7
  6
BYLAYER
 10
7.415990794
 20
14.3214680572
 11
7.4095823367
 21
14.3288248773
  0
LINE
  5
21D
100
AcDbEntity
  8
0
100
AcDbLine
 62
7
  6
BYLAYER
 10
7.415953921
 20
15.3214893397
 11
7.4095823367
 21
15.3288248773
  0
LINE
  5
21E
100
AcDbEntity
  8
0
100
AcDbLine
 62
7
  6
BYLAYER
 10
7.4159244108
 20
16.3215066076
 11
7.4095823367
 21
16.3288248772
  0
LINE
  5
21F
100
AcDbEntity
  8
0
100
AcDbLine
 62
7
  6
BYLAYER
 10
7.4159064257
 20
17.3215172553
 11
7.4095823367
 21
17.3288248771
  0
LINE
  5
220
100
AcDbEntity
  8
0
100
AcDbLine
 62
7
  6
BYLAYER
 10
7.41590397
 20
18.3215187972
 11
7.4095823367
 21
18.3288248772
  0
LINE
  5
221
100
AcDbEntity
  8
0
100
AcDbLine
 62
7
  6
BYLAYER
 10
18.6595823367
 20
11.3996174296
 11
8.1595823367
 21
11.3996174296
  0
LINE
  5
222
100
AcDbEntity
  8
0
100
AcDbLine
 62
7
  6
BYLAYER
 10
7.4159040664
 20
18.3215979675
 11
8.1523239124
 21
17.8996442579
  0
LINE
  5
223
100
AcDbEntity
  8
0
100
AcDbLine
 62
7
  6
BYLAYER
 10
7.4159209448
 20
19.3215558428
 11
8.1523187279
 21
18.8996177809
  0
LINE
  5
224
100
AcDbEntity
  8
0
100
AcDbLine
 62
7
  6
BYLAYER
 10
18.9757127574
 20
13.2225651878
 11
18.6668243659
 21
13.3995707539
  0
LINE
  5
225
100
AcDbEntity
  8
0
100
AcDbLine
 62
7
  6
BYLAYER
 10
7.4159609022
 20
20.3215090708
 11
8.1523239141
 21
19.8995913045
  0
LINE
  5
226
100
AcDbEntity
  8
0
100
AcDbLine
 62
7
  6
BYLAYER
 10
7.4160271385
 20
21.3214473174
 11
7.4095823367
 21
21.3288248773
  0
LINE
  5
227
100
AcDbEntity
  8
0
100
AcDbLine
 62
7
  6
BYLAYER
 10
7.4159608735
 20
20.321485604
 11
7.4095823367
 21
20.3288248773
  0
LINE
  5
228
100
AcDbEntity
  8
0
100
AcDbLine
 62
7
  6
BYLAYER
 10
7.4159208875
 20
19.3215089036
 11
7.4095823367
 21
19.3288248772
  0
LINE
  5
229
100
AcDbEntity
  8
0
100
AcDbLine
 62
7
  6
BYLAYER
 10
8.1595823367
 20
12.8996174296
 11
18.6595823367
 21
12.8996174296
  0
LINE
  5
22A
100
AcDbEntity
  8
0
100
AcDbLine
 62
7
  6
BYLAYER
 10
15.991261194
 20
13.6496174296
 11
10.8279034794
 21
13.6496174296
  0
LINE
  5
22B
100
AcDbEntity
  8
0
100
AcDbLine
 62
7
  6
BYLAYER
 10
19.4032400816
 20
13.977583566
 11
18.6667956864
 21
14.3995611686
  0
LINE
  5
22C
100
AcDbEntity
  8
0
100
AcDbLine
 62
7
  6
BYLAYER
 10
7.4160271582
 20
21.3214633813
 11
8.1523403075
 21
20.8995707539
  0
LINE
  5
22D
100
AcDbEntity
  8
0
100
AcDbLine
 62
7
  6
BYLAYER
 10
19.4032105396
 20
14.9775766676
 11
18.6667608683
 21
15.3995623652
  0
LINE
  5
22E
100
AcDbEntity
  8
0
100
AcDbLine
 62
7
  6
BYLAYER
 10
19.4031736483
 20
15.9775842559
 11
18.6667277594
 21
16.3995720592
  0
LINE
  5
22F
100
AcDbEntity
  8
0
100
AcDbLine
 62
7
  6
BYLAYER
 10
19.4031337149
 20
16.9776054079
 11
18.6667023322
 21
17.3995878816
  0
LINE
  5
230
100
AcDbEntity
  8
0
100
AcDbLine
 62
7
  6
BYLAYER
 10
19.403095154
 20
17.9776378009
 11
18.6666886079
 21
18.399607405
  0
LINE
  5
231
100
AcDbEntity
  8
0
100
AcDbLine
 62
7
  6
BYLAYER
 10
19.403062437
 20
18.9776777331
 11
18.6666886092
 21
19.3996281658
  0
LINE
  5
232
100
AcDbEntity
  8
0
100
AcDbLine
 62
7
  6
BYLAYER
 10
19.4030400266
 20
19.9777201694
 11
18.6667023356
 21
20.3996476886
  0
LINE
  5
233
100
AcDbEntity
  8
0
100
AcDbLine
 62
7
  6
BYLAYER
 10
19.4031339405
 20
16.9777889162
 11
19.4095823367
 21
16.9704101255
  0
LINE
  5
234
100
AcDbEntity
  8
0
100
AcDbLine
 62
7
  6
BYLAYER
 10
19.4031738705
 20
15.9777654862
 11
19.4095823367
 21
15.9704093953
  0
LINE
  5
235
100
AcDbEntity
  8
0
100
AcDbLine
 62
7
  6
BYLAYER
 10
19.403210745
 20
14.977744797
 11
19.4095823367
 21
14.9704102742
  0
LINE
  5
236
100
AcDbEntity
  8
0
100
AcDbLine
 62
7
  6
BYLAYER
 10
19.403240257
 20
13.9777273685
 11
19.4095823367
 21
13.970409181
  0
LINE
  5
237
100
AcDbEntity
  8
0
100
AcDbLine
 62
7
  6
BYLAYER
 10
6.9095823367
 20
76.8996174296
 11
6.9095823367
 21
38.3996174296
  0
LINE
  5
238
100
AcDbEntity
  8
0
100
AcDbLine
 62
7
  6
BYLAYER
 10
7.4095823367
 20
14.3288248773
 11
7.4095823367
 21
14.4704088226
  0
LINE
  5
239
100
AcDbEntity
  8
0
100
AcDbLine
 62
7
  6
BYLAYER
 10
7.4095823367
 20
15.3288248773
 11
7.4095823367
 21
15.4704114548
  0
LINE
  5
23A
100
AcDbEntity
  8
0
100
AcDbLine
 62
7
  6
BYLAYER
 10
7.4095823367
 20
16.3288248772
 11
7.4095823367
 21
16.4704086831
  0
LINE
  5
23B
100
AcDbEntity
  8
0
100
AcDbLine
 62
7
  6
BYLAYER
 10
7.4095823367
 20
17.3288248771
 11
7.4095823367
 21
17.4704114963
  0
LINE
  5
23C
100
AcDbEntity
  8
0
100
AcDbLine
 62
7
  6
BYLAYER
 10
7.4095823367
 20
18.3288248772
 11
7.4095823367
 21
18.4704085746
  0
LINE
  5
23D
100
AcDbEntity
  8
0
100
AcDbLine
 62
7
  6
BYLAYER
 10
7.4095823367
 20
19.3288248772
 11
7.4095823367
 21
19.4704114991
  0
LINE
  5
23E
100
AcDbEntity
  8
0
100
AcDbLine
 62
7
  6
BYLAYER
 10
7.4095823367
 20
20.3288248773
 11
7.4095823367
 21
20.4704085011
  0
LINE
  5
23F
100
AcDbEntity
  8
0
100
AcDbLine
 62
7
  6
BYLAYER
 10
7.4095823367
 20
21.3288248773
 11
7.4095823367
 21
37.775353361
  0
LINE
  5
240
100
AcDbEntity
  8
0
100
AcDbLine
 62
7
  6
BYLAYER
 10
18.6595823367
 20
21.3996174296
 11
19.4095823367
 21
20.970409982
  0
LINE
  5
241
100
AcDbEntity
  8
0
100
AcDbLine
 62
7
  6
BYLAYER
 10
19.4030401771
 20
19.9778417011
 11
19.4095823367
 21
19.9704098617
  0
LINE
  5
242
100
AcDbEntity
  8
0
100
AcDbLine
 62
7
  6
BYLAYER
 10
19.4030626248
 20
18.9778296725
 11
19.4095823367
 21
18.9704100215
  0
LINE
  5
243
100
AcDbEntity
  8
0
100
AcDbLine
 62
7
  6
BYLAYER
 10
19.4030953667
 20
17.9778103381
 11
19.4095823367
 21
17.9704096241
  0
LINE
  5
244
100
AcDbEntity
  8
0
100
AcDbLine
 62
7
  6
BYLAYER
 10
8.1595823367
 20
11.3996174296
 11
8.1595823367
 21
12.8996174296
  0
LINE
  5
245
100
AcDbEntity
  8
0
100
AcDbLine
 62
7
  6
BYLAYER
 10
8.2595823367
 20
70.3996174296
 11
8.2595823367
 21
68.3996174296
  0
LINE
  5
246
100
AcDbEntity
  8
0
100
AcDbLine
 62
7
  6
BYLAYER
 10
8.7595823367
 20
68.3996174296
 11
8.7595823367
 21
70.3996174296
  0
LINE
  5
247
100
AcDbEntity
  8
0
100
AcDbLine
 62
7
  6
BYLAYER
 10
6.9095823367
 20
38.3996174296
 11
19.9095823367
 21
25.3996174296
  0
LWPOLYLINE
  5
248
100
AcDbEntity
  8
0
100
AcDbPolyline
 62
7
  6
BYLAYER
 90
4
 70
0
 10
7.3217061251
 20
37.9874936413
 10
7.3712630554
 20
37.9220270745
 10
7.401249971
 20
37.8454660569
 10
7.4095744832
 20
37.7753690569
  0
LINE
  5
249
100
AcDbEntity
  8
0
100
AcDbLine
 62
7
  6
BYLAYER
 10
7.4095897525
 20
37.7753749554
 11
7.4095823367
 21
37.7753533609
  0
LINE
  5
24A
100
AcDbEntity
  8
0
100
AcDbLine
 62
7
  6
BYLAYER
 10
55.6479144151
 20
25.3996174296
 11
19.9095823367
 21
25.3996174296
  0
LINE
  5
24B
100
AcDbEntity
  8
0
100
AcDbLine
 62
7
  6
BYLAYER
 10
13.0595823367
 20
70.3996174296
 11
13.0595823367
 21
68.3996174296
  0
LINE
  5
24C
100
AcDbEntity
  8
0
100
AcDbLine
 62
7
  6
BYLAYER
 10
13.5595823367
 20
68.3996174296
 11
13.5595823367
 21
70.3996174296
  0
LINE
  5
24D
100
AcDbEntity
  8
0
100
AcDbLine
 62
7
  6
BYLAYER
 10
18.6595823367
 20
11.3996174296
 11
18.6595823367
 21
12.8996174296
  0
LINE
  5
24E
100
AcDbEntity
  8
0
100
AcDbLine
 62
7
  6
BYLAYER
 10
19.4095823367
 20
25.1753533609
 11
19.4095823367
 21
20.8288249895
  0
LINE
  5
24F
100
AcDbEntity
  8
0
100
AcDbLine
 62
7
  6
BYLAYER
 10
19.4095823367
 20
18.9704100215
 11
19.4095823367
 21
18.8288248225
  0
LINE
  5
250
100
AcDbEntity
  8
0
100
AcDbLine
 62
7
  6
BYLAYER
 10
19.4095823367
 20
17.9704096241
 11
19.4095823367
 21
17.8288247262
  0
LINE
  5
251
100
AcDbEntity
  8
0
100
AcDbLine
 62
7
  6
BYLAYER
 10
19.4095823367
 20
16.9704101255
 11
19.4095823367
 21
16.8288247392
  0
LINE
  5
252
100
AcDbEntity
  8
0
100
AcDbLine
 62
7
  6
BYLAYER
 10
19.4095823367
 20
15.9704093953
 11
19.4095823367
 21
15.8288248586
  0
LINE
  5
253
100
AcDbEntity
  8
0
100
AcDbLine
 62
7
  6
BYLAYER
 10
19.4095823367
 20
14.9704102742
 11
19.4095823367
 21
14.8288249921
  0
LINE
  5
254
100
AcDbEntity
  8
0
100
AcDbLine
 62
7
  6
BYLAYER
 10
19.4095823367
 20
13.970409181
 11
19.4095823367
 21
13.8288250375
  0
LINE
  5
255
100
AcDbEntity
  8
0
100
AcDbLine
 62
7
  6
BYLAYER
 10
19.4095823367
 20
19.8288248772
 11
19.4095823367
 21
19.9704098634
  0
LINE
  5
256
100
AcDbEntity
  8
0
100
AcDbLine
 62
7
  6
BYLAYER
 10
7.5254531777
 20
13.5404154751
 11
7.5235619531
 21
13.535637813
  0
LWPOLYLINE
  5
257
100
AcDbEntity
  8
0
100
AcDbPolyline
 62
7
  6
BYLAYER
 90
4
 70
0
 10
19.4018329934
 20
25.1752986863
 10
19.4773223178
 20
25.3727894313
 10
19.6958169477
 20
25.4787613245
 10
19.9094889905
 20
25.3996174296
  0
LINE
  5
258
100
AcDbEntity
  8
0
100
AcDbLine
 62
7
  6
BYLAYER
 10
19.4095823367
 20
25.1753533609
 11
19.4095745994
 21
25.1753381202
  0
LINE
  5
259
100
AcDbEntity
  8
0
100
AcDbLine
 62
7
  6
BYLAYER
 10
7.4159064275
 20
20.4777179699
 11
7.4095823367
 21
20.470408501
  0
LINE
  5
25A
100
AcDbEntity
  8
0
100
AcDbLine
 62
7
  6
BYLAYER
 10
7.4159039697
 20
19.4777156723
 11
7.4095823367
 21
19.470411499
  0
LINE
  5
25B
100
AcDbEntity
  8
0
100
AcDbLine
 62
7
  6
BYLAYER
 10
7.4159208825
 20
18.4777264295
 11
7.4095823367
 21
18.4704085745
  0
LINE
  5
25C
100
AcDbEntity
  8
0
100
AcDbLine
 62
7
  6
BYLAYER
 10
7.4159608657
 20
17.4777484117
 11
7.4095823367
 21
17.4704114961
  0
LINE
  5
25D
100
AcDbEntity
  8
0
100
AcDbLine
 62
7
  6
BYLAYER
 10
7.4160271282
 20
16.477787607
 11
7.4095823367
 21
16.4704086831
  0
LINE
  5
25E
100
AcDbEntity
  8
0
100
AcDbLine
 62
7
  6
BYLAYER
 10
7.4160872938
 20
15.4778207187
 11
7.4095823367
 21
15.4704114546
  0
LINE
  5
25F
100
AcDbEntity
  8
0
100
AcDbLine
 62
7
  6
BYLAYER
 10
7.416121172
 20
14.4778413297
 11
7.4095823367
 21
14.4704088226
  0
LINE
  5
260
100
AcDbEntity
  8
0
100
AcDbLine
 62
7
  6
BYLAYER
 10
19.4031704057
 20
21.8214662953
 11
19.4095823367
 21
21.8288248772
  0
LINE
  5
261
100
AcDbEntity
  8
0
100
AcDbLine
 62
7
  6
BYLAYER
 10
19.4031339486
 20
20.8214454217
 11
19.4095823367
 21
20.8288249895
  0
LINE
  5
262
100
AcDbEntity
  8
0
100
AcDbLine
 62
7
  6
BYLAYER
 10
19.4030953746
 20
19.8214236065
 11
19.4095823367
 21
19.8288248772
  0
LINE
  5
263
100
AcDbEntity
  8
0
100
AcDbLine
 62
7
  6
BYLAYER
 10
19.4030626303
 20
18.8214050727
 11
19.4095823367
 21
18.8288248225
  0
LINE
  5
264
100
AcDbEntity
  8
0
100
AcDbLine
 62
7
  6
BYLAYER
 10
19.4030401813
 20
17.8213922518
 11
19.4095823367
 21
17.8288247262
  0
LWPOLYLINE
  5
265
100
AcDbEntity
  8
0
100
AcDbPolyline
 62
7
  6
BYLAYER
 90
4
 70
0
 10
8.1670150799
 20
20.9079802646
 10
7.9706204675
 20
20.7954345611
 10
7.6412998736
 20
20.6067376181
 10
7.4159065657
 20
20.4776044796
  0
LINE
  5
266
100
AcDbEntity
  8
0
100
AcDbLine
 62
7
  6
BYLAYER
 10
19.4031375348
 20
13.8214473525
 11
19.4095823367
 21
13.8288250375
  0
LINE
  5
267
100
AcDbEntity
  8
0
100
AcDbLine
 62
7
  6
BYLAYER
 10
19.4030773732
 20
14.8214129313
 11
19.4095823367
 21
14.8288249921
  0
LINE
  5
268
100
AcDbEntity
  8
0
100
AcDbLine
 62
7
  6
BYLAYER
 10
19.4030434975
 20
15.8213937829
 11
19.4095823367
 21
15.8288248586
  0
LINE
  5
269
100
AcDbEntity
  8
0
100
AcDbLine
 62
7
  6
BYLAYER
 10
19.4030324049
 20
16.8213876767
 11
19.4095823367
 21
16.8288247392
  0
LWPOLYLINE
  5
26A
100
AcDbEntity
  8
0
100
AcDbPolyline
 62
7
  6
BYLAYER
 90
4
 70
0
 10
8.1669558201
 20
19.9079761564
 10
7.9705776598
 20
19.7954411392
 10
7.6412554341
 20
19.6067453147
 10
7.4159040647
 20
19.4776375719
  0
LWPOLYLINE
  5
26B
100
AcDbEntity
  8
0
100
AcDbPolyline
 62
7
  6
BYLAYER
 90
4
 70
0
 10
8.1669156006
 20
18.907982494
 10
7.9705545503
 20
18.7954581278
 10
7.641232381
 20
18.6067636851
 10
7.4159209395
 20
18.4776796959
  0
LWPOLYLINE
  5
26C
100
AcDbEntity
  8
0
100
AcDbPolyline
 62
7
  6
BYLAYER
 90
4
 70
0
 10
8.1669076359
 20
17.9080014247
 10
7.9705647524
 20
17.7954876196
 10
7.6412451386
 20
17.6067948116
 10
7.4159608925
 20
17.477726467
  0
LINE
  5
26D
100
AcDbEntity
  8
0
100
AcDbLine
 62
7
  6
BYLAYER
 10
18.9775924933
 20
13.2176275854
 11
18.6595823374
 21
12.899617429
  0
LWPOLYLINE
  5
26E
100
AcDbEntity
  8
0
100
AcDbPolyline
 62
7
  6
BYLAYER
 90
4
 70
0
 10
8.1669465397
 20
16.9080349431
 10
7.9714303302
 20
16.795993984
 10
7.6421164748
 20
16.6073028752
 10
7.4160271472
 20
16.4777721596
  0
LWPOLYLINE
  5
26F
100
AcDbEntity
  8
0
100
AcDbPolyline
 62
7
  6
BYLAYER
 90
4
 70
0
 10
8.1670245677
 20
15.9080729324
 10
7.9704624199
 20
15.7954309669
 10
7.6411502973
 20
15.6067382416
 10
7.4160873271
 20
15.4777937886
  0
LWPOLYLINE
  5
270
100
AcDbEntity
  8
0
100
AcDbPolyline
 62
7
  6
BYLAYER
 90
4
 70
0
 10
18.6522309892
 20
21.3912066913
 10
18.8388759216
 20
21.4981638567
 10
19.1680023265
 20
21.6867474525
 10
19.4031703902
 20
21.8214789893
  0
LWPOLYLINE
  5
271
100
AcDbEntity
  8
0
100
AcDbPolyline
 62
7
  6
BYLAYER
 90
4
 70
0
 10
8.1671011189
 20
14.9080957749
 10
7.9705556956
 20
14.7954617693
 10
7.6412452773
 20
14.6067673825
 10
7.4161212403
 20
14.4777861934
  0
LWPOLYLINE
  5
272
100
AcDbEntity
  8
0
100
AcDbPolyline
 62
7
  6
BYLAYER
 90
4
 70
0
 10
18.6519279927
 20
20.3911807413
 10
18.8386078082
 20
20.4981640552
 10
19.1677192229
 20
20.6867498116
 10
19.4031337215
 20
20.8216301431
  0
LINE
  5
273
100
AcDbEntity
  8
0
100
AcDbLine
 62
7
  6
BYLAYER
 10
8.1671674148
 20
13.9081052057
 11
7.5254682537
 21
13.5404004065
  0
LWPOLYLINE
  5
274
100
AcDbEntity
  8
0
100
AcDbPolyline
 62
7
  6
BYLAYER
 90
4
 70
0
 10
18.6519116891
 20
19.3911597149
 10
18.8386084125
 20
19.4981530543
 10
19.1677182625
 20
19.6867385201
 10
19.4030951599
 20
19.8215977518
  0
LWPOLYLINE
  5
275
100
AcDbEntity
  8
0
100
AcDbPolyline
 62
7
  6
BYLAYER
 90
4
 70
0
 10
18.6519181707
 20
18.3911426793
 10
18.8386320818
 20
18.4981457427
 10
19.1677412637
 20
18.6867306316
 10
19.4030624415
 20
18.8215578206
  0
LWPOLYLINE
  5
276
100
AcDbEntity
  8
0
100
AcDbPolyline
 62
7
  6
BYLAYER
 90
4
 70
0
 10
18.651947398
 20
17.3911320869
 10
18.838678684
 20
17.4981445203
 10
19.1677880981
 20
17.6867285496
 10
19.4030400288
 20
17.8215153842
  0
LWPOLYLINE
  5
277
100
AcDbEntity
  8
0
100
AcDbPolyline
 62
7
  6
BYLAYER
 90
4
 70
0
 10
18.6519972482
 20
16.3911303402
 10
18.8387459356
 20
16.4981517408
 10
19.1678563594
 20
16.6867346331
 10
19.4030322946
 20
16.8214767404
  0
LWPOLYLINE
  5
278
100
AcDbEntity
  8
0
100
AcDbPolyline
 62
7
  6
BYLAYER
 90
4
 70
0
 10
18.6520635416
 20
15.3911397688
 10
18.83882943
 20
15.4981696889
 10
19.1679413927
 20
15.6867511746
 10
19.4030434287
 20
15.8214493562
  0
LWPOLYLINE
  5
279
100
AcDbEntity
  8
0
100
AcDbPolyline
 62
7
  6
BYLAYER
 90
4
 70
0
 10
18.6521400917
 20
14.3911626088
 10
18.8389226909
 20
14.4982005607
 10
19.1680363504
 20
14.6867803793
 10
19.4030773376
 20
14.8214417564
  0
LWPOLYLINE
  5
27A
100
AcDbEntity
  8
0
100
AcDbPolyline
 62
7
  6
BYLAYER
 90
4
 70
0
 10
18.6522181223
 20
13.3912005964
 10
18.8379667129
 20
13.497644457
 10
19.1670821118
 20
13.6862226607
 10
19.4031375151
 20
13.8214633812
  0
LINE
  5
27B
100
AcDbEntity
  8
0
100
AcDbLine
 62
7
  6
BYLAYER
 10
55.6479144151
 20
25.3996174296
 11
56.9833978464
 21
76.3996720888
  0
LINE
  5
27C
100
AcDbEntity
  8
0
100
AcDbLine
 62
7
  6
BYLAYER
 10
13.5595823367
 20
68.3996174296
 11
13.0595823367
 21
68.3996174296
  0
LINE
  5
27D
100
AcDbEntity
  8
0
100
AcDbLine
 62
7
  6
BYLAYER
 10
8.7595823367
 20
68.3996174296
 11
8.2595823367
 21
68.3996174296
  0
LINE
  5
27E
100
AcDbEntity
  8
0
100
AcDbLine
 62
7
  6
BYLAYER
 10
8.2595823367
 20
70.3996174296
 11
8.7595823367
 21
70.3996174296
  0
LINE
  5
27F
100
AcDbEntity
  8
0
100
AcDbLine
 62
7
  6
BYLAYER
 10
13.0595823367
 20
70.3996174296
 11
13.5595823367
 21
70.3996174296
  0
LINE
  5
280
100
AcDbEntity
  8
0
100
AcDbLine
 62
7
  6
BYLAYER
 10
6.9095823367
 20
76.8996174296
 11
55.9095823367
 21
77.3996174296
  0
LINE
  5
281
100
AcDbEntity
  8
0
100
AcDbLine
 62
7
  6
BYLAYER
 10
56.0095513274
 20
77.3996174296
 11
55.9094898062
 21
77.3996174296
  0
LINE
  5
282
100
AcDbEntity
  8
0
100
AcDbLine
 62
7
  6
BYLAYER
 10
56.9100568693
 20
73.5988931698
 11
53.2341500209
 21
77.3723170999
  0
LINE
  5
283
100
AcDbEntity
  8
0
100
AcDbLine
 62
7
  6
BYLAYER
 10
56.9834053884
 20
76.3999601047
 11
56.0095823367
 21
77.3996174296
  0
CIRCLE
  5
284
100
AcDbEntity
  8
0
100
AcDbCircle
 62
7
  6
BYLAYER
 10
10.9095823367
 20
40.3996174296
 40
2.65
  0
ARC
  5
285
100
AcDbEntity
  8
0
100
AcDbCircle
 62
7
  6
BYLAYER
 10
10.9095823367
 20
68.3996174296
 40
2.65
100
AcDbArc
 50
180.0
 51
360.0
  0
ARC
  5
286
100
AcDbEntity
  8
0
100
AcDbCircle
 62
7
  6
BYLAYER
 10
10.9095823367
 20
70.3996174296
 40
2.65
100
AcDbArc
 50
0.0
 51
180.0
  0
CIRCLE
  5
287
100
AcDbEntity
  8
0
100
AcDbCircle
 62
7
  6
BYLAYER
 10
10.9095823367
 20
40.3996174296
 40
2.15
  0
ARC
  5
288
100
AcDbEntity
  8
0
100
AcDbCircle
 62
7
  6
BYLAYER
 10
10.9095823367
 20
68.3996174296
 40
2.15
100
AcDbArc
 50
180.0
 51
360.0
  0
ARC
  5
289
100
AcDbEntity
  8
0
100
AcDbCircle
 62
7
  6
BYLAYER
 10
10.9095823367
 20
70.3996174296
 40
2.15
100
AcDbArc
 50
0.0
 51
180.0
  0
SPLINE
  5
28A
100
AcDbEntity
  8
0
100
AcDbSpline
 62
7
  6
BYLAYER
 70
0
 71
3
 72
42
 73
38
 74
0
 42
0.0000001
 43
0.0000001
 44
0.0000000001
 40
0.0
 40
0.0
 40
0.0
 40
0.0
 40
0.0020047899
 40
0.0051233654
 40
0.0093672232
 40
0.0147293837
 40
0.0211996439
 40
0.0287663923
 40
0.0471361998
 40
0.0697179629
 40
0.0963310845
 40
0.1266958287
 40
0.1605051514
 40
0.1974439264
 40
0.2371831956
 40
0.323646104
 40
0.4166234858
 40
0.5126639398
 40
0.6082119074
 40
0.654694034
 40
0.6997427004
 40
0.7429326918
 40
0.7838360155
 40
0.8220787087
 40
0.8573318251
 40
0.8892887281
 40
0.917645404
 40
0.9420874722
 40
0.9623753545
 40
0.9783799859
 40
0.9847428522
 40
0.9899956707
 40
0.9941294285
 40
0.9971427765
 40
0.9982343759
 40
0.9990576133
 40
1.0
 40
1.0
 40
1.0
 40
1.0
 10
18.6521718451
 20
13.3912130571
 30
0.0
 10
18.6460531424
 20
13.3877597934
 30
0.0
 10
18.6287955087
 20
13.382127929
 30
0.0
 10
18.5968470311
 20
13.3748795789
 30
0.0
 10
18.5528019913
 20
13.3675640879
 30
0.0
 10
18.4969686337
 20
13.3600996668
 30
0.0
 10
18.4293915107
 20
13.3525708999
 30
0.0
 10
18.3163387002
 20
13.3417210488
 30
0.0
 10
18.1468164004
 20
13.3283670839
 30
0.0
 10
17.9105292718
 20
13.3129579317
 30
0.0
 10
17.6321004824
 20
13.2980600982
 30
0.0
 10
17.3142738539
 20
13.2832701
 30
0.0
 10
16.9602408585
 20
13.2681132523
 30
0.0
 10
16.5733430984
 20
13.252548856
 30
0.0
 10
16.0020032017
 20
13.2311774877
 30
0.0
 10
15.2342775243
 20
13.206195903
 30
0.0
 10
14.2693093142
 20
13.1760207801
 30
0.0
 10
13.2725050518
 20
13.1452141036
 30
0.0
 10
12.4385383813
 20
13.1204524486
 30
0.0
 10
11.7832253506
 20
13.1000591356
 30
0.0
 10
11.311345438
 20
13.0844420785
 30
0.0
 10
10.8590290693
 20
13.0688005882
 30
0.0
 10
10.4305577218
 20
13.053774767
 30
0.0
 10
10.0299139076
 20
13.038894661
 30
0.0
 10
9.6606594905
 20
13.0236901254
 30
0.0
 10
9.3260923215
 20
13.0082900923
 30
0.0
 10
9.0294562376
 20
12.9929258163
 30
0.0
 10
8.7737630835
 20
12.9777965952
 30
0.0
 10
8.5614291838
 20
12.9629279486
 30
0.0
 10
8.4124903151
 20
12.9499791039
 30
0.0
 10
8.316289103
 20
12.9391083333
 30
0.0
 10
8.2616190439
 20
12.931620822
 30
0.0
 10
8.2187502427
 20
12.9240515465
 30
0.0
 10
8.1907401065
 20
12.9175060449
 30
0.0
 10
8.1742238828
 20
12.9116408683
 30
0.0
 10
8.1655868259
 20
12.9075867447
 30
0.0
 10
8.1596246013
 20
12.902806671
 30
0.0
 10
8.1596472007
 20
12.8995040914
 30
0.0
  0
SPLINE
  5
28B
100
AcDbEntity
  8
0
100
AcDbSpline
 62
7
  6
BYLAYER
 70
0
 71
3
 72
9
 73
5
 74
0
 42
0.0000001
 43
0.0000001
 44
0.0000000001
 40
0.0
 40
0.0
 40
0.0
 40
0.0
 40
0.7162499587
 40
1.0
 40
1.0
 40
1.0
 40
1.0
 10
7.4095823367
 20
15.3288248773
 30
0.0
 10
7.4095823367
 20
15.3297473558
 30
0.0
 10
7.4100626612
 20
15.3310418504
 30
0.0
 10
7.4108393555
 20
15.3320634422
 30
0.0
 10
7.4110755892
 20
15.3323422738
 30
0.0
  0
SPLINE
  5
28C
100
AcDbEntity
  8
0
100
AcDbSpline
 62
7
  6
BYLAYER
 70
0
 71
3
 72
42
 73
38
 74
0
 42
0.0000001
 43
0.0000001
 44
0.0000000001
 40
0.0
 40
0.0
 40
0.0
 40
0.0
 40
0.0005194528
 40
0.0012874873
 40
0.0036340599
 40
0.0070938026
 40
0.0116751859
 40
0.0173742241
 40
0.0241783467
 40
0.032073262
 40
0.0410439777
 40
0.0621311484
 40
0.0872427
 40
0.1161556198
 40
0.1485996065
 40
0.1842827599
 40
0.2228717781
 40
0.2640162523
 40
0.3073334962
 40
0.3988824978
 40
0.4941556009
 40
0.5896528379
 40
0.6818660959
 40
0.7674083506
 40
0.8066824696
 40
0.8431383172
 40
0.8764368877
 40
0.9062762536
 40
0.9323796199
 40
0.9545120872
 40
0.9724693036
 40
0.9798312313
 40
0.9860951262
 40
0.991247008
 40
0.9952773082
 40
0.9981882652
 40
1.0
 40
1.0
 40
1.0
 40
1.0
 10
7.4110755892
 20
15.3323422738
 30
0.0
 10
7.4124197159
 20
15.3339287742
 30
0.0
 10
7.4168129358
 20
15.3368612182
 30
0.0
 10
7.4301831849
 20
15.3425334524
 30
0.0
 10
7.455857766
 20
15.3489488226
 30
0.0
 10
7.4967371356
 20
15.3563286789
 30
0.0
 10
7.5512699958
 20
15.3637503672
 30
0.0
 10
7.6192403825
 20
15.3712572802
 30
0.0
 10
7.7005511373
 20
15.3787872373
 30
0.0
 10
7.7949986615
 20
15.3863445584
 30
0.0
 10
7.9465478391
 20
15.3970261972
 30
0.0
 10
8.1670078518
 20
15.4100760239
 30
0.0
 10
8.467301056
 20
15.4251247324
 30
0.0
 10
8.8131024239
 20
15.4402129997
 30
0.0
 10
9.2012545512
 20
15.4553454638
 30
0.0
 10
9.6281652995
 20
15.4704988176
 30
0.0
 10
10.0899229027
 20
15.4856743043
 30
0.0
 10
10.5822543533
 20
15.5008606019
 30
0.0
 10
11.2865133199
 20
15.5215047059
 30
0.0
 10
12.2073986411
 20
15.5469108789
 30
0.0
 10
13.3371090881
 20
15.5769149385
 30
0.0
 10
14.4694796375
 20
15.6069159808
 30
0.0
 10
15.5628849815
 20
15.6368850182
 30
0.0
 10
16.4312678863
 20
15.6624504747
 30
0.0
 10
17.0764959647
 20
15.6832849811
 30
0.0
 10
17.512668373
 20
15.6984455068
 30
0.0
 10
17.9110502747
 20
15.7135849273
 30
0.0
 10
18.2679600108
 20
15.7286894285
 30
0.0
 10
18.5801316808
 20
15.7437363755
 30
0.0
 10
18.8446770465
 20
15.7587127228
 30
0.0
 10
19.0341864265
 20
15.7717788384
 30
0.0
 10
19.1601482655
 20
15.7825855462
 30
0.0
 10
19.2349501471
 20
15.7900980732
 30
0.0
 10
19.2963094638
 20
15.7975718824
 30
0.0
 10
19.3442349266
 20
15.8048755739
 30
0.0
 10
19.3784065623
 20
15.8121547742
 30
0.0
 10
19.3967124037
 20
15.8177714951
 30
0.0
 10
19.403017926
 20
15.821354215
 30
0.0
  0
SPLINE
  5
28D
100
AcDbEntity
  8
0
100
AcDbSpline
 62
7
  6
BYLAYER
 70
0
 71
3
 72
32
 73
28
 74
0
 42
0.0000001
 43
0.0000001
 44
0.0000000001
 40
0.0
 40
0.0
 40
0.0
 40
0.0
 40
0.0019747872
 40
0.0036073485
 40
0.0052078458
 40
0.0070999245
 40
0.0094898123
 40
0.0124810694
 40
0.0161246067
 40
0.0204439112
 40
0.0311422848
 40
0.0445995007
 40
0.0607897109
 40
0.07964461
 40
0.1010777101
 40
0.1249966527
 40
0.1512957382
 40
0.1798623688
 40
0.2433217359
 40
0.3142763806
 40
0.3915292996
 40
0.4738387376
 40
0.5599041875
 40
0.6483827423
 40
0.7379282624
 40
0.8272319419
 40
1.0
 40
1.0
 40
1.0
 40
1.0
 10
8.159582336
 20
12.899617429
 30
0.0
 10
8.1558882498
 20
12.9033115152
 30
0.0
 10
8.1497200054
 20
12.9107995182
 30
0.0
 10
8.1454537892
 20
12.9244256776
 30
0.0
 10
8.1484765009
 20
12.9381921221
 30
0.0
 10
8.1578497548
 20
12.9509560131
 30
0.0
 10
8.1727488232
 20
12.9632918988
 30
0.0
 10
8.1933239766
 20
12.9755272979
 30
0.0
 10
8.2196369922
 20
12.9877432189
 30
0.0
 10
8.2658097946
 20
13.0052977279
 30
0.0
 10
8.3382248284
 20
13.026387145
 30
0.0
 10
8.4422601338
 20
13.0503371723
 30
0.0
 10
8.5683566158
 20
13.0742187024
 30
0.0
 10
8.7158591041
 20
13.0980893815
 30
0.0
 10
8.8840396081
 20
13.1219560083
 30
0.0
 10
9.072081879
 20
13.1458585252
 30
0.0
 10
9.2791342363
 20
13.1697462245
 30
0.0
 10
9.5904292564
 20
13.2026448482
 30
0.0
 10
10.0197473504
 20
13.2426083254
 30
0.0
 10
10.577798285
 20
13.2888264475
 30
0.0
 10
11.1858688407
 20
13.3350930413
 30
0.0
 10
11.8340582517
 20
13.380838218
 30
0.0
 10
12.5120437828
 20
13.4261367352
 30
0.0
 10
13.2092174015
 20
13.4713673001
 30
0.0
 10
13.9149959848
 20
13.5162759729
 30
0.0
 10
14.8433348803
 20
13.5749295765
 30
0.0
 10
15.5352347298
 20
13.619023972
 30
0.0
 10
15.991261194
 20
13.6496174296
 30
0.0
  0
SPLINE
  5
28E
100
AcDbEntity
  8
0
100
AcDbSpline
 62
7
  6
BYLAYER
 70
0
 71
3
 72
43
 73
39
 74
0
 42
0.0000001
 43
0.0000001
 44
0.0000000001
 40
0.0
 40
0.0
 40
0.0
 40
0.0
 40
0.0019445416
 40
0.0049513094
 40
0.0090469008
 40
0.0142411255
 40
0.02053324
 40
0.0279069434
 40
0.045814027
 40
0.0677686477
 40
0.0935746375
 40
0.1230149061
 40
0.1558595239
 40
0.1918226677
 40
0.2305549475
 40
0.271689184
 40
0.3148582352
 40
0.4058060083
 40
0.5001459331
 40
0.547524361
 40
0.5944805113
 40
0.640583206
 40
0.6854112762
 40
0.7285709608
 40
0.7696890667
 40
0.8084044861
 40
0.8443544726
 40
0.8771753934
 40
0.9065871371
 40
0.9323688321
 40
0.9543097427
 40
0.9721958241
 40
0.9795531643
 40
0.9858224428
 40
0.990996774
 40
0.9950767284
 40
0.9980693518
 40
1.0
 40
1.0
 40
1.0
 40
1.0
 10
18.6513522001
 20
19.391481615
 30
0.0
 10
18.6454596537
 20
19.3880747816
 30
0.0
 10
18.6288804931
 20
19.3824134432
 30
0.0
 10
18.5981290268
 20
19.3751061581
 30
0.0
 10
18.5556749028
 20
19.3677063579
 30
0.0
 10
18.5016574921
 20
19.3602181839
 30
0.0
 10
18.4360534872
 20
19.35276441
 30
0.0
 10
18.3260454783
 20
19.3421737534
 30
0.0
 10
18.1611743725
 20
19.3295650842
 30
0.0
 10
17.9317793618
 20
19.3149741456
 30
0.0
 10
17.6619697511
 20
19.2999020267
 30
0.0
 10
17.3540048722
 20
19.2845421302
 30
0.0
 10
17.0104300258
 20
19.2695600507
 30
0.0
 10
16.6342885115
 20
19.2549544911
 30
0.0
 10
16.229117896
 20
19.2401574605
 30
0.0
 10
15.7987203265
 20
19.2250198619
 30
0.0
 10
15.1856337722
 20
19.2043594828
 30
0.0
 10
14.3863590477
 20
19.1791530699
 30
0.0
 10
13.5723120895
 20
19.1549954021
 30
0.0
 10
12.9121966974
 20
19.1349146582
 30
0.0
 10
12.4208637083
 20
19.119488894
 30
0.0
 10
11.9384548781
 20
19.10429706
 30
0.0
 10
11.4693248355
 20
19.089633943
 30
0.0
 10
11.0176522597
 20
19.074930542
 30
0.0
 10
10.5874023431
 20
19.0598021432
 30
0.0
 10
10.1824113959
 20
19.0445103988
 30
0.0
 10
9.8064809172
 20
19.0293371903
 30
0.0
 10
9.4631260958
 20
19.014592533
 30
0.0
 10
9.1553997638
 20
18.9998389365
 30
0.0
 10
8.8858079775
 20
18.9850284971
 30
0.0
 10
8.6566323427
 20
18.9702086382
 30
0.0
 10
8.4919792078
 20
18.9570960411
 30
0.0
 10
8.382208043
 20
18.9462559699
 30
0.0
 10
8.3168130791
 20
18.9388022541
 30
0.0
 10
8.2629823283
 20
18.9314717456
 30
0.0
 10
8.220661264
 20
18.924325371
 30
0.0
 10
8.1900138581
 20
18.9172631905
 30
0.0
 10
8.1734835116
 20
18.9117474193
 30
0.0
 10
8.167622667
 20
18.9083829784
 30
0.0
  0
SPLINE
  5
28F
100
AcDbEntity
  8
0
100
AcDbSpline
 62
7
  6
BYLAYER
 70
0
 71
3
 72
41
 73
37
 74
0
 42
0.0000001
 43
0.0000001
 44
0.0000000001
 40
0.0
 40
0.0
 40
0.0
 40
0.0
 40
0.001946755
 40
0.0049701099
 40
0.0090967672
 40
0.0143239722
 40
0.0206343382
 40
0.0280093979
 40
0.0458826779
 40
0.0677964972
 40
0.0935852116
 40
0.1230478141
 40
0.1559182185
 40
0.1918671064
 40
0.2305622337
 40
0.2716615787
 40
0.3148207425
 40
0.4057657176
 40
0.5000689806
 40
0.5943718129
 40
0.6852765395
 40
0.7284468121
 40
0.7695802853
 40
0.808287459
 40
0.8441970428
 40
0.8770050554
 40
0.9064526162
 40
0.9322894518
 40
0.9542558855
 40
0.9721097592
 40
0.979444562
 40
0.9857074099
 40
0.9908942752
 40
0.9950011878
 40
0.9980296099
 40
1.0
 40
1.0
 40
1.0
 40
1.0
 10
18.6518279102
 20
16.3912290341
 30
0.0
 10
18.6459465341
 20
16.3877870603
 30
0.0
 10
18.6292879991
 20
16.3821147791
 30
0.0
 10
18.5983461561
 20
16.3748684926
 30
0.0
 10
18.5555727406
 20
16.3676312989
 30
0.0
 10
18.5012397169
 20
16.3603242854
 30
0.0
 10
18.4354334127
 20
16.3530020092
 30
0.0
 10
18.3254625949
 20
16.3425080141
 30
0.0
 10
18.1608574396
 20
16.3297298813
 30
0.0
 10
17.9318041275
 20
16.3146913803
 30
0.0
 10
17.6621188239
 20
16.2994230512
 30
0.0
 10
17.3540094802
 20
16.2845386137
 30
0.0
 10
17.010283148
 20
16.2700311875
 30
0.0
 10
16.6342259121
 20
16.255203572
 30
0.0
 10
16.2293567438
 20
16.2399988743
 30
0.0
 10
15.7992348054
 20
16.2247012704
 30
0.0
 10
15.1862825874
 20
16.2042828411
 30
0.0
 10
14.3871318734
 20
16.179652375
 30
0.0
 10
13.409027001
 20
16.149955245
 30
0.0
 10
12.4310840315
 20
16.1195794924
 30
0.0
 10
11.6320213142
 20
16.0954461302
 30
0.0
 10
11.0190576698
 20
16.0748406554
 30
0.0
 10
10.5887384278
 20
16.0594526798
 30
0.0
 10
10.1838409715
 20
16.0443646849
 30
0.0
 10
9.8080916749
 20
16.0296862642
 30
0.0
 10
9.4647845621
 20
16.0149309419
 30
0.0
 10
9.1567830693
 20
15.9999601413
 30
0.0
 10
8.8867823505
 20
15.9849690281
 30
0.0
 10
8.65743814
 20
15.9699900922
 30
0.0
 10
8.4928741332
 20
15.9570004061
 30
0.0
 10
8.3832845567
 20
15.9464613809
 30
0.0
 10
8.317928563
 20
15.9391528709
 30
0.0
 10
8.2639698454
 20
15.9318791152
 30
0.0
 10
8.2213879654
 20
15.9246907113
 30
0.0
 10
8.1903947211
 20
15.9175003205
 30
0.0
 10
8.1736345819
 20
15.9118481996
 30
0.0
 10
8.1676472692
 20
15.9084241257
 30
0.0
  0
SPLINE
  5
290
100
AcDbEntity
  8
0
100
AcDbSpline
 62
7
  6
BYLAYER
 70
0
 71
3
 72
9
 73
5
 74
0
 42
0.0000001
 43
0.0000001
 44
0.0000000001
 40
0.0
 40
0.0
 40
0.0
 40
0.0
 40
0.7164309359
 40
1.0
 40
1.0
 40
1.0
 40
1.0
 10
19.4095823367
 20
16.9704101258
 30
0.0
 10
19.4095823367
 20
16.9694829847
 30
0.0
 10
19.409100878
 20
16.9681820276
 30
0.0
 10
19.4083208904
 20
16.9671551239
 30
0.0
 10
19.4080837804
 20
16.9668750423
 30
0.0
  0
SPLINE
  5
291
100
AcDbEntity
  8
0
100
AcDbSpline
 62
7
  6
BYLAYER
 70
0
 71
3
 72
42
 73
38
 74
0
 42
0.0000001
 43
0.0000001
 44
0.0000000001
 40
0.0
 40
0.0
 40
0.0
 40
0.0
 40
0.0005202451
 40
0.0012889047
 40
0.0036366484
 40
0.0070977203
 40
0.0116807009
 40
0.0173815969
 40
0.0241877988
 40
0.0320849931
 40
0.0410581714
 40
0.0621507157
 40
0.0872682042
 40
0.1161875305
 40
0.1486382838
 40
0.1843284416
 40
0.2229245394
 40
0.2640760221
 40
0.3074001091
 40
0.3989618025
 40
0.4942450863
 40
0.5897491286
 40
0.6819648986
 40
0.7675044805
 40
0.8067752186
 40
0.8432262838
 40
0.8765185767
 40
0.9063501931
 40
0.9324443565
 40
0.9545662305
 40
0.9725114711
 40
0.9798669363
 40
0.9861240742
 40
0.9912689286
 40
0.9952919947
 40
0.9981955786
 40
1.0
 40
1.0
 40
1.0
 40
1.0
 10
19.4080837804
 20
16.9668750423
 30
0.0
 10
19.4067381965
 20
16.965285597
 30
0.0
 10
19.4023412274
 20
16.9623479623
 30
0.0
 10
19.3889605769
 20
16.9566726309
 30
0.0
 10
19.3632713202
 20
16.9502627058
 30
0.0
 10
19.3223730737
 20
16.9428937341
 30
0.0
 10
19.267819287
 20
16.93548087
 30
0.0
 10
19.1998257325
 20
16.9279770482
 30
0.0
 10
19.1184893332
 20
16.9204468014
 30
0.0
 10
19.0240138467
 20
16.9128866494
 30
0.0
 10
18.8724231653
 20
16.9021996656
 30
0.0
 10
18.6519064353
 20
16.8891432067
 30
0.0
 10
18.3515398946
 20
16.8740898216
 30
0.0
 10
18.0056589906
 20
16.8590021619
 30
0.0
 10
17.6174226565
 20
16.843871903
 30
0.0
 10
17.1904247383
 20
16.8287195781
 30
0.0
 10
16.7285788084
 20
16.8135422233
 30
0.0
 10
16.2361595529
 20
16.7983496934
 30
0.0
 10
15.5317884889
 20
16.7776996728
 30
0.0
 10
14.6107760296
 20
16.7523057881
 30
0.0
 10
13.480937569
 20
16.7222869396
 30
0.0
 10
12.3484794278
 20
16.6922830966
 30
0.0
 10
11.2550379502
 20
16.6623232087
 30
0.0
 10
10.3866623481
 20
16.6367414546
 30
0.0
 10
9.7414722061
 20
16.6159070577
 30
0.0
 10
9.3053537728
 20
16.6007513862
 30
0.0
 10
8.9070438477
 20
16.5856115342
 30
0.0
 10
8.5502243666
 20
16.5705020057
 30
0.0
 10
8.2381606662
 20
16.5554500754
 30
0.0
 10
7.9737406395
 20
16.540470722
 30
0.0
 10
7.7843459888
 20
16.5274059139
 30
0.0
 10
7.6584842412
 20
16.5166007348
 30
0.0
 10
7.5837628675
 20
16.5090893788
 30
0.0
 10
7.5224882651
 20
16.501615101
 30
0.0
 10
7.4746489706
 20
16.4943099223
 30
0.0
 10
7.440569556
 20
16.4870279021
 30
0.0
 10
7.4223214829
 20
16.481410469
 30
0.0
 10
7.4160523904
 20
16.4778228384
 30
0.0
  0
SPLINE
  5
292
100
AcDbEntity
  8
0
100
AcDbSpline
 62
7
  6
BYLAYER
 70
0
 71
3
 72
9
 73
5
 74
0
 42
0.0000001
 43
0.0000001
 44
0.0000000001
 40
0.0
 40
0.0
 40
0.0
 40
0.0
 40
0.7163526273
 40
1.0
 40
1.0
 40
1.0
 40
1.0
 10
7.4095823367
 20
16.3288248772
 30
0.0
 10
7.4095823367
 20
16.3297446345
 30
0.0
 10
7.4100600202
 20
16.3310352158
 30
0.0
 10
7.4108332283
 20
16.3320545162
 30
0.0
 10
7.4110683461
 20
16.3323326388
 30
0.0
  0
SPLINE
  5
293
100
AcDbEntity
  8
0
100
AcDbSpline
 62
7
  6
BYLAYER
 70
0
 71
3
 72
42
 73
38
 74
0
 42
0.0000001
 43
0.0000001
 44
0.0000000001
 40
0.0
 40
0.0
 40
0.0
 40
0.0
 40
0.0005189096
 40
0.0012863553
 40
0.0036317213
 40
0.0070902503
 40
0.0116704169
 40
0.0173682524
 40
0.0241711948
 40
0.0320649541
 40
0.0410345388
 40
0.062119556
 40
0.087229119
 40
0.1161402403
 40
0.1485826135
 40
0.1842643481
 40
0.2228521528
 40
0.2639956338
 40
0.3073120987
 40
0.3988601763
 40
0.4941332681
 40
0.5896313174
 40
0.6818462142
 40
0.7673907821
 40
0.8066662906
 40
0.8431236536
 40
0.8764238556
 40
0.906264935
 40
0.9323701145
 40
0.9545044464
 40
0.9724635628
 40
0.9798264332
 40
0.9860912814
 40
0.9912441453
 40
0.9952754522
 40
0.9981874004
 40
1.0
 40
1.0
 40
1.0
 40
1.0
 10
7.4110683461
 20
16.3323326388
 30
0.0
 10
7.4124093557
 20
16.3339189286
 30
0.0
 10
7.4167975316
 20
16.3368513872
 30
0.0
 10
7.4301574194
 20
16.3425236654
 30
0.0
 10
7.4558197437
 20
16.3489396635
 30
0.0
 10
7.4966840007
 20
16.3563205488
 30
0.0
 10
7.5512021897
 20
16.3637428204
 30
0.0
 10
7.6191580863
 20
16.371249478
 30
0.0
 10
7.700454676
 20
16.3787788613
 30
0.0
 10
7.7948883163
 20
16.386335609
 30
0.0
 10
7.946419672
 20
16.397017213
 30
0.0
 10
8.1668584378
 20
16.4100686019
 30
0.0
 10
8.4671277866
 20
16.4251182195
 30
0.0
 10
8.8129075879
 20
16.4402046582
 30
0.0
 10
9.2010403953
 20
16.4553359005
 30
0.0
 10
9.6279340653
 20
16.4704908675
 30
0.0
 10
10.089677087
 20
16.4856678283
 30
0.0
 10
10.5819965991
 20
16.5008530743
 30
0.0
 10
11.2862447891
 20
16.5214956901
 30
0.0
 10
12.2071231073
 20
16.5469058446
 30
0.0
 10
13.3368331578
 20
16.5769050796
 30
0.0
 10
14.469213307
 20
16.6069111439
 30
0.0
 10
15.5626378054
 20
16.6368762403
 30
0.0
 10
16.4310419888
 20
16.6624446423
 30
0.0
 10
17.0762909679
 20
16.6832783996
 30
0.0
 10
17.5124815842
 20
16.6984374653
 30
0.0
 10
17.9108829252
 20
16.7135774504
 30
0.0
 10
18.2678132373
 20
16.7286838386
 30
0.0
 10
18.5800064751
 20
16.7437312891
 30
0.0
 10
18.8445742438
 20
16.7587067169
 30
0.0
 10
19.0341026403
 20
16.7717706535
 30
0.0
 10
19.160079822
 20
16.7825764871
 30
0.0
 10
19.2348931812
 20
16.790089676
 30
0.0
 10
19.2962641977
 20
16.7975658532
 30
0.0
 10
19.3442007688
 20
16.8048742478
 30
0.0
 10
19.378383853
 20
16.8121573066
 30
0.0
 10
19.3966962085
 20
16.8177747371
 30
0.0
 10
19.4030068322
 20
16.8213554829
 30
0.0
  0
SPLINE
  5
294
100
AcDbEntity
  8
0
100
AcDbSpline
 62
7
  6
BYLAYER
 70
0
 71
3
 72
43
 73
39
 74
0
 42
0.0000001
 43
0.0000001
 44
0.0000000001
 40
0.0
 40
0.0
 40
0.0
 40
0.0
 40
0.0000413707
 40
0.0001575926
 40
0.0003485379
 40
0.0006137476
 40
0.0009527241
 40
0.0013649592
 40
0.0024071629
 40
0.0037363608
 40
0.0053486798
 40
0.0072402558
 40
0.0094071551
 40
0.0118444718
 40
0.014546586
 40
0.020722629
 40
0.0278885462
 40
0.0359952198
 40
0.0449913615
 40
0.0548225733
 40
0.0654341342
 40
0.0767712078
 40
0.1014125147
 40
0.1283655032
 40
0.1572955439
 40
0.1879100804
 40
0.2199557359
 40
0.2532188459
 40
0.2875147135
 40
0.3226850255
 40
0.3951273969
 40
0.4696575162
 40
0.5455764609
 40
0.6223039182
 40
0.6993241462
 40
0.7761453966
 40
0.8522595206
 40
1.0
 40
1.0
 40
1.0
 40
1.0
 10
19.4095745709
 20
25.1753381775
 30
0.0
 10
19.4094087878
 20
25.1752691522
 30
0.0
 10
19.4089045574
 20
25.1760836725
 30
0.0
 10
19.407825581
 20
25.1768174908
 30
0.0
 10
19.4060944215
 20
25.1787823379
 30
0.0
 10
19.4037050093
 20
25.1811931188
 30
0.0
 10
19.4006646262
 20
25.1844209647
 30
0.0
 10
19.3953095502
 20
25.1900566831
 30
0.0
 10
19.3870043157
 20
25.1988423071
 30
0.0
 10
19.3751101602
 20
25.2113901162
 30
0.0
 10
19.3606754057
 20
25.2266152626
 30
0.0
 10
19.3437313767
 20
25.244470142
 30
0.0
 10
19.3243144851
 20
25.2649158965
 30
0.0
 10
19.3024656891
 20
25.2879039844
 30
0.0
 10
19.2686142243
 20
25.3234931635
 30
0.0
 10
19.2205828829
 20
25.3739224693
 30
0.0
 10
19.1563324943
 20
25.4413017469
 30
0.0
 10
19.0836364554
 20
25.5175421367
 30
0.0
 10
19.0029789175
 20
25.6021768173
 30
0.0
 10
18.9148499825
 20
25.6947110061
 30
0.0
 10
18.8197443198
 20
25.7946329942
 30
0.0
 10
18.680316993
 20
25.9411204352
 30
0.0
 10
18.491919006
 20
26.138925047
 30
0.0
 10
18.2508074094
 20
26.3919842132
 30
0.0
 10
17.9918186924
 20
26.663823052
 30
0.0
 10
17.7176112472
 20
26.951694986
 30
0.0
 10
17.4304426439
 20
27.2531967987
 30
0.0
 10
17.1322873186
 20
27.5663021721
 30
0.0
 10
16.8248075475
 20
27.8892573303
 30
0.0
 10
16.3999977468
 20
28.3353229479
 30
0.0
 10
15.8547977982
 20
28.9079085773
 30
0.0
 10
15.1874272604
 20
29.6084019188
 30
0.0
 10
14.5073874899
 20
30.3225155477
 30
0.0
 10
13.8199909949
 20
31.0445492837
 30
0.0
 10
13.1296434659
 20
31.7691812381
 30
0.0
 10
12.4413061479
 20
32.492051161
 30
0.0
 10
11.5411235527
 20
33.437084044
 30
0.0
 10
10.8710079365
 20
34.1407365877
 30
0.0
 10
10.4287920024
 20
34.6051834181
 30
0.0
  0
LINE
  5
295
100
AcDbEntity
  8
0
100
AcDbLine
 62
7
  6
BYLAYER
 10
10.4287920024
 20
34.6051834181
 11
7.4095897793
 21
37.7753748838
  0
SPLINE
  5
296
100
AcDbEntity
  8
0
100
AcDbSpline
 62
7
  6
BYLAYER
 70
0
 71
3
 72
9
 73
5
 74
0
 42
0.0000001
 43
0.0000001
 44
0.0000000001
 40
0.0
 40
0.0
 40
0.0
 40
0.0
 40
0.7165924671
 40
1.0
 40
1.0
 40
1.0
 40
1.0
 10
19.4095823367
 20
17.9704096241
 30
0.0
 10
19.4095823367
 20
17.9694792162
 30
0.0
 10
19.4091003692
 20
17.9681737514
 30
0.0
 10
19.4083182516
 20
17.9671430574
 30
0.0
 10
19.4080806056
 20
17.966862119
 30
0.0
  0
SPLINE
  5
297
100
AcDbEntity
  8
0
100
AcDbSpline
 62
7
  6
BYLAYER
 70
0
 71
3
 72
42
 73
38
 74
0
 42
0.0000001
 43
0.0000001
 44
0.0000000001
 40
0.0
 40
0.0
 40
0.0
 40
0.0
 40
0.0005207607
 40
0.0012897967
 40
0.0036382339
 40
0.0071001312
 40
0.0116841504
 40
0.017386275
 40
0.024193859
 40
0.0320925765
 40
0.0410674145
 40
0.0621635502
 40
0.0872850546
 40
0.1162087443
 40
0.1486641407
 40
0.1843591173
 40
0.2229601826
 40
0.2641167228
 40
0.3074457405
 40
0.3990163945
 40
0.4943072678
 40
0.5898164045
 40
0.6820341654
 40
0.7675723154
 40
0.8068407617
 40
0.8432884285
 40
0.8765763006
 40
0.9064024782
 40
0.932490157
 40
0.9546045246
 40
0.9725413064
 40
0.9798922146
 40
0.9861445953
 40
0.9912845124
 40
0.9953025046
 40
0.9982008859
 40
1.0
 40
1.0
 40
1.0
 40
1.0
 10
19.4080806056
 20
17.966862119
 30
0.0
 10
19.4067343049
 20
17.9652705598
 30
0.0
 10
19.402335053
 20
17.9623293483
 30
0.0
 10
19.3889476978
 20
17.9566528554
 30
0.0
 10
19.3632489092
 20
17.9502485615
 30
0.0
 10
19.3223385938
 20
17.9428882057
 30
0.0
 10
19.2677715009
 20
17.9354794128
 30
0.0
 10
19.199763219
 20
17.9279724477
 30
0.0
 10
19.1184102462
 20
17.9204363334
 30
0.0
 10
19.0239163251
 20
17.9128701916
 30
0.0
 10
18.872297728
 20
17.9021801886
 30
0.0
 10
18.6517418646
 20
17.8891337519
 30
0.0
 10
18.3513250665
 20
17.8740904142
 30
0.0
 10
18.0053901138
 20
17.8589980355
 30
0.0
 10
17.6170964023
 20
17.8438585592
 30
0.0
 10
17.1900383348
 20
17.8286995558
 30
0.0
 10
16.7281301641
 20
17.8135218099
 30
0.0
 10
16.2356477496
 20
17.7983383699
 30
0.0
 10
15.5311963362
 20
17.7776956975
 30
0.0
 10
14.6100931914
 20
17.7522690987
 30
0.0
 10
13.4801605642
 20
17.7222746486
 30
0.0
 10
12.3476369137
 20
17.6922665437
 30
0.0
 10
11.2541668694
 20
17.6622824654
 30
0.0
 10
10.3857921941
 20
17.6367264222
 30
0.0
 10
9.7406268952
 20
17.6158845326
 30
0.0
 10
9.3045468123
 20
17.6007147744
 30
0.0
 10
8.9062876918
 20
17.5855725734
 30
0.0
 10
8.5495312355
 20
17.5704703006
 30
0.0
 10
8.2375432356
 20
17.5554237178
 30
0.0
 10
7.9732115726
 20
17.5404451816
 30
0.0
 10
7.783898202
 20
17.5273780426
 30
0.0
 10
7.6581075287
 20
17.5165681769
 30
0.0
 10
7.5834432937
 20
17.5090530579
 30
0.0
 10
7.5222287173
 20
17.5015737665
 30
0.0
 10
7.4744507959
 20
17.494263424
 30
0.0
 10
7.4404369788
 20
17.486977821
 30
0.0
 10
7.4222303585
 20
17.4813621884
 30
0.0
 10
7.4159859475
 20
17.4777741365
 30
0.0
  0
SPLINE
  5
298
100
AcDbEntity
  8
0
100
AcDbSpline
 62
7
  6
BYLAYER
 70
0
 71
3
 72
9
 73
5
 74
0
 42
0.0000001
 43
0.0000001
 44
0.0000000001
 40
0.0
 40
0.0
 40
0.0
 40
0.0
 40
0.7165269457
 40
1.0
 40
1.0
 40
1.0
 40
1.0
 10
7.4095823367
 20
17.3288248771
 30
0.0
 10
7.4095823367
 20
17.3297436016
 30
0.0
 10
7.4100577475
 20
17.331032605
 30
0.0
 10
7.4108286303
 20
17.3320515489
 30
0.0
 10
7.411062937
 20
17.3323294129
 30
0.0
  0
SPLINE
  5
299
100
AcDbEntity
  8
0
100
AcDbSpline
 62
7
  6
BYLAYER
 70
0
 71
3
 72
42
 73
38
 74
0
 42
0.0000001
 43
0.0000001
 44
0.0000000001
 40
0.0
 40
0.0
 40
0.0
 40
0.0
 40
0.0005186367
 40
0.0012856886
 40
0.0036301769
 40
0.0070878415
 40
0.0116672031
 40
0.0173642966
 40
0.0241665584
 40
0.0320597014
 40
0.0410287372
 40
0.0621128115
 40
0.087221693
 40
0.1161323903
 40
0.1485745818
 40
0.1842563581
 40
0.2228444071
 40
0.2639883238
 40
0.3073053824
 40
0.3988550266
 40
0.4941300365
 40
0.5896301104
 40
0.6818469502
 40
0.7673931211
 40
0.8066692464
 40
0.8431270669
 40
0.8764275525
 40
0.9062687094
 40
0.9323737766
 40
0.9545077622
 40
0.9724663064
 40
0.9798287931
 40
0.9860932173
 40
0.9912456467
 40
0.995276524
 40
0.9981880089
 40
1.0
 40
1.0
 40
1.0
 40
1.0
 10
7.411062937
 20
17.3323294129
 30
0.0
 10
7.4124012683
 20
17.3339165384
 30
0.0
 10
7.4167855527
 20
17.3368508514
 30
0.0
 10
7.4301383011
 20
17.3425240636
 30
0.0
 10
7.455792667
 20
17.3489383547
 30
0.0
 10
7.4966470241
 20
17.3563160756
 30
0.0
 10
7.5511559392
 20
17.3637359814
 30
0.0
 10
7.6191029999
 20
17.3712420963
 30
0.0
 10
7.7003914979
 20
17.3787718825
 30
0.0
 10
7.7948177979
 20
17.3863296204
 30
0.0
 10
7.9463408447
 20
17.3970126501
 30
0.0
 10
8.1667712191
 20
17.4100647695
 30
0.0
 10
8.467032857
 20
17.4251142347
 30
0.0
 10
8.8128080964
 20
17.440199956
 30
0.0
 10
9.2009392776
 20
17.4553311408
 30
0.0
 10
9.6278340094
 20
17.4704875511
 30
0.0
 10
10.0895806342
 20
17.4856657535
 30
0.0
 10
10.5819060603
 20
17.5008506599
 30
0.0
 10
11.2861658111
 20
17.521492657
 30
0.0
 10
12.2070618945
 20
17.5469052162
 30
0.0
 10
13.3367958906
 20
17.5769028394
 30
0.0
 10
14.4692013696
 20
17.6069119964
 30
0.0
 10
15.5626499867
 20
17.636875983
 30
0.0
 10
16.4310722202
 20
17.6624455994
 30
0.0
 10
17.0763329612
 20
17.6832797052
 30
0.0
 10
17.5125297277
 20
17.6984387611
 30
0.0
 10
17.9109349791
 20
17.713579261
 30
0.0
 10
18.2678668283
 20
17.7286866271
 30
0.0
 10
18.5800590064
 20
17.7437350045
 30
0.0
 10
18.844623041
 20
17.7587108473
 30
0.0
 10
19.0341467035
 20
17.7717719911
 30
0.0
 10
19.1601186978
 20
17.7825762091
 30
0.0
 10
19.2349271284
 20
17.7900899384
 30
0.0
 10
19.296292725
 20
17.7975694065
 30
0.0
 10
19.3442229195
 20
17.8048846588
 30
0.0
 10
19.3783988819
 20
17.8121737391
 30
0.0
 10
19.3967058999
 20
17.8177922809
 30
0.0
 10
19.4030146518
 20
17.8213714144
 30
0.0
  0
SPLINE
  5
29A
100
AcDbEntity
  8
0
100
AcDbSpline
 62
7
  6
BYLAYER
 70
0
 71
3
 72
42
 73
38
 74
0
 42
0.0000001
 43
0.0000001
 44
0.0000000001
 40
0.0
 40
0.0
 40
0.0
 40
0.0
 40
0.0019418361
 40
0.0049509805
 40
0.009055989
 40
0.0142619048
 40
0.0205650521
 40
0.0279465899
 40
0.045849833
 40
0.0677924703
 40
0.0935888859
 40
0.1230340617
 40
0.1558911287
 40
0.1918586422
 40
0.2305821403
 40
0.2717050489
 40
0.3148682323
 40
0.4058196579
 40
0.5001504389
 40
0.5944768727
 40
0.6405718676
 40
0.685394947
 40
0.7285571228
 40
0.7696810263
 40
0.8083988736
 40
0.8443352652
 40
0.8771430662
 40
0.9065599562
 40
0.9323584982
 40
0.9543137588
 40
0.9721928458
 40
0.9795394756
 40
0.9858015602
 40
0.9909729483
 40
0.9950560991
 40
0.9980576333
 40
1.0
 40
1.0
 40
1.0
 40
1.0
 10
18.6514558643
 20
18.3914088084
 30
0.0
 10
18.6455846722
 20
18.3879840129
 30
0.0
 10
18.6290090427
 20
18.3823001661
 30
0.0
 10
18.5982258259
 20
18.3749949165
 30
0.0
 10
18.5556823547
 20
18.367620963
 30
0.0
 10
18.5015457937
 20
18.3601740337
 30
0.0
 10
18.4358252505
 20
18.35279521
 30
0.0
 10
18.3257547958
 20
18.3423057363
 30
0.0
 10
18.1609153751
 20
18.3296584246
 30
0.0
 10
17.9316171211
 20
18.3149311171
 30
0.0
 10
17.6618722438
 20
18.2997246036
 30
0.0
 10
17.3538743126
 20
18.284448365
 30
0.0
 10
17.0102134547
 20
18.2696690989
 30
0.0
 10
16.6340413741
 20
18.255098593
 30
0.0
 10
16.228930655
 20
18.2401323478
 30
0.0
 10
15.7986247367
 20
18.224931113
 30
0.0
 10
15.1855843336
 20
18.2042413042
 30
0.0
 10
14.3863379038
 20
18.1793091005
 30
0.0
 10
13.4080484987
 20
18.1501966537
 30
0.0
 10
12.5867383285
 20
18.1245528157
 30
0.0
 10
11.9386349429
 20
18.1043927748
 30
0.0
 10
11.4695367557
 20
18.0897981075
 30
0.0
 10
11.0178554518
 20
18.0749568081
 30
0.0
 10
10.5875710283
 20
18.0597001689
 30
0.0
 10
10.1825986564
 20
18.0443811114
 30
0.0
 10
9.8067440043
 20
18.0294062535
 30
0.0
 10
9.4634615608
 20
18.0147025537
 30
0.0
 10
9.1557049514
 20
17.9999082722
 30
0.0
 10
8.8859877597
 20
17.9850411777
 30
0.0
 10
8.6567330371
 20
17.9701176051
 30
0.0
 10
8.4920913933
 20
17.957014231
 30
0.0
 10
8.3823985261
 20
17.9462652435
 30
0.0
 10
8.3170702446
 20
17.9388699184
 30
0.0
 10
8.2632565678
 20
17.9315916442
 30
0.0
 10
8.2208999857
 20
17.9244616857
 30
0.0
 10
8.1901706095
 20
17.9173793208
 30
0.0
 10
8.1735753227
 20
17.9118278452
 30
0.0
 10
8.1676800161
 20
17.9084409978
 30
0.0
  0
SPLINE
  5
29B
100
AcDbEntity
  8
0
100
AcDbSpline
 62
7
  6
BYLAYER
 70
0
 71
3
 72
9
 73
5
 74
0
 42
0.0000001
 43
0.0000001
 44
0.0000000001
 40
0.0
 40
0.0
 40
0.0
 40
0.0
 40
0.7169281022
 40
1.0
 40
1.0
 40
1.0
 40
1.0
 10
19.4095823367
 20
18.9704100216
 30
0.0
 10
19.4095823367
 20
18.9694800607
 30
0.0
 10
19.4091038705
 20
18.9681754679
 30
0.0
 10
19.4083247912
 20
18.9671438693
 30
0.0
 10
19.4080882736
 20
18.9668630049
 30
0.0
  0
SPLINE
  5
29C
100
AcDbEntity
  8
0
100
AcDbSpline
 62
7
  6
BYLAYER
 70
0
 71
3
 72
42
 73
38
 74
0
 42
0.0000001
 43
0.0000001
 44
0.0000000001
 40
0.0
 40
0.0
 40
0.0
 40
0.0
 40
0.0005205427
 40
0.0012891137
 40
0.0036364463
 40
0.0070973008
 40
0.0116804498
 40
0.0173819169
 40
0.0241890314
 40
0.0320874372
 40
0.0410620968
 40
0.06215835
 40
0.0872805129
 40
0.1162053942
 40
0.1486624563
 40
0.1843595287
 40
0.2229630007
 40
0.264122158
 40
0.3074540402
 40
0.399030952
 40
0.4943277261
 40
0.5898421152
 40
0.6820637239
 40
0.7676035312
 40
0.8068719866
 40
0.8433190746
 40
0.8766056142
 40
0.9064297132
 40
0.93251456
 40
0.9546253704
 40
0.9725577511
 40
0.9799061896
 40
0.9861559529
 40
0.9912931513
 40
0.9953083963
 40
0.9982039594
 40
1.0
 40
1.0
 40
1.0
 40
1.0
 10
19.4080882736
 20
18.9668630049
 30
0.0
 10
19.406746058
 20
18.9652691253
 30
0.0
 10
19.4023523213
 20
18.962323046
 30
0.0
 10
19.3889740101
 20
18.9566432966
 30
0.0
 10
19.3632842903
 20
18.9502423883
 30
0.0
 10
19.3223848946
 20
18.9428900177
 30
0.0
 10
19.2678267441
 20
18.9354889779
 30
0.0
 10
19.1998256671
 20
18.9279869163
 30
0.0
 10
19.1184777966
 20
18.920453353
 30
0.0
 10
19.0239872433
 20
18.9128871154
 30
0.0
 10
18.8723696302
 20
18.9021929025
 30
0.0
 10
18.6518108652
 20
18.8891351459
 30
0.0
 10
18.3513849885
 20
18.8740827251
 30
0.0
 10
18.00543393
 20
18.8589937376
 30
0.0
 10
17.6171180307
 20
18.8438611126
 30
0.0
 10
17.190032834
 20
18.8287060224
 30
0.0
 10
16.7280937499
 20
18.8135261486
 30
0.0
 10
16.2355774414
 20
18.7983319059
 30
0.0
 10
15.5310755027
 20
18.7776799485
 30
0.0
 10
14.6099064471
 20
18.7522828978
 30
0.0
 10
13.4798988613
 20
18.7222582402
 30
0.0
 10
12.347309003
 20
18.6922531538
 30
0.0
 10
11.2537895023
 20
18.6622872385
 30
0.0
 10
10.3853889373
 20
18.6367025727
 30
0.0
 10
9.7402156943
 20
18.6158653457
 30
0.0
 10
9.3041404718
 20
18.6007076884
 30
0.0
 10
8.9058951561
 20
18.5855661568
 30
0.0
 10
8.5491621857
 20
18.5704546112
 30
0.0
 10
8.237206904
 20
18.5553983906
 30
0.0
 10
7.9729174073
 20
18.5404149242
 30
0.0
 10
7.7836442103
 20
18.5273579975
 30
0.0
 10
7.6578901502
 20
18.5165577771
 30
0.0
 10
7.5832566008
 20
18.5090452723
 30
0.0
 10
7.5220748888
 20
18.5015605693
 30
0.0
 10
7.4743324145
 20
18.4942342197
 30
0.0
 10
7.4403572043
 20
18.486932712
 30
0.0
 10
7.4221767625
 20
18.4813122166
 30
0.0
 10
7.4159458438
 20
18.4777253059
 30
0.0
  0
SPLINE
  5
29D
100
AcDbEntity
  8
0
100
AcDbSpline
 62
7
  6
BYLAYER
 70
0
 71
3
 72
9
 73
5
 74
0
 42
0.0000001
 43
0.0000001
 44
0.0000000001
 40
0.0
 40
0.0
 40
0.0
 40
0.0
 40
0.7167452585
 40
1.0
 40
1.0
 40
1.0
 40
1.0
 10
7.4095823367
 20
18.3288248772
 30
0.0
 10
7.4095823367
 20
18.3297453835
 30
0.0
 10
7.4100567837
 20
18.3310367524
 30
0.0
 10
7.4108278215
 20
18.3320582885
 30
0.0
 10
7.4110620363
 20
18.3323366399
 30
0.0
  0
SPLINE
  5
29E
100
AcDbEntity
  8
0
100
AcDbSpline
 62
7
  6
BYLAYER
 70
0
 71
3
 72
42
 73
38
 74
0
 42
0.0000001
 43
0.0000001
 44
0.0000000001
 40
0.0
 40
0.0
 40
0.0
 40
0.0
 40
0.0005188464
 40
0.0012859138
 40
0.0036302666
 40
0.0070878087
 40
0.0116671515
 40
0.0173643217
 40
0.0241667365
 40
0.0320601065
 40
0.0410294453
 40
0.0621142422
 40
0.0872240717
 40
0.1161359138
 40
0.1485794291
 40
0.1842626706
 40
0.222852282
 40
0.2639978263
 40
0.3073165359
 40
0.3988694226
 40
0.4941472934
 40
0.5896495745
 40
0.6818676775
 40
0.7674139397
 40
0.8066896084
 40
0.8431466096
 40
0.8764459057
 40
0.9062854796
 40
0.9323885852
 40
0.9545201993
 40
0.9724760019
 40
0.9798369772
 40
0.9860998253
 40
0.9912506501
 40
0.9952799255
 40
0.9981897775
 40
1.0
 40
1.0
 40
1.0
 40
1.0
 10
7.4110620363
 20
18.3323366399
 30
0.0
 10
7.4123992333
 20
18.3339258255
 30
0.0
 10
7.4167825673
 20
18.3368640222
 30
0.0
 10
7.4301350934
 20
18.3425391159
 30
0.0
 10
7.4557900102
 20
18.3489488488
 30
0.0
 10
7.4966446522
 20
18.3563183258
 30
0.0
 10
7.551154241
 20
18.3637323184
 30
0.0
 10
7.6191023796
 20
18.3712374998
 30
0.0
 10
7.7003927835
 20
18.3787687879
 30
0.0
 10
7.7948218435
 20
18.3863292724
 30
0.0
 10
7.9463501067
 20
18.3970151881
 30
0.0
 10
8.1667890122
 20
18.4100666085
 30
0.0
 10
8.4670627663
 20
18.4251144957
 30
0.0
 10
8.8128525288
 20
18.4402011257
 30
0.0
 10
9.2010004003
 20
18.4553336464
 30
0.0
 10
9.6279136257
 20
18.4704905184
 30
0.0
 10
10.0896800543
 20
18.485668991
 30
0.0
 10
10.5820260949
 20
18.5008545003
 30
0.0
 10
11.2863137233
 20
18.5214971493
 30
0.0
 10
12.2072432077
 20
18.5469090026
 30
0.0
 10
13.3370132629
 20
18.5769094736
 30
0.0
 10
14.4694469789
 20
18.6069179156
 30
0.0
 10
15.5629125528
 20
18.6368844545
 30
0.0
 10
16.4313406212
 20
18.6624526711
 30
0.0
 10
17.0765982082
 20
18.6832881487
 30
0.0
 10
17.512786147
 20
18.6984488205
 30
0.0
 10
17.9111780123
 20
18.7135894359
 30
0.0
 10
18.2680918228
 20
18.7286962108
 30
0.0
 10
18.5802610367
 20
18.7437457519
 30
0.0
 10
18.8447972519
 20
18.7587236004
 30
0.0
 10
19.0342950138
 20
18.771781695
 30
0.0
 10
19.1602441191
 20
18.7825835081
 30
0.0
 10
19.2350338725
 20
18.7900974058
 30
0.0
 10
19.2963799279
 20
18.7975804894
 30
0.0
 10
19.3442895542
 20
18.8049037842
 30
0.0
 10
19.3784435513
 20
18.8122001928
 30
0.0
 10
19.3967358499
 20
18.817820101
 30
0.0
 10
19.4030371747
 20
18.8213980146
 30
0.0
  0
SPLINE
  5
29F
100
AcDbEntity
  8
0
100
AcDbSpline
 62
7
  6
BYLAYER
 70
0
 71
3
 72
9
 73
5
 74
0
 42
0.0000001
 43
0.0000001
 44
0.0000000001
 40
0.0
 40
0.0
 40
0.0
 40
0.0
 40
0.717141433
 40
1.0
 40
1.0
 40
1.0
 40
1.0
 10
19.4095823367
 20
19.9704098634
 30
0.0
 10
19.4095823367
 20
19.9694776418
 30
0.0
 10
19.409104491
 20
19.9681700059
 30
0.0
 10
19.4083247144
 20
19.9671353894
 30
0.0
 10
19.4080881246
 20
19.9668539247
 30
0.0
  0
SPLINE
  5
2A0
100
AcDbEntity
  8
0
100
AcDbSpline
 62
7
  6
BYLAYER
 70
0
 71
3
 72
42
 73
38
 74
0
 42
0.0000001
 43
0.0000001
 44
0.0000000001
 40
0.0
 40
0.0
 40
0.0
 40
0.0
 40
0.0005208225
 40
0.0012894754
 40
0.0036368016
 40
0.0070976602
 40
0.0116809136
 40
0.0173825717
 40
0.024189933
 40
0.0320886322
 40
0.0410636302
 40
0.0621605973
 40
0.0872836081
 40
0.1162094485
 40
0.148667573
 40
0.1843657761
 40
0.222970476
 40
0.264130962
 40
0.3074641398
 40
0.3990433432
 40
0.4943423266
 40
0.5898582137
 40
0.682080553
 40
0.7676203371
 40
0.8068883052
 40
0.8433345622
 40
0.8766200276
 40
0.9064428002
 40
0.9325260437
 40
0.9546349536
 40
0.972565178
 40
0.97991245
 40
0.9861610136
 40
0.9912970124
 40
0.9953110852
 40
0.9982054341
 40
1.0
 40
1.0
 40
1.0
 40
1.0
 10
19.4080881246
 20
19.9668539247
 30
0.0
 10
19.4067466232
 20
19.9652579753
 30
0.0
 10
19.4023531259
 20
19.9623081532
 30
0.0
 10
19.3889735888
 20
19.9566271855
 30
0.0
 10
19.3632818114
 20
19.950231903
 30
0.0
 10
19.3223805467
 20
19.9428882476
 30
0.0
 10
19.2678205356
 20
19.9354915475
 30
0.0
 10
19.199817478
 20
19.927986889
 30
0.0
 10
19.1184669827
 20
19.9204481874
 30
0.0
 10
19.023973127
 20
19.9128768112
 30
0.0
 10
18.8723499297
 20
19.9021808069
 30
0.0
 10
18.6517824155
 20
19.889134428
 30
0.0
 10
18.3513453897
 20
19.8740925383
 30
0.0
 10
18.0053824492
 20
19.8589978535
 30
0.0
 10
17.6170535498
 20
19.8438558846
 30
0.0
 10
17.1899539948
 20
19.8286964161
 30
0.0
 10
16.727999208
 20
19.8135183588
 30
0.0
 10
16.235466259
 20
19.798333298
 30
0.0
 10
15.5309431241
 20
19.7776879667
 30
0.0
 10
14.6097499913
 20
19.7522594424
 30
0.0
 10
13.4797154668
 20
19.7222641105
 30
0.0
 10
12.3471059121
 20
19.6922509916
 30
0.0
 10
11.2535760546
 20
19.6622665405
 30
0.0
 10
10.3851721996
 20
19.6367079994
 30
0.0
 10
9.7400033432
 20
19.6158631046
 30
0.0
 10
9.3039373601
 20
19.6006918013
 30
0.0
 10
8.9057042677
 20
19.5855500489
 30
0.0
 10
8.5489862651
 20
19.5704481549
 30
0.0
 10
8.2370495074
 20
19.5553965876
 30
0.0
 10
7.9727822927
 20
19.5404115301
 30
0.0
 10
7.7835296702
 20
19.5273549856
 30
0.0
 10
7.6577936331
 20
19.5165534593
 30
0.0
 10
7.5831746152
 20
19.5090377054
 30
0.0
 10
7.5220079279
 20
19.5015459784
 30
0.0
 10
7.4742817269
 20
19.4942081577
 30
0.0
 10
7.4403237223
 20
19.4868979309
 30
0.0
 10
7.4221553995
 20
19.4812779417
 30
0.0
 10
7.4159288924
 20
19.4776951732
 30
0.0
  0
SPLINE
  5
2A1
100
AcDbEntity
  8
0
100
AcDbSpline
 62
7
  6
BYLAYER
 70
0
 71
3
 72
9
 73
5
 74
0
 42
0.0000001
 43
0.0000001
 44
0.0000000001
 40
0.0
 40
0.0
 40
0.0
 40
0.0
 40
0.7170781778
 40
1.0
 40
1.0
 40
1.0
 40
1.0
 10
7.4095823367
 20
19.3288248772
 30
0.0
 10
7.4095823367
 20
19.3297492092
 30
0.0
 10
7.4100559762
 20
19.3310457453
 30
0.0
 10
7.4108283359
 20
19.3320723381
 30
0.0
 10
7.4110627372
 20
19.3323517256
 30
0.0
  0
SPLINE
  5
2A2
100
AcDbEntity
  8
0
100
AcDbSpline
 62
7
  6
BYLAYER
 70
0
 71
3
 72
42
 73
38
 74
0
 42
0.0000001
 43
0.0000001
 44
0.0000000001
 40
0.0
 40
0.0
 40
0.0
 40
0.0
 40
0.0005193622
 40
0.0012866298
 40
0.0036311012
 40
0.0070887675
 40
0.0116683897
 40
0.0173659917
 40
0.0241689487
 40
0.032062953
 40
0.0410330089
 40
0.0621193825
 40
0.08723102
 40
0.1161448669
 40
0.1485905625
 40
0.1842761148
 40
0.2228681116
 40
0.2640160653
 40
0.3073371631
 40
0.3988945845
 40
0.4941762402
 40
0.5896812226
 40
0.681900533
 40
0.7674462715
 40
0.8067209514
 40
0.8431764521
 40
0.8764737279
 40
0.9063107442
 40
0.9324107556
 40
0.9545387272
 40
0.9724903907
 40
0.9798491249
 40
0.986109642
 40
0.9912580779
 40
0.9952849481
 40
0.998192354
 40
1.0
 40
1.0
 40
1.0
 40
1.0
 10
7.4110627372
 20
19.3323517256
 30
0.0
 10
7.4123989797
 20
19.3339444189
 30
0.0
 10
7.4167822164
 20
19.3368891147
 30
0.0
 10
7.4301374027
 20
19.3425673337
 30
0.0
 10
7.4557966737
 20
19.3489692156
 30
0.0
 10
7.4966558638
 20
19.3563245477
 30
0.0
 10
7.5511703369
 20
19.363728487
 30
0.0
 10
7.6191238568
 20
19.3712320867
 30
0.0
 10
7.7004207666
 20
19.3787659173
 30
0.0
 10
7.7948573799
 20
19.3863309901
 30
0.0
 10
7.9463975964
 20
19.3970214836
 30
0.0
 10
8.1668538295
 20
19.4100710838
 30
0.0
 10
8.4671503166
 20
19.4251162417
 30
0.0
 10
8.812965147
 20
19.4402052964
 30
0.0
 10
9.2011402521
 20
19.4553403794
 30
0.0
 10
9.628082478
 20
19.4704967789
 30
0.0
 10
10.0898789412
 20
19.4856745833
 30
0.0
 10
10.5822553639
 20
19.500861439
 30
0.0
 10
11.2865826848
 20
19.521505888
 30
0.0
 10
12.2075582246
 20
19.5469149727
 30
0.0
 10
13.3373760494
 20
19.5769215787
 30
0.0
 10
14.4698444804
 20
19.606926529
 30
0.0
 10
15.5633271504
 20
19.6368980825
 30
0.0
 10
16.4317569964
 20
19.6624637366
 30
0.0
 10
17.0770046224
 20
19.6833013742
 30
0.0
 10
17.5131758761
 20
19.6984646487
 30
0.0
 10
17.9115447426
 20
19.7136049558
 30
0.0
 10
18.2684290923
 20
19.7287099615
 30
0.0
 10
18.5805620589
 20
19.7437609323
 30
0.0
 10
18.8450553588
 20
19.7587421341
 30
0.0
 10
19.0345137324
 20
19.7717973596
 30
0.0
 10
19.1604285012
 20
19.7825963615
 30
0.0
 10
19.235190563
 20
19.7901101221
 30
0.0
 10
19.2965076432
 20
19.7975968018
 30
0.0
 10
19.3443871035
 20
19.8049284364
 30
0.0
 10
19.3785089185
 20
19.8122326215
 30
0.0
 10
19.3967800787
 20
19.8178539689
 30
0.0
 10
19.4030700115
 20
19.8214311038
 30
0.0
  0
SPLINE
  5
2A3
100
AcDbEntity
  8
0
100
AcDbSpline
 62
7
  6
BYLAYER
 70
0
 71
3
 72
41
 73
37
 74
0
 42
0.0000001
 43
0.0000001
 44
0.0000000001
 40
0.0
 40
0.0
 40
0.0
 40
0.0
 40
0.0019536109
 40
0.0049891614
 40
0.009122578
 40
0.0143487982
 40
0.0206532236
 40
0.0280193915
 40
0.0458740387
 40
0.0677767526
 40
0.0935703932
 40
0.1230453601
 40
0.1559092478
 40
0.191845335
 40
0.2305268993
 40
0.2716209287
 40
0.314785524
 40
0.4057240506
 40
0.5000179919
 40
0.5943126144
 40
0.6852204747
 40
0.7283961529
 40
0.7695304323
 40
0.8082256074
 40
0.8441290926
 40
0.8769471423
 40
0.9064124311
 40
0.9322603345
 40
0.9542191294
 40
0.9720548902
 40
0.9793917962
 40
0.9856627457
 40
0.990860568
 40
0.9949796629
 40
0.9980199309
 40
1.0
 40
1.0
 40
1.0
 40
1.0
 10
18.6520324102
 20
15.3911614283
 30
0.0
 10
18.6461191606
 20
15.3877260718
 30
0.0
 10
18.6293694809
 20
15.3821066171
 30
0.0
 10
18.5983207508
 20
15.3749310925
 30
0.0
 10
18.5554763374
 20
15.3677306672
 30
0.0
 10
18.5011412198
 20
15.3604344209
 30
0.0
 10
18.4353895697
 20
15.3531045904
 30
0.0
 10
18.3255368501
 20
15.3425734208
 30
0.0
 10
18.1610718312
 20
15.3296770341
 30
0.0
 10
17.9321046364
 20
15.3145399896
 30
0.0
 10
17.6623836491
 20
15.2993662567
 30
0.0
 10
17.3542157989
 20
15.2847291949
 30
0.0
 10
17.0105064272
 20
15.2701670034
 30
0.0
 10
16.6345599644
 20
15.2551669282
 30
0.0
 10
16.2297923124
 20
15.2398933471
 30
0.0
 10
15.7997039444
 20
15.2246141303
 30
0.0
 10
15.1867476688
 20
15.2044393638
 30
0.0
 10
14.3876119817
 20
15.1797381478
 30
0.0
 10
13.4095709181
 20
15.1497493248
 30
0.0
 10
12.4316363609
 20
15.1198016557
 30
0.0
 10
11.6325535534
 20
15.0955063222
 30
0.0
 10
11.0195450543
 20
15.0747229044
 30
0.0
 10
10.5892331786
 20
15.0593426485
 30
0.0
 10
10.1843759402
 20
15.0444809405
 30
0.0
 10
9.8086420764
 20
15.0298388679
 30
0.0
 10
9.4652539513
 20
15.0149640238
 30
0.0
 10
9.1571104178
 20
14.9999303897
 30
0.0
 10
8.887029821
 20
14.9848954382
 30
0.0
 10
8.6577297114
 20
14.9699379314
 30
0.0
 10
8.4932319948
 20
14.9570980405
 30
0.0
 10
8.3836638367
 20
14.9465885989
 30
0.0
 10
8.3182324958
 20
14.9392697005
 30
0.0
 10
8.2641653888
 20
14.9319666635
 30
0.0
 10
8.2214657309
 20
14.9247345122
 30
0.0
 10
8.1903624785
 20
14.9174833716
 30
0.0
 10
8.1735421511
 20
14.911776293
 30
0.0
 10
8.1675264587
 20
14.908333183
 30
0.0
  0
SPLINE
  5
2A4
100
AcDbEntity
  8
0
100
AcDbSpline
 62
7
  6
BYLAYER
 70
0
 71
3
 72
9
 73
5
 74
0
 42
0.0000001
 43
0.0000001
 44
0.0000000001
 40
0.0
 40
0.0
 40
0.0
 40
0.0
 40
0.7170599034
 40
1.0
 40
1.0
 40
1.0
 40
1.0
 10
19.4095823367
 20
20.970409982
 30
0.0
 10
19.4095823367
 20
20.9694833191
 30
0.0
 10
19.4091071145
 20
20.9681834782
 30
0.0
 10
19.4083323019
 20
20.967154644
 30
0.0
 10
19.4080971515
 20
20.9668746417
 30
0.0
  0
SPLINE
  5
2A5
100
AcDbEntity
  8
0
100
AcDbSpline
 62
7
  6
BYLAYER
 70
0
 71
3
 72
42
 73
38
 74
0
 42
0.0000001
 43
0.0000001
 44
0.0000000001
 40
0.0
 40
0.0
 40
0.0
 40
0.0
 40
0.0005198981
 40
0.0012877772
 40
0.0036337387
 40
0.0070932889
 40
0.0116752101
 40
0.017375539
 40
0.0241816108
 40
0.0320790709
 40
0.0410528826
 40
0.0621477488
 40
0.0872689288
 40
0.1161932249
 40
0.148650081
 40
0.184347306
 40
0.2229512672
 40
0.2641112226
 40
0.3074441698
 40
0.3990238315
 40
0.4943238805
 40
0.5898417034
 40
0.6820664751
 40
0.7676088256
 40
0.8068782079
 40
0.8433259388
 40
0.8766128066
 40
0.9064368976
 40
0.932521388
 40
0.9546314611
 40
0.9725626675
 40
0.979910375
 40
0.9861593571
 40
0.9912957868
 40
0.9953103331
 40
0.9982051498
 40
1.0
 40
1.0
 40
1.0
 40
1.0
 10
19.4080971515
 20
20.9668746417
 30
0.0
 10
19.4067587304
 20
20.9652809342
 30
0.0
 10
19.4023709659
 20
20.9623347165
 30
0.0
 10
19.3890045985
 20
20.9566549619
 30
0.0
 10
19.3633283944
 20
20.9502536293
 30
0.0
 10
19.3224450941
 20
20.9429003067
 30
0.0
 10
19.2679016208
 20
20.935498374
 30
0.0
 10
19.1999141493
 20
20.9279957764
 30
0.0
 10
19.1185786166
 20
20.9204618661
 30
0.0
 10
19.0240991872
 20
20.9128953782
 30
0.0
 10
18.8724939106
 20
20.9022006184
 30
0.0
 10
18.6519474254
 20
20.8891420075
 30
0.0
 10
18.3515325008
 20
20.8740890557
 30
0.0
 10
18.0055874848
 20
20.8590003398
 30
0.0
 10
17.6172729683
 20
20.8438675844
 30
0.0
 10
17.1901847745
 20
20.8287111559
 30
0.0
 10
16.728238559
 20
20.8135300185
 30
0.0
 10
16.2357113356
 20
20.7983356246
 30
0.0
 10
15.5311887777
 20
20.777683745
 30
0.0
 10
14.6099885641
 20
20.7522854466
 30
0.0
 10
13.479939736
 20
20.7222581337
 30
0.0
 10
12.3473068634
 20
20.6922545005
 30
0.0
 10
11.2537475312
 20
20.6622850978
 30
0.0
 10
10.3853177612
 20
20.6367004594
 30
0.0
 10
9.7401261002
 20
20.6158626606
 30
0.0
 10
9.3040419735
 20
20.6007042824
 30
0.0
 10
8.9057915978
 20
20.5855624809
 30
0.0
 10
8.5490577113
 20
20.5704503244
 30
0.0
 10
8.2371060266
 20
20.5553910722
 30
0.0
 10
7.9728250176
 20
20.540404544
 30
0.0
 10
7.7835612736
 20
20.5273568058
 30
0.0
 10
7.6578170133
 20
20.5165631634
 30
0.0
 10
7.5831925235
 20
20.5090497746
 30
0.0
 10
7.5220206253
 20
20.5015549593
 30
0.0
 10
7.4742906434
 20
20.494206412
 30
0.0
 10
7.440329201
 20
20.4868854553
 30
0.0
 10
7.4221601853
 20
20.481261358
 30
0.0
 10
7.4159313468
 20
20.4776803441
 30
0.0
  0
SPLINE
  5
2A6
100
AcDbEntity
  8
0
100
AcDbSpline
 62
7
  6
BYLAYER
 70
0
 71
3
 72
9
 73
5
 74
0
 42
0.0000001
 43
0.0000001
 44
0.0000000001
 40
0.0
 40
0.0
 40
0.0
 40
0.0
 40
0.7174596867
 40
1.0
 40
1.0
 40
1.0
 40
1.0
 10
7.4095823367
 20
20.3288248773
 30
0.0
 10
7.4095823367
 20
20.329751998
 30
0.0
 10
7.4100540658
 20
20.3310521938
 30
0.0
 10
7.4108263224
 20
20.3320830128
 30
0.0
 10
7.4110604515
 20
20.3323631666
 30
0.0
  0
SPLINE
  5
2A7
100
AcDbEntity
  8
0
100
AcDbSpline
 62
7
  6
BYLAYER
 70
0
 71
3
 72
42
 73
38
 74
0
 42
0.0000001
 43
0.0000001
 44
0.0000000001
 40
0.0
 40
0.0
 40
0.0
 40
0.0
 40
0.0005196746
 40
0.0012869175
 40
0.0036310605
 40
0.0070884324
 40
0.0116679515
 40
0.0173656613
 40
0.0241688836
 40
0.0320632718
 40
0.0410338035
 40
0.062121419
 40
0.0872346268
 40
0.1161503532
 40
0.1485982068
 40
0.1842861531
 40
0.2228807322
 40
0.2640313898
 40
0.3073552633
 40
0.398918187
 40
0.4942047627
 40
0.5897136076
 40
0.6819351668
 40
0.7674811778
 40
0.8067551262
 40
0.843209287
 40
0.8765045786
 40
0.9063389899
 40
0.9324357226
 40
0.954559794
 40
0.9725068888
 40
0.9798631385
 40
0.986121043
 40
0.9912667507
 40
0.9952908259
 40
0.9981953629
 40
1.0
 40
1.0
 40
1.0
 40
1.0
 10
7.4110604515
 20
20.3323631666
 30
0.0
 10
7.4123944407
 20
20.3339593893
 30
0.0
 10
7.4167755644
 20
20.3369108046
 30
0.0
 10
7.4301294921
 20
20.3425923044
 30
0.0
 10
7.4557887634
 20
20.3489864281
 30
0.0
 10
7.496647372
 20
20.3563277469
 30
0.0
 10
7.5511622505
 20
20.3637217695
 30
0.0
 10
7.6191172398
 20
20.3712238322
 30
0.0
 10
7.7004173104
 20
20.3787602367
 30
0.0
 10
7.7948584737
 20
20.3863299462
 30
0.0
 10
7.946407452
 20
20.3970252556
 30
0.0
 10
8.1668779298
 20
20.4100734658
 30
0.0
 10
8.4671946041
 20
20.4251164754
 30
0.0
 10
8.8130332669
 20
20.4402082823
 30
0.0
 10
9.2012357111
 20
20.45534589
 30
0.0
 10
9.6282083849
 20
20.4705013278
 30
0.0
 10
10.0900376217
 20
20.4856781937
 30
0.0
 10
10.5824483889
 20
20.5008668948
 30
0.0
 10
11.2868226353
 20
20.5215141057
 30
0.0
 10
12.2078550478
 20
20.5469208486
 30
0.0
 10
13.3377347612
 20
20.5769336114
 30
0.0
 10
14.4702523254
 20
20.6069350482
 30
0.0
 10
15.563765107
 20
20.6369120167
 30
0.0
 10
16.4322058859
 20
20.6624765048
 30
0.0
 10
17.0774490143
 20
20.6833162478
 30
0.0
 10
17.5136058227
 20
20.6984816644
 30
0.0
 10
17.911952663
 20
20.7136215624
 30
0.0
 10
18.2688070888
 20
20.7287250475
 30
0.0
 10
18.5809021118
 20
20.7437779637
 30
0.0
 10
18.8453492211
 20
20.7587629525
 30
0.0
 10
19.0347646279
 20
20.7718156811
 30
0.0
 10
19.1606413226
 20
20.7826120368
 30
0.0
 10
19.235372303
 20
20.7901256249
 30
0.0
 10
19.2966563656
 20
20.7976157832
 30
0.0
 10
19.3445011903
 20
20.804955367
 30
0.0
 10
19.3785856281
 20
20.8122670583
 30
0.0
 10
19.3968324137
 20
20.8178898158
 30
0.0
 10
19.4031086661
 20
20.8214666984
 30
0.0
  0
SPLINE
  5
2A8
100
AcDbEntity
  8
0
100
AcDbSpline
 62
7
  6
BYLAYER
 70
0
 71
3
 72
41
 73
37
 74
0
 42
0.0000001
 43
0.0000001
 44
0.0000000001
 40
0.0
 40
0.0
 40
0.0
 40
0.0
 40
0.001953125
 40
0.004972378
 40
0.0090780205
 40
0.0142730519
 40
0.0205542278
 40
0.027915563
 40
0.0458130331
 40
0.0677806008
 40
0.0935968675
 40
0.1230357369
 40
0.1558483206
 40
0.1917773561
 40
0.2305027536
 40
0.3148270166
 40
0.4057582066
 40
0.5000960787
 40
0.5944282879
 40
0.6405402281
 40
0.6853805878
 40
0.7285410942
 40
0.7696469905
 40
0.8083470994
 40
0.8443009129
 40
0.8771594441
 40
0.9065874185
 40
0.9323494251
 40
0.9542593388
 40
0.9721340808
 40
0.97950192
 40
0.9857948544
 40
0.9909933858
 40
0.9950857361
 40
0.9980791066
 40
1.0
 40
1.0
 40
1.0
 40
1.0
 10
18.6522186866
 20
21.3912116755
 30
0.0
 10
18.6462830549
 20
21.3878180947
 30
0.0
 10
18.6296040197
 20
21.3822141089
 30
0.0
 10
18.598713655
 20
21.3750120657
 30
0.0
 10
18.5561538817
 20
21.3677244974
 30
0.0
 10
18.5021280999
 20
21.3602663223
 30
0.0
 10
18.4366026911
 20
21.35276097
 30
0.0
 10
18.3267077344
 20
21.3420794841
 30
0.0
 10
18.1618567494
 20
21.3293856188
 30
0.0
 10
17.9323771093
 20
21.3149903222
 30
0.0
 10
17.6624453729
 20
21.3002458023
 30
0.0
 10
17.3545260854
 20
21.2849813329
 30
0.0
 10
17.0111711241
 20
21.2695898256
 30
0.0
 10
16.6352579269
 20
21.2546850056
 30
0.0
 10
16.0790894536
 20
21.2345321433
 30
0.0
 10
15.3304380065
 20
21.2092404389
 30
0.0
 10
14.3871611388
 20
21.1790535279
 30
0.0
 10
13.4088009495
 20
21.1499193126
 30
0.0
 10
12.5872770277
 20
21.125179098
 30
0.0
 10
11.9389893156
 20
21.1043787344
 30
0.0
 10
11.4697445743
 20
21.089343738
 30
0.0
 10
11.0180199265
 20
21.0747249293
 30
0.0
 10
10.5878081068
 20
21.0599183482
 30
0.0
 10
10.1828538865
 20
21.0447459773
 30
0.0
 10
9.8067949053
 20
21.0295231501
 30
0.0
 10
9.4632174398
 20
21.0144398019
 30
0.0
 10
9.1553414051
 20
20.9996632117
 30
0.0
 10
8.8858371404
 20
20.9849527736
 30
0.0
 10
8.6568481572
 20
20.9702565315
 30
0.0
 10
8.4922756499
 20
20.9573194144
 30
0.0
 10
8.3824115902
 20
20.9464847863
 30
0.0
 10
8.316820025
 20
20.9388858207
 30
0.0
 10
8.2627949847
 20
20.93138113
 30
0.0
 10
8.2203551391
 20
20.9241252428
 30
0.0
 10
8.1897049172
 20
20.9170161767
 30
0.0
 10
8.1731986963
 20
20.9115275509
 30
0.0
 10
8.1673638838
 20
20.9081849647
 30
0.0
  0
SPLINE
  5
2A9
100
AcDbEntity
  8
0
100
AcDbSpline
 62
7
  6
BYLAYER
 70
0
 71
3
 72
9
 73
5
 74
0
 42
0.0000001
 43
0.0000001
 44
0.0000000001
 40
0.0
 40
0.0
 40
0.0
 40
0.0
 40
0.7187675612
 40
1.0
 40
1.0
 40
1.0
 40
1.0
 10
19.4095823367
 20
13.970409181
 30
0.0
 10
19.4095823367
 20
13.9695348349
 30
0.0
 10
19.4091536885
 20
13.9683101123
 30
0.0
 10
19.408442866
 20
13.9673273497
 30
0.0
 10
19.4082279541
 20
13.9670611746
 30
0.0
  0
SPLINE
  5
2AA
100
AcDbEntity
  8
0
100
AcDbSpline
 62
7
  6
BYLAYER
 70
0
 71
3
 72
30
 73
26
 74
0
 42
0.0000001
 43
0.0000001
 44
0.0000000001
 40
0.0
 40
0.0
 40
0.0
 40
0.0
 40
0.0009866751
 40
0.0025742051
 40
0.0048043787
 40
0.0076897147
 40
0.0112345865
 40
0.0154402853
 40
0.0258254152
 40
0.0388086801
 40
0.0543442915
 40
0.0723809327
 40
0.0928458335
 40
0.11565826
 40
0.1407359237
 40
0.1972831503
 40
0.2616128365
 40
0.3327259086
 40
0.4095261636
 40
0.4908175571
 40
0.5753435169
 40
0.6617956037
 40
0.7488218522
 40
0.8350807518
 40
1.0
 40
1.0
 40
1.0
 40
1.0
 10
19.4082279541
 20
13.9670611746
 30
0.0
 10
19.4064530678
 20
13.964862922
 30
0.0
 10
19.3998290944
 20
13.9610361904
 30
0.0
 10
19.3869869618
 20
13.9563810756
 30
0.0
 10
19.3683261691
 20
13.9515840646
 30
0.0
 10
19.34402298
 20
13.946729568
 30
0.0
 10
19.3139507938
 20
13.9418308087
 30
0.0
 10
19.2625011385
 20
13.9347728174
 30
0.0
 10
19.1839867153
 20
13.9262716293
 30
0.0
 10
19.0730083117
 20
13.9165488614
 30
0.0
 10
18.9400508702
 20
13.9067847371
 30
0.0
 10
18.7856252981
 20
13.8969800612
 30
0.0
 10
18.610327285
 20
13.8871485754
 30
0.0
 10
18.4148405398
 20
13.8772957005
 30
0.0
 10
18.1160982836
 20
13.8635913709
 30
0.0
 10
17.6984949481
 20
13.8467473718
 30
0.0
 10
17.1490799932
 20
13.8271798239
 30
0.0
 10
16.5416389966
 20
13.8075698555
 30
0.0
 10
15.8856060173
 20
13.7879359538
 30
0.0
 10
15.1911502246
 20
13.7682677483
 30
0.0
 10
14.4690465202
 20
13.7485777721
 30
0.0
 10
13.7305148054
 20
13.7289027484
 30
0.0
 10
12.9870191341
 20
13.7092238309
 30
0.0
 10
12.0189197412
 20
13.68331501
 30
0.0
 10
11.2999415914
 20
13.6636038129
 30
0.0
 10
10.8279034794
 20
13.6496174296
 30
0.0
  0
SPLINE
  5
2AB
100
AcDbEntity
  8
0
100
AcDbSpline
 62
7
  6
BYLAYER
 70
0
 71
3
 72
22
 73
18
 74
0
 42
0.0000001
 43
0.0000001
 44
0.0000000001
 40
0.0
 40
0.0
 40
0.0
 40
0.0
 40
0.2063364276
 40
0.3953012336
 40
0.5632834949
 40
0.6384736137
 40
0.7073404687
 40
0.7695540631
 40
0.8248382503
 40
0.8729534551
 40
0.9136729556
 40
0.9468334501
 40
0.972301633
 40
0.9821195913
 40
0.9899933559
 40
0.9959381041
 40
1.0
 40
1.0
 40
1.0
 40
1.0
 10
15.991261194
 20
13.6496174296
 30
0.0
 10
16.2262924915
 20
13.6565619677
 30
0.0
 10
16.6765588363
 20
13.670173611
 30
0.0
 10
17.3181098362
 20
13.6913192632
 30
0.0
 10
17.8102239663
 20
13.7095320138
 30
0.0
 10
18.1655059917
 20
13.7243227911
 30
0.0
 10
18.4003234967
 20
13.7349873124
 30
0.0
 10
18.6124318963
 20
13.7456379723
 30
0.0
 10
18.8008609782
 20
13.7562683122
 30
0.0
 10
18.9647530562
 20
13.7668675546
 30
0.0
 10
19.1033809372
 20
13.7774113665
 30
0.0
 10
19.2161093435
 20
13.7878904379
 30
0.0
 10
19.2935967691
 20
13.7970493257
 30
0.0
 10
19.3421743403
 20
13.8047435939
 30
0.0
 10
19.3686271529
 20
13.809947064
 30
0.0
 10
19.3883242266
 20
13.815096432
 30
0.0
 10
19.3990978068
 20
13.8191123538
 30
0.0
 10
19.4031151548
 20
13.8214116301
 30
0.0
  0
SPLINE
  5
2AC
100
AcDbEntity
  8
0
100
AcDbSpline
 62
7
  6
BYLAYER
 70
0
 71
3
 72
43
 73
39
 74
0
 42
0.0000001
 43
0.0000001
 44
0.0000000001
 40
0.0
 40
0.0
 40
0.0
 40
0.0
 40
0.00086954
 40
0.001667167
 40
0.002737457
 40
0.0040874192
 40
0.0057200975
 40
0.0098380912
 40
0.0150936462
 40
0.0214764003
 40
0.0289720892
 40
0.0375656031
 40
0.0579718342
 40
0.0825018066
 40
0.1109347564
 40
0.1430011854
 40
0.1784081153
 40
0.2168205374
 40
0.2578838022
 40
0.3012110753
 40
0.3930273329
 40
0.4888462963
 40
0.5850959396
 40
0.6781881727
 40
0.7646529974
 40
0.8043793381
 40
0.84126796
 40
0.8749715912
 40
0.9051792104
 40
0.9316072471
 40
0.9540135128
 40
0.9721886762
 40
0.9796369659
 40
0.9859717136
 40
0.9911787044
 40
0.9952480715
 40
0.9981818161
 40
1.0
 40
1.0
 40
1.0
 40
1.0
 10
7.4095823367
 20
21.3288248773
 30
0.0
 10
7.4095823367
 20
21.3323066677
 30
0.0
 10
7.416646046
 20
21.3369755332
 30
0.0
 10
7.4261926804
 20
21.3408689292
 30
0.0
 10
7.4387577655
 20
21.3447150622
 30
0.0
 10
7.4544659266
 20
21.3484412894
 30
0.0
 10
7.4824093442
 20
21.3539402432
 30
0.0
 10
7.5259775759
 20
21.3605076541
 30
0.0
 10
7.5886326852
 20
21.3680368237
 30
0.0
 10
7.664874155
 20
21.3756072779
 30
0.0
 10
7.7545361339
 20
21.383223446
 30
0.0
 10
7.9002717205
 20
21.3940306856
 30
0.0
 10
8.1142179413
 20
21.4071775599
 30
0.0
 10
8.4076130429
 20
21.4223106902
 30
0.0
 10
8.7477487041
 20
21.4374995841
 30
0.0
 10
9.131472823
 20
21.4527404555
 30
0.0
 10
9.5551840994
 20
21.4679998346
 30
0.0
 10
10.014940748
 20
21.4832812585
 30
0.0
 10
10.506427608
 20
21.4985776253
 30
0.0
 10
11.2116836106
 20
21.5193921755
 30
0.0
 10
12.1361440867
 20
21.5449914621
 30
0.0
 10
13.2724669329
 20
21.5752132087
 30
0.0
 10
14.4139012189
 20
21.605423138
 30
0.0
 10
15.5178669604
 20
21.6356141471
 30
0.0
 10
16.3955401058
 20
21.6613545261
 30
0.0
 10
17.0482034051
 20
21.6823378408
 30
0.0
 10
17.4896747283
 20
21.6976128519
 30
0.0
 10
17.8930078899
 20
21.7128622543
 30
0.0
 10
18.2544233267
 20
21.7280752607
 30
0.0
 10
18.5705611731
 20
21.7432346505
 30
0.0
 10
18.8384557792
 20
21.758326014
 30
0.0
 10
19.0303382509
 20
21.7714767281
 30
0.0
 10
19.1578404829
 20
21.7823554268
 30
0.0
 10
19.2335149661
 20
21.7899228522
 30
0.0
 10
19.2955502227
 20
21.7974628887
 30
0.0
 10
19.3439557523
 20
21.8048426466
 30
0.0
 10
19.3783970628
 20
21.8121988003
 30
0.0
 10
19.3968261042
 20
21.8178559571
 30
0.0
 10
19.4031453015
 20
21.8214713275
 30
0.0
  0
SPLINE
  5
2AD
100
AcDbEntity
  8
0
100
AcDbSpline
 62
7
  6
BYLAYER
 70
0
 71
3
 72
9
 73
5
 74
0
 42
0.0000001
 43
0.0000001
 44
0.0000000001
 40
0.0
 40
0.0
 40
0.0
 40
0.0
 40
0.716235909
 40
1.0
 40
1.0
 40
1.0
 40
1.0
 10
19.4095823367
 20
14.9704102751
 30
0.0
 10
19.4095823367
 20
14.9694875175
 30
0.0
 10
19.4091017239
 20
14.9681926206
 30
0.0
 10
19.4083246732
 20
14.9671707864
 30
0.0
 10
19.4080883225
 20
14.9668918758
 30
0.0
  0
SPLINE
  5
2AE
100
AcDbEntity
  8
0
100
AcDbSpline
 62
7
  6
BYLAYER
 70
0
 71
3
 72
42
 73
38
 74
0
 42
0.0000001
 43
0.0000001
 44
0.0000000001
 40
0.0
 40
0.0
 40
0.0
 40
0.0
 40
0.000519514
 40
0.0012876135
 40
0.0036343107
 40
0.0070941676
 40
0.0116756567
 40
0.0173747878
 40
0.0241789974
 40
0.0320740012
 40
0.041044812
 40
0.0621321641
 40
0.0872438841
 40
0.1161569547
 40
0.1486010754
 40
0.1842843521
 40
0.2228734425
 40
0.2640179219
 40
0.3073351541
 40
0.3988841586
 40
0.4941570615
 40
0.5896540689
 40
0.6818671337
 40
0.767409082
 40
0.8066830892
 40
0.8431388628
 40
0.8764373511
 40
0.9062766178
 40
0.9323799039
 40
0.954512292
 40
0.9724694304
 40
0.9798313058
 40
0.9860951522
 40
0.9912470035
 40
0.9952772916
 40
0.9981882507
 40
1.0
 40
1.0
 40
1.0
 40
1.0
 10
19.4080883225
 20
14.9668918758
 30
0.0
 10
19.4067438721
 20
14.9653053291
 30
0.0
 10
19.4023501677
 20
14.9623727829
 30
0.0
 10
19.388978938
 20
14.9567002299
 30
0.0
 10
19.3633032021
 20
14.9502845506
 30
0.0
 10
19.3224223754
 20
14.9429048637
 30
0.0
 10
19.2678880928
 20
14.9354843501
 30
0.0
 10
19.1999163333
 20
14.9279794679
 30
0.0
 10
19.1186043234
 20
14.9204515175
 30
0.0
 10
19.0241556177
 20
14.9128955082
 30
0.0
 10
18.8726050221
 20
14.9022134435
 30
0.0
 10
18.6521435711
 20
14.8891582051
 30
0.0
 10
18.3518486122
 20
14.8741044306
 30
0.0
 10
18.0060453817
 20
14.8590174789
 30
0.0
 10
17.6178914984
 20
14.8438886915
 30
0.0
 10
17.190979343
 20
14.8287385284
 30
0.0
 10
16.7292209597
 20
14.8135632252
 30
0.0
 10
16.2368894281
 20
14.7983719634
 30
0.0
 10
15.5326306477
 20
14.7777231445
 30
0.0
 10
14.6117458201
 20
14.7523311902
 30
0.0
 10
13.4820374116
 20
14.7223173214
 30
0.0
 10
12.3496694941
 20
14.6923136708
 30
0.0
 10
11.2562667435
 20
14.6623583922
 30
0.0
 10
10.3878867396
 20
14.6367791256
 30
0.0
 10
9.7426606203
 20
14.6159464145
 30
0.0
 10
9.306489101
 20
14.600791899
 30
0.0
 10
8.9081081809
 20
14.5856539722
 30
0.0
 10
8.5511996292
 20
14.5705466081
 30
0.0
 10
8.2390291899
 20
14.5554959406
 30
0.0
 10
7.9744849464
 20
14.5405169678
 30
0.0
 10
7.7849763345
 20
14.5274524115
 30
0.0
 10
7.6590149845
 20
14.5166484844
 30
0.0
 10
7.5842134655
 20
14.5091376509
 30
0.0
 10
7.5228544027
 20
14.5016646999
 30
0.0
 10
7.4749291848
 20
14.4943604372
 30
0.0
 10
7.4407577428
 20
14.4870800801
 30
0.0
 10
7.4224521412
 20
14.4814624183
 30
0.0
 10
7.4161466986
 20
14.4778794416
 30
0.0
  0
SPLINE
  5
2AF
100
AcDbEntity
  8
0
100
AcDbSpline
 62
7
  6
BYLAYER
 70
0
 71
3
 72
9
 73
5
 74
0
 42
0.0000001
 43
0.0000001
 44
0.0000000001
 40
0.0
 40
0.0
 40
0.0
 40
0.0
 40
0.7162540653
 40
1.0
 40
1.0
 40
1.0
 40
1.0
 10
7.4095823367
 20
14.3288248773
 30
0.0
 10
7.4095823367
 20
14.3297504619
 30
0.0
 10
7.4100645343
 20
14.331049342
 30
0.0
 10
7.4108443114
 20
14.3320740096
 30
0.0
 10
7.4110814713
 20
14.3323536596
 30
0.0
  0
SPLINE
  5
2B0
100
AcDbEntity
  8
0
100
AcDbSpline
 62
7
  6
BYLAYER
 70
0
 71
3
 72
42
 73
38
 74
0
 42
0.0000001
 43
0.0000001
 44
0.0000000001
 40
0.0
 40
0.0
 40
0.0
 40
0.0
 40
0.0005200199
 40
0.0012885883
 40
0.0036362114
 40
0.0070970529
 40
0.0116796172
 40
0.0173798997
 40
0.0241853144
 40
0.0320815675
 40
0.0410536669
 40
0.062143654
 40
0.087258093
 40
0.1161739213
 40
0.1486208168
 40
0.1843068358
 40
0.2228986281
 40
0.2640457385
 40
0.3073654415
 40
0.398918682
 40
0.4941947759
 40
0.5896935305
 40
0.6819065521
 40
0.767446704
 40
0.8067190271
 40
0.843172584
 40
0.8764683676
 40
0.9063044674
 40
0.932404081
 40
0.9545323429
 40
0.9724849418
 40
0.9798444272
 40
0.9861057907
 40
0.9912550518
 40
0.995282665
 40
0.9981909057
 40
1.0
 40
1.0
 40
1.0
 40
1.0
 10
7.4110814713
 20
14.3323536596
 30
0.0
 10
7.4124278378
 20
14.333941244
 30
0.0
 10
7.4168251365
 20
14.3368753611
 30
0.0
 10
7.4302046221
 20
14.3425484489
 30
0.0
 10
7.4558908083
 20
14.3489614639
 30
0.0
 10
7.4967846266
 20
14.356337085
 30
0.0
 10
7.5513321755
 20
14.3637558949
 30
0.0
 10
7.6193177072
 20
14.3712627425
 30
0.0
 10
7.7006441169
 20
14.3787939402
 30
0.0
 10
7.795107854
 20
14.3863530445
 30
0.0
 10
7.9466795327
 20
14.3970361646
 30
0.0
 10
8.1671685999
 20
14.4100847282
 30
0.0
 10
8.4674971183
 20
14.4251322777
 30
0.0
 10
8.813334137
 20
14.4402224967
 30
0.0
 10
9.2015219497
 20
14.4553566908
 30
0.0
 10
9.6284680264
 20
14.4705093897
 30
0.0
 10
10.0902599449
 20
14.485684222
 30
0.0
 10
10.5826240977
 20
14.5008717421
 30
0.0
 10
11.2869221526
 20
14.5215174018
 30
0.0
 10
12.2078486415
 20
14.5469207491
 30
0.0
 10
13.3375967823
 20
14.5769301687
 30
0.0
 10
14.4699873561
 20
14.6069275139
 30
0.0
 10
15.5633920014
 20
14.6369011884
 30
0.0
 10
16.4317605832
 20
14.6624640697
 30
0.0
 10
17.0769654286
 20
14.6833002166
 30
0.0
 10
17.5131113163
 20
14.6984628985
 30
0.0
 10
17.9114607876
 20
14.7136022192
 30
0.0
 10
18.2683321897
 20
14.728705203
 30
0.0
 10
18.5804596605
 20
14.7437522587
 30
0.0
 10
18.8449551756
 20
14.7587301403
 30
0.0
 10
19.0344197745
 20
14.7717974004
 30
0.0
 10
19.1603433314
 20
14.7826044956
 30
0.0
 10
19.2351149583
 20
14.7901166376
 30
0.0
 10
19.2964427249
 20
14.7975896972
 30
0.0
 10
19.344336548
 20
14.8048917655
 30
0.0
 10
19.3784746429
 20
14.8121700072
 30
0.0
 10
19.3967597834
 20
14.817786453
 30
0.0
 10
19.4030518816
 20
14.8213714297
 30
0.0
  0
SPLINE
  5
2B1
100
AcDbEntity
  8
0
100
AcDbSpline
 62
7
  6
BYLAYER
 70
0
 71
3
 72
23
 73
19
 74
0
 42
0.0000001
 43
0.0000001
 44
0.0000000001
 40
0.0
 40
0.0
 40
0.0
 40
0.0
 40
0.2092266567
 40
0.4003733637
 40
0.5697622036
 40
0.6453541961
 40
0.7144243408
 40
0.7766440125
 40
0.8317188764
 40
0.879380402
 40
0.9193751949
 40
0.9515380106
 40
0.9646427802
 40
0.9757427828
 40
0.9848261189
 40
0.99188889
 40
0.9969358178
 40
1.0
 40
1.0
 40
1.0
 40
1.0
 10
10.8279034794
 20
13.6496174296
 30
0.0
 10
10.5974057448
 20
13.6452382146
 30
0.0
 10
10.1563312986
 20
13.6366949134
 30
0.0
 10
9.5286727303
 20
13.6233220011
 30
0.0
 10
9.0482596201
 20
13.6116687082
 30
0.0
 10
8.702348098
 20
13.6021753158
 30
0.0
 10
8.4744938516
 20
13.5953696986
 30
0.0
 10
8.2692545358
 20
13.5886604845
 30
0.0
 10
8.0876162728
 20
13.5820199686
 30
0.0
 10
7.9304841584
 20
13.5753860131
 30
0.0
 10
7.7986298563
 20
13.5686661539
 30
0.0
 10
7.7048631216
 20
13.5627407625
 30
0.0
 10
7.6429477833
 20
13.5578449325
 30
0.0
 10
7.6064188583
 20
13.5544614016
 30
0.0
 10
7.5765959152
 20
13.5511073807
 30
0.0
 10
7.5534336105
 20
13.5478529457
 30
0.0
 10
7.537093975
 20
13.5445928739
 30
0.0
 10
7.5283784692
 20
13.5421081919
 30
0.0
 10
7.5254321723
 20
13.5404593079
 30
0.0
  0
SPLINE
  5
2B2
100
AcDbEntity
  8
0
100
AcDbSpline
 62
7
  6
BYLAYER
 70
0
 71
3
 72
39
 73
35
 74
0
 42
0.0000001
 43
0.0000001
 44
0.0000000001
 40
0.0
 40
0.0
 40
0.0
 40
0.0
 40
0.0019586557
 40
0.0050002739
 40
0.0091352152
 40
0.0143553486
 40
0.0206493214
 40
0.0280041021
 40
0.045839528
 40
0.0677381826
 40
0.0935418929
 40
0.1230217755
 40
0.1558753016
 40
0.1917977268
 40
0.2304692699
 40
0.3147371404
 40
0.405669694
 40
0.4999602692
 40
0.5942532545
 40
0.685170837
 40
0.7694822777
 40
0.8081689142
 40
0.8440737661
 40
0.8769054173
 40
0.9063872321
 40
0.9322380449
 40
0.9541772404
 40
0.9720062841
 40
0.9793482399
 40
0.9856284083
 40
0.9908366879
 40
0.9949658624
 40
0.9980148752
 40
1.0
 40
1.0
 40
1.0
 40
1.0
 10
18.6521456975
 20
14.3911550629
 30
0.0
 10
18.6461984178
 20
14.3877429498
 30
0.0
 10
18.6293982652
 20
14.3821635968
 30
0.0
 10
18.5982909429
 20
14.3750363282
 30
0.0
 10
18.5554385038
 20
14.3678555703
 30
0.0
 10
18.5011564702
 20
14.3605458476
 30
0.0
 10
18.4355048882
 20
14.3531859288
 30
0.0
 10
18.3257984619
 20
14.3426029139
 30
0.0
 10
18.1614602409
 20
14.3295844871
 30
0.0
 10
17.9325348535
 20
14.3144052006
 30
0.0
 10
17.6627563322
 20
14.2994358777
 30
0.0
 10
17.3545583286
 20
14.2849254994
 30
0.0
 10
17.0109115694
 20
14.2702440614
 30
0.0
 10
16.6350795813
 20
14.2551032985
 30
0.0
 10
16.0793584912
 20
14.2340108268
 30
0.0
 10
15.3310808926
 20
14.2090202722
 30
0.0
 10
14.3881395826
 20
14.1797818605
 30
0.0
 10
13.4101168795
 20
14.1495555149
 30
0.0
 10
12.43212466
 20
14.1200703537
 30
0.0
 10
11.4890665
 20
14.0910347307
 30
0.0
 10
10.7406791655
 20
14.0648168907
 30
0.0
 10
10.184781384
 20
14.0446270102
 30
0.0
 10
9.8090154292
 20
14.0299560178
 30
0.0
 10
9.465513264
 20
14.0149470704
 30
0.0
 10
9.1572481266
 20
13.9998591014
 30
0.0
 10
8.887161196
 20
13.9848173502
 30
0.0
 10
8.6579304211
 20
13.9699636694
 30
0.0
 10
8.4934962764
 20
13.9572030712
 30
0.0
 10
8.3838980948
 20
13.9466960055
 30
0.0
 10
8.3183807858
 20
13.9393496733
 30
0.0
 10
8.2642131831
 20
13.9319990795
 30
0.0
 10
8.2214181314
 20
13.9247094954
 30
0.0
 10
8.1902390683
 20
13.9174095061
 30
0.0
 10
8.1733792909
 20
13.9116675339
 30
0.0
 10
8.1673503157
 20
13.9082116194
 30
0.0
  0
SPLINE
  5
2B3
100
AcDbEntity
  8
0
100
AcDbSpline
 62
7
  6
BYLAYER
 70
0
 71
3
 72
43
 73
39
 74
0
 42
0.0000001
 43
0.0000001
 44
0.0000000001
 40
0.0
 40
0.0
 40
0.0
 40
0.0
 40
0.0019482748
 40
0.0049561477
 40
0.0090484187
 40
0.0142336189
 40
0.0205107445
 40
0.0278715455
 40
0.0457733855
 40
0.0677363329
 40
0.09355104
 40
0.122993303
 40
0.1558240728
 40
0.1917749299
 40
0.2305102461
 40
0.2716530914
 40
0.3148285588
 40
0.4057705719
 40
0.5001152013
 40
0.5474953756
 40
0.5944533327
 40
0.6405634894
 40
0.6853987804
 40
0.7285582046
 40
0.7696710145
 40
0.8083809874
 40
0.8443363362
 40
0.8771788266
 40
0.9065937905
 40
0.9323631637
 40
0.9542888639
 40
0.9721728628
 40
0.9795369196
 40
0.985818639
 40
0.991005051
 40
0.9950884793
 40
0.9980771972
 40
1.0
 40
1.0
 40
1.0
 40
1.0
 10
18.6513326557
 20
20.3915202018
 30
0.0
 10
18.6454148264
 20
20.3881309895
 30
0.0
 10
18.6288121259
 20
20.38249729
 30
0.0
 10
18.598045067
 20
20.3752250397
 30
0.0
 10
18.5556273532
 20
20.3678526735
 30
0.0
 10
18.501710914
 20
20.3603321182
 30
0.0
 10
18.4362478988
 20
20.3527795777
 30
0.0
 10
18.3263662877
 20
20.3420715802
 30
0.0
 10
18.1615280125
 20
20.329450633
 30
0.0
 10
17.9320842412
 20
20.3149449188
 30
0.0
 10
17.6621961643
 20
20.3000416058
 30
0.0
 10
17.3542380056
 20
20.2847264078
 30
0.0
 10
17.0107550709
 20
20.2695147998
 30
0.0
 10
16.6346947929
 20
20.2548095437
 30
0.0
 10
16.229518894
 20
20.2401242582
 30
0.0
 10
15.79905105
 20
20.2250830017
 30
0.0
 10
15.1859241239
 20
20.2045061509
 30
0.0
 10
14.3866321115
 20
20.1790419354
 30
0.0
 10
13.5725752908
 20
20.1548974427
 30
0.0
 10
12.9124194574
 20
20.1350135536
 30
0.0
 10
12.4210414167
 20
20.119659932
 30
0.0
 10
11.9385761641
 20
20.1042968123
 30
0.0
 10
11.4693970761
 20
20.0894612791
 30
0.0
 10
11.0177120827
 20
20.0748470337
 30
0.0
 10
10.5874912172
 20
20.0598842875
 30
0.0
 10
10.1825142043
 20
20.044629327
 30
0.0
 10
9.8065072216
 20
20.0294039963
 30
0.0
 10
9.4630513485
 20
20.0144874317
 30
0.0
 10
9.1552781649
 20
19.9997507046
 30
0.0
 10
8.8857659665
 20
19.9850019155
 30
0.0
 10
8.6566875837
 20
19.9702567516
 30
0.0
 10
8.4920655549
 20
19.9571999089
 30
0.0
 10
8.38223387
 20
19.9463520002
 30
0.0
 10
8.3167369756
 20
19.9388180706
 30
0.0
 10
8.2628203953
 20
19.9313899826
 30
0.0
 10
8.2204654996
 20
19.9241977655
 30
0.0
 10
8.1898491955
 20
19.9171325242
 30
0.0
 10
8.1733540805
 20
19.9116440471
 30
0.0
 10
8.1675144828
 20
19.9082976428
 30
0.0
  0
SPLINE
  5
2B4
100
AcDbEntity
  8
0
100
AcDbSpline
 62
7
  6
BYLAYER
 70
0
 71
3
 72
52
 73
48
 74
0
 42
0.0000001
 43
0.0000001
 44
0.0000000001
 40
0.0
 40
0.0
 40
0.0
 40
0.0
 40
0.0004291175
 40
0.0011263406
 40
0.0021054102
 40
0.0033703756
 40
0.0067622561
 40
0.0113040898
 40
0.0169920251
 40
0.023814121
 40
0.0317535262
 40
0.0407929957
 40
0.0509150521
 40
0.062098485
 40
0.087540777
 40
0.116897785
 40
0.1499053071
 40
0.1862571633
 40
0.2256218809
 40
0.2676328611
 40
0.311904457
 40
0.4055259865
 40
0.5029444526
 40
0.600448812
 40
0.6942641155
 40
0.7386339044
 40
0.7807299981
 40
0.8201342385
 40
0.8564429536
 40
0.8892886753
 40
0.9183502491
 40
0.9433317522
 40
0.9542114173
 40
0.963974736
 40
0.9725955785
 40
0.9800550147
 40
0.9863348756
 40
0.9890269618
 40
0.991417657
 40
0.9935055919
 40
0.9952904301
 40
0.9967722626
 40
0.997951924
 40
0.9988320168
 40
0.9994204998
 40
0.9997498203
 40
1.0
 40
1.0
 40
1.0
 40
1.0
 10
18.9775924933
 20
13.2176275854
 30
0.0
 10
18.9764970182
 20
13.2165321104
 30
0.0
 10
18.9727230688
 20
13.2147097035
 30
0.0
 10
18.9655195723
 20
13.2124412191
 30
0.0
 10
18.9551219975
 20
13.2101210107
 30
0.0
 10
18.9350884876
 20
13.2066228411
 30
0.0
 10
18.9021127871
 20
13.2024877426
 30
0.0
 10
18.8531675037
 20
13.197749399
 30
0.0
 10
18.7917858581
 20
13.1929707277
 30
0.0
 10
18.7181149947
 20
13.1881494766
 30
0.0
 10
18.6323218439
 20
13.1833112685
 30
0.0
 10
18.5345994543
 20
13.1784651012
 30
0.0
 10
18.4251521691
 20
13.1736230967
 30
0.0
 10
18.2565136296
 20
13.1668851498
 30
0.0
 10
18.0184395849
 20
13.1586119673
 30
0.0
 10
17.7015780925
 20
13.1489749445
 30
0.0
 10
17.3453157349
 20
13.1392674457
 30
0.0
 10
16.9529105551
 20
13.1295672085
 30
0.0
 10
16.5279908844
 20
13.1198854651
 30
0.0
 10
16.0744736611
 20
13.1101208599
 30
0.0
 10
15.4251083814
 20
13.0966580972
 30
0.0
 10
14.5757232245
 20
13.0803486674
 30
0.0
 10
13.5341778493
 20
13.060912449
 30
0.0
 10
12.4919366101
 20
13.0412752537
 30
0.0
 10
11.6411879465
 20
13.0249101549
 30
0.0
 10
10.9904674944
 20
13.0111347162
 30
0.0
 10
10.5361502152
 20
13.0011592956
 30
0.0
 10
10.1109394233
 20
12.9913388324
 30
0.0
 10
9.719136973
 20
12.9814189241
 30
0.0
 10
9.3646920994
 20
12.9713342682
 30
0.0
 10
9.0511589152
 20
12.961299549
 30
0.0
 10
8.8169246447
 20
12.9527253046
 30
0.0
 10
8.6523553322
 20
12.9457323956
 30
0.0
 10
8.5468229108
 20
12.9407234076
 30
0.0
 10
8.4536545329
 20
12.9357026049
 30
0.0
 10
8.3730833229
 20
12.9306813268
 30
0.0
 10
8.3139198978
 20
12.9263188563
 30
0.0
 10
8.2730515679
 20
12.9227553924
 30
0.0
 10
8.247287481
 20
12.9202262478
 30
0.0
 10
8.2248118
 20
12.9177017864
 30
0.0
 10
8.2056519803
 20
12.9151901669
 30
0.0
 10
8.1897673253
 20
12.9126803322
 30
0.0
 10
8.1772868017
 20
12.9102261882
 30
0.0
 10
8.1678665524
 20
12.9077347801
 30
0.0
 10
8.1621391064
 20
12.9054852234
 30
0.0
 10
8.1580259034
 20
12.9027205424
 30
0.0
 10
8.1589436635
 20
12.9002561015
 30
0.0
 10
8.159582336
 20
12.899617429
 30
0.0
  0
SPLINE
  5
2B5
100
AcDbEntity
  8
0
100
AcDbSpline
 62
7
  6
BYLAYER
 70
0
 71
3
 72
9
 73
5
 74
0
 42
0.0000001
 43
0.0000001
 44
0.0000000001
 40
0.0
 40
0.0
 40
0.0
 40
0.0
 40
0.7162095405
 40
1.0
 40
1.0
 40
1.0
 40
1.0
 10
19.4095823367
 20
15.9704093953
 30
0.0
 10
19.4095823367
 20
15.9694826046
 30
0.0
 10
19.4090989432
 20
15.9681819875
 30
0.0
 10
19.4083175734
 20
15.9671563427
 30
0.0
 10
19.4080799058
 20
15.9668763914
 30
0.0
  0
SPLINE
  5
2B6
100
AcDbEntity
  8
0
100
AcDbSpline
 62
7
  6
BYLAYER
 70
0
 71
3
 72
42
 73
38
 74
0
 42
0.0000001
 43
0.0000001
 44
0.0000000001
 40
0.0
 40
0.0
 40
0.0
 40
0.0
 40
0.0005202438
 40
0.0012890545
 40
0.0036371734
 40
0.0070985105
 40
0.0116815662
 40
0.0173823156
 40
0.0241881698
 40
0.0320848415
 40
0.0410573453
 40
0.0621480237
 40
0.087263073
 40
0.1161794244
 40
0.1486267429
 40
0.1843130727
 40
0.2229051023
 40
0.2640524108
 40
0.3073721976
 40
0.3989251932
 40
0.4942008575
 40
0.5896988691
 40
0.6819110112
 40
0.7674502916
 40
0.8067221339
 40
0.8431751686
 40
0.8764704718
 40
0.9063061127
 40
0.9324053361
 40
0.9545332345
 40
0.9724855632
 40
0.9798449162
 40
0.9861061625
 40
0.9912553312
 40
0.9952828544
 40
0.9981909976
 40
1.0
 40
1.0
 40
1.0
 40
1.0
 10
19.4080799058
 20
15.9668763914
 30
0.0
 10
19.4067321291
 20
15.96528883
 30
0.0
 10
19.4023325479
 20
15.9623550471
 30
0.0
 10
19.3889484666
 20
15.9566828019
 30
0.0
 10
19.3632570318
 20
15.9502711383
 30
0.0
 10
19.3223569373
 20
15.9428967534
 30
0.0
 10
19.2678035962
 20
15.9354779502
 30
0.0
 10
19.1998126337
 20
15.9279695829
 30
0.0
 10
19.118481132
 20
15.9204363661
 30
0.0
 10
19.0240125184
 20
15.9128754308
 30
0.0
 10
18.8724349023
 20
15.9021914169
 30
0.0
 10
18.6519389266
 20
15.8891457609
 30
0.0
 10
18.3516030647
 20
15.8741022221
 30
0.0
 10
18.0057599499
 20
15.8590131615
 30
0.0
 10
17.617567386
 20
15.8438771422
 30
0.0
 10
17.1906178194
 20
15.8287196388
 30
0.0
 10
16.7288232072
 20
15.8135431944
 30
0.0
 10
16.2364570333
 20
15.7983622488
 30
0.0
 10
15.5321590167
 20
15.777723362
 30
0.0
 10
14.6112359284
 20
15.7523004973
 30
0.0
 10
13.4814935986
 20
15.7223085009
 30
0.0
 10
12.3491119488
 20
15.6923073361
 30
0.0
 10
11.2557181088
 20
15.6623255559
 30
0.0
 10
10.3873586067
 20
15.6367736815
 30
0.0
 10
9.7421616497
 20
15.6159362336
 30
0.0
 10
9.3060220974
 20
15.6007689443
 30
0.0
 10
8.9076787642
 20
15.5856278949
 30
0.0
 10
8.5508128176
 20
15.5705265069
 30
0.0
 10
8.2386901872
 20
15.5554834538
 30
0.0
 10
7.9741986967
 20
15.5405093763
 30
0.0
 10
7.7847373895
 20
15.5274398779
 30
0.0
 10
7.6588163516
 20
15.5166285237
 30
0.0
 10
7.5840463904
 20
15.5091139014
 30
0.0
 10
7.5227200123
 20
15.5016398054
 30
0.0
 10
7.474827148
 20
15.4943391905
 30
0.0
 10
7.4406897456
 20
15.4870634216
 30
0.0
 10
7.4224047798
 20
15.4814489807
 30
0.0
 10
7.4161127288
 20
15.4778646717
 30
0.0
  0
SPLINE
  5
2B7
100
AcDbEntity
  8
0
100
AcDbSpline
 62
7
  6
BYLAYER
 70
0
 71
3
 72
41
 73
37
 74
0
 42
0.0000001
 43
0.0000001
 44
0.0000000001
 40
0.0
 40
0.0
 40
0.0
 40
0.0
 40
0.0019417447
 40
0.0049558633
 40
0.0090733579
 40
0.0142930012
 40
0.0206022253
 40
0.0279829473
 40
0.045873881
 40
0.0678025484
 40
0.0935916452
 40
0.1230448334
 40
0.1559125804
 40
0.1918733492
 40
0.2305839464
 40
0.2716943164
 40
0.3148529651
 40
0.4058038814
 40
0.5001212759
 40
0.5944361719
 40
0.685344948
 40
0.7285107445
 40
0.7696399934
 40
0.808356363
 40
0.8442765305
 40
0.8770804376
 40
0.9065104791
 40
0.9323285674
 40
0.9542935349
 40
0.9721626621
 40
0.979499412
 40
0.9857585394
 40
0.9909355237
 40
0.9950291267
 40
0.9980435133
 40
1.0
 40
1.0
 40
1.0
 40
1.0
 10
18.6516220908
 20
17.3913180535
 30
0.0
 10
18.6457594426
 20
17.3878791034
 30
0.0
 10
18.6291653995
 20
17.3821821021
 30
0.0
 10
18.5983153886
 20
17.3748968956
 30
0.0
 10
18.5556459215
 20
17.3676007665
 30
0.0
 10
18.501385102
 20
17.3602301854
 30
0.0
 10
18.435593073
 20
17.3528863084
 30
0.0
 10
18.3255442237
 20
17.3424165573
 30
0.0
 10
18.1608020387
 20
17.3297209621
 30
0.0
 10
17.9316290068
 20
17.3148305555
 30
0.0
 10
17.6619308872
 20
17.2995455015
 30
0.0
 10
17.3538799079
 20
17.2844441352
 30
0.0
 10
17.0101650495
 20
17.2698488584
 30
0.0
 10
16.634023061
 20
17.2551862755
 30
0.0
 10
16.2290249001
 20
17.2400753474
 30
0.0
 10
15.7988198675
 20
17.2248240023
 30
0.0
 10
15.1858307284
 20
17.2041913119
 30
0.0
 10
14.3866306161
 20
17.1795005611
 30
0.0
 10
13.4084248443
 20
17.1501292617
 30
0.0
 10
12.430405315
 20
17.1194928964
 30
0.0
 10
11.6313221696
 20
17.0952790107
 30
0.0
 10
11.0183800891
 20
17.0749208903
 30
0.0
 10
10.5880663478
 20
17.0595895918
 30
0.0
 10
10.1831306021
 20
17.0443052927
 30
0.0
 10
9.8073380361
 20
17.0295437814
 30
0.0
 10
9.4640755105
 20
17.0148299346
 30
0.0
 10
9.1562180786
 20
16.9999463814
 30
0.0
 10
8.8863516512
 20
16.9850250742
 30
0.0
 10
8.6570297317
 20
16.9700424632
 30
0.0
 10
8.4924210819
 20
16.9569594404
 30
0.0
 10
8.3827938987
 20
16.9463447856
 30
0.0
 10
8.317483667
 20
16.9390069143
 30
0.0
 10
8.2636208605
 20
16.9317403781
 30
0.0
 10
8.221165245
 20
16.9245886981
 30
0.0
 10
8.1903092536
 20
16.9174616357
 30
0.0
 10
8.1736306883
 20
16.9118661798
 30
0.0
 10
8.1676891018
 20
16.9084604931
 30
0.0
  0
ENDSEC
  0
SECTION
  2
OBJECTS
  0
DICTIONARY
  5
C
100
AcDbDictionary
280
0
281
1
  3
ACAD_GROUP
350
D
  3
ACAD_MLINESTYLE
350
17
  3
ACAD_LAYOUT
350
1A
  3
ACAD_PLOTSETTINGS
350
19
  3
ACAD_PLOTSTYLENAME
350
E
  0
DICTIONARY
  5
D
102
{ACAD_REACTORS
330
C
102
}
100
AcDbDictionary
280
0
281
1
  0
ACDBDICTIONARYWDFLT
  5
E
102
{ACAD_REACTORS
330
C
102
}
100
AcDbDictionary
281
1
  3
Normal
350
F
100
AcDbDictionaryWithDefault
340
F
  0
DICTIONARY
  5
17
102
{ACAD_REACTORS
330
C
102
}
100
AcDbDictionary
280
0
281
1
  3
Standard
350
18
  0
DICTIONARY
  5
19
102
{ACAD_REACTORS
330
C
102
}
100
AcDbDictionary
281
1
  0
DICTIONARY
  5
1A
102
{ACAD_REACTORS
330
C
102
}
100
AcDbDictionary
281
1
  3
Model
350
2B8
  3
Layout1
350
2B9
  0
ACDBPLACEHOLDER
  5
F
102
{ACAD_REACTORS
330
E
102
}
  0
MLINESTYLE
  5
18
102
{ACAD_REACTORS
330
17
102
}
100
AcDbMlineStyle
  2
STANDARD
 70
0
  3

 62
256
 51
90.0
 52
90.0
 71
2
 49
0.5
 62
256
  6
BYLAYER
 49
-0.5
 62
256
  6
BYLAYER
  0
LAYOUT
  5
2B8
102
{ACAD_REACTORS
330
1A
102
}
100
AcDbPlotSettings
  1

  2
none_device
  4

  6

 40
0.0
 41
0.0
 42
0.0
 43
0.0
 44
210.0
 45
297.0
 46
0.0
 47
0.0
 48
0.0
 49
0.0
140
0.0
141
0.0
142
1.0
143
1.0
 70
1024
 72
1
 73
0
 74
0
  7

 75
0
147
1.0
148
0.0
149
0.0
100
AcDbLayout
  1
Model
 70
0
 71
0
 10
0.0
 20
0.0
 11
210.0
 21
297.0
 12
0.0
 22
0.0
 32
0.0
 14
0.0
 24
0.0
 34
0.0
 15
0.0
 25
0.0
 35
0.0
146
0.0
 13
0.0
 23
0.0
 33
0.0
 16
1.0
 26
0.0
 36
0.0
 17
0.0
 27
1.0
 37
0.0
 76
0
330
210
345
0
346
0
  0
LAYOUT
  5
2B9
102
{ACAD_REACTORS
330
1A
102
}
100
AcDbPlotSettings
  1

  2
none_device
  4

  6

 40
0.0
 41
0.0
 42
0.0
 43
0.0
 44
210.0
 45
297.0
 46
0.0
 47
0.0
 48
0.0
 49
0.0
140
0.0
141
0.0
142
1.0
143
1.0
 70
0
 72
1
 73
0
 74
0
  7

 75
0
147
1.0
148
0.0
149
0.0
100
AcDbLayout
  1
Layout1
 70
0
 71
1
 10
0.0
 20
0.0
 11
210.0
 21
297.0
 12
0.0
 22
0.0
 32
0.0
 14
0.0
 24
0.0
 34
0.0
 15
0.0
 25
0.0
 35
0.0
146
0.0
 13
0.0
 23
0.0
 33
0.0
 16
1.0
 26
0.0
 36
0.0
 17
0.0
 27
1.0
 37
0.0
 76
0
330
211
345
0
346
0
  0
ENDSEC
  0
EOF
