999
DXF file: C:\Users\sesa63760\Dev\_Creo\CAD\MCADID0004744_3D-CAD\drw0001_1.dxf
999
Pro/ENGINEER 2019471 by Parametric Technology Corporation
  0
SECTION
  2
HEADER
  9
$ACADVER
  1
AC1024
  9
$DWGCODEPAGE
  3
ANSI_1252
  9
$EXTMAX
 10
23.0471422839
 20
32.5952440872
 30
0.0
  9
$EXTMIN
 10
0.0
 20
0.0
 30
0.0
  9
$LIMMIN
 10
0.0
 20
0.0
  9
$LIMMAX
 10
23.0471422839
 20
32.5952440872
  9
$VIEWCTR
 10
11.5235711419
 20
16.2976220436
  9
$VIEWSIZE
 40
32.5952440872
  9
$CLAYER
  8
0
  9
$LTSCALE
 40
2.124727022
  9
$CELTYPE
  6
BYLAYER
  9
$DIMSCALE
 40
1.0
  9
$DIMASZ
 40
0.2743707415
  9
$DIMEXO
 40
1.0
  9
$DIMDLI
 40
1.4679932152
  9
$DIMEXE
 40
1.0
  9
$DIMCEN
 40
0.3476826036
  9
$DIMLFAC
 40
1.0
  9
$DIMBLK
  1
_FILLED
  9
$DIMALT
 70
0
  9
$DIMALTF
 40
0.0393700787
  9
$DIMTXT
 40
0.3841190381
  9
$DIMTOL
 70
1
  9
$DIMLIM
 70
0
  9
$DIMTFAC
 40
1.0
  9
$DIMTP
 40
0.01
  9
$DIMTM
 40
0.01
  9
$DIMGAP
 40
0.625
  9
$DIMDSEP
 70
46
  9
$AUNITS
 70
0
  9
$PDMODE
 70
3
  9
$PDSIZE
 40
0.3125
  9
$HANDSEED
  5
2C1
  9
$TILEMODE
 70
1
  9
$MEASUREMENT
 70
1
  9
$INSUNITS
 70
4
  0
ENDSEC
  0
SECTION
  2
CLASSES
  0
CLASS
  1
ACDBDICTIONARYWDFLT
  2
AcDbDictionaryWithDefault
  3
AutoCAD 2000
 90
0
 91
1
280
0
281
0
  0
CLASS
  1
ACDBPLACEHOLDER
  2
AcDbPlaceHolder
  3
AutoCAD 2000
 90
0
 91
1
280
0
281
0
  0
CLASS
  1
LAYOUT
  2
AcDbLayout
  3
AutoCAD 2000
 90
0
 91
0
280
0
281
0
  0
ENDSEC
  0
SECTION
  2
TABLES
  0
TABLE
  2
VPORT
  5
8
100
AcDbSymbolTable
 70
2
  0
VPORT
  5
1F4
100
AcDbSymbolTableRecord
100
AcDbViewportTableRecord
  2
*ACTIVE
 70
0
 10
0.0
 20
0.0
 11
1.0
 21
1.0
 12
11.5235711419
 22
16.2976220436
 13
0.0
 23
0.0
 14
1.0
 24
1.0
 15
0.0
 25
0.0
 16
0.0
 26
0.0
 36
1.0
 17
0.0
 27
0.0
 37
0.0
 40
32.5952440872
 41
0.7070707071
 42
50.0
 43
0.0
 44
0.0
 50
0.0
 51
0.0
 71
0
 72
100
 73
1
 74
1
 75
0
 76
0
 77
0
 78
0
  0
ENDTAB
  0
TABLE
  2
LTYPE
  5
5
100
AcDbSymbolTable
 70
6
  0
LTYPE
  5
14
100
AcDbSymbolTableRecord
100
AcDbLinetypeTableRecord
  2
BYBLOCK
 70
0
  3

 72
65
 73
0
 40
0.0
  0
LTYPE
  5
15
100
AcDbSymbolTableRecord
100
AcDbLinetypeTableRecord
  2
BYLAYER
 70
0
  3

 72
65
 73
0
 40
0.0
  0
LTYPE
  5
16
100
AcDbSymbolTableRecord
100
AcDbLinetypeTableRecord
  2
CONTINUOUS
 70
64
  3
Solid line
 72
65
 73
0
 40
0.0
  0
LTYPE
  5
1F5
100
AcDbSymbolTableRecord
100
AcDbLinetypeTableRecord
  2
CENTER
 70
64
  3
____ _ ____ _ ____ _ ____ _ ____ _ ____ _ ____
 72
65
 73
4
 40
0.6
 49
0.375
 74
0
 49
-0.075
 74
0
 49
0.075
 74
0
 49
-0.075
 74
0
  0
LTYPE
  5
1F6
100
AcDbSymbolTableRecord
100
AcDbLinetypeTableRecord
  2
HIDDEN
 70
64
  3
- - - - - - - - - - - - - - - - - - - -
 72
65
 73
2
 40
0.2
 49
0.1
 74
0
 49
-0.1
 74
0
  0
LTYPE
  5
1F7
100
AcDbSymbolTableRecord
100
AcDbLinetypeTableRecord
  2
PHANTOM
 70
64
  3
_____ _ _ _____ _ _ _____ _ _ _____
 72
65
 73
6
 40
0.8
 49
0.45
 74
0
 49
-0.05
 74
0
 49
0.1
 74
0
 49
-0.05
 74
0
 49
0.1
 74
0
 49
-0.05
 74
0
  0
LTYPE
  5
1F8
100
AcDbSymbolTableRecord
100
AcDbLinetypeTableRecord
  2
DOT
 70
64
  3
. . . . . . . . . . . . . . . . . . . .
 72
65
 73
2
 40
0.2
 49
0.1
 74
0
 49
-0.1
 74
0
  0
LTYPE
  5
1F9
100
AcDbSymbolTableRecord
100
AcDbLinetypeTableRecord
  2
DASHED
 70
64
  3
- - - - - - - - - - - - - - - - - - - -
 72
65
 73
2
 40
0.2
 49
0.1
 74
0
 49
-0.1
 74
0
  0
ENDTAB
  0
TABLE
  2
LAYER
  5
2
100
AcDbSymbolTable
 70
36
  0
LAYER
  5
10
100
AcDbSymbolTableRecord
100
AcDbLayerTableRecord
  2
0
 70
0
 62
7
  6
CONTINUOUS
370
-3
390
F
  0
LAYER
  5
1FA
100
AcDbSymbolTableRecord
100
AcDbLayerTableRecord
  2
DEFAULT_1
 70
0
 62
7
  6
CENTER
370
-3
390
F
  0
LAYER
  5
1FB
100
AcDbSymbolTableRecord
100
AcDbLayerTableRecord
  2
DEFAULT_2
 70
0
 62
7
  6
HIDDEN
370
-3
390
F
  0
LAYER
  5
1FC
100
AcDbSymbolTableRecord
100
AcDbLayerTableRecord
  2
DEFAULT_3
 70
0
 62
7
  6
PHANTOM
370
-3
390
F
  0
LAYER
  5
1FD
100
AcDbSymbolTableRecord
100
AcDbLayerTableRecord
  2
00_COMPONENTS
 70
0
 62
7
  6
CONTINUOUS
370
-3
390
F
  0
LAYER
  5
1FE
100
AcDbSymbolTableRecord
100
AcDbLayerTableRecord
  2
01_1_DEFAULT_DATUMS
 70
0
 62
7
  6
CONTINUOUS
370
-3
390
F
  0
LAYER
  5
1FF
100
AcDbSymbolTableRecord
100
AcDbLayerTableRecord
  2
01_PLANES
 70
0
 62
7
  6
CONTINUOUS
370
-3
390
F
  0
LAYER
  5
200
100
AcDbSymbolTableRecord
100
AcDbLayerTableRecord
  2
02_COORD_SYS
 70
0
 62
7
  6
CONTINUOUS
370
-3
390
F
  0
LAYER
  5
201
100
AcDbSymbolTableRecord
100
AcDbLayerTableRecord
  2
03_AXES
 70
0
 62
7
  6
CONTINUOUS
370
-3
390
F
  0
LAYER
  5
202
100
AcDbSymbolTableRecord
100
AcDbLayerTableRecord
  2
04_POINTS
 70
0
 62
7
  6
CONTINUOUS
370
-3
390
F
  0
LAYER
  5
203
100
AcDbSymbolTableRecord
100
AcDbLayerTableRecord
  2
05_CURVES
 70
0
 62
7
  6
CONTINUOUS
370
-3
390
F
  0
LAYER
  5
204
100
AcDbSymbolTableRecord
100
AcDbLayerTableRecord
  2
06_SURFS
 70
0
 62
7
  6
CONTINUOUS
370
-3
390
F
  0
LAYER
  5
205
100
AcDbSymbolTableRecord
100
AcDbLayerTableRecord
  2
07_COSMETICS
 70
0
 62
7
  6
CONTINUOUS
370
-3
390
F
  0
LAYER
  5
206
100
AcDbSymbolTableRecord
100
AcDbLayerTableRecord
  2
10_NOTES
 70
0
 62
7
  6
CONTINUOUS
370
-3
390
F
  0
LAYER
  5
207
100
AcDbSymbolTableRecord
100
AcDbLayerTableRecord
  2
11_NOTES_PUB
 70
0
 62
7
  6
CONTINUOUS
370
-3
390
F
  0
LAYER
  5
208
100
AcDbSymbolTableRecord
100
AcDbLayerTableRecord
  2
13_REF_GTOL
 70
0
 62
7
  6
CONTINUOUS
370
-3
390
F
  0
LAYER
  5
209
100
AcDbSymbolTableRecord
100
AcDbLayerTableRecord
  2
16_MISC
 70
0
 62
7
  6
CONTINUOUS
370
-3
390
F
  0
LAYER
  5
20A
100
AcDbSymbolTableRecord
100
AcDbLayerTableRecord
  2
17_NO_PRINT
 70
0
 62
7
  6
CONTINUOUS
370
-3
390
F
  0
LAYER
  5
20B
100
AcDbSymbolTableRecord
100
AcDbLayerTableRecord
  2
18_DATUM_CAMS_JOINTS
 70
0
 62
7
  6
CONTINUOUS
370
-3
390
F
  0
LAYER
  5
20C
100
AcDbSymbolTableRecord
100
AcDbLayerTableRecord
  2
19_DATUM_FUNCTIONAL
 70
0
 62
7
  6
CONTINUOUS
370
-3
390
F
  0
LAYER
  5
20D
100
AcDbSymbolTableRecord
100
AcDbLayerTableRecord
  2
20_DATUM_KINEMATIC_SCHEME
 70
0
 62
7
  6
CONTINUOUS
370
-3
390
F
  0
ENDTAB
  0
TABLE
  2
STYLE
  5
3
100
AcDbSymbolTable
 70
1
  0
STYLE
  5
11
100
AcDbSymbolTableRecord
100
AcDbTextStyleTableRecord
  2
STANDARD
 70
0
 40
0.0
 41
1.0
 50
0.0
 71
0
 42
0.2
  3
ARIAL.TTF
  4

  0
STYLE
  5
20E
100
AcDbSymbolTableRecord
100
AcDbTextStyleTableRecord
  2
TEXTSTYLE_1
 70
0
 40
0.0
 41
0.8
 50
0.0
 71
0
 42
0.2
  3
gdt
  4

  0
ENDTAB
  0
TABLE
  2
VIEW
  5
6
100
AcDbSymbolTable
 70
0
  0
ENDTAB
  0
TABLE
  2
UCS
  5
7
100
AcDbSymbolTable
 70
0
  0
ENDTAB
  0
TABLE
  2
APPID
  5
9
100
AcDbSymbolTable
 70
1
  0
APPID
  5
20F
100
AcDbSymbolTableRecord
100
AcDbRegAppTableRecord
  2
ACAD
 70
0
  0
ENDTAB
  0
TABLE
  2
BLOCK_RECORD
  5
1
100
AcDbSymbolTable
 70
0
  0
BLOCK_RECORD
  5
210
100
AcDbSymbolTableRecord
100
AcDbBlockTableRecord
  2
*Model_Space
  0
BLOCK_RECORD
  5
211
100
AcDbSymbolTableRecord
100
AcDbBlockTableRecord
  2
*Paper_Space
  0
BLOCK_RECORD
  5
212
100
AcDbSymbolTableRecord
100
AcDbBlockTableRecord
  2
_FILLED
  0
ENDTAB
  0
TABLE
  2
DIMSTYLE
  5
A
100
AcDbSymbolTable
 70
1
100
AcDbDimStyleTable
 71
0
  0
DIMSTYLE
105
213
100
AcDbSymbolTableRecord
100
AcDbDimStyleTableRecord
  2
STANDARD
 70
0
  3

  4

 40
1.0
 41
0.2743707415
 42
1.0
 43
0.38
 44
1.0
 45
0.0
 46
0.0
 47
0.01
 48
0.01
140
0.3841190381
141
0.09
142
0.0
143
25.4
144
1.0
145
0.0
146
1.0
147
0.625
 71
1
 72
0
 73
0
 74
0
 75
0
 76
0
 77
1
 78
8
 79
2
170
0
171
1
172
0
173
0
174
0
175
0
176
0
177
0
178
0
270
2
179
2
271
2
272
2
273
2
274
2
275
0
280
0
281
0
282
0
283
1
284
8
285
0
286
0
287
3
288
0
340
11
278
46
341
212
342
212
343
212
344
212
  0
ENDTAB
  0
ENDSEC
  0
SECTION
  2
BLOCKS
  0
BLOCK
  5
20
100
AcDbEntity
  8
0
100
AcDbBlockBegin
  2
*Model_Space
 70
0
 10
0.0
 20
0.0
 30
0.0
  3
*Model_Space
  1

  0
ENDBLK
  5
21
100
AcDbEntity
  8
0
100
AcDbBlockEnd
  0
BLOCK
  5
1C
100
AcDbEntity
  8
0
100
AcDbBlockBegin
  2
*Paper_Space
 70
0
 10
0.0
 20
0.0
 30
0.0
  3
*Paper_Space
  1

  0
ENDBLK
  5
1D
100
AcDbEntity
  8
0
100
AcDbBlockEnd
  0
BLOCK
  5
214
100
AcDbEntity
  8
0
100
AcDbBlockBegin
  2
_FILLED
 70
64
 10
0.0
 20
0.0
  3
_FILLED
  1

  0
SOLID
  5
215
100
AcDbEntity
  8
0
  6
BYBLOCK
 62
0
100
AcDbTrace
 10
0.0
 20
0.0
 11
-1.0
 21
0.25
 12
-1.0
 22
-0.25
 13
-1.0
 23
-0.25
  0
ENDBLK
  5
216
100
AcDbEntity
  8
0
  6
BYBLOCK
 62
0
100
AcDbBlockEnd
  0
ENDSEC
  0
SECTION
  2
ENTITIES
  0
LINE
  5
217
100
AcDbEntity
  8
0
100
AcDbLine
 62
7
  6
BYLAYER
 10
7.7044872695
 20
6.0073002432
 11
7.1175950513
 21
6.4828355338
  0
LINE
  5
218
100
AcDbEntity
  8
0
100
AcDbLine
 62
7
  6
BYLAYER
 10
8.6440023774
 20
7.3509608922
 11
7.8150677742
 21
7.7004515538
  0
LWPOLYLINE
  5
219
100
AcDbEntity
  8
0
100
AcDbPolyline
 62
7
  6
BYLAYER
 90
8
 70
0
 10
6.062590019
 20
8.3134310026
 10
6.8875228036
 20
7.5548995003
 10
7.5579891122
 20
7.1674270578
 10
9.1587933731
 20
6.5858719879
 10
10.9844246727
 20
6.3023763498
 10
12.8750525006
 20
6.3418938469
 10
14.6639967481
 20
6.7019604281
 10
16.1927033736
 20
7.3526478292
  0
LINE
  5
21A
100
AcDbEntity
  8
0
100
AcDbLine
 62
7
  6
BYLAYER
 10
7.7816988604
 20
25.7958694559
 11
5.923674212
 21
23.7889468223
  0
LINE
  5
21B
100
AcDbEntity
  8
0
100
AcDbLine
 62
7
  6
BYLAYER
 10
5.5159750348
 20
9.268148216
 11
5.7293577339
 21
8.8082996976
  0
LINE
  5
21C
100
AcDbEntity
  8
0
100
AcDbLine
 62
7
  6
BYLAYER
 10
4.8267121937
 20
9.4597915452
 11
4.8125571582
 21
9.5024752768
  0
LINE
  5
21D
100
AcDbEntity
  8
0
100
AcDbLine
 62
7
  6
BYLAYER
 10
3.7025566189
 20
13.9866635852
 11
3.7025566189
 21
12.7619099595
  0
LWPOLYLINE
  5
21E
100
AcDbEntity
  8
0
100
AcDbPolyline
 62
7
  6
BYLAYER
 90
3
 70
0
 10
4.3721980437
 20
13.6424740455
 10
5.1168370804
 20
12.4863464487
 10
6.3992778398
 20
11.4963841232
  0
LINE
  5
21F
100
AcDbEntity
  8
0
100
AcDbLine
 62
7
  6
BYLAYER
 10
4.8125458268
 20
10.507448709
 11
4.8125458268
 21
9.5024752834
  0
LINE
  5
220
100
AcDbEntity
  8
0
100
AcDbLine
 62
7
  6
BYLAYER
 10
4.8267121964
 20
10.4924788138
 11
4.8267121964
 21
9.4597915411
  0
LINE
  5
221
100
AcDbEntity
  8
0
100
AcDbLine
 62
7
  6
BYLAYER
 10
4.9063596152
 20
10.408313743
 11
4.9063596152
 21
9.3487781319
  0
LINE
  5
222
100
AcDbEntity
  8
0
100
AcDbLine
 62
7
  6
BYLAYER
 10
5.0813175697
 20
9.2791037089
 11
5.0813175697
 21
10.2234320624
  0
LINE
  5
223
100
AcDbEntity
  8
0
100
AcDbLine
 62
7
  6
BYLAYER
 10
5.3525566189
 20
6.3931911059
 11
5.3525566189
 21
8.0261959402
  0
LINE
  5
224
100
AcDbEntity
  8
0
100
AcDbLine
 62
7
  6
BYLAYER
 10
5.3525566189
 20
9.0059988407
 11
5.3525566189
 21
9.2722671589
  0
LINE
  5
225
100
AcDbEntity
  8
0
100
AcDbLine
 62
7
  6
BYLAYER
 10
6.6386291883
 20
8.4191455725
 11
6.0959223055
 21
8.3496811727
  0
LINE
  5
226
100
AcDbEntity
  8
0
100
AcDbLine
 62
7
  6
BYLAYER
 10
5.6366726476
 20
9.2651060461
 11
5.0813175697
 21
9.2791037089
  0
LWPOLYLINE
  5
227
100
AcDbEntity
  8
0
100
AcDbPolyline
 62
7
  6
BYLAYER
 90
7
 70
0
 10
6.3992778398
 20
11.4963841232
 10
8.1094036853
 20
10.7574256374
 10
10.1078733029
 20
10.3271623132
 10
12.2374652604
 20
10.2391786064
 10
14.3213921446
 20
10.5007022775
 10
16.1949972236
 20
11.0908971568
 10
17.7055834991
 20
11.9625118649
  0
LINE
  5
228
100
AcDbEntity
  8
0
100
AcDbLine
 62
7
  6
BYLAYER
 10
5.6366726476
 20
9.7985366691
 11
5.6366726476
 21
9.2651060461
  0
LINE
  5
229
100
AcDbEntity
  8
0
100
AcDbLine
 62
7
  6
BYLAYER
 10
5.7293577339
 20
9.7450449075
 11
5.7293577339
 21
8.5551651826
  0
LINE
  5
22A
100
AcDbEntity
  8
0
100
AcDbLine
 62
7
  6
BYLAYER
 10
5.7689911027
 20
9.7221711228
 11
5.7689911027
 21
8.4861672714
  0
LINE
  5
22B
100
AcDbEntity
  8
0
100
AcDbLine
 62
7
  6
BYLAYER
 10
5.8525566189
 20
14.5582152772
 11
5.8525566189
 21
15.1297669692
  0
LINE
  5
22C
100
AcDbEntity
  8
0
100
AcDbLine
 62
7
  6
BYLAYER
 10
5.8525566189
 20
16.4361708366
 11
5.8525566189
 21
17.1688164968
  0
LINE
  5
22D
100
AcDbEntity
  8
0
100
AcDbLine
 62
7
  6
BYLAYER
 10
5.8956912629
 20
9.6490480884
 11
5.8956912629
 21
8.3908380359
  0
LINE
  5
22E
100
AcDbEntity
  8
0
100
AcDbLine
 62
7
  6
BYLAYER
 10
6.0959223055
 20
8.3496811727
 11
6.0959223055
 21
9.5334878444
  0
LINE
  5
22F
100
AcDbEntity
  8
0
100
AcDbLine
 62
7
  6
BYLAYER
 10
5.914877701
 20
16.9242922661
 11
5.0010114022
 21
20.5099561546
  0
LINE
  5
230
100
AcDbEntity
  8
0
100
AcDbLine
 62
7
  6
BYLAYER
 10
6.6386291883
 20
9.2202729754
 11
6.6386291883
 21
8.4191455725
  0
LINE
  5
231
100
AcDbEntity
  8
0
100
AcDbLine
 62
7
  6
BYLAYER
 10
6.8274433993
 20
8.3856224958
 11
6.8274433993
 21
9.1113017789
  0
LINE
  5
232
100
AcDbEntity
  8
0
100
AcDbLine
 62
7
  6
BYLAYER
 10
7.0396036044
 20
9.0229086904
 11
7.0396036044
 21
7.7771304436
  0
LINE
  5
233
100
AcDbEntity
  8
0
100
AcDbLine
 62
7
  6
BYLAYER
 10
7.1156326933
 20
8.9989529747
 11
7.1156326933
 21
7.6865204572
  0
LINE
  5
234
100
AcDbEntity
  8
0
100
AcDbLine
 62
7
  6
BYLAYER
 10
7.2807511883
 20
8.9469264176
 11
7.2807511883
 21
7.6133719252
  0
LINE
  5
235
100
AcDbEntity
  8
0
100
AcDbLine
 62
7
  6
BYLAYER
 10
7.4926099044
 20
7.603537394
 11
7.4926099044
 21
8.8801726626
  0
LWPOLYLINE
  5
236
100
AcDbEntity
  8
0
100
AcDbPolyline
 62
7
  6
BYLAYER
 90
3
 70
0
 10
5.9965577138
 20
15.7389355788
 10
5.8893374641
 20
15.5079075043
 10
5.8525566189
 20
15.1297669692
  0
LINE
  5
237
100
AcDbEntity
  8
0
100
AcDbLine
 62
7
  6
BYLAYER
 10
7.0991395605
 20
14.24663996
 11
8.0195506717
 21
13.5271172727
  0
LINE
  5
238
100
AcDbEntity
  8
0
100
AcDbLine
 62
7
  6
BYLAYER
 10
7.977242833
 20
13.7319569172
 11
7.5686679698
 21
14.051356455
  0
LINE
  5
239
100
AcDbEntity
  8
0
100
AcDbLine
 62
7
  6
BYLAYER
 10
7.5822565374
 20
14.0687395782
 11
7.9908373024
 21
13.7493457335
  0
LINE
  5
23A
100
AcDbEntity
  8
0
100
AcDbLine
 62
7
  6
BYLAYER
 10
6.9061068805
 20
14.5641524109
 11
7.0991395605
 21
14.24663996
  0
LINE
  5
23B
100
AcDbEntity
  8
0
100
AcDbLine
 62
7
  6
BYLAYER
 10
8.6541827395
 20
7.2163557069
 11
8.6299331054
 21
7.5369854104
  0
LINE
  5
23C
100
AcDbEntity
  8
0
100
AcDbLine
 62
7
  6
BYLAYER
 10
7.7425566189
 20
27.2387915146
 11
7.7425566189
 21
25.989249117
  0
LINE
  5
23D
100
AcDbEntity
  8
0
100
AcDbLine
 62
7
  6
BYLAYER
 10
7.9856840149
 20
8.7248118211
 11
7.9856840149
 21
7.7517299724
  0
LINE
  5
23E
100
AcDbEntity
  8
0
100
AcDbLine
 62
7
  6
BYLAYER
 10
8.1830927928
 20
7.7475631085
 11
8.1830927928
 21
8.6626110419
  0
LINE
  5
23F
100
AcDbEntity
  8
0
100
AcDbLine
 62
7
  6
BYLAYER
 10
8.5249769359
 20
8.5548880708
 11
8.5249769359
 21
7.6336044523
  0
LINE
  5
240
100
AcDbEntity
  8
0
100
AcDbLine
 62
7
  6
BYLAYER
 10
8.6299331054
 20
7.5369854104
 11
8.6299331054
 21
8.5218178315
  0
LWPOLYLINE
  5
241
100
AcDbEntity
  8
0
100
AcDbPolyline
 62
7
  6
BYLAYER
 90
5
 70
0
 10
5.8335925195
 20
17.2432244123
 10
5.6995297388
 20
17.1539186895
 10
4.676387712
 20
16.072887893
 10
4.222106418
 20
14.8706332193
 10
4.3721980437
 20
13.6424740455
  0
LWPOLYLINE
  5
242
100
AcDbEntity
  8
0
100
AcDbPolyline
 62
7
  6
BYLAYER
 90
7
 70
0
 10
8.0443641162
 20
13.5128874198
 10
9.29679155
 20
12.9863447795
 10
10.7620757566
 20
12.6957851661
 10
12.3105716299
 20
12.6669166516
 10
13.8052716797
 20
12.9022934582
 10
15.1139281512
 20
13.3810899668
 10
15.6613692877
 20
13.6992828059
  0
LINE
  5
243
100
AcDbEntity
  8
0
100
AcDbLine
 62
7
  6
BYLAYER
 10
7.5659991712
 20
14.0479425365
 11
8.0195506717
 21
13.7860769686
  0
LINE
  5
244
100
AcDbEntity
  8
0
100
AcDbLine
 62
7
  6
BYLAYER
 10
8.6541827395
 20
8.5141771068
 11
8.6541827395
 21
7.2163557069
  0
LINE
  5
245
100
AcDbEntity
  8
0
100
AcDbLine
 62
7
  6
BYLAYER
 10
8.7748655691
 20
8.4761516141
 11
8.7748655691
 21
7.1153457073
  0
LINE
  5
246
100
AcDbEntity
  8
0
100
AcDbLine
 62
7
  6
BYLAYER
 10
8.9671498464
 20
8.4266591577
 11
8.9671498464
 21
7.0693628305
  0
LINE
  5
247
100
AcDbEntity
  8
0
100
AcDbLine
 62
7
  6
BYLAYER
 10
9.1761984146
 20
7.0915208383
 11
9.1761984146
 21
8.4004215181
  0
LINE
  5
248
100
AcDbEntity
  8
0
100
AcDbLine
 62
7
  6
BYLAYER
 10
9.586037567
 20
8.3489826967
 11
9.586037567
 21
7.308342516
  0
LWPOLYLINE
  5
249
100
AcDbEntity
  8
0
100
AcDbPolyline
 62
7
  6
BYLAYER
 90
5
 70
0
 10
7.5659991712
 20
15.027745437
 10
8.969056677
 20
14.429910932
 10
10.6149976483
 20
14.0974012113
 10
12.3575730069
 20
14.0597612228
 10
14.0419472848
 20
14.3203354447
  0
LINE
  5
24A
100
AcDbEntity
  8
0
100
AcDbLine
 62
7
  6
BYLAYER
 10
9.7785500167
 20
7.333822392
 11
9.7785500167
 21
8.3248205017
  0
LWPOLYLINE
  5
24B
100
AcDbEntity
  8
0
100
AcDbPolyline
 62
7
  6
BYLAYER
 90
6
 70
0
 10
15.7266772429
 20
19.0352509181
 10
15.6127817981
 20
18.9699500108
 10
13.9769280752
 20
18.457724658
 10
12.1576286104
 20
18.2316646228
 10
10.3016240512
 20
18.3100034048
 10
8.5586155963
 20
18.686422372
  0
LINE
  5
24C
100
AcDbEntity
  8
0
100
AcDbLine
 62
7
  6
BYLAYER
 10
8.5586155963
 20
18.686422372
 11
7.0691904299
 21
19.330560408
  0
LWPOLYLINE
  5
24D
100
AcDbEntity
  8
0
100
AcDbPolyline
 62
7
  6
BYLAYER
 90
5
 70
0
 10
14.0419472848
 20
14.3203354447
 10
15.5184564359
 20
14.855970714
 10
16.1367070863
 20
15.2129157627
 10
17.0644555554
 20
16.0653709919
 10
17.4902355368
 20
16.9242922661
  0
LINE
  5
24E
100
AcDbEntity
  8
0
100
AcDbLine
 62
7
  6
BYLAYER
 10
15.6625566189
 20
27.2387915146
 11
15.6625566189
 21
25.989249117
  0
LINE
  5
24F
100
AcDbEntity
  8
0
100
AcDbLine
 62
7
  6
BYLAYER
 10
15.3856568755
 20
13.7861314183
 11
15.8392199899
 21
14.0480036915
  0
LINE
  5
250
100
AcDbEntity
  8
0
100
AcDbLine
 62
7
  6
BYLAYER
 10
18.2882761574
 20
16.6300841057
 11
17.5525566189
 21
17.1980125811
  0
LWPOLYLINE
  5
251
100
AcDbEntity
  8
0
100
AcDbPolyline
 62
7
  6
BYLAYER
 90
3
 70
0
 10
15.8420284002
 20
14.0449667178
 10
15.6168462225
 20
13.8367318052
 10
15.4220539295
 20
13.7235113901
  0
LWPOLYLINE
  5
252
100
AcDbEntity
  8
0
100
AcDbPolyline
 62
7
  6
BYLAYER
 90
3
 70
0
 10
15.6613692877
 20
13.6992828059
 10
16.4818641733
 20
14.4580270483
 10
16.5553364883
 20
14.617767577
  0
LINE
  5
253
100
AcDbEntity
  8
0
100
AcDbLine
 62
7
  6
BYLAYER
 10
17.5525566189
 20
14.5582152772
 11
17.5525566189
 21
15.1297669692
  0
LINE
  5
254
100
AcDbEntity
  8
0
100
AcDbLine
 62
7
  6
BYLAYER
 10
17.5525566189
 20
16.4361708366
 11
17.5525566189
 21
17.1688164968
  0
LINE
  5
255
100
AcDbEntity
  8
0
100
AcDbLine
 62
7
  6
BYLAYER
 10
18.0525566189
 20
6.3931911059
 11
18.0525566189
 21
8.0261959402
  0
LINE
  5
256
100
AcDbEntity
  8
0
100
AcDbLine
 62
7
  6
BYLAYER
 10
18.0525566189
 20
9.0059988407
 11
18.0525566189
 21
9.8822393144
  0
LWPOLYLINE
  5
257
100
AcDbEntity
  8
0
100
AcDbPolyline
 62
7
  6
BYLAYER
 90
9
 70
0
 10
17.524374012
 20
7.6351765366
 10
17.5221640378
 20
7.4658106008
 10
16.9369144321
 20
6.4544424324
 10
15.8435067069
 20
5.5998154543
 10
14.351462891
 20
4.9824895191
 10
12.6043500335
 20
4.6599045432
 10
10.7643746708
 20
4.6632201883
 10
9.02499954
 20
4.9908550464
 10
7.5306443118
 20
5.6175556243
  0
LINE
  5
258
100
AcDbEntity
  8
0
100
AcDbLine
 62
7
  6
BYLAYER
 10
17.4902355368
 20
16.9242922661
 11
18.4041018356
 21
20.5099561546
  0
LWPOLYLINE
  5
259
100
AcDbEntity
  8
0
100
AcDbPolyline
 62
7
  6
BYLAYER
 90
5
 70
0
 10
17.7055834991
 20
11.9625118649
 10
18.7287255259
 20
13.0435426614
 10
19.1830068198
 20
14.2457973351
 10
19.0329151941
 20
15.4739565089
 10
18.2882761574
 20
16.6300841057
  0
LINE
  5
25A
100
AcDbEntity
  8
0
100
AcDbLine
 62
7
  6
BYLAYER
 10
9.586037567
 20
7.308342516
 11
9.1761984146
 21
7.0915208383
  0
LINE
  5
25B
100
AcDbEntity
  8
0
100
AcDbLine
 62
7
  6
BYLAYER
 10
7.9856840149
 20
7.7517299724
 11
7.4926099044
 21
7.603537394
  0
LINE
  5
25C
100
AcDbEntity
  8
0
100
AcDbLine
 62
7
  6
BYLAYER
 10
19.7025566189
 20
13.9866635852
 11
19.7025566189
 21
12.7619099595
  0
LINE
  5
25D
100
AcDbEntity
  8
0
100
AcDbLine
 62
7
  6
BYLAYER
 10
16.684175331
 20
6.7985492059
 11
16.6772975825
 21
6.7865857538
  0
LINE
  5
25E
100
AcDbEntity
  8
0
100
AcDbLine
 62
7
  6
BYLAYER
 10
16.2411936503
 20
8.2164013648
 11
15.5916601072
 21
7.6996524706
  0
LINE
  5
25F
100
AcDbEntity
  8
0
100
AcDbLine
 62
7
  6
BYLAYER
 10
15.6159475366
 20
25.8039346729
 11
17.4814390259
 21
23.7889468223
  0
LWPOLYLINE
  5
260
100
AcDbEntity
  8
0
100
AcDbPolyline
 62
7
  6
BYLAYER
 90
7
 70
0
 10
16.6772975825
 20
6.7865857538
 10
15.6430868923
 20
5.9739187346
 10
14.2255124343
 20
5.3847429446
 10
12.5624862783
 20
5.0763777382
 10
10.8157998401
 20
5.0788231506
 10
9.1553836236
 20
5.3918412742
 10
7.7427751305
 20
5.9849794036
  0
ARC
  5
261
100
AcDbEntity
  8
0
100
AcDbCircle
 62
7
  6
BYLAYER
 10
11.4308553342
 20
17.7967400171
 40
11.0066555335
100
AcDbArc
 50
256.0362704215
 51
257.065454345
  0
ARC
  5
262
100
AcDbEntity
  8
0
100
AcDbCircle
 62
7
  6
BYLAYER
 10
11.1589009124
 20
16.1053845053
 40
8.8717874535
100
AcDbArc
 50
250.4016819637
 51
252.7292389328
  0
ARC
  5
263
100
AcDbEntity
  8
0
100
AcDbCircle
 62
7
  6
BYLAYER
 10
10.5999326058
 20
15.3287099906
 40
8.3990122482
100
AcDbArc
 50
245.4903566381
 51
246.7223555581
  0
ARC
  5
264
100
AcDbEntity
  8
0
100
AcDbCircle
 62
7
  6
BYLAYER
 10
13.8128292125
 20
11.2586899478
 40
7.105511992
100
AcDbArc
 50
57.8801860459
 51
58.1347563928
  0
ARC
  5
265
100
AcDbEntity
  8
0
100
AcDbCircle
 62
7
  6
BYLAYER
 10
9.5922834542
 20
11.258690911
 40
7.1055108748
100
AcDbArc
 50
121.8652271741
 51
122.119803633
  0
ARC
  5
266
100
AcDbEntity
  8
0
100
AcDbCircle
 62
7
  6
BYLAYER
 10
10.0864928617
 20
23.8110956558
 40
6.3474952745
100
AcDbArc
 50
239.6540184408
 51
240.0010150576
  0
ARC
  5
267
100
AcDbEntity
  8
0
100
AcDbCircle
 62
7
  6
BYLAYER
 10
10.1086752562
 20
13.7476306039
 40
6.2863036515
100
AcDbArc
 50
238.5358169628
 51
240.7746832926
  0
ARC
  5
268
100
AcDbEntity
  8
0
100
AcDbCircle
 62
7
  6
BYLAYER
 10
10.1446405591
 20
24.6575492188
 40
6.1510327009
100
AcDbArc
 50
239.6543212366
 51
240.0007122618
  0
ARC
  5
269
100
AcDbEntity
  8
0
100
AcDbCircle
 62
7
  6
BYLAYER
 10
8.9708472719
 20
14.7559948592
 40
6.0137054617
100
AcDbArc
 50
232.3681416748
 51
232.5455705106
  0
ARC
  5
26A
100
AcDbEntity
  8
0
100
AcDbCircle
 62
7
  6
BYLAYER
 10
10.3094825107
 20
8.7569633785
 40
5.987094885
100
AcDbArc
 50
239.5906319982
 51
240.0007552306
  0
ARC
  5
26B
100
AcDbEntity
  8
0
100
AcDbCircle
 62
7
  6
BYLAYER
 10
10.1904174858
 20
8.9589971596
 40
5.9560796229
100
AcDbArc
 50
239.590685339
 51
240.0007728647
  0
ARC
  5
26C
100
AcDbEntity
  8
0
100
AcDbCircle
 62
7
  6
BYLAYER
 10
11.570631302
 20
30.9133320441
 40
5.9498691088
100
AcDbArc
 50
257.0359157503
 51
257.4501314801
  0
ARC
  5
26D
100
AcDbEntity
  8
0
100
AcDbCircle
 62
7
  6
BYLAYER
 10
9.2526133329
 20
12.9843172381
 40
5.6893740399
100
AcDbArc
 50
232.2437698419
 51
233.8406046166
  0
ARC
  5
26E
100
AcDbEntity
  8
0
100
AcDbCircle
 62
7
  6
BYLAYER
 10
10.2950046382
 20
10.405733327
 40
5.5288636922
100
AcDbArc
 50
239.5169702664
 51
240.0008558155
  0
ARC
  5
26F
100
AcDbEntity
  8
0
100
AcDbCircle
 62
7
  6
BYLAYER
 10
10.3665749571
 20
10.5296907811
 40
5.2477354197
100
AcDbArc
 50
239.5169702651
 51
240.0008558168
  0
ARC
  5
270
100
AcDbEntity
  8
0
100
AcDbCircle
 62
7
  6
BYLAYER
 10
10.4899796994
 20
18.0651613733
 40
4.941010314
100
AcDbArc
 50
240.001019356
 51
240.3487372719
  0
ARC
  5
271
100
AcDbEntity
  8
0
100
AcDbCircle
 62
7
  6
BYLAYER
 10
10.4872302755
 20
17.8014083345
 40
4.9354844451
100
AcDbArc
 50
240.000839393
 51
240.3329035951
  0
ARC
  5
272
100
AcDbEntity
  8
0
100
AcDbCircle
 62
7
  6
BYLAYER
 10
10.5008985288
 20
17.8927224905
 40
4.8799771722
100
AcDbArc
 50
240.000839393
 51
240.3329035951
  0
ARC
  5
273
100
AcDbEntity
  8
0
100
AcDbCircle
 62
7
  6
BYLAYER
 10
10.4993602121
 20
17.9180545842
 40
4.8768820082
100
AcDbArc
 50
240.0007142341
 51
240.3490423938
  0
ARC
  5
274
100
AcDbEntity
  8
0
100
AcDbCircle
 62
7
  6
BYLAYER
 10
10.4418378954
 20
17.790733778
 40
4.7621220443
100
AcDbArc
 50
238.6376966367
 51
240.0027088481
  0
ARC
  5
275
100
AcDbEntity
  8
0
100
AcDbCircle
 62
7
  6
BYLAYER
 10
10.4352053622
 20
17.8076585103
 40
4.7491987972
100
AcDbArc
 50
238.8580098641
 51
240.0050970083
  0
ARC
  5
276
100
AcDbEntity
  8
0
100
AcDbCircle
 62
7
  6
BYLAYER
 10
11.1328802644
 20
26.2168062409
 40
3.8396972803
100
AcDbArc
 50
119.421676187
 51
119.9993378636
  0
ARC
  5
277
100
AcDbEntity
  8
0
100
AcDbCircle
 62
7
  6
BYLAYER
 10
12.6168836744
 20
28.8886928947
 40
3.7718157824
100
AcDbArc
 50
299.421768145
 51
299.9985891384
  0
ARC
  5
278
100
AcDbEntity
  8
0
100
AcDbCircle
 62
7
  6
BYLAYER
 10
7.8237884413
 20
11.5259882656
 40
3.6402795115
100
AcDbArc
 50
214.5825397351
 51
216.7331349854
  0
ARC
  5
279
100
AcDbEntity
  8
0
100
AcDbCircle
 62
7
  6
BYLAYER
 10
15.205807521
 20
21.3280649431
 40
3.3012707421
100
AcDbArc
 50
345.6516690297
 51
359.9684757731
  0
ARC
  5
27A
100
AcDbEntity
  8
0
100
AcDbCircle
 62
7
  6
BYLAYER
 10
8.1993051233
 20
21.3280648682
 40
3.3012701485
100
AcDbArc
 50
180.031522933
 51
194.3483322642
  0
ARC
  5
27B
100
AcDbEntity
  8
0
100
AcDbCircle
 62
7
  6
BYLAYER
 10
12.4453321607
 20
29.6297880683
 40
3.0371749704
100
AcDbArc
 50
299.4209275561
 51
299.9994297269
  0
ARC
  5
27C
100
AcDbEntity
  8
0
100
AcDbCircle
 62
7
  6
BYLAYER
 10
10.9597810769
 20
26.9803242835
 40
3.0371749699
100
AcDbArc
 50
119.4209275561
 51
119.999429727
  0
ARC
  5
27D
100
AcDbEntity
  8
0
100
AcDbCircle
 62
7
  6
BYLAYER
 10
15.901690758
 20
8.0244575013
 40
2.1508596383
100
AcDbArc
 50
0.0463092656
 51
13.3597359337
  0
ARC
  5
27E
100
AcDbEntity
  8
0
100
AcDbCircle
 62
7
  6
BYLAYER
 10
7.5013702743
 20
8.0246229872
 40
2.1488073059
100
AcDbArc
 50
166.8963974066
 51
179.9580585625
  0
SPLINE
  5
27F
100
AcDbEntity
  8
0
100
AcDbSpline
 62
7
  6
BYLAYER
 70
0
 71
3
 72
35
 73
31
 74
0
 42
0.0000001
 43
0.0000001
 44
0.0000000001
 40
0.0
 40
0.0
 40
0.0
 40
0.0
 40
0.0306543217
 40
0.0623888447
 40
0.095110689
 40
0.1287338796
 40
0.1631719443
 40
0.1983231039
 40
0.2702776178
 40
0.3436320794
 40
0.417342376
 40
0.4903452088
 40
0.5262659668
 40
0.5616290215
 40
0.5963181474
 40
0.6302262711
 40
0.6632544811
 40
0.695318049
 40
0.7263435135
 40
0.7562760831
 40
0.7850776488
 40
0.812732713
 40
0.8392499302
 40
0.8646645876
 40
0.8890439016
 40
0.9124855096
 40
0.9351231515
 40
0.957121186
 40
0.9786747875
 40
1.0
 40
1.0
 40
1.0
 40
1.0
 10
14.5027111305
 20
24.3726157291
 30
0.0
 10
14.4327772329
 20
24.3322396155
 30
0.0
 10
14.2877412666
 20
24.2546748046
 30
0.0
 10
14.0600940595
 20
24.1497164636
 30
0.0
 10
13.8196878038
 20
24.0547083723
 30
0.0
 10
13.567895207
 20
23.9701674627
 30
0.0
 10
13.3060457992
 20
23.8965413003
 30
0.0
 10
12.942584731
 20
23.8127955526
 30
0.0
 10
12.4723807109
 20
23.738237136
 30
0.0
 10
11.896172496
 20
23.6975078425
 30
0.0
 10
11.3158295054
 20
23.7056705693
 30
0.0
 10
10.8364222567
 20
23.7533370249
 30
0.0
 10
10.4614214999
 20
23.8160043546
 30
0.0
 10
10.1883458166
 20
23.8744849335
 30
0.0
 10
9.9234516778
 20
23.9444034104
 30
0.0
 10
9.6681503389
 20
24.0253427424
 30
0.0
 10
9.423831936
 20
24.1169181176
 30
0.0
 10
9.191794722
 20
24.2185890459
 30
0.0
 10
8.9733022207
 20
24.3298581739
 30
0.0
 10
8.7695153162
 20
24.4501007888
 30
0.0
 10
8.5815367645
 20
24.5787010148
 30
0.0
 10
8.410380532
 20
24.7149810056
 30
0.0
 10
8.2569589009
 20
24.8582158199
 30
0.0
 10
8.1221382708
 20
25.0076898993
 30
0.0
 10
8.0066263345
 20
25.1625906167
 30
0.0
 10
7.9111405595
 20
25.3221542356
 30
0.0
 10
7.8361896086
 20
25.4854949811
 30
0.0
 10
7.7823096141
 20
25.6517691835
 30
0.0
 10
7.7498111785
 20
25.819985948
 30
0.0
 10
7.7425600701
 20
25.9330721369
 30
0.0
 10
7.7425637016
 20
25.9892490807
 30
0.0
  0
SPLINE
  5
280
100
AcDbEntity
  8
0
100
AcDbSpline
 62
7
  6
BYLAYER
 70
0
 71
3
 72
28
 73
24
 74
0
 42
0.0000001
 43
0.0000001
 44
0.0000000001
 40
0.0
 40
0.0
 40
0.0
 40
0.0
 40
0.0297271274
 40
0.0593794123
 40
0.0890258647
 40
0.1186475019
 40
0.1777194633
 40
0.2368429881
 40
0.2665521716
 40
0.2964211073
 40
0.3568272503
 40
0.3875025648
 40
0.4185297973
 40
0.4816713485
 40
0.5462271111
 40
0.6118957358
 40
0.6781852943
 40
0.7445004658
 40
0.8102471348
 40
0.8427508356
 40
0.8749287434
 40
0.9382154414
 40
1.0
 40
1.0
 40
1.0
 40
1.0
 10
15.6625566189
 20
27.2387915146
 30
0.0
 10
15.6625566189
 20
27.3181570065
 30
0.0
 10
15.6544110541
 20
27.4768091568
 30
0.0
 10
15.617980601
 20
27.7120748933
 30
0.0
 10
15.5580403159
 20
27.9422101365
 30
0.0
 10
15.4486016502
 20
28.2390555812
 30
0.0
 10
15.2588658984
 20
28.5879364217
 30
0.0
 10
15.0102509155
 20
28.8972547585
 30
0.0
 10
14.7832020821
 20
29.1187267013
 30
0.0
 10
14.5373068769
 20
29.3244376812
 30
0.0
 10
14.2677088672
 20
29.5043143605
 30
0.0
 10
13.9803455349
 20
29.6585693769
 30
0.0
 10
13.6775155726
 20
29.7982595129
 30
0.0
 10
13.2779201389
 20
29.9420961173
 30
0.0
 10
12.7757709427
 20
30.065496936
 30
0.0
 10
12.2557173975
 20
30.140615332
 30
0.0
 10
11.7262757863
 20
30.1671445245
 30
0.0
 10
11.1964513385
 20
30.1449687032
 30
0.0
 10
10.7603740355
 20
30.0857379794
 30
0.0
 10
10.4195479729
 20
30.0137599512
 30
0.0
 10
10.0891039282
 20
29.9264796089
 30
0.0
 10
9.6919683978
 20
29.7878199463
 30
0.0
 10
9.3903705017
 20
29.6423216063
 30
0.0
 10
9.2466930338
 20
29.5612901975
 30
0.0
  0
SPLINE
  5
281
100
AcDbEntity
  8
0
100
AcDbSpline
 62
7
  6
BYLAYER
 70
0
 71
3
 72
17
 73
13
 74
0
 42
0.0000001
 43
0.0000001
 44
0.0000000001
 40
0.0
 40
0.0
 40
0.0
 40
0.0
 40
0.1272864181
 40
0.2530134428
 40
0.3777297643
 40
0.501978727
 40
0.564088842
 40
0.6262295156
 40
0.6884180246
 40
0.7506832339
 40
0.8752342095
 40
1.0
 40
1.0
 40
1.0
 40
1.0
 10
9.2130700527
 20
29.5421038149
 30
0.0
 10
9.1078495445
 20
29.4813550888
 30
0.0
 10
8.9042849845
 20
29.3505277061
 30
0.0
 10
8.6225381306
 20
29.1244233504
 30
0.0
 10
8.3704100338
 20
28.8695853628
 30
0.0
 10
8.1888859421
 20
28.6334524047
 30
0.0
 10
8.0638244954
 20
28.4317154955
 30
0.0
 10
7.9806690452
 20
28.2742090583
 30
0.0
 10
7.9088281538
 20
28.1110561436
 30
0.0
 10
7.8291551007
 20
27.8869351723
 30
0.0
 10
7.760943021
 20
27.596249851
 30
0.0
 10
7.7425566189
 20
27.3578835101
 30
0.0
 10
7.7425566189
 20
27.2387915146
 30
0.0
  0
SPLINE
  5
282
100
AcDbEntity
  8
0
100
AcDbSpline
 62
7
  6
BYLAYER
 70
0
 71
3
 72
18
 73
14
 74
0
 42
0.0000001
 43
0.0000001
 44
0.0000000001
 40
0.0
 40
0.0
 40
0.0
 40
0.0
 40
0.0539111274
 40
0.1080799328
 40
0.1627585555
 40
0.2181883351
 40
0.2745924253
 40
0.3321753444
 40
0.4515046533
 40
0.5773812601
 40
0.7105653377
 40
0.8514742784
 40
1.0
 40
1.0
 40
1.0
 40
1.0
 10
15.6625495363
 20
25.9892491533
 30
0.0
 10
15.6625471168
 20
25.9518212615
 30
0.0
 10
15.6593445167
 20
25.8767481958
 30
0.0
 10
15.6449829841
 20
25.7645411513
 30
0.0
 10
15.6210769777
 20
25.652889666
 30
0.0
 10
15.5876912127
 20
25.542085214
 30
0.0
 10
15.5449339745
 20
25.4323840747
 30
0.0
 10
15.4747505037
 20
25.2862509768
 30
0.0
 10
15.3629797595
 20
25.1073313626
 30
0.0
 10
15.1953958231
 20
24.9041903933
 30
0.0
 10
14.9943841001
 20
24.7117757606
 30
0.0
 10
14.7619857643
 20
24.5319244434
 30
0.0
 10
14.5920108105
 20
24.4241726157
 30
0.0
 10
14.5027111305
 20
24.3726157291
 30
0.0
  0
SPLINE
  5
283
100
AcDbEntity
  8
0
100
AcDbSpline
 62
7
  6
BYLAYER
 70
0
 71
3
 72
47
 73
43
 74
0
 42
0.0000001
 43
0.0000001
 44
0.0000000001
 40
0.0
 40
0.0
 40
0.0
 40
0.0
 40
0.030980945
 40
0.0603825868
 40
0.0881782203
 40
0.1015035949
 40
0.1144655252
 40
0.1393770668
 40
0.1513988788
 40
0.1631737049
 40
0.1747440166
 40
0.1861559524
 40
0.1974590837
 40
0.2087057501
 40
0.2199492406
 40
0.231242943
 40
0.242639398
 40
0.2541884024
 40
0.2659364209
 40
0.2779263308
 40
0.3027619798
 40
0.3156823826
 40
0.3289647987
 40
0.3566663677
 40
0.38596011
 40
0.4168565413
 40
0.4493104177
 40
0.4832245807
 40
0.5184640579
 40
0.5548585549
 40
0.5922126767
 40
0.6303095199
 40
0.66891746
 40
0.707794724
 40
0.7466935726
 40
0.7853661246
 40
0.8235709741
 40
0.8610741186
 40
0.8976522895
 40
0.9331117215
 40
0.9672861445
 40
1.0
 40
1.0
 40
1.0
 40
1.0
 10
13.9638934664
 20
26.9995022736
 30
0.0
 10
14.03574271
 20
27.0409842061
 30
0.0
 10
14.1725348632
 20
27.127677245
 30
0.0
 10
14.3596415943
 20
27.2723048344
 30
0.0
 10
14.4965039571
 20
27.4030592142
 30
0.0
 10
14.5919915743
 20
27.5120667683
 30
0.0
 10
14.6758060621
 20
27.6206480985
 30
0.0
 10
14.747122753
 20
27.7342372212
 30
0.0
 10
14.8039896464
 20
27.8517358012
 30
0.0
 10
14.8387090647
 20
27.9399572922
 30
0.0
 10
14.8659170949
 20
28.0290705952
 30
0.0
 10
14.8855454342
 20
28.11886762
 30
0.0
 10
14.8975167676
 20
28.2091307047
 30
0.0
 10
14.9018144403
 20
28.2996322017
 30
0.0
 10
14.8984386706
 20
28.3901476628
 30
0.0
 10
14.8873838553
 20
28.4804521306
 30
0.0
 10
14.868667059
 20
28.5703175658
 30
0.0
 10
14.8423645199
 20
28.6595253302
 30
0.0
 10
14.8085418761
 20
28.7478658435
 30
0.0
 10
14.7528784429
 20
28.8655413785
 30
0.0
 10
14.6827164819
 20
28.9793836268
 30
0.0
 10
14.5999899453
 20
29.0882581877
 30
0.0
 10
14.5055994078
 20
29.1975877356
 30
0.0
 10
14.3700798941
 20
29.3287927868
 30
0.0
 10
14.1844352957
 20
29.4740801671
 30
0.0
 10
13.9753034558
 20
29.6081658754
 30
0.0
 10
13.7446433098
 20
29.7297622183
 30
0.0
 10
13.4946467956
 20
29.8378053773
 30
0.0
 10
13.2276562467
 20
29.9312498726
 30
0.0
 10
12.9462016396
 20
30.0092457491
 30
0.0
 10
12.6529446609
 20
30.0710507592
 30
0.0
 10
12.3506633512
 20
30.1160704773
 30
0.0
 10
12.0422289635
 20
30.1439044631
 30
0.0
 10
11.7305687661
 20
30.1542482784
 30
0.0
 10
11.418647246
 20
30.1470532154
 30
0.0
 10
11.1094261889
 20
30.1223408664
 30
0.0
 10
10.8058369582
 20
30.0803809098
 30
0.0
 10
10.5107678498
 20
30.0215480471
 30
0.0
 10
10.227007256
 20
29.9464217275
 30
0.0
 10
9.9572064744
 20
29.8556861577
 30
0.0
 10
9.7040036136
 20
29.7501804064
 30
0.0
 10
9.5441599772
 20
29.668843392
 30
0.0
 10
9.4678541086
 20
29.625808307
 30
0.0
  0
SPLINE
  5
284
100
AcDbEntity
  8
0
100
AcDbSpline
 62
7
  6
BYLAYER
 70
0
 71
3
 72
34
 73
30
 74
0
 42
0.0000001
 43
0.0000001
 44
0.0000000001
 40
0.0
 40
0.0
 40
0.0
 40
0.0
 40
0.0325298197
 40
0.0665613023
 40
0.1383415857
 40
0.2138834668
 40
0.2913953984
 40
0.368905262
 40
0.4444520702
 40
0.4809317494
 40
0.5162647266
 40
0.5502780004
 40
0.5828336359
 40
0.6138291845
 40
0.6432185349
 40
0.6710058232
 40
0.697271326
 40
0.7221673908
 40
0.745932939
 40
0.768887306
 40
0.7914162934
 40
0.813945688
 40
0.8369016442
 40
0.8606673202
 40
0.8855595736
 40
0.9118222219
 40
0.9396221321
 40
0.9690303099
 40
1.0
 40
1.0
 40
1.0
 40
1.0
 10
10.9954468938
 20
29.3368985732
 30
0.0
 10
11.0191196332
 20
29.3505659541
 30
0.0
 10
11.0687973461
 20
29.3764275754
 30
0.0
 10
11.1758053005
 20
29.4220732848
 30
0.0
 10
11.3220959441
 20
29.4665352908
 30
0.0
 10
11.5086806651
 20
29.4987653627
 30
0.0
 10
11.7025414744
 20
29.5096557086
 30
0.0
 10
11.8963784952
 20
29.498772541
 30
0.0
 10
12.0537394125
 20
29.4715961581
 30
0.0
 10
12.1732955489
 20
29.4390734673
 30
0.0
 10
12.2574370702
 20
29.4100767314
 30
0.0
 10
12.3362724638
 20
29.3764550055
 30
0.0
 10
12.4090694517
 20
29.3385528876
 30
0.0
 10
12.4751160515
 20
29.2966811951
 30
0.0
 10
12.5338099861
 20
29.2512666567
 30
0.0
 10
12.5845620019
 20
29.2026791691
 30
0.0
 10
12.6268959216
 20
29.1513806413
 30
0.0
 10
12.6603633701
 20
29.0978121255
 30
0.0
 10
12.6845810005
 20
29.042467202
 30
0.0
 10
12.6992715202
 20
28.9858917323
 30
0.0
 10
12.7041760039
 20
28.9286733441
 30
0.0
 10
12.6992786033
 20
28.8714524983
 30
0.0
 10
12.6845858743
 20
28.8148757653
 30
0.0
 10
12.6603761973
 20
28.7595296747
 30
0.0
 10
12.6269183645
 20
28.7059616837
 30
0.0
 10
12.5845894975
 20
28.654652279
 30
0.0
 10
12.5338113563
 20
28.6060550055
 30
0.0
 10
12.4751153919
 20
28.5606434469
 30
0.0
 10
12.4322037393
 20
28.5334289577
 30
0.0
 10
12.4096663441
 20
28.5204170642
 30
0.0
  0
SPLINE
  5
285
100
AcDbEntity
  8
0
100
AcDbSpline
 62
7
  6
BYLAYER
 70
0
 71
3
 72
47
 73
43
 74
0
 42
0.0000001
 43
0.0000001
 44
0.0000000001
 40
0.0
 40
0.0
 40
0.0
 40
0.0
 40
0.0327140526
 40
0.0668889354
 40
0.1023487531
 40
0.1389270653
 40
0.1764305107
 40
0.2146360604
 40
0.2533091598
 40
0.2922075516
 40
0.3310838228
 40
0.369690757
 40
0.4077866371
 40
0.4451398623
 40
0.481533626
 40
0.5167726373
 40
0.5506865437
 40
0.5831403744
 40
0.6140369374
 40
0.6433308837
 40
0.6710328062
 40
0.684315385
 40
0.6972359408
 40
0.722071952
 40
0.734061998
 40
0.7458101543
 40
0.7573592761
 40
0.7687557983
 40
0.7800495149
 40
0.7912929942
 40
0.8025396628
 40
0.8138428714
 40
0.82525498
 40
0.8368254942
 40
0.8486004953
 40
0.8606224069
 40
0.8855338854
 40
0.898495723
 40
0.9118210087
 40
0.9396166855
 40
0.9690188016
 40
1.0
 40
1.0
 40
1.0
 40
1.0
 10
13.9372591292
 20
26.9843040442
 30
0.0
 10
13.8609528331
 20
26.9412687181
 30
0.0
 10
13.7011075583
 20
26.8599312301
 30
0.0
 10
13.4479024667
 20
26.754423863
 30
0.0
 10
13.1780991211
 20
26.6636879736
 30
0.0
 10
12.8943365724
 20
26.5885608479
 30
0.0
 10
12.5992643642
 20
26.529728454
 30
0.0
 10
12.2956710646
 20
26.487768575
 30
0.0
 10
11.9864479434
 20
26.4630571986
 30
0.0
 10
11.6745289638
 20
26.4558622526
 30
0.0
 10
11.3628755222
 20
26.4662073296
 30
0.0
 10
11.0544491804
 20
26.4940405758
 30
0.0
 10
10.7521756374
 20
26.5390593425
 30
0.0
 10
10.4589253406
 20
26.6008617853
 30
0.0
 10
10.1774762809
 20
26.6788561159
 30
0.0
 10
9.9104888094
 20
26.772297202
 30
0.0
 10
9.660493959
 20
26.8803387594
 30
0.0
 10
9.4298333912
 20
27.001932995
 30
0.0
 10
9.2206997621
 20
27.136017226
 30
0.0
 10
9.0350530711
 20
27.2813047186
 30
0.0
 10
8.8995304132
 20
27.4125091396
 30
0.0
 10
8.805137637
 20
27.5218390917
 30
0.0
 10
8.7224098148
 20
27.6307148401
 30
0.0
 10
8.652244481
 20
27.7445570123
 30
0.0
 10
8.5965800882
 20
27.8622339568
 30
0.0
 10
8.5627563061
 20
27.9505750848
 30
0.0
 10
8.5364522455
 20
28.0397832587
 30
0.0
 10
8.5177343162
 20
28.1296489815
 30
0.0
 10
8.5066789045
 20
28.2199535169
 30
0.0
 10
8.5033015773
 20
28.3104688735
 30
0.0
 10
8.5075978991
 20
28.4009706126
 30
0.0
 10
8.5195692457
 20
28.4912343557
 30
0.0
 10
8.539197358
 20
28.5810326092
 30
0.0
 10
8.5664047248
 20
28.6701476062
 30
0.0
 10
8.6011235509
 20
28.7583706749
 30
0.0
 10
8.6579899079
 20
28.8758700857
 30
0.0
 10
8.7293055059
 20
28.9894596634
 30
0.0
 10
8.8131192052
 20
29.0980407088
 30
0.0
 10
8.908605831
 20
29.2070485405
 30
0.0
 10
9.0454682111
 20
29.3378045175
 30
0.0
 10
9.232576665
 20
29.4824331004
 30
0.0
 10
9.3693699705
 20
29.5691278234
 30
0.0
 10
9.4412197715
 20
29.6106100777
 30
0.0
  0
SPLINE
  5
286
100
AcDbEntity
  8
0
100
AcDbSpline
 62
7
  6
BYLAYER
 70
0
 71
3
 72
17
 73
13
 74
0
 42
0.0000001
 43
0.0000001
 44
0.0000000001
 40
0.0
 40
0.0
 40
0.0
 40
0.0
 40
0.1485378579
 40
0.2894556824
 40
0.4226493633
 40
0.5485364386
 40
0.6678762533
 40
0.7817922776
 40
0.8372276698
 40
0.8919113233
 40
0.9460846527
 40
1.0
 40
1.0
 40
1.0
 40
1.0
 10
14.5027111305
 20
25.6221581708
 30
0.0
 10
14.5920108026
 20
25.6737150528
 30
0.0
 10
14.7619845667
 20
25.7814643337
 30
0.0
 10
14.9943810268
 20
25.9613176667
 30
0.0
 10
15.195388806
 20
26.1537195246
 30
0.0
 10
15.3629840962
 20
26.3568931471
 30
0.0
 10
15.4955115275
 20
26.5689782411
 30
0.0
 10
15.5761731799
 20
26.7533756759
 30
0.0
 10
15.621076615
 20
26.9024281533
 30
0.0
 10
15.6449849931
 20
27.0140843079
 30
0.0
 10
15.6593468984
 20
27.1262905919
 30
0.0
 10
15.6625501072
 20
27.2013637989
 30
0.0
 10
15.6625525229
 20
27.2387915588
 30
0.0
  0
SPLINE
  5
287
100
AcDbEntity
  8
0
100
AcDbSpline
 62
7
  6
BYLAYER
 70
0
 71
3
 72
34
 73
30
 74
0
 42
0.0000001
 43
0.0000001
 44
0.0000000001
 40
0.0
 40
0.0
 40
0.0
 40
0.0
 40
0.0309697991
 40
0.0603779256
 40
0.0881771381
 40
0.1144385844
 40
0.139329655
 40
0.1630942949
 40
0.1860489895
 40
0.2085772217
 40
0.2311050766
 40
0.254058593
 40
0.2778231341
 40
0.3027187039
 40
0.3289833753
 40
0.3567702811
 40
0.3861589996
 40
0.4171539888
 40
0.4497092641
 40
0.4837218624
 40
0.519054593
 40
0.5555337293
 40
0.631080609
 40
0.7085919149
 40
0.7861069037
 40
0.8616518422
 40
0.933436516
 40
0.9674696167
 40
1.0
 40
1.0
 40
1.0
 40
1.0
 10
10.9954468938
 20
29.3368985732
 30
0.0
 10
10.9729094629
 20
29.3238866591
 30
0.0
 10
10.9299979552
 20
29.2966720232
 30
0.0
 10
10.8713026896
 20
29.2512606819
 30
0.0
 10
10.8205258237
 20
29.2026646854
 30
0.0
 10
10.7781986031
 20
29.1513573708
 30
0.0
 10
10.7447430731
 20
29.0977916338
 30
0.0
 10
10.7205320979
 20
29.0424494224
 30
0.0
 10
10.7058403489
 20
28.9858755592
 30
0.0
 10
10.700940094
 20
28.9286582651
 30
0.0
 10
10.7058412673
 20
28.8714422047
 30
0.0
 10
10.7205298032
 20
28.8148691382
 30
0.0
 10
10.7447405138
 20
28.759523377
 30
0.0
 10
10.7782074887
 20
28.7059569853
 30
0.0
 10
10.8205349162
 20
28.6546552623
 30
0.0
 10
10.8712857631
 20
28.6060687763
 30
0.0
 10
10.9299753899
 20
28.5606512906
 30
0.0
 10
10.9960196403
 20
28.5187783684
 30
0.0
 10
11.0688143024
 20
28.4808752002
 30
0.0
 10
11.1476469321
 20
28.4472500423
 30
0.0
 10
11.2317870547
 20
28.4182535395
 30
0.0
 10
11.3513408382
 20
28.3857255878
 30
0.0
 10
11.5087020854
 20
28.3585471032
 30
0.0
 10
11.7025422959
 20
28.3476597962
 30
0.0
 10
11.8964092366
 20
28.3585482404
 30
0.0
 10
12.0830029023
 20
28.3907763918
 30
0.0
 10
12.2293008523
 20
28.4352399495
 30
0.0
 10
12.3363137912
 20
28.480887431
 30
0.0
 10
12.3859932404
 20
28.506749473
 30
0.0
 10
12.4096663441
 20
28.5204170642
 30
0.0
  0
SPLINE
  5
288
100
AcDbEntity
  8
0
100
AcDbSpline
 62
7
  6
BYLAYER
 70
0
 71
3
 72
23
 73
19
 74
0
 42
0.0000001
 43
0.0000001
 44
0.0000000001
 40
0.0
 40
0.0
 40
0.0
 40
0.0
 40
0.048495709
 40
0.0975226137
 40
0.1475824622
 40
0.1991271033
 40
0.2525360608
 40
0.3081163484
 40
0.3660899321
 40
0.4266084131
 40
0.4897471335
 40
0.5555218343
 40
0.6238892554
 40
0.694756845
 40
0.7679905625
 40
0.8434157286
 40
0.9208302607
 40
1.0
 40
1.0
 40
1.0
 40
1.0
 10
7.742560715
 20
27.2387915586
 30
0.0
 10
7.7425570483
 20
27.1819802716
 30
0.0
 10
7.7499770488
 20
27.067600611
 30
0.0
 10
7.7832143543
 20
26.8974922617
 30
0.0
 10
7.8383219803
 20
26.7293971631
 30
0.0
 10
7.9149598963
 20
26.5643357724
 30
0.0
 10
8.0125787071
 20
26.4031829112
 30
0.0
 10
8.1306399696
 20
26.2468501872
 30
0.0
 10
8.2683954296
 20
26.096122516
 30
0.0
 10
8.4251112886
 20
25.9518448694
 30
0.0
 10
8.5998739116
 20
25.8147403745
 30
0.0
 10
8.7917433389
 20
25.6855734894
 30
0.0
 10
8.9996481784
 20
25.5650177128
 30
0.0
 10
9.222451239
 20
25.4537293005
 30
0.0
 10
9.4589297777
 20
25.3523230743
 30
0.0
 10
9.7077782603
 20
25.2613269187
 30
0.0
 10
9.9676298906
 20
25.1812774664
 30
0.0
 10
10.1454553506
 20
25.1359265354
 30
0.0
 10
10.2358363085
 20
25.1151198422
 30
0.0
  0
SPLINE
  5
289
100
AcDbEntity
  8
0
100
AcDbSpline
 62
7
  6
BYLAYER
 70
0
 71
3
 72
17
 73
13
 74
0
 42
0.0000001
 43
0.0000001
 44
0.0000000001
 40
0.0
 40
0.0
 40
0.0
 40
0.0
 40
0.1273089362
 40
0.2573757783
 40
0.388468886
 40
0.5188136193
 40
0.6466698374
 40
0.7703911428
 40
0.8302575534
 40
0.8885817877
 40
0.9452158469
 40
1.0
 40
1.0
 40
1.0
 40
1.0
 10
10.2777885839
 20
25.1056216416
 30
0.0
 10
10.4562063095
 20
25.06590285
 30
0.0
 10
10.8207390386
 20
25.0020172368
 30
0.0
 10
11.3768982442
 20
24.9525339708
 30
0.0
 10
11.9396321419
 20
24.9489038593
 30
0.0
 10
12.4976095605
 20
24.9912086038
 30
0.0
 10
13.039610818
 20
25.0786051947
 30
0.0
 10
13.4737220181
 20
25.188741909
 30
0.0
 10
13.8033865819
 20
25.2984816844
 30
0.0
 10
14.0373341793
 20
25.3897653676
 30
0.0
 10
14.2594054682
 20
25.4904365608
 30
0.0
 10
14.4012184234
 20
25.5646990536
 30
0.0
 10
14.4697305246
 20
25.6033385993
 30
0.0
  0
SPLINE
  5
28A
100
AcDbEntity
  8
0
100
AcDbSpline
 62
7
  6
BYLAYER
 70
0
 71
3
 72
15
 73
11
 74
0
 42
0.0000001
 43
0.0000001
 44
0.0000000001
 40
0.0
 40
0.0
 40
0.0
 40
0.0
 40
0.1240745916
 40
0.2479239992
 40
0.37200645
 40
0.4963907208
 40
0.6211279039
 40
0.7464337075
 40
0.8725648241
 40
1.0
 40
1.0
 40
1.0
 40
1.0
 10
4.8980354744
 20
21.3262485789
 30
0.0
 10
4.8980354744
 20
21.439195669
 30
0.0
 10
4.909750971
 20
21.6650594351
 30
0.0
 10
4.9621514813
 20
22.0001968594
 30
0.0
 10
5.0483206335
 20
22.3285759715
 30
0.0
 10
5.166531133
 20
22.6476478203
 30
0.0
 10
5.3151370115
 20
22.954942772
 30
0.0
 10
5.4917324324
 20
23.2488566304
 30
0.0
 10
5.6944135295
 20
23.5283929713
 30
0.0
 10
5.844864024
 20
23.7038209602
 30
0.0
 10
5.9236742112
 20
23.7889468215
 30
0.0
  0
SPLINE
  5
28B
100
AcDbEntity
  8
0
100
AcDbSpline
 62
7
  6
BYLAYER
 70
0
 71
3
 72
19
 73
15
 74
0
 42
0.0000001
 43
0.0000001
 44
0.0000000001
 40
0.0
 40
0.0
 40
0.0
 40
0.0
 40
0.053908628
 40
0.1080753078
 40
0.1627527602
 40
0.2181814442
 40
0.2745841158
 40
0.3321653885
 40
0.4514858718
 40
0.5773668182
 40
0.7105470106
 40
0.7800271536
 40
0.8514405635
 40
1.0
 40
1.0
 40
1.0
 40
1.0
 10
17.5525524258
 20
16.4361708367
 30
0.0
 10
17.5525499319
 20
16.3808811464
 30
0.0
 10
17.5478207882
 20
16.2699802767
 30
0.0
 10
17.526603548
 20
16.1042225947
 30
0.0
 10
17.4912801323
 20
15.9392860193
 30
0.0
 10
17.4419666052
 20
15.7755966727
 30
0.0
 10
17.3788075021
 20
15.6135366333
 30
0.0
 10
17.2751172916
 20
15.3976724875
 30
0.0
 10
17.1100334348
 20
15.1333366861
 30
0.0
 10
16.8624422655
 20
14.8332766079
 30
0.0
 10
16.6185006273
 20
14.5997494736
 30
0.0
 10
16.4009108173
 20
14.4216428476
 30
0.0
 10
16.1620681527
 20
14.2451699651
 30
0.0
 10
15.9711658574
 20
14.1241911147
 30
0.0
 10
15.8392145637
 20
14.0480068241
 30
0.0
  0
SPLINE
  5
28C
100
AcDbEntity
  8
0
100
AcDbSpline
 62
7
  6
BYLAYER
 70
0
 71
3
 72
11
 73
7
 74
0
 42
0.0000001
 43
0.0000001
 44
0.0000000001
 40
0.0
 40
0.0
 40
0.0
 40
0.0
 40
0.2467196915
 40
0.4947741799
 40
0.7454576695
 40
1.0
 40
1.0
 40
1.0
 40
1.0
 10
17.5525524258
 20
15.1297669693
 30
0.0
 10
17.5525550752
 20
15.1885031094
 30
0.0
 10
17.5472222559
 20
15.3063618877
 30
0.0
 10
17.5232400422
 20
15.4824333853
 30
0.0
 10
17.4833901319
 20
15.6575092051
 30
0.0
 10
17.446633135
 20
15.7722112463
 30
0.0
 10
17.4257737124
 20
15.829106397
 30
0.0
  0
SPLINE
  5
28D
100
AcDbEntity
  8
0
100
AcDbSpline
 62
7
  6
BYLAYER
 70
0
 71
3
 72
39
 73
35
 74
0
 42
0.0000001
 43
0.0000001
 44
0.0000000001
 40
0.0
 40
0.0
 40
0.0
 40
0.0
 40
0.0213238012
 40
0.0428758355
 40
0.0648726901
 40
0.0875085533
 40
0.1109490466
 40
0.1353263971
 40
0.1607398277
 40
0.1872550855
 40
0.2149086018
 40
0.2437082878
 40
0.2736388939
 40
0.3046624574
 40
0.3367236884
 40
0.3697497538
 40
0.4036553053
 40
0.4383418351
 40
0.473702201
 40
0.5096199255
 40
0.5459730929
 40
0.5826339308
 40
0.6194720219
 40
0.6563545149
 40
0.6931483378
 40
0.7297210768
 40
0.7659427992
 40
0.8016885126
 40
0.836837482
 40
0.8712750012
 40
0.9048955982
 40
0.9376124321
 40
0.9693439519
 40
1.0
 40
1.0
 40
1.0
 40
1.0
 10
17.5525502419
 20
14.5582152846
 30
0.0
 10
17.5525463956
 20
14.4752266498
 30
0.0
 10
17.5418400825
 20
14.3081692744
 30
0.0
 10
17.4938428043
 20
14.0596627638
 30
0.0
 10
17.4142256212
 20
13.814039147
 30
0.0
 10
17.3035293734
 20
13.5727259947
 30
0.0
 10
17.1624431071
 20
13.3370243628
 30
0.0
 10
16.991824874
 20
13.1081737633
 30
0.0
 10
16.7926379313
 20
12.8873776408
 30
0.0
 10
16.5660058327
 20
12.6757645023
 30
0.0
 10
16.3131520192
 20
12.4744520438
 30
0.0
 10
16.0354594738
 20
12.2844689374
 30
0.0
 10
15.7344097741
 20
12.106837227
 30
0.0
 10
15.4116343976
 20
11.9424682842
 30
0.0
 10
15.0688561488
 20
11.792263806
 30
0.0
 10
14.7079289461
 20
11.6569938068
 30
0.0
 10
14.3307853979
 20
11.53741469
 30
0.0
 10
13.9394648295
 20
11.4341337175
 30
0.0
 10
13.5360690581
 20
11.3477417995
 30
0.0
 10
13.122779122
 20
11.2786670027
 30
0.0
 10
12.7018202683
 20
11.2273201051
 30
0.0
 10
12.2754677187
 20
11.1939381641
 30
0.0
 10
11.8460209236
 20
11.1787425033
 30
0.0
 10
11.4157989192
 20
11.1817730769
 30
0.0
 10
10.9871261474
 20
11.2030575304
 30
0.0
 10
10.5623155528
 20
11.2424341537
 30
0.0
 10
10.1436626796
 20
11.299737554
 30
0.0
 10
9.7334188344
 20
11.374614078
 30
0.0
 10
9.3338096506
 20
11.4667094668
 30
0.0
 10
8.9469841719
 20
11.5754662307
 30
0.0
 10
8.5750230331
 20
11.7003578357
 30
0.0
 10
8.2198887865
 20
11.8406938126
 30
0.0
 10
7.8835890335
 20
11.9957406517
 30
0.0
 10
7.6693236571
 20
12.1103339068
 30
0.0
 10
7.5659991712
 20
12.1699869771
 30
0.0
  0
SPLINE
  5
28E
100
AcDbEntity
  8
0
100
AcDbSpline
 62
7
  6
BYLAYER
 70
0
 71
3
 72
17
 73
13
 74
0
 42
0.0000001
 43
0.0000001
 44
0.0000000001
 40
0.0
 40
0.0
 40
0.0
 40
0.0
 40
0.1485525511
 40
0.289455851
 40
0.4226463875
 40
0.5485396452
 40
0.667877169
 40
0.7817925569
 40
0.8372270837
 40
0.8919111813
 40
0.94608496
 40
1.0
 40
1.0
 40
1.0
 40
1.0
 10
7.5659991712
 20
12.1699869771
 30
0.0
 10
7.4340638531
 20
12.2461581453
 30
0.0
 10
7.1829549068
 20
12.4053237342
 30
0.0
 10
6.8396498845
 20
12.6710316531
 30
0.0
 10
6.5427088934
 20
12.955252648
 30
0.0
 10
6.2951072012
 20
13.2553910746
 30
0.0
 10
6.0993456137
 20
13.5687171281
 30
0.0
 10
5.980154449
 20
13.8411093063
 30
0.0
 10
5.9138430246
 20
14.061310325
 30
0.0
 10
5.8785253382
 20
14.2262583949
 30
0.0
 10
5.8572825428
 20
14.3920174257
 30
0.0
 10
5.8525604334
 20
14.502923843
 30
0.0
 10
5.8525629959
 20
14.5582152699
 30
0.0
  0
SPLINE
  5
28F
100
AcDbEntity
  8
0
100
AcDbSpline
 62
7
  6
BYLAYER
 70
0
 71
3
 72
17
 73
13
 74
0
 42
0.0000001
 43
0.0000001
 44
0.0000000001
 40
0.0
 40
0.0
 40
0.0
 40
0.0
 40
0.1485524341
 40
0.2894553588
 40
0.4226456821
 40
0.548538939
 40
0.6678768316
 40
0.7817928497
 40
0.8372274585
 40
0.8919114701
 40
0.9460850954
 40
1.0
 40
1.0
 40
1.0
 40
1.0
 10
7.5659991712
 20
14.0479425365
 30
0.0
 10
7.4340639125
 20
14.1241136704
 30
0.0
 10
7.1829552293
 20
14.2832789128
 30
0.0
 10
6.8396506236
 20
14.5489864354
 30
0.0
 10
6.542709791
 20
14.8332068701
 30
0.0
 10
6.2951071605
 20
15.1333449257
 30
0.0
 10
6.099345089
 20
15.4466720499
 30
0.0
 10
5.9801530278
 20
15.7190651283
 30
0.0
 10
5.9138409952
 20
15.939266722
 30
0.0
 10
5.8785232313
 20
16.104214673
 30
0.0
 10
5.8572804743
 20
16.2699733779
 30
0.0
 10
5.8525583181
 20
16.3808795299
 30
0.0
 10
5.852560812
 20
16.4361708366
 30
0.0
  0
SPLINE
  5
290
100
AcDbEntity
  8
0
100
AcDbSpline
 62
7
  6
BYLAYER
 70
0
 71
3
 72
15
 73
11
 74
0
 42
0.0000001
 43
0.0000001
 44
0.0000000001
 40
0.0
 40
0.0
 40
0.0
 40
0.0
 40
0.1274355157
 40
0.2535656811
 40
0.3788709907
 40
0.5036079801
 40
0.6279918111
 40
0.7520735776
 40
0.8759249007
 40
1.0
 40
1.0
 40
1.0
 40
1.0
 10
17.4814390266
 20
23.7889468215
 30
0.0
 10
17.5602494244
 20
23.7038207328
 30
0.0
 10
17.7106997392
 20
23.52839331
 30
0.0
 10
17.9133799378
 20
23.2488575674
 30
0.0
 10
18.089974955
 20
22.9549452185
 30
0.0
 10
18.2385804104
 20
22.6476511912
 30
0.0
 10
18.3567911666
 20
22.3285807811
 30
0.0
 10
18.4429620055
 20
22.0002012793
 30
0.0
 10
18.4953607864
 20
21.6650619894
 30
0.0
 10
18.5070777634
 20
21.4391961316
 30
0.0
 10
18.5070777634
 20
21.3262485789
 30
0.0
  0
SPLINE
  5
291
100
AcDbEntity
  8
0
100
AcDbSpline
 62
7
  6
BYLAYER
 70
0
 71
3
 72
23
 73
19
 74
0
 42
0.0000001
 43
0.0000001
 44
0.0000000001
 40
0.0
 40
0.0
 40
0.0
 40
0.0
 40
0.0552863491
 40
0.1131551873
 40
0.1733754304
 40
0.2356556015
 40
0.2996552352
 40
0.3649943593
 40
0.4312655997
 40
0.4980423446
 40
0.564887601
 40
0.6313634311
 40
0.6970386123
 40
0.7614998946
 40
0.8243558882
 40
0.8852505576
 40
0.9438941561
 40
1.0
 40
1.0
 40
1.0
 40
1.0
 10
15.4316158032
 20
13.718252876
 30
0.0
 10
15.3111725755
 20
13.645251898
 30
0.0
 10
15.0578428739
 20
13.5068709935
 30
0.0
 10
14.6542364631
 20
13.3265299751
 30
0.0
 10
14.2217905169
 20
13.1701005662
 30
0.0
 10
13.7647486859
 20
13.0391156564
 30
0.0
 10
13.2875479697
 20
12.9348559272
 30
0.0
 10
12.794852774
 20
12.8583199464
 30
0.0
 10
12.2914753374
 20
12.8102523892
 30
0.0
 10
11.7823362367
 20
12.7911419023
 30
0.0
 10
11.2724170025
 20
12.8011585301
 30
0.0
 10
10.7667055687
 20
12.8402020699
 30
0.0
 10
10.2701466252
 20
12.9079082737
 30
0.0
 10
9.7875949421
 20
13.0036061459
 30
0.0
 10
9.3237686192
 20
13.1263496604
 30
0.0
 10
8.8831439202
 20
13.2749760296
 30
0.0
 10
8.4701076778
 20
13.4480398172
 30
0.0
 10
8.2096973868
 20
13.5816890421
 30
0.0
 10
8.0855062356
 20
13.6524327279
 30
0.0
  0
SPLINE
  5
292
100
AcDbEntity
  8
0
100
AcDbSpline
 62
7
  6
BYLAYER
 70
0
 71
3
 72
38
 73
34
 74
0
 42
0.0000001
 43
0.0000001
 44
0.0000000001
 40
0.0
 40
0.0
 40
0.0
 40
0.0
 40
0.0300015949
 40
0.0609944119
 40
0.0929015671
 40
0.1256541932
 40
0.1591797847
 40
0.1933901591
 40
0.2281887694
 40
0.2634736565
 40
0.2991389062
 40
0.3350742522
 40
0.3711666494
 40
0.4073017853
 40
0.4433646974
 40
0.4792414872
 40
0.5148195776
 40
0.5499897938
 40
0.5846465752
 40
0.6186900209
 40
0.6520264494
 40
0.6845701856
 40
0.7162448283
 40
0.7469845972
 40
0.7767365992
 40
0.8054616773
 40
0.833137827
 40
0.859760576
 40
0.9098946584
 40
0.9335541487
 40
0.956374129
 40
0.9784744271
 40
1.0
 40
1.0
 40
1.0
 40
1.0
 10
6.9128426119
 20
18.3139472722
 30
0.0
 10
7.024945309
 20
18.249226214
 30
0.0
 10
7.2569059717
 20
18.124558219
 30
0.0
 10
7.6201601577
 20
17.9546781053
 30
0.0
 10
8.002847162
 20
17.7996821919
 30
0.0
 10
8.4030602384
 20
17.6602892001
 30
0.0
 10
8.8189407145
 20
17.5371744498
 30
0.0
 10
9.2485214825
 20
17.4308673798
 30
0.0
 10
9.6897695255
 20
17.341925479
 30
0.0
 10
10.1405765235
 20
17.270730981
 30
0.0
 10
10.5988076419
 20
17.2176561834
 30
0.0
 10
11.0622833982
 20
17.1829189137
 30
0.0
 10
11.5288036212
 20
17.1667152251
 30
0.0
 10
11.9961489635
 20
17.169096282
 30
0.0
 10
12.46209903
 20
17.1900722698
 30
0.0
 10
12.9244391091
 20
17.2295259055
 30
0.0
 10
13.3809721923
 20
17.287283011
 30
0.0
 10
13.829529106
 20
17.3630606554
 30
0.0
 10
14.2679798917
 20
17.4565032569
 30
0.0
 10
14.6942417779
 20
17.5671684308
 30
0.0
 10
15.1062943155
 20
17.6945267189
 30
0.0
 10
15.5021795179
 20
17.8379862773
 30
0.0
 10
15.8800272
 20
17.9968553692
 30
0.0
 10
16.2380383467
 20
18.1704055648
 30
0.0
 10
16.5745333731
 20
18.3578018277
 30
0.0
 10
16.8878909101
 20
18.5581850982
 30
0.0
 10
17.1766923477
 20
18.7706369384
 30
0.0
 10
17.5200975283
 20
19.062696165
 30
0.0
 10
17.8183397601
 20
19.3802389309
 30
0.0
 10
18.0600290753
 20
19.7205088778
 30
0.0
 10
18.207552372
 20
19.9775977362
 30
0.0
 10
18.3240320655
 20
20.2401135191
 30
0.0
 10
18.3811571785
 20
20.4199599759
 30
0.0
 10
18.4040945763
 20
20.5099567749
 30
0.0
  0
SPLINE
  5
293
100
AcDbEntity
  8
0
100
AcDbSpline
 62
7
  6
BYLAYER
 70
0
 71
3
 72
17
 73
13
 74
0
 42
0.0000001
 43
0.0000001
 44
0.0000000001
 40
0.0
 40
0.0
 40
0.0
 40
0.0
 40
0.0539149046
 40
0.1080885299
 40
0.1627725415
 40
0.2182071503
 40
0.3321231684
 40
0.451461061
 40
0.5773543179
 40
0.7105446412
 40
0.8514475659
 40
1.0
 40
1.0
 40
1.0
 40
1.0
 10
5.852560812
 20
15.1297669691
 30
0.0
 10
5.8525583181
 20
15.0744756625
 30
0.0
 10
5.8572804743
 20
14.9635695105
 30
0.0
 10
5.8785232313
 20
14.7978108056
 30
0.0
 10
5.9138409952
 20
14.6328628546
 30
0.0
 10
5.9801530278
 20
14.4126612609
 30
0.0
 10
6.099345089
 20
14.1402681825
 30
0.0
 10
6.2951071605
 20
13.8269410583
 30
0.0
 10
6.542709791
 20
13.5268030027
 30
0.0
 10
6.8396506236
 20
13.2425825679
 30
0.0
 10
7.1829552293
 20
12.9768750454
 30
0.0
 10
7.4340639125
 20
12.817709803
 30
0.0
 10
7.5659991712
 20
12.7415386691
 30
0.0
  0
SPLINE
  5
294
100
AcDbEntity
  8
0
100
AcDbSpline
 62
7
  6
BYLAYER
 70
0
 71
3
 72
15
 73
11
 74
0
 42
0.0000001
 43
0.0000001
 44
0.0000000001
 40
0.0
 40
0.0
 40
0.0
 40
0.0
 40
0.1082947267
 40
0.220020294
 40
0.3360976314
 40
0.4572446976
 40
0.5839667869
 40
0.7166031983
 40
0.8553237006
 40
1.0
 40
1.0
 40
1.0
 40
1.0
 10
5.0010188203
 20
20.5099567883
 30
0.0
 10
5.0273107146
 20
20.4067922089
 30
0.0
 10
5.0947723982
 20
20.2005401657
 30
0.0
 10
5.2361532114
 20
19.9010695458
 30
0.0
 10
5.417948685
 20
19.6093036947
 30
0.0
 10
5.6388899836
 20
19.327095127
 30
0.0
 10
5.8975146799
 20
19.0560865146
 30
0.0
 10
6.1922115667
 20
18.7978669188
 30
0.0
 10
6.52109062
 20
18.5540646884
 30
0.0
 10
6.7568677127
 20
18.4051251902
 30
0.0
 10
6.8796090028
 20
18.3332683333
 30
0.0
  0
SPLINE
  5
295
100
AcDbEntity
  8
0
100
AcDbSpline
 62
7
  6
BYLAYER
 70
0
 71
3
 72
39
 73
35
 74
0
 42
0.0000001
 43
0.0000001
 44
0.0000000001
 40
0.0
 40
0.0
 40
0.0
 40
0.0
 40
0.0306559657
 40
0.0623872286
 40
0.0951037138
 40
0.1287240338
 40
0.1631613384
 40
0.1983101574
 40
0.2340559049
 40
0.2702777287
 40
0.3068505002
 40
0.3436442973
 40
0.3805268136
 40
0.4173649693
 40
0.4540258864
 40
0.490379138
 40
0.5262969495
 40
0.5616574098
 40
0.5963440233
 40
0.6302496596
 40
0.6632757938
 40
0.6953370945
 40
0.7263607118
 40
0.7562913748
 40
0.7850911065
 40
0.8127446769
 40
0.8392599877
 40
0.8646734823
 40
0.8890508958
 40
0.9124914472
 40
0.9351273496
 40
0.9571242153
 40
0.978676237
 40
1.0
 40
1.0
 40
1.0
 40
1.0
 10
7.5659991712
 20
12.7415386691
 30
0.0
 10
7.669323418
 20
12.6818857369
 30
0.0
 10
7.8835875925
 20
12.5672928475
 30
0.0
 10
8.2198850085
 20
12.4122470023
 30
0.0
 10
8.5750160521
 20
12.2719118985
 30
0.0
 10
8.9469740653
 20
12.1470208169
 30
0.0
 10
9.3337970099
 20
12.0382637468
 30
0.0
 10
9.7334048902
 20
11.946167705
 30
0.0
 10
10.1436487891
 20
11.8712909562
 30
0.0
 10
10.5623022984
 20
11.8139862367
 30
0.0
 10
10.9871134275
 20
11.7746090585
 30
0.0
 10
11.4157864307
 20
11.7533236347
 30
0.0
 10
11.8460088332
 20
11.7502928276
 30
0.0
 10
12.2754564778
 20
11.7654874209
 30
0.0
 10
12.7018100883
 20
11.7988692322
 30
0.0
 10
13.1227701857
 20
11.8502153024
 30
0.0
 10
13.5360613154
 20
11.9192901792
 30
0.0
 10
13.939458432
 20
12.0056814838
 30
0.0
 10
14.3307801568
 20
12.1089626791
 30
0.0
 10
14.7079249543
 20
12.228541404
 30
0.0
 10
15.0688531197
 20
12.3638117214
 30
0.0
 10
15.4116324381
 20
12.5140159753
 30
0.0
 10
15.7344085637
 20
12.6783852923
 30
0.0
 10
16.0354591669
 20
12.8560169293
 30
0.0
 10
16.3131523023
 20
13.0460004762
 30
0.0
 10
16.5660069247
 20
13.247313069
 30
0.0
 10
16.792639543
 20
13.4589268016
 30
0.0
 10
16.9918271773
 20
13.679723392
 30
0.0
 10
17.1624458212
 20
13.9085747318
 30
0.0
 10
17.3035323268
 20
14.1442770605
 30
0.0
 10
17.414228746
 20
14.3855907214
 30
0.0
 10
17.4938455636
 20
14.6312147111
 30
0.0
 10
17.5418427045
 20
14.8797211867
 30
0.0
 10
17.5525486826
 20
15.046778452
 30
0.0
 10
17.5525524258
 20
15.1297669693
 30
0.0
  0
SPLINE
  5
296
100
AcDbEntity
  8
0
100
AcDbSpline
 62
7
  6
BYLAYER
 70
0
 71
3
 72
15
 73
11
 74
0
 42
0.0000001
 43
0.0000001
 44
0.0000000001
 40
0.0
 40
0.0
 40
0.0
 40
0.0
 40
0.1080950925
 40
0.2196627
 40
0.3356407479
 40
0.4567513954
 40
0.5835057233
 40
0.7162441661
 40
0.8551265538
 40
1.0
 40
1.0
 40
1.0
 40
1.0
 10
5.9148828867
 20
16.9242927066
 30
0.0
 10
5.9378399404
 20
16.8342017075
 30
0.0
 10
5.9969154012
 20
16.6540843907
 30
0.0
 10
6.1209644382
 20
16.3926744316
 30
0.0
 10
6.2806932051
 20
16.1381240949
 30
0.0
 10
6.4749132539
 20
15.8920544575
 30
0.0
 10
6.7023499301
 20
15.6559513038
 30
0.0
 10
6.9615374659
 20
15.4312089996
 30
0.0
 10
7.2507831885
 20
15.2192934457
 30
0.0
 10
7.4580899472
 20
15.0900454472
 30
0.0
 10
7.5659991712
 20
15.027745437
 30
0.0
  0
SPLINE
  5
297
100
AcDbEntity
  8
0
100
AcDbSpline
 62
7
  6
BYLAYER
 70
0
 71
3
 72
23
 73
19
 74
0
 42
0.0000001
 43
0.0000001
 44
0.0000000001
 40
0.0
 40
0.0
 40
0.0
 40
0.0
 40
0.0560937423
 40
0.1147185277
 40
0.175588795
 40
0.2384164081
 40
0.3028473742
 40
0.3684924053
 40
0.43494047
 40
0.5017626365
 40
0.5685231679
 40
0.6347871177
 40
0.7001297462
 40
0.7641451592
 40
0.826454492
 40
0.8867179015
 40
0.9446437233
 40
1.0
 40
1.0
 40
1.0
 40
1.0
 10
8.0866936231
 20
13.6797745024
 30
0.0
 10
8.2106287414
 20
13.6092223765
 30
0.0
 10
8.4704668453
 20
13.4759199409
 30
0.0
 10
8.8825396588
 20
13.303248502
 30
0.0
 10
9.3220802451
 20
13.1548996377
 30
0.0
 10
9.7847322233
 20
13.0323097991
 30
0.0
 10
10.2660511651
 20
12.9366339601
 30
0.0
 10
10.7613529874
 20
12.8688146332
 30
0.0
 10
11.2658172848
 20
12.8295205022
 30
0.0
 10
11.774534261
 20
12.8191157994
 30
0.0
 10
12.2825506673
 20
12.8377053903
 30
0.0
 10
12.7849187818
 20
12.8851243959
 30
0.0
 10
13.2767505192
 20
12.9608918765
 30
0.0
 10
13.7532637507
 20
13.0642758069
 30
0.0
 10
14.2098221955
 20
13.194289562
 30
0.0
 10
14.6420139935
 20
13.3496663131
 30
0.0
 10
15.0456162293
 20
13.5288930729
 30
0.0
 10
15.2990922281
 20
13.6664616636
 30
0.0
 10
15.4196624716
 20
13.7390501761
 30
0.0
  0
SPLINE
  5
298
100
AcDbEntity
  8
0
100
AcDbSpline
 62
7
  6
BYLAYER
 70
0
 71
3
 72
9
 73
5
 74
0
 42
0.0000001
 43
0.0000001
 44
0.0000000001
 40
0.0
 40
0.0
 40
0.0
 40
0.0
 40
0.2557985454
 40
1.0
 40
1.0
 40
1.0
 40
1.0
 10
15.4196624716
 20
13.7390501761
 30
0.0
 10
15.453514154
 20
13.7594303561
 30
0.0
 10
15.5848403682
 20
13.8407629503
 30
0.0
 10
15.7120028759
 20
13.9288775869
 30
0.0
 10
15.8035244477
 20
13.9984392546
 30
0.0
  0
SPLINE
  5
299
100
AcDbEntity
  8
0
100
AcDbSpline
 62
7
  6
BYLAYER
 70
0
 71
3
 72
23
 73
19
 74
0
 42
0.0000001
 43
0.0000001
 44
0.0000000001
 40
0.0
 40
0.0
 40
0.0
 40
0.0
 40
0.0767284391
 40
0.15028598
 40
0.2206050704
 40
0.2877773717
 40
0.351985248
 40
0.4135003069
 40
0.472708534
 40
0.5301043382
 40
0.5862781158
 40
0.6418886621
 40
0.6976299206
 40
0.7541880595
 40
0.8121994596
 40
0.8722205091
 40
0.934705782
 40
1.0
 40
1.0
 40
1.0
 40
1.0
 10
7.0370416459
 20
19.3492507831
 30
0.0
 10
6.9178817227
 20
19.419010988
 30
0.0
 10
6.6890184174
 20
19.5636213995
 30
0.0
 10
6.3698838255
 20
19.8004054134
 30
0.0
 10
6.0840697433
 20
20.0512286027
 30
0.0
 10
5.8334238135
 20
20.3144982711
 30
0.0
 10
5.6195164549
 20
20.5886641338
 30
0.0
 10
5.4437842541
 20
20.8721005133
 30
0.0
 10
5.3074423913
 20
21.1630643889
 30
0.0
 10
5.2115487554
 20
21.4597425943
 30
0.0
 10
5.1568115297
 20
21.7601751475
 30
0.0
 10
5.1437728023
 20
22.0623248426
 30
0.0
 10
5.1724759365
 20
22.3640774216
 30
0.0
 10
5.2427294894
 20
22.6633357407
 30
0.0
 10
5.353901724
 20
22.9580902567
 30
0.0
 10
5.5051490863
 20
23.2464450569
 30
0.0
 10
5.6953449766
 20
23.5265797927
 30
0.0
 10
5.843850643
 20
23.7027220008
 30
0.0
 10
5.9236749011
 20
23.7889466098
 30
0.0
  0
SPLINE
  5
29A
100
AcDbEntity
  8
0
100
AcDbSpline
 62
7
  6
BYLAYER
 70
0
 71
3
 72
30
 73
26
 74
0
 42
0.0000001
 43
0.0000001
 44
0.0000000001
 40
0.0
 40
0.0
 40
0.0
 40
0.0
 40
0.0634238044
 40
0.1238708084
 40
0.1817649795
 40
0.2099446021
 40
0.2377106725
 40
0.2651537566
 40
0.2923695017
 40
0.3194581672
 40
0.3465224612
 40
0.373665268
 40
0.4009884218
 40
0.4285899906
 40
0.4565629217
 40
0.5139314229
 40
0.5737288519
 40
0.6047018037
 40
0.6364425053
 40
0.6689868226
 40
0.7023624668
 40
0.7716543178
 40
0.8444032431
 40
0.9205633922
 40
1.0
 40
1.0
 40
1.0
 40
1.0
 10
17.4814387436
 20
23.7889467353
 30
0.0
 10
17.5691428616
 20
23.6942095487
 30
0.0
 10
17.7311685126
 20
23.5002324792
 30
0.0
 10
17.9345056048
 20
23.190121037
 30
0.0
 10
18.0655446637
 20
22.9211195961
 30
0.0
 10
18.1449033502
 20
22.7032337224
 30
0.0
 10
18.1915818065
 20
22.5398801716
 30
0.0
 10
18.2258568131
 20
22.3754863481
 30
0.0
 10
18.2476446304
 20
22.2103614068
 30
0.0
 10
18.2568826188
 20
22.044832307
 30
0.0
 10
18.2535798988
 20
21.8792271158
 30
0.0
 10
18.2377373345
 20
21.7138691934
 30
0.0
 10
18.2093643829
 20
21.5490899403
 30
0.0
 10
18.168543787
 20
21.3852030305
 30
0.0
 10
18.0970677795
 20
21.1665191873
 30
0.0
 10
17.9757508925
 20
20.8960712189
 30
0.0
 10
17.8173942344
 20
20.6385198706
 30
0.0
 10
17.668601871
 20
20.4382639338
 30
0.0
 10
17.5443222461
 20
20.2892934924
 30
0.0
 10
17.4089138846
 20
20.1436257818
 30
0.0
 10
17.2114103766
 20
19.9517969961
 30
0.0
 10
16.9372790719
 20
19.7221231069
 30
0.0
 10
16.5727463163
 20
19.4674992077
 30
0.0
 10
16.1713635463
 20
19.2322499839
 30
0.0
 10
15.8868941709
 20
19.0923150166
 30
0.0
 10
15.739528175
 20
19.0257655601
 30
0.0
  0
SPLINE
  5
29B
100
AcDbEntity
  8
0
100
AcDbSpline
 62
7
  6
BYLAYER
 70
0
 71
3
 72
23
 73
19
 74
0
 42
0.0000001
 43
0.0000001
 44
0.0000000001
 40
0.0
 40
0.0
 40
0.0
 40
0.0
 40
0.0558374401
 40
0.1141779097
 40
0.1747813774
 40
0.2373512081
 40
0.3015465787
 40
0.366990418
 40
0.4332805585
 40
0.4999982597
 40
0.566715901
 40
0.6330063094
 40
0.6984502076
 40
0.76264658
 40
0.8252164844
 40
0.8858170368
 40
0.9441703081
 40
1.0
 40
1.0
 40
1.0
 40
1.0
 10
15.8392145637
 20
14.0480068241
 30
0.0
 10
15.7006257926
 20
13.9679902747
 30
0.0
 10
15.4100300045
 20
13.8166104662
 30
0.0
 10
14.9488556902
 20
13.6199678876
 30
0.0
 10
14.4566449775
 20
13.4503002936
 30
0.0
 10
13.9381312261
 20
13.3092160362
 30
0.0
 10
13.3982392922
 20
13.1980705601
 30
0.0
 10
12.8421304472
 20
13.1179156305
 30
0.0
 10
12.2751206094
 20
13.0695016243
 30
0.0
 10
11.7026313802
 20
13.0533157175
 30
0.0
 10
11.1301418246
 20
13.0695010399
 30
0.0
 10
10.5631291368
 20
13.117890628
 30
0.0
 10
10.0070159488
 20
13.198045507
 30
0.0
 10
9.4671214736
 20
13.3091925674
 30
0.0
 10
8.9486062248
 20
13.4502500227
 30
0.0
 10
8.4563643179
 20
13.6199178893
 30
0.0
 10
7.9951926217
 20
13.8165803689
 30
0.0
 10
7.7045704844
 20
13.9679401614
 30
0.0
 10
7.5659991712
 20
14.0479425365
 30
0.0
  0
SPLINE
  5
29C
100
AcDbEntity
  8
0
100
AcDbSpline
 62
7
  6
BYLAYER
 70
0
 71
3
 72
23
 73
19
 74
0
 42
0.0000001
 43
0.0000001
 44
0.0000000001
 40
0.0
 40
0.0
 40
0.0
 40
0.0
 40
0.0558000758
 40
0.1140914491
 40
0.1746369028
 40
0.2371430758
 40
0.3012730126
 40
0.366653871
 40
0.4328877604
 40
0.4995603136
 40
0.5662480995
 40
0.6325278289
 40
0.6979837256
 40
0.7622175751
 40
0.8248524397
 40
0.885546598
 40
0.9440218263
 40
1.0
 40
1.0
 40
1.0
 40
1.0
 10
15.3856521123
 20
13.7861341724
 30
0.0
 10
15.2628243087
 20
13.7152170162
 30
0.0
 10
15.0053274696
 20
13.5810162684
 30
0.0
 10
14.5967561325
 20
13.4065550763
 30
0.0
 10
14.1607592179
 20
13.255885653
 30
0.0
 10
13.7014935988
 20
13.1304208804
 30
0.0
 10
13.2232826143
 20
13.0313550158
 30
0.0
 10
12.7306568573
 20
12.9596195117
 30
0.0
 10
12.2282838597
 20
12.9158782176
 30
0.0
 10
11.7209244017
 20
12.9005669334
 30
0.0
 10
11.2133910931
 20
12.9138220372
 30
0.0
 10
10.7104965922
 20
12.9555057065
 30
0.0
 10
10.2170076574
 20
13.0252441166
 30
0.0
 10
9.7376031274
 20
13.1223711108
 30
0.0
 10
9.2768247328
 20
13.2459481564
 30
0.0
 10
8.8389835368
 20
13.3948472403
 30
0.0
 10
8.4283088132
 20
13.5676624497
 30
0.0
 10
8.1692164658
 20
13.7007726192
 30
0.0
 10
8.0455650096
 20
13.7711632658
 30
0.0
  0
SPLINE
  5
29D
100
AcDbEntity
  8
0
100
AcDbSpline
 62
7
  6
BYLAYER
 70
0
 71
3
 72
17
 73
13
 74
0
 42
0.0000001
 43
0.0000001
 44
0.0000000001
 40
0.0
 40
0.0
 40
0.0
 40
0.0
 40
0.0539148462
 40
0.1080884458
 40
0.1627723742
 40
0.2182068163
 40
0.3321222201
 40
0.4514600486
 40
0.577353481
 40
0.7105443066
 40
0.8514478702
 40
1.0
 40
1.0
 40
1.0
 40
1.0
 10
18.0525497355
 20
9.0059988362
 30
0.0
 10
18.0525525142
 20
8.94598264
 30
0.0
 10
18.0474264247
 20
8.8255990379
 30
0.0
 10
18.0243689377
 20
8.6456754745
 30
0.0
 10
17.9860344244
 20
8.4666317957
 30
0.0
 10
17.9140564646
 20
8.2276135103
 30
0.0
 10
17.7846822573
 20
7.9319424381
 30
0.0
 10
17.5721926807
 20
7.5918394503
 30
0.0
 10
17.3034342949
 20
7.2660494125
 30
0.0
 10
16.9811192864
 20
6.9575373383
 30
0.0
 10
16.6084786097
 20
6.6691205233
 30
0.0
 10
16.335912356
 20
6.4963513005
 30
0.0
 10
16.1927033736
 20
6.4136700495
 30
0.0
  0
SPLINE
  5
29E
100
AcDbEntity
  8
0
100
AcDbSpline
 62
7
  6
BYLAYER
 70
0
 71
3
 72
15
 73
11
 74
0
 42
0.0000001
 43
0.0000001
 44
0.0000000001
 40
0.0
 40
0.0
 40
0.0
 40
0.0
 40
0.1093019937
 40
0.2223006474
 40
0.3395562377
 40
0.461482607
 40
0.58836947
 40
0.7204057341
 40
0.8576633578
 40
1.0
 40
1.0
 40
1.0
 40
1.0
 10
18.2242804805
 20
10.1527105856
 30
0.0
 10
18.1883122617
 20
10.0644927004
 30
0.0
 10
18.105187445
 20
9.888995937
 30
0.0
 10
17.9516530128
 20
9.6354465161
 30
0.0
 10
17.7681475373
 20
9.3888277412
 30
0.0
 10
17.5556677752
 20
9.1502931446
 30
0.0
 10
17.3152109093
 20
8.9209537193
 30
0.0
 10
17.0479360168
 20
8.7018304876
 30
0.0
 10
16.7551529991
 20
8.4940194338
 30
0.0
 10
16.5476327029
 20
8.3659074811
 30
0.0
 10
16.4401917774
 20
8.3038768041
 30
0.0
  0
SPLINE
  5
29F
100
AcDbEntity
  8
0
100
AcDbSpline
 62
7
  6
BYLAYER
 70
0
 71
3
 72
19
 73
15
 74
0
 42
0.0000001
 43
0.0000001
 44
0.0000000001
 40
0.0
 40
0.0
 40
0.0
 40
0.0
 40
0.0545327569
 40
0.1092998578
 40
0.1645311436
 40
0.2204454933
 40
0.2772492523
 40
0.3351322885
 40
0.4547255948
 40
0.5167805644
 40
0.5804629177
 40
0.712973883
 40
0.8527743952
 40
1.0
 40
1.0
 40
1.0
 40
1.0
 10
19.7025482113
 20
14.1499640687
 30
0.0
 10
19.7025482109
 20
14.2215474426
 30
0.0
 10
19.6967658523
 20
14.3650885769
 30
0.0
 10
19.6707524382
 20
14.5797112662
 30
0.0
 10
19.6274538873
 20
14.7933837397
 30
0.0
 10
19.5670120377
 20
15.005618827
 30
0.0
 10
19.4895346209
 20
15.2159605781
 30
0.0
 10
19.362423783
 20
15.4962319369
 30
0.0
 10
19.2024161752
 20
15.7682026703
 30
0.0
 10
19.0135561206
 20
16.0292184922
 30
0.0
 10
18.7985089633
 20
16.2915194756
 30
0.0
 10
18.4895623351
 20
16.6076381455
 30
0.0
 10
18.0655984975
 20
16.9603830271
 30
0.0
 10
17.7544470316
 20
17.1738645781
 30
0.0
 10
17.5907695302
 20
17.2766187961
 30
0.0
  0
SPLINE
  5
2A0
100
AcDbEntity
  8
0
100
AcDbSpline
 62
7
  6
BYLAYER
 70
0
 71
3
 72
20
 73
16
 74
0
 42
0.0000001
 43
0.0000001
 44
0.0000000001
 40
0.0
 40
0.0
 40
0.0
 40
0.0
 40
0.0539033203
 40
0.1080650077
 40
0.1627375428
 40
0.2181603388
 40
0.2745578438
 40
0.3321335335
 40
0.3910670654
 40
0.4515160734
 40
0.5136085245
 40
0.5774457244
 40
0.7106074459
 40
0.8514742524
 40
1.0
 40
1.0
 40
1.0
 40
1.0
 10
19.7025455009
 20
12.7619099586
 30
0.0
 10
19.7025456805
 20
12.6862988965
 30
0.0
 10
19.6960919079
 20
12.5346356501
 30
0.0
 10
19.6670562294
 20
12.3079554915
 30
0.0
 10
19.6187471069
 20
12.0823992215
 30
0.0
 10
19.5513287491
 20
11.8585379062
 30
0.0
 10
19.4649389305
 20
11.6369270089
 30
0.0
 10
19.3598215617
 20
11.4181028018
 30
0.0
 10
19.2362646185
 20
11.2025758439
 30
0.0
 10
19.094542641
 20
10.9908857303
 30
0.0
 10
18.9350341198
 20
10.7835175928
 30
0.0
 10
18.6958534229
 20
10.5096239095
 30
0.0
 10
18.3526929665
 20
10.1811517341
 30
0.0
 10
17.8832622062
 20
9.8178169662
 30
0.0
 10
17.5398619684
 20
9.6001531951
 30
0.0
 10
17.3594344201
 20
9.4959839234
 30
0.0
  0
SPLINE
  5
2A1
100
AcDbEntity
  8
0
100
AcDbSpline
 62
7
  6
BYLAYER
 70
0
 71
3
 72
19
 73
15
 74
0
 42
0.0000001
 43
0.0000001
 44
0.0000000001
 40
0.0
 40
0.0
 40
0.0
 40
0.0
 40
0.1472256059
 40
0.2870261282
 40
0.4195370967
 40
0.4832194503
 40
0.5452744201
 40
0.6648677256
 40
0.7227507603
 40
0.7795545176
 40
0.8354688649
 40
0.890700148
 40
0.9454672461
 40
1.0
 40
1.0
 40
1.0
 40
1.0
 10
5.8143448146
 20
17.2766194937
 30
0.0
 10
5.6506672391
 20
17.1738652703
 30
0.0
 10
5.3395156217
 20
16.9603836925
 30
0.0
 10
4.9155515634
 20
16.6076387607
 30
0.0
 10
4.6066047644
 20
16.2915200268
 30
0.0
 10
4.3915574955
 20
16.0292189829
 30
0.0
 10
4.2026973409
 20
15.7682031021
 30
0.0
 10
4.0426896422
 20
15.4962323029
 30
0.0
 10
3.9155787372
 20
15.2159608683
 30
0.0
 10
3.8381012723
 20
15.0056190633
 30
0.0
 10
3.7776593926
 20
14.7933839174
 30
0.0
 10
3.7343608202
 20
14.5797113851
 30
0.0
 10
3.7083473858
 20
14.365088637
 30
0.0
 10
3.7025650261
 20
14.2215474624
 30
0.0
 10
3.7025650265
 20
14.1499640687
 30
0.0
  0
SPLINE
  5
2A2
100
AcDbEntity
  8
0
100
AcDbSpline
 62
7
  6
BYLAYER
 70
0
 71
3
 72
24
 73
20
 74
0
 42
0.0000001
 43
0.0000001
 44
0.0000000001
 40
0.0
 40
0.0
 40
0.0
 40
0.0
 40
0.0279811188
 40
0.0566928917
 40
0.1161246369
 40
0.1779868207
 40
0.2419258805
 40
0.307512862
 40
0.3742824897
 40
0.4417412204
 40
0.5093786049
 40
0.5766803442
 40
0.6431398888
 40
0.7082707754
 40
0.7716185591
 40
0.8327738794
 40
0.8913880558
 40
0.9471891123
 40
1.0
 40
1.0
 40
1.0
 40
1.0
 10
17.3594344201
 20
9.4959839234
 30
0.0
 10
17.2573630202
 20
9.4370533249
 30
0.0
 10
17.0477211605
 20
9.3224948689
 30
0.0
 10
16.6085170215
 20
9.1069121797
 30
0.0
 10
16.0241374353
 20
8.8646546103
 30
0.0
 10
15.2820434429
 20
8.6215177584
 30
0.0
 10
14.4994624157
 20
8.4252914025
 30
0.0
 10
13.6852144658
 20
8.2782267036
 30
0.0
 10
12.8485144428
 20
8.1819619987
 30
0.0
 10
11.9988339107
 20
8.1375799067
 30
0.0
 10
11.1457950884
 20
8.1455913496
 30
0.0
 10
10.2990655945
 20
8.2059142145
 30
0.0
 10
9.4682342553
 20
8.3178543847
 30
0.0
 10
8.6627015582
 20
8.4801434469
 30
0.0
 10
7.8915693569
 20
8.6909583335
 30
0.0
 10
7.1635486134
 20
8.9479404881
 30
0.0
 10
6.4868035274
 20
9.2482369178
 30
0.0
 10
5.8690195732
 20
9.5884634473
 30
0.0
 10
5.4903195496
 20
9.8468128926
 30
0.0
 10
5.3137311345
 20
9.9820913266
 30
0.0
  0
SPLINE
  5
2A3
100
AcDbEntity
  8
0
100
AcDbSpline
 62
7
  6
BYLAYER
 70
0
 71
3
 72
18
 73
14
 74
0
 42
0.0000001
 43
0.0000001
 44
0.0000000001
 40
0.0
 40
0.0
 40
0.0
 40
0.0
 40
0.143624421
 40
0.2807725851
 40
0.4117421176
 40
0.5370500258
 40
0.6574399387
 40
0.7161152073
 40
0.7739432539
 40
0.8310785789
 40
0.8876844731
 40
0.9439322901
 40
1.0
 40
1.0
 40
1.0
 40
1.0
 10
5.2989652633
 20
9.9934392537
 30
0.0
 10
5.1734537736
 20
10.090207615
 30
0.0
 10
4.9354229209
 20
10.2892024351
 30
0.0
 10
4.6135128209
 20
10.6107115216
 30
0.0
 10
4.3370974897
 20
10.9464594881
 30
0.0
 10
4.1080592348
 20
11.2942886032
 30
0.0
 10
3.9567094002
 20
11.5951303986
 30
0.0
 10
3.8617529681
 20
11.8388402425
 30
0.0
 10
3.8038120525
 20
12.0216217501
 30
0.0
 10
3.7586345489
 20
12.2056164781
 30
0.0
 10
3.7262963783
 20
12.3905349756
 30
0.0
 10
3.7068837126
 20
12.576062252
 30
0.0
 10
3.702567884
 20
12.7000413205
 30
0.0
 10
3.702567737
 20
12.7619099605
 30
0.0
  0
SPLINE
  5
2A4
100
AcDbEntity
  8
0
100
AcDbSpline
 62
7
  6
BYLAYER
 70
0
 71
3
 72
18
 73
14
 74
0
 42
0.0000001
 43
0.0000001
 44
0.0000000001
 40
0.0
 40
0.0
 40
0.0
 40
0.0
 40
0.1410828997
 40
0.2764546352
 40
0.4063107931
 40
0.5312625865
 40
0.6520838355
 40
0.7112819204
 40
0.7698303181
 40
0.8278351277
 40
0.885413909
 40
0.9427333596
 40
1.0
 40
1.0
 40
1.0
 40
1.0
 10
7.2789660715
 20
3.5935076293
 30
0.0
 10
7.1346860743
 20
3.6781898917
 30
0.0
 10
6.8587695313
 20
3.8561681656
 30
0.0
 10
6.4798483327
 20
4.1549932831
 30
0.0
 10
6.148170199
 20
4.4789727397
 30
0.0
 10
5.8676432323
 20
4.8263747241
 30
0.0
 10
5.6785750768
 20
5.1361382628
 30
0.0
 10
5.5582239952
 20
5.3924014133
 30
0.0
 10
5.4839924486
 20
5.5873622986
 30
0.0
 10
5.4256197563
 20
5.7856445683
 30
0.0
 10
5.3835800136
 20
5.9865493631
 30
0.0
 10
5.3582203993
 20
6.1893417732
 30
0.0
 10
5.3525566189
 20
6.3252845454
 30
0.0
 10
5.3525566189
 20
6.3931911059
 30
0.0
  0
SPLINE
  5
2A5
100
AcDbEntity
  8
0
100
AcDbSpline
 62
7
  6
BYLAYER
 70
0
 71
3
 72
39
 73
35
 74
0
 42
0.0000001
 43
0.0000001
 44
0.0000000001
 40
0.0
 40
0.0
 40
0.0
 40
0.0
 40
0.0238919264
 40
0.0478717779
 40
0.0721128631
 40
0.0967313149
 40
0.1218340189
 40
0.1475417531
 40
0.1739545275
 40
0.2011568155
 40
0.2292084403
 40
0.2581496536
 40
0.2879970049
 40
0.3187444293
 40
0.3503666413
 40
0.3828178473
 40
0.4160378441
 40
0.4499499071
 40
0.4844670832
 40
0.5194903096
 40
0.5549138842
 40
0.5906244321
 40
0.6265051806
 40
0.6624361557
 40
0.6982969239
 40
0.7339679404
 40
0.7693323637
 40
0.8042794457
 40
0.8387033609
 40
0.8725057145
 40
0.9055992535
 40
0.9379212102
 40
0.9694133457
 40
1.0
 40
1.0
 40
1.0
 40
1.0
 10
18.0525566189
 20
6.3931911059
 30
0.0
 10
18.0525566189
 20
6.2918699154
 30
0.0
 10
18.0399064782
 20
6.0886328868
 30
0.0
 10
17.9834203444
 20
5.7873458513
 30
0.0
 10
17.8904162197
 20
5.4920317784
 30
0.0
 10
17.7625402455
 20
5.2049184701
 30
0.0
 10
17.6013244433
 20
4.9279612715
 30
0.0
 10
17.4087258443
 20
4.6624637795
 30
0.0
 10
17.186431872
 20
4.4093870099
 30
0.0
 10
16.9361074029
 20
4.16947845
 30
0.0
 10
16.6593084156
 20
3.9433874156
 30
0.0
 10
16.357581212
 20
3.7317059649
 30
0.0
 10
16.0324752181
 20
3.5350171221
 30
0.0
 10
15.6855922941
 20
3.3539088883
 30
0.0
 10
15.318612365
 20
3.1889879583
 30
0.0
 10
14.9333180765
 20
3.040821397
 30
0.0
 10
14.5315860639
 20
2.9099976928
 30
0.0
 10
14.1154044851
 20
2.797012167
 30
0.0
 10
13.6868465346
 20
2.7023743097
 30
0.0
 10
13.2480803184
 20
2.6264580903
 30
0.0
 10
12.8013379927
 20
2.5696431595
 30
0.0
 10
12.3489159115
 20
2.5321461828
 30
0.0
 10
11.8931468627
 20
2.5141837014
 30
0.0
 10
11.4363904062
 20
2.5157954617
 30
0.0
 10
10.9810139667
 20
2.5370189102
 30
0.0
 10
10.5293725941
 20
2.5777085315
 30
0.0
 10
10.0837959706
 20
2.6377218802
 30
0.0
 10
9.6465625163
 20
2.7167459954
 30
0.0
 10
9.2199113597
 20
2.8144734196
 30
0.0
 10
8.8059939202
 20
2.9304208949
 30
0.0
 10
8.4068529828
 20
3.0641523446
 30
0.0
 10
8.024409515
 20
3.2151486021
 30
0.0
 10
7.6606497216
 20
3.382819097
 30
0.0
 10
7.428338177
 20
3.5070926159
 30
0.0
 10
7.3160034129
 20
3.571947655
 30
0.0
  0
SPLINE
  5
2A6
100
AcDbEntity
  8
0
100
AcDbSpline
 62
7
  6
BYLAYER
 70
0
 71
3
 72
39
 73
35
 74
0
 42
0.0000001
 43
0.0000001
 44
0.0000000001
 40
0.0
 40
0.0
 40
0.0
 40
0.0
 40
0.0306558939
 40
0.0623871357
 40
0.0951036402
 40
0.1287239913
 40
0.1631613357
 40
0.1983101339
 40
0.2340557132
 40
0.2702773622
 40
0.3068501198
 40
0.3436440191
 40
0.3805266485
 40
0.4173648892
 40
0.4540258501
 40
0.4903791052
 40
0.5262968898
 40
0.5616573108
 40
0.5963439003
 40
0.6302495366
 40
0.6632756906
 40
0.6953370315
 40
0.7263606878
 40
0.7562913955
 40
0.7850911571
 40
0.8127447574
 40
0.8392600761
 40
0.8646735786
 40
0.8890509773
 40
0.912491519
 40
0.9351273961
 40
0.9571242472
 40
0.9786762463
 40
1.0
 40
1.0
 40
1.0
 40
1.0
 10
16.1927033736
 20
6.4136700495
 30
0.0
 10
16.0805483843
 20
6.3489177228
 30
0.0
 10
15.8479714814
 20
6.2245288547
 30
0.0
 10
15.4829308672
 20
6.0562286791
 30
0.0
 10
15.0974462414
 20
5.9038966193
 30
0.0
 10
14.6936959647
 20
5.7683287312
 30
0.0
 10
14.2738101634
 20
5.6502742898
 30
0.0
 10
13.8400474135
 20
5.550305128
 30
0.0
 10
13.394740427
 20
5.4690268548
 30
0.0
 10
12.9403048413
 20
5.4068231046
 30
0.0
 10
12.4791841565
 20
5.364078995
 30
0.0
 10
12.0138702443
 20
5.3409727481
 30
0.0
 10
11.5468740148
 20
5.337681723
 30
0.0
 10
11.0807189719
 20
5.3541740516
 30
0.0
 10
10.617922839
 20
5.3904081327
 30
0.0
 10
10.1609816698
 20
5.4461420685
 30
0.0
 10
9.7123652527
 20
5.5211199999
 30
0.0
 10
9.2744886085
 20
5.6148945237
 30
0.0
 10
8.8497193479
 20
5.727002652
 30
0.0
 10
8.4403384219
 20
5.8568012154
 30
0.0
 10
8.0485600444
 20
6.0036330194
 30
0.0
 10
7.6764814106
 20
6.166674943
 30
0.0
 10
7.3261158269
 20
6.3450932466
 30
0.0
 10
6.9993324606
 20
6.5379070027
 30
0.0
 10
6.6979034021
 20
6.7441290482
 30
0.0
 10
6.4234355521
 20
6.9626478648
 30
0.0
 10
6.1774316406
 20
7.1923489506
 30
0.0
 10
5.9612179226
 20
7.4320170348
 30
0.0
 10
5.7760160438
 20
7.6804290486
 30
0.0
 10
5.6228694048
 20
7.9362768356
 30
0.0
 10
5.5027118499
 20
8.1982163495
 30
0.0
 10
5.4162886387
 20
8.4648339753
 30
0.0
 10
5.364189688
 20
8.7345810686
 30
0.0
 10
5.352567673
 20
8.9159170587
 30
0.0
 10
5.3525635024
 20
9.0059988453
 30
0.0
  0
SPLINE
  5
2A7
100
AcDbEntity
  8
0
100
AcDbSpline
 62
7
  6
BYLAYER
 70
0
 71
3
 72
12
 73
8
 74
0
 42
0.0000001
 43
0.0000001
 44
0.0000000001
 40
0.0
 40
0.0
 40
0.0
 40
0.0
 40
0.2848826055
 40
0.5530689245
 40
0.6772793288
 40
0.7935306326
 40
1.0
 40
1.0
 40
1.0
 40
1.0
 10
5.0813175697
 20
9.2791037089
 30
0.0
 10
5.0629188415
 20
9.2795674468
 30
0.0
 10
5.0272056273
 20
9.2832973723
 30
0.0
 10
4.9848161525
 20
9.2951684968
 30
0.0
 10
4.9548581357
 20
9.3088594805
 30
0.0
 10
4.930139307
 20
9.3238056703
 30
0.0
 10
4.9143366027
 20
9.338087475
 30
0.0
 10
4.9063596152
 20
9.3487781319
 30
0.0
  0
SPLINE
  5
2A8
100
AcDbEntity
  8
0
100
AcDbSpline
 62
7
  6
BYLAYER
 70
0
 71
3
 72
9
 73
5
 74
0
 42
0.0000001
 43
0.0000001
 44
0.0000000001
 40
0.0
 40
0.0
 40
0.0
 40
0.0
 40
0.4882514347
 40
1.0
 40
1.0
 40
1.0
 40
1.0
 10
5.7308632896
 20
9.2487585074
 30
0.0
 10
5.7161193718
 20
9.2538666535
 30
0.0
 10
5.6849525103
 20
9.2616194048
 30
0.0
 10
5.6530221115
 20
9.2646939597
 30
0.0
 10
5.6366726476
 20
9.2651060461
 30
0.0
  0
SPLINE
  5
2A9
100
AcDbEntity
  8
0
100
AcDbSpline
 62
7
  6
BYLAYER
 70
0
 71
3
 72
11
 73
7
 74
0
 42
0.0000001
 43
0.0000001
 44
0.0000000001
 40
0.0
 40
0.0
 40
0.0
 40
0.0
 40
0.2806286261
 40
0.537271114
 40
0.7741449664
 40
1.0
 40
1.0
 40
1.0
 40
1.0
 10
5.7689910982
 20
8.4861672749
 30
0.0
 10
5.7629082691
 20
8.4908797602
 30
0.0
 10
5.7519276044
 20
8.5008297962
 30
0.0
 10
5.7391115864
 20
8.5179474415
 30
0.0
 10
5.7311761958
 20
8.5362230378
 30
0.0
 10
5.7293592945
 20
8.548972346
 30
0.0
 10
5.7293599896
 20
8.5551651766
 30
0.0
  0
SPLINE
  5
2AA
100
AcDbEntity
  8
0
100
AcDbSpline
 62
7
  6
BYLAYER
 70
0
 71
3
 72
12
 73
8
 74
0
 42
0.0000001
 43
0.0000001
 44
0.0000000001
 40
0.0
 40
0.0
 40
0.0
 40
0.0
 40
0.2670278266
 40
0.530972399
 40
0.778620413
 40
0.8931870973
 40
1.0
 40
1.0
 40
1.0
 40
1.0
 10
6.0959223055
 20
8.3496811727
 30
0.0
 10
6.0774976782
 20
8.347322891
 30
0.0
 10
6.04040392
 20
8.3456886909
 30
0.0
 10
5.9863907511
 20
8.3519118292
 30
0.0
 10
5.9443040044
 20
8.3642319235
 30
0.0
 10
5.9147798654
 20
8.3782466012
 30
0.0
 10
5.9016899293
 20
8.3864537031
 30
0.0
 10
5.8956912629
 20
8.3908380359
 30
0.0
  0
SPLINE
  5
2AB
100
AcDbEntity
  8
0
100
AcDbSpline
 62
7
  6
BYLAYER
 70
0
 71
3
 72
12
 73
8
 74
0
 42
0.0000001
 43
0.0000001
 44
0.0000000001
 40
0.0
 40
0.0
 40
0.0
 40
0.0
 40
0.1097228358
 40
0.2262940265
 40
0.474923971
 40
0.736685479
 40
1.0
 40
1.0
 40
1.0
 40
1.0
 10
6.8274418986
 20
8.3856234003
 30
0.0
 10
6.8213598316
 20
8.3893480602
 30
0.0
 10
6.8083468812
 20
8.3962797933
 30
0.0
 10
6.7797545805
 20
8.4080176612
 30
0.0
 10
6.740070517
 20
8.4182137884
 30
0.0
 10
6.68984467
 20
8.4230287922
 30
0.0
 10
6.6556060352
 20
8.4213185438
 30
0.0
 10
6.6386291883
 20
8.4191455725
 30
0.0
  0
SPLINE
  5
2AC
100
AcDbEntity
  8
0
100
AcDbSpline
 62
7
  6
BYLAYER
 70
0
 71
3
 72
12
 73
8
 74
0
 42
0.0000001
 43
0.0000001
 44
0.0000000001
 40
0.0
 40
0.0
 40
0.0
 40
0.0
 40
0.2955956037
 40
0.5572600778
 40
0.7876672216
 40
0.8950902637
 40
1.0
 40
1.0
 40
1.0
 40
1.0
 10
7.1156326874
 20
7.6865204599
 30
0.0
 10
7.1044664645
 20
7.6916127876
 30
0.0
 10
7.0841254737
 20
7.7029798201
 30
0.0
 10
7.0593782991
 20
7.7248077897
 30
0.0
 10
7.0457850149
 20
7.7462343594
 30
0.0
 10
7.040478831
 20
7.7639348039
 30
0.0
 10
7.0396057625
 20
7.7727747622
 30
0.0
 10
7.0396083686
 20
7.7771304203
 30
0.0
  0
SPLINE
  5
2AD
100
AcDbEntity
  8
0
100
AcDbSpline
 62
7
  6
BYLAYER
 70
0
 71
3
 72
11
 73
7
 74
0
 42
0.0000001
 43
0.0000001
 44
0.0000000001
 40
0.0
 40
0.0
 40
0.0
 40
0.0
 40
0.248961644
 40
0.5073736072
 40
0.7619434809
 40
1.0
 40
1.0
 40
1.0
 40
1.0
 10
7.4926099044
 20
7.603537394
 30
0.0
 10
7.4754579744
 20
7.5983824108
 30
0.0
 10
7.4394422371
 20
7.5912303511
 30
0.0
 10
7.3844408313
 20
7.5893831847
 30
0.0
 10
7.330613769
 20
7.5961515487
 30
0.0
 10
7.2964823294
 20
7.6066037034
 30
0.0
 10
7.2807511883
 20
7.6133719252
 30
0.0
  0
SPLINE
  5
2AE
100
AcDbEntity
  8
0
100
AcDbSpline
 62
7
  6
BYLAYER
 70
0
 71
3
 72
11
 73
7
 74
0
 42
0.0000001
 43
0.0000001
 44
0.0000000001
 40
0.0
 40
0.0
 40
0.0
 40
0.0
 40
0.2420462889
 40
0.4968939854
 40
0.7533549936
 40
1.0
 40
1.0
 40
1.0
 40
1.0
 10
8.1830912338
 20
7.7475636543
 30
0.0
 10
8.1678647449
 20
7.7529904501
 30
0.0
 10
8.1355202108
 20
7.7611945552
 30
0.0
 10
8.0852590751
 20
7.7659676843
 30
0.0
 10
8.0345369752
 20
7.7632791138
 30
0.0
 10
8.0014587294
 20
7.7564710358
 30
0.0
 10
7.9856840149
 20
7.7517299724
 30
0.0
  0
SPLINE
  5
2AF
100
AcDbEntity
  8
0
100
AcDbSpline
 62
7
  6
BYLAYER
 70
0
 71
3
 72
13
 73
9
 74
0
 42
0.0000001
 43
0.0000001
 44
0.0000000001
 40
0.0
 40
0.0
 40
0.0
 40
0.0
 40
0.0998036426
 40
0.2041008787
 40
0.315017734
 40
0.4341395306
 40
0.6997135109
 40
1.0
 40
1.0
 40
1.0
 40
1.0
 10
8.6299331054
 20
7.5369854104
 30
0.0
 10
8.6295549949
 20
7.5419848031
 30
0.0
 10
8.627592296
 20
7.5521481548
 30
0.0
 10
8.6213650584
 20
7.5668046938
 30
0.0
 10
8.6119492698
 20
7.5808230366
 30
0.0
 10
8.5947552532
 20
7.5989615129
 30
0.0
 10
8.565901502
 20
7.6184186892
 30
0.0
 10
8.5393815657
 20
7.6291243618
 30
0.0
 10
8.5249771743
 20
7.6336043876
 30
0.0
  0
SPLINE
  5
2B0
100
AcDbEntity
  8
0
100
AcDbSpline
 62
7
  6
BYLAYER
 70
0
 71
3
 72
14
 73
10
 74
0
 42
0.0000001
 43
0.0000001
 44
0.0000000001
 40
0.0
 40
0.0
 40
0.0
 40
0.0
 40
0.3025872379
 40
0.4413267799
 40
0.5702666876
 40
0.6893699113
 40
0.7994356973
 40
0.9021500686
 40
1.0
 40
1.0
 40
1.0
 40
1.0
 10
8.7748655622
 20
7.115345709
 30
0.0
 10
8.7585118033
 20
7.1194130299
 30
0.0
 10
8.7350343344
 20
7.127395925
 30
0.0
 10
8.707038369
 20
7.1425185406
 30
0.0
 10
8.6894593856
 20
7.1550857432
 30
0.0
 10
8.6750453131
 20
7.1689878621
 30
0.0
 10
8.6640687031
 20
7.1839965627
 30
0.0
 10
8.6568353258
 20
7.1998520098
 30
0.0
 10
8.6545937219
 20
7.2109216804
 30
0.0
 10
8.6541827395
 20
7.2163557069
 30
0.0
  0
SPLINE
  5
2B1
100
AcDbEntity
  8
0
100
AcDbSpline
 62
7
  6
BYLAYER
 70
0
 71
3
 72
11
 73
7
 74
0
 42
0.0000001
 43
0.0000001
 44
0.0000000001
 40
0.0
 40
0.0
 40
0.0
 40
0.0
 40
0.2313287122
 40
0.4833406582
 40
0.7440400672
 40
1.0
 40
1.0
 40
1.0
 40
1.0
 10
9.1761984146
 20
7.0915208383
 30
0.0
 10
9.1616087833
 20
7.0838023265
 30
0.0
 10
9.1291383903
 20
7.0713437842
 30
0.0
 10
9.0767285056
 20
7.0615458584
 30
0.0
 10
9.0216753586
 20
7.0602528718
 30
0.0
 10
8.984949382
 20
7.0652745916
 30
0.0
 10
8.9671498464
 20
7.0693628305
 30
0.0
  0
SPLINE
  5
2B2
100
AcDbEntity
  8
0
100
AcDbSpline
 62
7
  6
BYLAYER
 70
0
 71
3
 72
11
 73
7
 74
0
 42
0.0000001
 43
0.0000001
 44
0.0000000001
 40
0.0
 40
0.0
 40
0.0
 40
0.0
 40
0.2587223105
 40
0.5191383403
 40
0.7695816002
 40
1.0
 40
1.0
 40
1.0
 40
1.0
 10
9.7782601065
 20
7.3338620975
 30
0.0
 10
9.7615234447
 20
7.336756765
 30
0.0
 10
9.7274296203
 20
7.3398571625
 30
0.0
 10
9.6768040684
 20
7.3370943416
 30
0.0
 10
9.6289911647
 20
7.3270768679
 30
0.0
 10
9.5994086636
 20
7.3154163731
 30
0.0
 10
9.586037567
 20
7.308342516
 30
0.0
  0
SPLINE
  5
2B3
100
AcDbEntity
  8
0
100
AcDbSpline
 62
7
  6
BYLAYER
 70
0
 71
3
 72
23
 73
19
 74
0
 42
0.0000001
 43
0.0000001
 44
0.0000000001
 40
0.0
 40
0.0
 40
0.0
 40
0.0
 40
0.05455594
 40
0.1108683888
 40
0.1688068447
 40
0.228255477
 40
0.2890897798
 40
0.3511580304
 40
0.4142956667
 40
0.4783281823
 40
0.5430743158
 40
0.6083451341
 40
0.6739469632
 40
0.7396796179
 40
0.8053440847
 40
0.8707539323
 40
0.9357166247
 40
1.0
 40
1.0
 40
1.0
 40
1.0
 10
16.4401917774
 20
8.3038768041
 30
0.0
 10
16.3321935459
 20
8.2415243683
 30
0.0
 10
16.1089214961
 20
8.121294112
 30
0.0
 10
15.7595873521
 20
7.9570192955
 30
0.0
 10
15.3919197843
 20
7.8066843877
 30
0.0
 10
15.0076526742
 20
7.6709509562
 30
0.0
 10
14.608481126
 20
7.5504411161
 30
0.0
 10
14.1961998381
 20
7.4456527744
 30
0.0
 10
13.7726628783
 20
7.3571067875
 30
0.0
 10
13.339791583
 20
7.2851601019
 30
0.0
 10
12.8995301976
 20
7.2301744176
 30
0.0
 10
12.4538654504
 20
7.1923596772
 30
0.0
 10
12.0048106037
 20
7.1719284409
 30
0.0
 10
11.5544020244
 20
7.1689271075
 30
0.0
 10
11.1046554613
 20
7.1834075888
 30
0.0
 10
10.6575669818
 20
7.2152821555
 30
0.0
 10
10.2152291155
 20
7.2644365183
 30
0.0
 10
9.9230480251
 20
7.3088018332
 30
0.0
 10
9.7782601065
 20
7.3338620975
 30
0.0
  0
SPLINE
  5
2B4
100
AcDbEntity
  8
0
100
AcDbSpline
 62
7
  6
BYLAYER
 70
0
 71
3
 72
20
 73
16
 74
0
 42
0.0000001
 43
0.0000001
 44
0.0000000001
 40
0.0
 40
0.0
 40
0.0
 40
0.0
 40
0.1485256843
 40
0.2893917162
 40
0.422552907
 40
0.4863899997
 40
0.5484824105
 40
0.6089314399
 40
0.6678652212
 40
0.7254412574
 40
0.7818390268
 40
0.8372620078
 40
0.8919346742
 40
0.9460964933
 40
1.0
 40
1.0
 40
1.0
 40
1.0
 10
17.3594344201
 20
10.8840380325
 30
0.0
 10
17.5398619473
 20
10.9882072921
 30
0.0
 10
17.8832614626
 20
11.2058702385
 30
0.0
 10
18.3526908838
 20
11.5692039019
 30
0.0
 10
18.6958502661
 20
11.8976744998
 30
0.0
 10
18.9350311122
 20
12.1715669094
 30
0.0
 10
19.0945405552
 20
12.3789342383
 30
0.0
 10
19.2362624891
 20
12.5906248836
 30
0.0
 10
19.3598202928
 20
12.8061523966
 30
0.0
 10
19.4649392359
 20
13.0249772877
 30
0.0
 10
19.551329458
 20
13.2465893176
 30
0.0
 10
19.6187486662
 20
13.4704512781
 30
0.0
 10
19.6670586442
 20
13.6960081093
 30
0.0
 10
19.6960939979
 20
13.9226890182
 30
0.0
 10
19.7025482118
 20
14.0743527218
 30
0.0
 10
19.7025482113
 20
14.1499640687
 30
0.0
  0
SPLINE
  5
2B5
100
AcDbEntity
  8
0
100
AcDbSpline
 62
7
  6
BYLAYER
 70
0
 71
3
 72
23
 73
19
 74
0
 42
0.0000001
 43
0.0000001
 44
0.0000000001
 40
0.0
 40
0.0
 40
0.0
 40
0.0
 40
0.0558313904
 40
0.1141823702
 40
0.1747826488
 40
0.2373530275
 40
0.301549053
 40
0.3669926484
 40
0.4332829885
 40
0.5000005201
 40
0.5667180336
 40
0.6330083196
 40
0.6984518258
 40
0.762647729
 40
0.8252179548
 40
0.8858180534
 40
0.9441688301
 40
1.0
 40
1.0
 40
1.0
 40
1.0
 10
6.0457259212
 20
10.8840108377
 30
0.0
 10
6.235229177
 20
10.7746035571
 30
0.0
 10
6.632652944
 20
10.5676137977
 30
0.0
 10
7.2633092804
 20
10.2986841927
 30
0.0
 10
7.9364462271
 20
10.0666645952
 30
0.0
 10
8.6455168134
 20
9.8737556562
 30
0.0
 10
9.383828294
 20
9.7217684662
 30
0.0
 10
10.1443143654
 20
9.6121535056
 30
0.0
 10
10.919706409
 20
9.5459673854
 30
0.0
 10
11.7025898725
 20
9.5238409018
 30
0.0
 10
12.4854730178
 20
9.545971137
 30
0.0
 10
13.26086411
 20
9.6121609729
 30
0.0
 10
14.0213486061
 20
9.7217795778
 30
0.0
 10
14.7596579032
 20
9.8737703063
 30
0.0
 10
15.4687257194
 20
10.0666826443
 30
0.0
 10
16.1418593368
 20
10.2987054702
 30
0.0
 10
16.7725118168
 20
10.5676381027
 30
0.0
 10
17.1699327018
 20
10.7746298175
 30
0.0
 10
17.3594344201
 20
10.8840380325
 30
0.0
  0
SPLINE
  5
2B6
100
AcDbEntity
  8
0
100
AcDbSpline
 62
7
  6
BYLAYER
 70
0
 71
3
 72
20
 73
16
 74
0
 42
0.0000001
 43
0.0000001
 44
0.0000000001
 40
0.0
 40
0.0
 40
0.0
 40
0.0
 40
0.0539033825
 40
0.1080650821
 40
0.1627376386
 40
0.2181605235
 40
0.2745582136
 40
0.3321341906
 40
0.3910679344
 40
0.4515169494
 40
0.5136093698
 40
0.5774464953
 40
0.7106078163
 40
0.8514740535
 40
1.0
 40
1.0
 40
1.0
 40
1.0
 10
3.7025650265
 20
14.1499640687
 30
0.0
 10
3.702565027
 20
14.0743519193
 30
0.0
 10
3.7090193805
 20
13.9226865972
 30
0.0
 10
3.7380553467
 20
13.6960032856
 30
0.0
 10
3.7863663542
 20
13.4704440896
 30
0.0
 10
3.8537869919
 20
13.2465798194
 30
0.0
 10
3.9401790329
 20
13.02496555
 30
0.0
 10
4.0453001853
 20
12.8061385112
 30
0.0
 10
4.1688605688
 20
12.5906089544
 30
0.0
 10
4.3105854401
 20
12.378916384
 30
0.0
 10
4.4700981702
 20
12.1715472679
 30
0.0
 10
4.7092839409
 20
11.8976525987
 30
0.0
 10
5.0524502817
 20
11.5691796345
 30
0.0
 10
5.5218889341
 20
11.2058439902
 30
0.0
 10
5.8652949936
 20
10.9881803257
 30
0.0
 10
6.0457259212
 20
10.8840108377
 30
0.0
  0
SPLINE
  5
2B7
100
AcDbEntity
  8
0
100
AcDbSpline
 62
7
  6
BYLAYER
 70
0
 71
3
 72
17
 73
13
 74
0
 42
0.0000001
 43
0.0000001
 44
0.0000000001
 40
0.0
 40
0.0
 40
0.0
 40
0.0
 40
0.1485522602
 40
0.2894552648
 40
0.4226456992
 40
0.5485390227
 40
0.6678766742
 40
0.781792201
 40
0.8372268015
 40
0.8919109794
 40
0.94608485
 40
1.0
 40
1.0
 40
1.0
 40
1.0
 10
16.1927033736
 20
5.433867149
 30
0.0
 10
16.3359124889
 20
5.5165484767
 30
0.0
 10
16.608478465
 20
5.6893172758
 30
0.0
 10
16.9811183611
 20
5.9777336772
 30
0.0
 10
17.3034325241
 20
6.2862448741
 30
0.0
 10
17.5721913699
 20
6.6120336496
 30
0.0
 10
17.784680394
 20
6.9521367232
 30
0.0
 10
17.9140560423
 20
7.2478073494
 30
0.0
 10
17.9860335431
 20
7.4868264081
 30
0.0
 10
18.0243690191
 20
7.6658706363
 30
0.0
 10
18.0474269174
 20
7.8457951259
 30
0.0
 10
18.052552474
 20
7.9661793942
 30
0.0
 10
18.0525496937
 20
8.0261959316
 30
0.0
  0
SPLINE
  5
2B8
100
AcDbEntity
  8
0
100
AcDbSpline
 62
7
  6
BYLAYER
 70
0
 71
3
 72
15
 73
11
 74
0
 42
0.0000001
 43
0.0000001
 44
0.0000000001
 40
0.0
 40
0.0
 40
0.0
 40
0.0
 40
0.144895073
 40
0.283753592
 40
0.4164298104
 40
0.5431020046
 40
0.6641423446
 40
0.7800996756
 40
0.8917261951
 40
1.0
 40
1.0
 40
1.0
 40
1.0
 10
7.4903053185
 20
5.6410722212
 30
0.0
 10
7.3823301249
 20
5.7046336544
 30
0.0
 10
7.1750600768
 20
5.8364263227
 30
0.0
 10
6.8863909687
 20
6.0523013228
 30
0.0
 10
6.6283926309
 20
6.2810100071
 30
0.0
 10
6.402755716
 20
6.5210356656
 30
0.0
 10
6.2109694925
 20
6.7709761681
 30
0.0
 10
6.0542573008
 20
7.029284911
 30
0.0
 10
5.9338558406
 20
7.2943390109
 30
0.0
 10
5.877658044
 20
7.4766755738
 30
0.0
 10
5.8562244416
 20
7.5678163207
 30
0.0
  0
SPLINE
  5
2B9
100
AcDbEntity
  8
0
100
AcDbSpline
 62
7
  6
BYLAYER
 70
0
 71
3
 72
39
 73
35
 74
0
 42
0.0000001
 43
0.0000001
 44
0.0000000001
 40
0.0
 40
0.0
 40
0.0
 40
0.0
 40
0.0213237972
 40
0.0428758308
 40
0.0648726855
 40
0.0875085541
 40
0.1109490567
 40
0.1353264266
 40
0.1607398835
 40
0.1872551799
 40
0.2149087422
 40
0.2437084833
 40
0.2736391489
 40
0.304662775
 40
0.3367240686
 40
0.3697501926
 40
0.4036557963
 40
0.4383423693
 40
0.4737027686
 40
0.5096205169
 40
0.5459736995
 40
0.5826345473
 40
0.6194726431
 40
0.6563551282
 40
0.693148928
 40
0.7297216391
 40
0.7659433391
 40
0.8016890334
 40
0.8368379807
 40
0.8712754612
 40
0.9048959836
 40
0.9376127026
 40
0.9693440847
 40
1.0
 40
1.0
 40
1.0
 40
1.0
 10
5.3525635441
 20
8.0261959487
 30
0.0
 10
5.3525677171
 20
7.9361139782
 30
0.0
 10
5.3641891182
 20
7.7547775896
 30
0.0
 10
5.4162891486
 20
7.4850303514
 30
0.0
 10
5.50271169
 20
7.2184123862
 30
0.0
 10
5.622870032
 20
6.9564734275
 30
0.0
 10
5.7760158525
 20
6.700625542
 30
0.0
 10
5.9612181419
 20
6.4522144216
 30
0.0
 10
6.1774309736
 20
6.2125461057
 30
0.0
 10
6.4234350622
 20
5.98284585
 30
0.0
 10
6.6979021457
 20
5.764326636
 30
0.0
 10
6.9993311899
 20
5.5581053078
 30
0.0
 10
7.3261138342
 20
5.3652911147
 30
0.0
 10
7.6764791867
 20
5.186873459
 30
0.0
 10
8.0485571111
 20
5.0238310611
 30
0.0
 10
8.4403351908
 20
4.8769997721
 30
0.0
 10
8.8497155903
 20
4.747200667
 30
0.0
 10
9.2744846345
 20
4.6350928771
 30
0.0
 10
9.7123608419
 20
4.5413178314
 30
0.0
 10
10.1609767452
 20
4.4663401658
 30
0.0
 10
10.6179169092
 20
4.4106057324
 30
0.0
 10
11.080711659
 20
4.3743718971
 30
0.0
 10
11.5468649751
 20
4.35787883
 30
0.0
 10
12.0138595603
 20
4.361169948
 30
0.0
 10
12.4791722915
 20
4.3842751884
 30
0.0
 10
12.9402925928
 20
4.427019118
 30
0.0
 10
13.3947287879
 20
4.4892221164
 30
0.0
 10
13.840037138
 20
4.5705003642
 30
0.0
 10
14.2738016575
 20
4.6704693524
 30
0.0
 10
14.6936894726
 20
4.7885237789
 30
0.0
 10
15.0974419103
 20
4.9240921676
 30
0.0
 10
15.4829286788
 20
5.0764248647
 30
0.0
 10
15.8479707299
 20
5.2447257177
 30
0.0
 10
16.0805483059
 20
5.369114777
 30
0.0
 10
16.1927033736
 20
5.433867149
 30
0.0
  0
SPLINE
  5
2BA
100
AcDbEntity
  8
0
100
AcDbSpline
 62
7
  6
BYLAYER
 70
0
 71
3
 72
19
 73
15
 74
0
 42
0.0000001
 43
0.0000001
 44
0.0000000001
 40
0.0
 40
0.0
 40
0.0
 40
0.0
 40
0.0539068031
 40
0.1080718905
 40
0.1627478983
 40
0.2181743026
 40
0.2745754609
 40
0.3321550221
 40
0.3910923833
 40
0.45154498
 40
0.5774214734
 40
0.710590777
 40
0.8514647064
 40
1.0
 40
1.0
 40
1.0
 40
1.0
 10
18.0525501295
 20
6.3931911059
 30
0.0
 10
18.0525497754
 20
6.3331745841
 30
0.0
 10
18.0474258235
 20
6.2127916364
 30
0.0
 10
18.0243812376
 20
6.0328633955
 30
0.0
 10
17.986034098
 20
5.8538277558
 30
0.0
 10
17.9325193355
 20
5.6761376923
 30
0.0
 10
17.8639484429
 20
5.5002322902
 30
0.0
 10
17.7805099975
 20
5.3265413527
 30
0.0
 10
17.6824336482
 20
5.1554631157
 30
0.0
 10
17.5304213037
 20
4.9284004309
 30
0.0
 10
17.3034133363
 20
4.6532173625
 30
0.0
 10
16.981123986
 20
4.3447387164
 30
0.0
 10
16.6084846335
 20
4.0563085358
 30
0.0
 10
16.3359182673
 20
3.8835469786
 30
0.0
 10
16.1927033736
 20
3.8008623147
 30
0.0
  0
SPLINE
  5
2BB
100
AcDbEntity
  8
0
100
AcDbSpline
 62
7
  6
BYLAYER
 70
0
 71
3
 72
23
 73
19
 74
0
 42
0.0000001
 43
0.0000001
 44
0.0000000001
 40
0.0
 40
0.0
 40
0.0
 40
0.0
 40
0.0546815616
 40
0.1113959964
 40
0.1699597794
 40
0.2302053742
 40
0.2919516265
 40
0.3549789979
 40
0.4190508164
 40
0.4839191067
 40
0.5493278421
 40
0.6150108422
 40
0.6806987645
 40
0.7461232223
 40
0.8110186213
 40
0.8751270207
 40
0.938198712
 40
1.0
 40
1.0
 40
1.0
 40
1.0
 10
15.5916601072
 20
7.6996524706
 30
0.0
 10
15.4881294283
 20
7.6398793621
 30
0.0
 10
15.2729499922
 20
7.5253848901
 30
0.0
 10
14.9344472773
 20
7.3716316077
 30
0.0
 10
14.5761451492
 20
7.2336629753
 30
0.0
 10
14.2003328141
 20
7.1122898554
 30
0.0
 10
13.809256963
 20
7.0082743648
 30
0.0
 10
13.4053024099
 20
6.9221843557
 30
0.0
 10
12.9909306674
 20
6.854617954
 30
0.0
 10
12.568684273
 20
6.8059265205
 30
0.0
 10
12.1411349012
 20
6.7764645326
 30
0.0
 10
11.7109003973
 20
6.7663504514
 30
0.0
 10
11.2806145379
 20
6.7757110218
 30
0.0
 10
10.8529096152
 20
6.8044263172
 30
0.0
 10
10.4304051442
 20
6.8523817498
 30
0.0
 10
10.0156745193
 20
6.9192235646
 30
0.0
 10
9.6112747052
 20
7.0046008489
 30
0.0
 10
9.3471713657
 20
7.0742901761
 30
0.0
 10
9.2174894521
 20
7.1122097477
 30
0.0
  0
SPLINE
  5
2BC
100
AcDbEntity
  8
0
100
AcDbSpline
 62
7
  6
BYLAYER
 70
0
 71
3
 72
17
 73
13
 74
0
 42
0.0000001
 43
0.0000001
 44
0.0000000001
 40
0.0
 40
0.0
 40
0.0
 40
0.0
 40
0.1480562061
 40
0.2887199476
 40
0.4219081057
 40
0.5479888124
 40
0.6676269826
 40
0.7818358932
 40
0.8373665324
 40
0.8920882407
 40
0.9462219905
 40
1.0
 40
1.0
 40
1.0
 40
1.0
 10
16.1927033736
 20
7.3526478292
 30
0.0
 10
16.3319305373
 20
7.4330301899
 30
0.0
 10
16.597296829
 20
7.6008136895
 30
0.0
 10
16.9612600922
 20
7.8801480948
 30
0.0
 10
17.2778805184
 20
8.1785734907
 30
0.0
 10
17.5441659294
 20
8.4935015361
 30
0.0
 10
17.757622587
 20
8.8222091506
 30
0.0
 10
17.8908588914
 20
9.108148415
 30
0.0
 10
17.9678360201
 20
9.3396246017
 30
0.0
 10
18.0107561788
 20
9.5130873344
 30
0.0
 10
18.039296665
 20
9.6875451023
 30
0.0
 10
18.0486972837
 20
9.8045002771
 30
0.0
 10
18.0509598529
 20
9.8628507741
 30
0.0
  0
SPLINE
  5
2BD
100
AcDbEntity
  8
0
100
AcDbSpline
 62
7
  6
BYLAYER
 70
0
 71
3
 72
23
 73
19
 74
0
 42
0.0000001
 43
0.0000001
 44
0.0000000001
 40
0.0
 40
0.0
 40
0.0
 40
0.0
 40
0.0558311699
 40
0.1141819466
 40
0.1747820452
 40
0.237352271
 40
0.3015481742
 40
0.3669916804
 40
0.4332819664
 40
0.4999994799
 40
0.5667170115
 40
0.6330073516
 40
0.698450947
 40
0.7626469725
 40
0.8252173512
 40
0.8858176298
 40
0.9441686096
 40
1.0
 40
1.0
 40
1.0
 40
1.0
 10
16.1927033736
 20
3.8008623147
 30
0.0
 10
16.0422863847
 20
3.7140195441
 30
0.0
 10
15.7268335572
 20
3.5497198705
 30
0.0
 10
15.2262531512
 20
3.3362545934
 30
0.0
 10
14.6919533425
 20
3.1520864753
 30
0.0
 10
14.1291307633
 20
2.998962307
 30
0.0
 10
13.5430977587
 20
2.8783196663
 30
0.0
 10
12.9394631899
 20
2.7913098987
 30
0.0
 10
12.3239965105
 20
2.7387717164
 30
0.0
 10
11.7025830139
 20
2.7212058423
 30
0.0
 10
11.0811692648
 20
2.7387687386
 30
0.0
 10
10.4657018302
 20
2.7913039715
 30
0.0
 10
9.862066011
 20
2.8783108464
 30
0.0
 10
9.2760312733
 20
2.9989506786
 30
0.0
 10
8.7132064954
 20
3.1520721489
 30
0.0
 10
8.178904044
 20
3.3362377044
 30
0.0
 10
7.6783205769
 20
3.5497005783
 30
0.0
 10
7.3628654619
 20
3.7139986999
 30
0.0
 10
7.2124472526
 20
3.8008407288
 30
0.0
  0
SPLINE
  5
2BE
100
AcDbEntity
  8
0
100
AcDbSpline
 62
7
  6
BYLAYER
 70
0
 71
3
 72
19
 73
15
 74
0
 42
0.0000001
 43
0.0000001
 44
0.0000000001
 40
0.0
 40
0.0
 40
0.0
 40
0.0
 40
0.1482742893
 40
0.2889444766
 40
0.4219849948
 40
0.5478206326
 40
0.6082877463
 40
0.6672623351
 40
0.7249006904
 40
0.7813804509
 40
0.8369021856
 40
0.8916869851
 40
0.9459702903
 40
1.0
 40
1.0
 40
1.0
 40
1.0
 10
7.1756049723
 20
3.8222871247
 30
0.0
 10
7.035050187
 20
3.9047829484
 30
0.0
 10
6.7676017515
 20
4.0769638104
 30
0.0
 10
6.4021803831
 20
4.3638173608
 30
0.0
 10
6.0862755798
 20
4.6701285351
 30
0.0
 10
5.8638979164
 20
4.9429949309
 30
0.0
 10
5.7150139871
 20
5.1679689185
 30
0.0
 10
5.618951781
 20
5.3374405021
 30
0.0
 10
5.5372381012
 20
5.5094441541
 30
0.0
 10
5.4700870095
 20
5.6835910612
 30
0.0
 10
5.4176879746
 20
5.8594681057
 30
0.0
 10
5.3801443003
 20
6.0366479205
 30
0.0
 10
5.3575777704
 20
6.2146910496
 30
0.0
 10
5.352562758
 20
6.3338042
 30
0.0
 10
5.3525631083
 20
6.3931911059
 30
0.0
  0
ENDSEC
  0
SECTION
  2
OBJECTS
  0
DICTIONARY
  5
C
100
AcDbDictionary
280
0
281
1
  3
ACAD_GROUP
350
D
  3
ACAD_MLINESTYLE
350
17
  3
ACAD_LAYOUT
350
1A
  3
ACAD_PLOTSETTINGS
350
19
  3
ACAD_PLOTSTYLENAME
350
E
  0
DICTIONARY
  5
D
102
{ACAD_REACTORS
330
C
102
}
100
AcDbDictionary
280
0
281
1
  0
ACDBDICTIONARYWDFLT
  5
E
102
{ACAD_REACTORS
330
C
102
}
100
AcDbDictionary
281
1
  3
Normal
350
F
100
AcDbDictionaryWithDefault
340
F
  0
DICTIONARY
  5
17
102
{ACAD_REACTORS
330
C
102
}
100
AcDbDictionary
280
0
281
1
  3
Standard
350
18
  0
DICTIONARY
  5
19
102
{ACAD_REACTORS
330
C
102
}
100
AcDbDictionary
281
1
  0
DICTIONARY
  5
1A
102
{ACAD_REACTORS
330
C
102
}
100
AcDbDictionary
281
1
  3
Model
350
2BF
  3
Layout1
350
2C0
  0
ACDBPLACEHOLDER
  5
F
102
{ACAD_REACTORS
330
E
102
}
  0
MLINESTYLE
  5
18
102
{ACAD_REACTORS
330
17
102
}
100
AcDbMlineStyle
  2
STANDARD
 70
0
  3

 62
256
 51
90.0
 52
90.0
 71
2
 49
0.5
 62
256
  6
BYLAYER
 49
-0.5
 62
256
  6
BYLAYER
  0
LAYOUT
  5
2BF
102
{ACAD_REACTORS
330
1A
102
}
100
AcDbPlotSettings
  1

  2
none_device
  4

  6

 40
0.0
 41
0.0
 42
0.0
 43
0.0
 44
210.0
 45
297.0
 46
0.0
 47
0.0
 48
0.0
 49
0.0
140
0.0
141
0.0
142
1.0
143
1.0
 70
1024
 72
1
 73
0
 74
0
  7

 75
0
147
1.0
148
0.0
149
0.0
100
AcDbLayout
  1
Model
 70
0
 71
0
 10
0.0
 20
0.0
 11
210.0
 21
297.0
 12
0.0
 22
0.0
 32
0.0
 14
0.0
 24
0.0
 34
0.0
 15
0.0
 25
0.0
 35
0.0
146
0.0
 13
0.0
 23
0.0
 33
0.0
 16
1.0
 26
0.0
 36
0.0
 17
0.0
 27
1.0
 37
0.0
 76
0
330
210
345
0
346
0
  0
LAYOUT
  5
2C0
102
{ACAD_REACTORS
330
1A
102
}
100
AcDbPlotSettings
  1

  2
none_device
  4

  6

 40
0.0
 41
0.0
 42
0.0
 43
0.0
 44
210.0
 45
297.0
 46
0.0
 47
0.0
 48
0.0
 49
0.0
140
0.0
141
0.0
142
1.0
143
1.0
 70
0
 72
1
 73
0
 74
0
  7

 75
0
147
1.0
148
0.0
149
0.0
100
AcDbLayout
  1
Layout1
 70
0
 71
1
 10
0.0
 20
0.0
 11
210.0
 21
297.0
 12
0.0
 22
0.0
 32
0.0
 14
0.0
 24
0.0
 34
0.0
 15
0.0
 25
0.0
 35
0.0
146
0.0
 13
0.0
 23
0.0
 33
0.0
 16
1.0
 26
0.0
 36
0.0
 17
0.0
 27
1.0
 37
0.0
 76
0
330
211
345
0
346
0
  0
ENDSEC
  0
EOF
