999
DXF file: C:\Users\sesa63760\Dev\_Creo\CAD\MCADID0003677_3D-CAD\drw0001_1.dxf
999
Pro/ENGINEER 2019471 by Parametric Technology Corporation
  0
SECTION
  2
HEADER
  9
$ACADVER
  1
AC1024
  9
$DWGCODEPAGE
  3
ANSI_1252
  9
$EXTMAX
 10
139.5440070161
 20
197.355095637
 30
0.0
  9
$EXTMIN
 10
0.0
 20
0.0
 30
0.0
  9
$LIMMIN
 10
0.0
 20
0.0
  9
$LIMMAX
 10
139.5440070161
 20
197.355095637
  9
$VIEWCTR
 10
69.772003508
 20
98.6775478185
  9
$VIEWSIZE
 40
197.355095637
  9
$CLAYER
  8
0
  9
$LTSCALE
 40
12.8646284563
  9
$CELTYPE
  6
BYLAYER
  9
$DIMSCALE
 40
1.0
  9
$DIMASZ
 40
1.6612381788
  9
$DIMEXO
 40
1.0
  9
$DIMDLI
 40
8.8882887517
  9
$DIMEXE
 40
1.0
  9
$DIMCEN
 40
2.1051210201
  9
$DIMLFAC
 40
1.0
  9
$DIMBLK
  1
_FILLED
  9
$DIMALT
 70
0
  9
$DIMALTF
 40
0.0393700787
  9
$DIMTXT
 40
2.3257334503
  9
$DIMTOL
 70
1
  9
$DIMLIM
 70
0
  9
$DIMTFAC
 40
1.0
  9
$DIMTP
 40
0.01
  9
$DIMTM
 40
0.01
  9
$DIMGAP
 40
0.625
  9
$DIMDSEP
 70
46
  9
$AUNITS
 70
0
  9
$PDMODE
 70
3
  9
$PDSIZE
 40
0.3125
  9
$HANDSEED
  5
30D
  9
$TILEMODE
 70
1
  9
$MEASUREMENT
 70
1
  9
$INSUNITS
 70
4
  0
ENDSEC
  0
SECTION
  2
CLASSES
  0
CLASS
  1
ACDBDICTIONARYWDFLT
  2
AcDbDictionaryWithDefault
  3
AutoCAD 2000
 90
0
 91
1
280
0
281
0
  0
CLASS
  1
ACDBPLACEHOLDER
  2
AcDbPlaceHolder
  3
AutoCAD 2000
 90
0
 91
1
280
0
281
0
  0
CLASS
  1
LAYOUT
  2
AcDbLayout
  3
AutoCAD 2000
 90
0
 91
0
280
0
281
0
  0
ENDSEC
  0
SECTION
  2
TABLES
  0
TABLE
  2
VPORT
  5
8
100
AcDbSymbolTable
 70
2
  0
VPORT
  5
1F4
100
AcDbSymbolTableRecord
100
AcDbViewportTableRecord
  2
*ACTIVE
 70
0
 10
0.0
 20
0.0
 11
1.0
 21
1.0
 12
69.772003508
 22
98.6775478185
 13
0.0
 23
0.0
 14
1.0
 24
1.0
 15
0.0
 25
0.0
 16
0.0
 26
0.0
 36
1.0
 17
0.0
 27
0.0
 37
0.0
 40
197.355095637
 41
0.7070707071
 42
50.0
 43
0.0
 44
0.0
 50
0.0
 51
0.0
 71
0
 72
100
 73
1
 74
1
 75
0
 76
0
 77
0
 78
0
  0
ENDTAB
  0
TABLE
  2
LTYPE
  5
5
100
AcDbSymbolTable
 70
6
  0
LTYPE
  5
14
100
AcDbSymbolTableRecord
100
AcDbLinetypeTableRecord
  2
BYBLOCK
 70
0
  3

 72
65
 73
0
 40
0.0
  0
LTYPE
  5
15
100
AcDbSymbolTableRecord
100
AcDbLinetypeTableRecord
  2
BYLAYER
 70
0
  3

 72
65
 73
0
 40
0.0
  0
LTYPE
  5
16
100
AcDbSymbolTableRecord
100
AcDbLinetypeTableRecord
  2
CONTINUOUS
 70
64
  3
Solid line
 72
65
 73
0
 40
0.0
  0
LTYPE
  5
1F5
100
AcDbSymbolTableRecord
100
AcDbLinetypeTableRecord
  2
CENTER
 70
64
  3
____ _ ____ _ ____ _ ____ _ ____ _ ____ _ ____
 72
65
 73
4
 40
0.6
 49
0.375
 74
0
 49
-0.075
 74
0
 49
0.075
 74
0
 49
-0.075
 74
0
  0
LTYPE
  5
1F6
100
AcDbSymbolTableRecord
100
AcDbLinetypeTableRecord
  2
HIDDEN
 70
64
  3
- - - - - - - - - - - - - - - - - - - -
 72
65
 73
2
 40
0.2
 49
0.1
 74
0
 49
-0.1
 74
0
  0
LTYPE
  5
1F7
100
AcDbSymbolTableRecord
100
AcDbLinetypeTableRecord
  2
PHANTOM
 70
64
  3
_____ _ _ _____ _ _ _____ _ _ _____
 72
65
 73
6
 40
0.8
 49
0.45
 74
0
 49
-0.05
 74
0
 49
0.1
 74
0
 49
-0.05
 74
0
 49
0.1
 74
0
 49
-0.05
 74
0
  0
LTYPE
  5
1F8
100
AcDbSymbolTableRecord
100
AcDbLinetypeTableRecord
  2
DOT
 70
64
  3
. . . . . . . . . . . . . . . . . . . .
 72
65
 73
2
 40
0.2
 49
0.1
 74
0
 49
-0.1
 74
0
  0
LTYPE
  5
1F9
100
AcDbSymbolTableRecord
100
AcDbLinetypeTableRecord
  2
DASHED
 70
64
  3
- - - - - - - - - - - - - - - - - - - -
 72
65
 73
2
 40
0.2
 49
0.1
 74
0
 49
-0.1
 74
0
  0
ENDTAB
  0
TABLE
  2
LAYER
  5
2
100
AcDbSymbolTable
 70
36
  0
LAYER
  5
10
100
AcDbSymbolTableRecord
100
AcDbLayerTableRecord
  2
0
 70
0
 62
7
  6
CONTINUOUS
370
-3
390
F
  0
LAYER
  5
1FA
100
AcDbSymbolTableRecord
100
AcDbLayerTableRecord
  2
DEFAULT_1
 70
0
 62
7
  6
CENTER
370
-3
390
F
  0
LAYER
  5
1FB
100
AcDbSymbolTableRecord
100
AcDbLayerTableRecord
  2
DEFAULT_2
 70
0
 62
7
  6
HIDDEN
370
-3
390
F
  0
LAYER
  5
1FC
100
AcDbSymbolTableRecord
100
AcDbLayerTableRecord
  2
DEFAULT_3
 70
0
 62
7
  6
PHANTOM
370
-3
390
F
  0
LAYER
  5
1FD
100
AcDbSymbolTableRecord
100
AcDbLayerTableRecord
  2
00_COMPONENTS
 70
0
 62
7
  6
CONTINUOUS
370
-3
390
F
  0
LAYER
  5
1FE
100
AcDbSymbolTableRecord
100
AcDbLayerTableRecord
  2
01_1_DEFAULT_DATUMS
 70
0
 62
7
  6
CONTINUOUS
370
-3
390
F
  0
LAYER
  5
1FF
100
AcDbSymbolTableRecord
100
AcDbLayerTableRecord
  2
01_PLANES
 70
0
 62
7
  6
CONTINUOUS
370
-3
390
F
  0
LAYER
  5
200
100
AcDbSymbolTableRecord
100
AcDbLayerTableRecord
  2
02_COORD_SYS
 70
0
 62
7
  6
CONTINUOUS
370
-3
390
F
  0
LAYER
  5
201
100
AcDbSymbolTableRecord
100
AcDbLayerTableRecord
  2
03_AXES
 70
0
 62
7
  6
CONTINUOUS
370
-3
390
F
  0
LAYER
  5
202
100
AcDbSymbolTableRecord
100
AcDbLayerTableRecord
  2
04_POINTS
 70
0
 62
7
  6
CONTINUOUS
370
-3
390
F
  0
LAYER
  5
203
100
AcDbSymbolTableRecord
100
AcDbLayerTableRecord
  2
05_CURVES
 70
0
 62
7
  6
CONTINUOUS
370
-3
390
F
  0
LAYER
  5
204
100
AcDbSymbolTableRecord
100
AcDbLayerTableRecord
  2
06_SURFS
 70
0
 62
7
  6
CONTINUOUS
370
-3
390
F
  0
LAYER
  5
205
100
AcDbSymbolTableRecord
100
AcDbLayerTableRecord
  2
07_COSMETICS
 70
0
 62
7
  6
CONTINUOUS
370
-3
390
F
  0
LAYER
  5
206
100
AcDbSymbolTableRecord
100
AcDbLayerTableRecord
  2
10_NOTES
 70
0
 62
7
  6
CONTINUOUS
370
-3
390
F
  0
LAYER
  5
207
100
AcDbSymbolTableRecord
100
AcDbLayerTableRecord
  2
11_NOTES_PUB
 70
0
 62
7
  6
CONTINUOUS
370
-3
390
F
  0
LAYER
  5
208
100
AcDbSymbolTableRecord
100
AcDbLayerTableRecord
  2
13_REF_GTOL
 70
0
 62
7
  6
CONTINUOUS
370
-3
390
F
  0
LAYER
  5
209
100
AcDbSymbolTableRecord
100
AcDbLayerTableRecord
  2
16_MISC
 70
0
 62
7
  6
CONTINUOUS
370
-3
390
F
  0
LAYER
  5
20A
100
AcDbSymbolTableRecord
100
AcDbLayerTableRecord
  2
17_NO_PRINT
 70
0
 62
7
  6
CONTINUOUS
370
-3
390
F
  0
LAYER
  5
20B
100
AcDbSymbolTableRecord
100
AcDbLayerTableRecord
  2
18_DATUM_CAMS_JOINTS
 70
0
 62
7
  6
CONTINUOUS
370
-3
390
F
  0
LAYER
  5
20C
100
AcDbSymbolTableRecord
100
AcDbLayerTableRecord
  2
19_DATUM_FUNCTIONAL
 70
0
 62
7
  6
CONTINUOUS
370
-3
390
F
  0
LAYER
  5
20D
100
AcDbSymbolTableRecord
100
AcDbLayerTableRecord
  2
20_DATUM_KINEMATIC_SCHEME
 70
0
 62
7
  6
CONTINUOUS
370
-3
390
F
  0
ENDTAB
  0
TABLE
  2
STYLE
  5
3
100
AcDbSymbolTable
 70
1
  0
STYLE
  5
11
100
AcDbSymbolTableRecord
100
AcDbTextStyleTableRecord
  2
STANDARD
 70
0
 40
0.0
 41
1.0
 50
0.0
 71
0
 42
0.2
  3
ARIAL.TTF
  4

  0
STYLE
  5
20E
100
AcDbSymbolTableRecord
100
AcDbTextStyleTableRecord
  2
TEXTSTYLE_1
 70
0
 40
0.0
 41
0.8
 50
0.0
 71
0
 42
0.2
  3
gdt
  4

  0
ENDTAB
  0
TABLE
  2
VIEW
  5
6
100
AcDbSymbolTable
 70
0
  0
ENDTAB
  0
TABLE
  2
UCS
  5
7
100
AcDbSymbolTable
 70
0
  0
ENDTAB
  0
TABLE
  2
APPID
  5
9
100
AcDbSymbolTable
 70
1
  0
APPID
  5
20F
100
AcDbSymbolTableRecord
100
AcDbRegAppTableRecord
  2
ACAD
 70
0
  0
ENDTAB
  0
TABLE
  2
BLOCK_RECORD
  5
1
100
AcDbSymbolTable
 70
0
  0
BLOCK_RECORD
  5
210
100
AcDbSymbolTableRecord
100
AcDbBlockTableRecord
  2
*Model_Space
  0
BLOCK_RECORD
  5
211
100
AcDbSymbolTableRecord
100
AcDbBlockTableRecord
  2
*Paper_Space
  0
BLOCK_RECORD
  5
212
100
AcDbSymbolTableRecord
100
AcDbBlockTableRecord
  2
_FILLED
  0
ENDTAB
  0
TABLE
  2
DIMSTYLE
  5
A
100
AcDbSymbolTable
 70
1
100
AcDbDimStyleTable
 71
0
  0
DIMSTYLE
105
213
100
AcDbSymbolTableRecord
100
AcDbDimStyleTableRecord
  2
STANDARD
 70
0
  3

  4

 40
1.0
 41
1.6612381788
 42
1.0
 43
0.38
 44
1.0
 45
0.0
 46
0.0
 47
0.01
 48
0.01
140
2.3257334503
141
0.09
142
0.0
143
25.4
144
1.0
145
0.0
146
1.0
147
0.625
 71
1
 72
0
 73
0
 74
0
 75
0
 76
0
 77
1
 78
8
 79
2
170
0
171
1
172
0
173
0
174
0
175
0
176
0
177
0
178
0
270
2
179
2
271
2
272
2
273
2
274
2
275
0
280
0
281
0
282
0
283
1
284
8
285
0
286
0
287
3
288
0
340
11
278
46
341
212
342
212
343
212
344
212
  0
ENDTAB
  0
ENDSEC
  0
SECTION
  2
BLOCKS
  0
BLOCK
  5
20
100
AcDbEntity
  8
0
100
AcDbBlockBegin
  2
*Model_Space
 70
0
 10
0.0
 20
0.0
 30
0.0
  3
*Model_Space
  1

  0
ENDBLK
  5
21
100
AcDbEntity
  8
0
100
AcDbBlockEnd
  0
BLOCK
  5
1C
100
AcDbEntity
  8
0
100
AcDbBlockBegin
  2
*Paper_Space
 70
0
 10
0.0
 20
0.0
 30
0.0
  3
*Paper_Space
  1

  0
ENDBLK
  5
1D
100
AcDbEntity
  8
0
100
AcDbBlockEnd
  0
BLOCK
  5
214
100
AcDbEntity
  8
0
100
AcDbBlockBegin
  2
_FILLED
 70
64
 10
0.0
 20
0.0
  3
_FILLED
  1

  0
SOLID
  5
215
100
AcDbEntity
  8
0
  6
BYBLOCK
 62
0
100
AcDbTrace
 10
0.0
 20
0.0
 11
-1.0
 21
0.25
 12
-1.0
 22
-0.25
 13
-1.0
 23
-0.25
  0
ENDBLK
  5
216
100
AcDbEntity
  8
0
  6
BYBLOCK
 62
0
100
AcDbBlockEnd
  0
ENDSEC
  0
SECTION
  2
ENTITIES
  0
LINE
  5
217
100
AcDbEntity
  8
0
100
AcDbLine
 62
7
  6
BYLAYER
 10
16.1887103058
 20
126.8093421793
 11
16.1887103058
 21
106.3967817511
  0
LINE
  5
218
100
AcDbEntity
  8
0
100
AcDbLine
 62
7
  6
BYLAYER
 10
17.9564846187
 20
125.788740293
 11
17.9564846187
 21
129.8712523786
  0
LINE
  5
219
100
AcDbEntity
  8
0
100
AcDbLine
 62
7
  6
BYLAYER
 10
19.7242294919
 20
132.3093226914
 11
19.7242294919
 21
132.9330750343
  0
LINE
  5
21A
100
AcDbEntity
  8
0
100
AcDbLine
 62
7
  6
BYLAYER
 10
19.7242294919
 20
132.9330750343
 11
33.8663062361
 21
141.0979581117
  0
LINE
  5
21B
100
AcDbEntity
  8
0
100
AcDbLine
 62
7
  6
BYLAYER
 10
34.219868753
 20
139.8324073536
 11
21.9162619855
 21
132.7289590762
  0
LINE
  5
21C
100
AcDbEntity
  8
0
100
AcDbLine
 62
7
  6
BYLAYER
 10
39.1695997351
 20
142.1185769948
 11
35.634080549
 21
140.0773562254
  0
LINE
  5
21D
100
AcDbEntity
  8
0
100
AcDbLine
 62
7
  6
BYLAYER
 10
21.4920038047
 20
131.912473148
 11
17.9564846187
 21
129.8712523786
  0
LINE
  5
21E
100
AcDbEntity
  8
0
100
AcDbLine
 62
7
  6
BYLAYER
 10
16.7288895703
 20
127.1212129614
 11
16.1887103058
 21
126.8093421793
  0
LINE
  5
21F
100
AcDbEntity
  8
0
100
AcDbLine
 62
7
  6
BYLAYER
 10
34.2198805289
 20
136.2532981588
 11
25.015911671
 21
130.9394159807
  0
LINE
  5
220
100
AcDbEntity
  8
0
100
AcDbLine
 62
7
  6
BYLAYER
 10
26.4417642264
 20
130.1162182473
 11
38.745370994
 21
137.2196665246
  0
LINE
  5
221
100
AcDbEntity
  8
0
100
AcDbLine
 62
7
  6
BYLAYER
 10
29.8916253318
 20
90.2712501077
 11
29.8916253318
 21
108.6425544931
  0
LINE
  5
222
100
AcDbEntity
  8
0
100
AcDbLine
 62
7
  6
BYLAYER
 10
30.330969576
 20
89.6588838769
 11
30.330969576
 21
108.0301882623
  0
LINE
  5
223
100
AcDbEntity
  8
0
100
AcDbLine
 62
7
  6
BYLAYER
 10
34.2198805289
 20
134.6068889826
 11
34.219868753
 21
139.8324073536
  0
LINE
  5
224
100
AcDbEntity
  8
0
100
AcDbLine
 62
7
  6
BYLAYER
 10
47.5206179917
 20
130.0305379992
 11
38.8939511777
 21
125.049959322
  0
LINE
  5
225
100
AcDbEntity
  8
0
100
AcDbLine
 62
7
  6
BYLAYER
 10
39.5303609276
 20
124.6825362938
 11
39.6540878027
 21
124.753969612
  0
LINE
  5
226
100
AcDbEntity
  8
0
100
AcDbLine
 62
7
  6
BYLAYER
 10
46.7604813667
 20
128.8568233584
 11
47.5206179917
 21
129.2956858238
  0
LINE
  5
227
100
AcDbEntity
  8
0
100
AcDbLine
 62
7
  6
BYLAYER
 10
40.2197853582
 20
124.4273713647
 11
46.7604813667
 21
128.2036214247
  0
LINE
  5
228
100
AcDbEntity
  8
0
100
AcDbLine
 62
7
  6
BYLAYER
 10
30.4345225355
 20
89.429992651
 11
30.330969576
 21
89.6588838769
  0
LINE
  5
229
100
AcDbEntity
  8
0
100
AcDbLine
 62
7
  6
BYLAYER
 10
37.0484471976
 20
118.8487520066
 11
37.0484471976
 21
113.3023403404
  0
LINE
  5
22A
100
AcDbEntity
  8
0
100
AcDbLine
 62
7
  6
BYLAYER
 10
38.9576434555
 20
117.5015512443
 11
38.9576434555
 21
112.439236258
  0
LINE
  5
22B
100
AcDbEntity
  8
0
100
AcDbLine
 62
7
  6
BYLAYER
 10
41.7223900782
 20
123.4169963039
 11
50.3490568923
 21
128.3975749811
  0
LINE
  5
22C
100
AcDbEntity
  8
0
100
AcDbLine
 62
7
  6
BYLAYER
 10
58.261562314
 20
131.0960766227
 11
37.0484471976
 21
118.8487520066
  0
LINE
  5
22D
100
AcDbEntity
  8
0
100
AcDbLine
 62
7
  6
BYLAYER
 10
59.9586274208
 20
129.8713533394
 11
39.1697746067
 21
117.8689752156
  0
LINE
  5
22E
100
AcDbEntity
  8
0
100
AcDbLine
 62
7
  6
BYLAYER
 10
39.3819075242
 20
112.4392372779
 11
39.3819075242
 21
117.5015522641
  0
LINE
  5
22F
100
AcDbEntity
  8
0
100
AcDbLine
 62
7
  6
BYLAYER
 10
39.7354771066
 20
105.3766637261
 11
39.7354771066
 21
110.1939046296
  0
LINE
  5
230
100
AcDbEntity
  8
0
100
AcDbLine
 62
7
  6
BYLAYER
 10
39.3819075242
 20
117.5015522641
 11
60.1707603383
 21
129.5039303879
  0
LINE
  5
231
100
AcDbEntity
  8
0
100
AcDbLine
 62
7
  6
BYLAYER
 10
54.0189598985
 20
125.7889145201
 11
46.2408176892
 21
121.2982288276
  0
LINE
  5
232
100
AcDbEntity
  8
0
100
AcDbLine
 62
7
  6
BYLAYER
 10
65.0826047494
 20
129.4877721354
 11
60.2586274208
 21
126.7026641511
  0
LINE
  5
233
100
AcDbEntity
  8
0
100
AcDbLine
 62
7
  6
BYLAYER
 10
37.1520031794
 20
113.3621280575
 11
30.4345167259
 21
109.4838085957
  0
LINE
  5
234
100
AcDbEntity
  8
0
100
AcDbLine
 62
7
  6
BYLAYER
 10
30.6845156067
 20
109.4590464562
 11
37.4020020602
 21
113.337365918
  0
LINE
  5
235
100
AcDbEntity
  8
0
100
AcDbLine
 62
7
  6
BYLAYER
 10
60.2586274208
 20
126.533565952
 11
65.3326036302
 21
129.4630099959
  0
LINE
  5
236
100
AcDbEntity
  8
0
100
AcDbLine
 62
7
  6
BYLAYER
 10
45.8872628266
 20
117.4198371192
 11
46.2408176892
 21
117.6239608958
  0
LINE
  5
237
100
AcDbEntity
  8
0
100
AcDbLine
 62
7
  6
BYLAYER
 10
39.3819075242
 20
112.4392372779
 11
45.8872628266
 21
116.1950834935
  0
LINE
  5
238
100
AcDbEntity
  8
0
100
AcDbLine
 62
7
  6
BYLAYER
 10
58.2616976745
 20
123.339424138
 11
60.1707603383
 21
124.4416154017
  0
LINE
  5
239
100
AcDbEntity
  8
0
100
AcDbLine
 62
7
  6
BYLAYER
 10
30.4345257364
 20
89.429990803
 11
88.4175231984
 21
55.9542489323
  0
LINE
  5
23A
100
AcDbEntity
  8
0
100
AcDbLine
 62
7
  6
BYLAYER
 10
88.3139670381
 20
56.1831420062
 11
30.330969576
 21
89.6588838769
  0
LINE
  5
23B
100
AcDbEntity
  8
0
100
AcDbLine
 62
7
  6
BYLAYER
 10
44.6852451827
 20
107.336219348
 11
44.6852451827
 21
104.9295783098
  0
LINE
  5
23C
100
AcDbEntity
  8
0
100
AcDbLine
 62
7
  6
BYLAYER
 10
45.8872628266
 20
117.4198371192
 11
45.8872628266
 21
116.1950834935
  0
LINE
  5
23D
100
AcDbEntity
  8
0
100
AcDbLine
 62
7
  6
BYLAYER
 10
45.9790567731
 20
99.7599178031
 11
45.9790567731
 21
105.0701986596
  0
LINE
  5
23E
100
AcDbEntity
  8
0
100
AcDbLine
 62
7
  6
BYLAYER
 10
46.2408176892
 20
117.2157167419
 11
46.2408176892
 21
121.2982288276
  0
LINE
  5
23F
100
AcDbEntity
  8
0
100
AcDbLine
 62
7
  6
BYLAYER
 10
46.4184010172
 20
98.7423155089
 11
46.4184010172
 21
104.4578324288
  0
LINE
  5
240
100
AcDbEntity
  8
0
100
AcDbLine
 62
7
  6
BYLAYER
 10
46.6651035432
 20
109.5614141497
 11
46.6651035432
 21
112.969969975
  0
LINE
  5
241
100
AcDbEntity
  8
0
100
AcDbLine
 62
7
  6
BYLAYER
 10
46.7604813667
 20
128.2036214247
 11
46.7604813667
 21
128.8568233584
  0
LINE
  5
242
100
AcDbEntity
  8
0
100
AcDbLine
 62
7
  6
BYLAYER
 10
46.8144066631
 20
112.8837717286
 11
46.8144066631
 21
109.4970379373
  0
LINE
  5
243
100
AcDbEntity
  8
0
100
AcDbLine
 62
7
  6
BYLAYER
 10
47.5206179917
 20
129.2956858238
 11
47.5206179917
 21
130.0305379992
  0
LINE
  5
244
100
AcDbEntity
  8
0
100
AcDbLine
 62
7
  6
BYLAYER
 10
45.9928476081
 20
105.1873611402
 11
45.9791302685
 21
105.0701986251
  0
LINE
  5
245
100
AcDbEntity
  8
0
100
AcDbLine
 62
7
  6
BYLAYER
 10
60.1707603383
 20
129.5039303879
 11
60.2586274208
 21
129.6264026142
  0
LINE
  5
246
100
AcDbEntity
  8
0
100
AcDbLine
 62
7
  6
BYLAYER
 10
60.2586209129
 20
124.564087628
 11
60.1707603383
 21
124.4416154017
  0
LINE
  5
247
100
AcDbEntity
  8
0
100
AcDbLine
 62
7
  6
BYLAYER
 10
50.7648784289
 20
118.6863202309
 11
50.7648784289
 21
114.6038081452
  0
LINE
  5
248
100
AcDbEntity
  8
0
100
AcDbLine
 62
7
  6
BYLAYER
 10
29.8916253318
 20
98.4855790474
 11
16.1887103058
 21
106.3967817511
  0
LINE
  5
249
100
AcDbEntity
  8
0
100
AcDbLine
 62
7
  6
BYLAYER
 10
58.261562314
 20
131.0960766227
 11
58.261562314
 21
130.9525896472
  0
LINE
  5
24A
100
AcDbEntity
  8
0
100
AcDbLine
 62
7
  6
BYLAYER
 10
60.1707603383
 20
129.5039303879
 11
60.1707603383
 21
124.4416154017
  0
LINE
  5
24B
100
AcDbEntity
  8
0
100
AcDbLine
 62
7
  6
BYLAYER
 10
60.2586274208
 20
129.6264026142
 11
60.2586274208
 21
124.564087628
  0
LINE
  5
24C
100
AcDbEntity
  8
0
100
AcDbLine
 62
7
  6
BYLAYER
 10
30.330969576
 20
108.0301882623
 11
46.4184010172
 21
98.7423155089
  0
LINE
  5
24D
100
AcDbEntity
  8
0
100
AcDbLine
 62
7
  6
BYLAYER
 10
45.9813802293
 20
99.8111158336
 11
30.6845214946
 21
108.6425615478
  0
LINE
  5
24E
100
AcDbEntity
  8
0
100
AcDbLine
 62
7
  6
BYLAYER
 10
88.3139670381
 20
76.1874512259
 11
46.4184010172
 21
100.3753203432
  0
LINE
  5
24F
100
AcDbEntity
  8
0
100
AcDbLine
 62
7
  6
BYLAYER
 10
35.5635644671
 20
107.7852641218
 11
40.5133325431
 21
104.9275788401
  0
LINE
  5
250
100
AcDbEntity
  8
0
100
AcDbLine
 62
7
  6
BYLAYER
 10
46.4184010172
 20
104.4578324288
 11
88.3139670381
 21
80.2699633116
  0
LINE
  5
251
100
AcDbEntity
  8
0
100
AcDbLine
 62
7
  6
BYLAYER
 10
89.2433659329
 20
81.2437855448
 11
89.1314729651
 21
81.3083855184
  0
LINE
  5
252
100
AcDbEntity
  8
0
100
AcDbLine
 62
7
  6
BYLAYER
 10
44.6852451827
 20
107.336219348
 11
39.7354771066
 21
110.1939046296
  0
LINE
  5
253
100
AcDbEntity
  8
0
100
AcDbLine
 62
7
  6
BYLAYER
 10
89.93152384
 20
81.2547271345
 11
89.9709705383
 21
81.2319530878
  0
LINE
  5
254
100
AcDbEntity
  8
0
100
AcDbLine
 62
7
  6
BYLAYER
 10
37.4020020602
 20
113.337365918
 11
38.9576434555
 21
112.439236258
  0
LINE
  5
255
100
AcDbEntity
  8
0
100
AcDbLine
 62
7
  6
BYLAYER
 10
68.2317617464
 20
123.3010022156
 11
68.2317617464
 21
126.6461440306
  0
LINE
  5
256
100
AcDbEntity
  8
0
100
AcDbLine
 62
7
  6
BYLAYER
 10
17.9564846187
 20
125.788740293
 11
16.1887103058
 21
126.8093421793
  0
LINE
  5
257
100
AcDbEntity
  8
0
100
AcDbLine
 62
7
  6
BYLAYER
 10
43.6952674269
 20
111.2553445287
 11
46.5237063275
 21
109.6223815106
  0
LINE
  5
258
100
AcDbEntity
  8
0
100
AcDbLine
 62
7
  6
BYLAYER
 10
16.7288895703
 20
127.1212129614
 11
17.9564846187
 21
126.4124766636
  0
LINE
  5
259
100
AcDbEntity
  8
0
100
AcDbLine
 62
7
  6
BYLAYER
 10
46.8144066631
 20
112.8837717286
 11
46.6651035432
 21
112.969969975
  0
LINE
  5
25A
100
AcDbEntity
  8
0
100
AcDbLine
 62
7
  6
BYLAYER
 10
37.0484471976
 20
118.6038012815
 11
38.9576434555
 21
117.5015512443
  0
LINE
  5
25B
100
AcDbEntity
  8
0
100
AcDbLine
 62
7
  6
BYLAYER
 10
37.0484471976
 20
118.8487520066
 11
17.9564846187
 21
129.8712523786
  0
LINE
  5
25C
100
AcDbEntity
  8
0
100
AcDbLine
 62
7
  6
BYLAYER
 10
39.1697746067
 20
117.8689752156
 11
37.2605783488
 21
118.9712252528
  0
LINE
  5
25D
100
AcDbEntity
  8
0
100
AcDbLine
 62
7
  6
BYLAYER
 10
88.3139670381
 20
56.1831420062
 11
88.4175199975
 21
55.9542507804
  0
LINE
  5
25E
100
AcDbEntity
  8
0
100
AcDbLine
 62
7
  6
BYLAYER
 10
45.8872628266
 20
116.1950834935
 11
50.7783321459
 21
113.3712871882
  0
LINE
  5
25F
100
AcDbEntity
  8
0
100
AcDbLine
 62
7
  6
BYLAYER
 10
20.9518107076
 20
131.6005943796
 11
19.7242294919
 21
132.3093226914
  0
LINE
  5
260
100
AcDbEntity
  8
0
100
AcDbLine
 62
7
  6
BYLAYER
 10
45.8872628266
 20
117.4198371192
 11
50.7648784289
 21
114.6038081452
  0
LINE
  5
261
100
AcDbEntity
  8
0
100
AcDbLine
 62
7
  6
BYLAYER
 10
21.4920038047
 20
131.912473148
 11
19.7242294919
 21
132.9330750343
  0
LINE
  5
262
100
AcDbEntity
  8
0
100
AcDbLine
 62
7
  6
BYLAYER
 10
21.9162619855
 20
132.7289590762
 11
26.4417642264
 21
130.1162182473
  0
LINE
  5
263
100
AcDbEntity
  8
0
100
AcDbLine
 62
7
  6
BYLAYER
 10
30.6845156067
 20
109.4590464562
 11
30.4345167259
 21
109.4838085957
  0
LINE
  5
264
100
AcDbEntity
  8
0
100
AcDbLine
 62
7
  6
BYLAYER
 10
41.7223900782
 20
123.4169963039
 11
38.8939511777
 21
125.049959322
  0
LINE
  5
265
100
AcDbEntity
  8
0
100
AcDbLine
 62
7
  6
BYLAYER
 10
39.6540878027
 20
124.753969612
 11
41.8461169533
 21
123.4884296221
  0
LINE
  5
266
100
AcDbEntity
  8
0
100
AcDbLine
 62
7
  6
BYLAYER
 10
40.2371551322
 20
124.4373997485
 11
41.5441620701
 21
123.682816012
  0
LINE
  5
267
100
AcDbEntity
  8
0
100
AcDbLine
 62
7
  6
BYLAYER
 10
46.2408176892
 20
121.2982288276
 11
50.7648784289
 21
118.6863202309
  0
LINE
  5
268
100
AcDbEntity
  8
0
100
AcDbLine
 62
7
  6
BYLAYER
 10
37.1520086026
 20
113.3621186642
 11
37.4020020602
 21
113.337365918
  0
LINE
  5
269
100
AcDbEntity
  8
0
100
AcDbLine
 62
7
  6
BYLAYER
 10
43.7951603812
 20
126.4916027749
 11
45.3038077493
 21
125.6206045154
  0
LINE
  5
26A
100
AcDbEntity
  8
0
100
AcDbLine
 62
7
  6
BYLAYER
 10
46.86252788
 20
126.384638533
 11
45.2361962848
 21
127.3235802755
  0
LINE
  5
26B
100
AcDbEntity
  8
0
100
AcDbLine
 62
7
  6
BYLAYER
 10
46.2654960056
 20
127.9178431991
 11
47.8918276007
 21
126.9789014566
  0
LINE
  5
26C
100
AcDbEntity
  8
0
100
AcDbLine
 62
7
  6
BYLAYER
 10
46.7604813667
 20
128.8568233584
 11
48.9525105173
 21
127.5912833685
  0
LINE
  5
26D
100
AcDbEntity
  8
0
100
AcDbLine
 62
7
  6
BYLAYER
 10
35.6457330843
 20
135.4301004254
 11
34.2198805289
 21
136.2532981588
  0
LINE
  5
26E
100
AcDbEntity
  8
0
100
AcDbLine
 62
7
  6
BYLAYER
 10
85.5052859443
 20
73.6798982894
 11
85.5052859443
 21
70.9615314442
  0
LINE
  5
26F
100
AcDbEntity
  8
0
100
AcDbLine
 62
7
  6
BYLAYER
 10
88.3139670381
 20
80.2699633116
 11
88.3139670381
 21
56.1831420062
  0
LINE
  5
270
100
AcDbEntity
  8
0
100
AcDbLine
 62
7
  6
BYLAYER
 10
47.5206179917
 20
129.2956858238
 11
49.7126471423
 21
128.0301458339
  0
LINE
  5
271
100
AcDbEntity
  8
0
100
AcDbLine
 62
7
  6
BYLAYER
 10
58.5430206383
 20
123.1770059235
 11
54.0189598985
 21
125.7889145201
  0
LINE
  5
272
100
AcDbEntity
  8
0
100
AcDbLine
 62
7
  6
BYLAYER
 10
47.5206179917
 20
130.0305379992
 11
50.3490568923
 21
128.3975749811
  0
LINE
  5
273
100
AcDbEntity
  8
0
100
AcDbLine
 62
7
  6
BYLAYER
 10
38.745370994
 20
137.2196665246
 11
34.219868753
 21
139.8324073536
  0
LINE
  5
274
100
AcDbEntity
  8
0
100
AcDbLine
 62
7
  6
BYLAYER
 10
35.634080549
 20
140.0773562254
 11
33.8663062361
 21
141.0979581117
  0
LINE
  5
275
100
AcDbEntity
  8
0
100
AcDbLine
 62
7
  6
BYLAYER
 10
64.0598491068
 20
124.2375035228
 11
66.5003215577
 21
122.8285279716
  0
LINE
  5
276
100
AcDbEntity
  8
0
100
AcDbLine
 62
7
  6
BYLAYER
 10
90.4352873816
 20
56.1831471053
 11
90.4352873816
 21
80.2699684106
  0
LINE
  5
277
100
AcDbEntity
  8
0
100
AcDbLine
 62
7
  6
BYLAYER
 10
58.0494311629
 20
130.9736033766
 11
59.9586274208
 21
129.8713533394
  0
LINE
  5
278
100
AcDbEntity
  8
0
100
AcDbLine
 62
7
  6
BYLAYER
 10
58.1994286178
 20
130.9884617419
 11
60.1086248757
 21
129.8862117047
  0
LINE
  5
279
100
AcDbEntity
  8
0
100
AcDbLine
 62
7
  6
BYLAYER
 10
39.1695997351
 20
142.1185769948
 11
58.261562314
 21
131.0960766227
  0
LINE
  5
27A
100
AcDbEntity
  8
0
100
AcDbLine
 62
7
  6
BYLAYER
 10
72.1662203849
 20
124.374634665
 11
68.2317617464
 21
126.6461440306
  0
LINE
  5
27B
100
AcDbEntity
  8
0
100
AcDbLine
 62
7
  6
BYLAYER
 10
90.4352873816
 20
80.2699684106
 11
125.0833754051
 21
100.2739319503
  0
LINE
  5
27C
100
AcDbEntity
  8
0
100
AcDbLine
 62
7
  6
BYLAYER
 10
66.7468171925
 20
129.4630133953
 11
74.6294931253
 21
124.9120512801
  0
LINE
  5
27D
100
AcDbEntity
  8
0
100
AcDbLine
 62
7
  6
BYLAYER
 10
74.8652696541
 20
124.9450245126
 11
66.9968129508
 21
129.4877773375
  0
LINE
  5
27E
100
AcDbEntity
  8
0
100
AcDbLine
 62
7
  6
BYLAYER
 10
120.2810349238
 20
99.2089341631
 11
120.1924174008
 21
99.2600963564
  0
LINE
  5
27F
100
AcDbEntity
  8
0
100
AcDbLine
 62
7
  6
BYLAYER
 10
125.0833754051
 20
96.1914198646
 11
90.4352873816
 21
76.1874563249
  0
LINE
  5
280
100
AcDbEntity
  8
0
100
AcDbLine
 62
7
  6
BYLAYER
 10
66.7468171925
 20
129.4630133953
 11
66.9968129508
 21
129.4877773375
  0
LINE
  5
281
100
AcDbEntity
  8
0
100
AcDbLine
 62
7
  6
BYLAYER
 10
60.1086248757
 20
129.8862117047
 11
59.9586274208
 21
129.8713533394
  0
LINE
  5
282
100
AcDbEntity
  8
0
100
AcDbLine
 62
7
  6
BYLAYER
 10
65.0826047494
 20
129.4877721354
 11
65.3326036302
 21
129.4630099959
  0
LINE
  5
283
100
AcDbEntity
  8
0
100
AcDbLine
 62
7
  6
BYLAYER
 10
125.0833665732
 20
101.4986593129
 11
83.1878005524
 21
125.6865284301
  0
LINE
  5
284
100
AcDbEntity
  8
0
100
AcDbLine
 62
7
  6
BYLAYER
 10
90.3317313998
 20
55.9542541345
 11
90.4352873816
 21
56.1831471053
  0
LINE
  5
285
100
AcDbEntity
  8
0
100
AcDbLine
 62
7
  6
BYLAYER
 10
58.0494311629
 20
130.9736033766
 11
58.1994253639
 21
130.9884561059
  0
LINE
  5
286
100
AcDbEntity
  8
0
100
AcDbLine
 62
7
  6
BYLAYER
 10
125.0833754051
 20
76.187110645
 11
90.4352873816
 21
56.1831471053
  0
LINE
  5
287
100
AcDbEntity
  8
0
100
AcDbLine
 62
7
  6
BYLAYER
 10
90.3317313998
 20
55.9542541345
 11
124.9798194233
 21
75.9582176742
  0
LINE
  5
288
100
AcDbEntity
  8
0
100
AcDbLine
 62
7
  6
BYLAYER
 10
125.0833754051
 20
100.2739319503
 11
125.0833754051
 21
76.187110645
  0
LINE
  5
289
100
AcDbEntity
  8
0
100
AcDbLine
 62
7
  6
BYLAYER
 10
125.5227108174
 20
76.7994717768
 11
125.5227108174
 21
100.8862930821
  0
LINE
  5
28A
100
AcDbEntity
  8
0
100
AcDbLine
 62
7
  6
BYLAYER
 10
125.0833754051
 20
76.187110645
 11
124.9798215833
 21
75.9582189213
  0
ARC
  5
28B
100
AcDbEntity
  8
0
100
AcDbCircle
 62
7
  6
BYLAYER
 10
50.2958966194
 20
112.7655933395
 40
14.0609912065
100
AcDbArc
 50
128.5412399951
 51
128.9690396755
  0
ARC
  5
28C
100
AcDbEntity
  8
0
100
AcDbCircle
 62
7
  6
BYLAYER
 10
50.2235351556
 20
112.8562677952
 40
13.9449824651
100
AcDbArc
 50
128.4146375401
 51
128.5408250328
  0
ARC
  5
28D
100
AcDbEntity
  8
0
100
AcDbCircle
 62
7
  6
BYLAYER
 10
48.6802807233
 20
115.0782018279
 40
11.2379031219
100
AcDbArc
 50
120.0149405299
 51
121.9085454521
  0
ARC
  5
28E
100
AcDbEntity
  8
0
100
AcDbCircle
 62
7
  6
BYLAYER
 10
77.8618796017
 20
76.7636697155
 40
3.56505378
100
AcDbArc
 50
128.0089121913
 51
132.2817812513
  0
ARC
  5
28F
100
AcDbEntity
  8
0
100
AcDbCircle
 62
7
  6
BYLAYER
 10
84.651132045
 20
64.9979870936
 40
3.5523710695
100
AcDbArc
 50
287.3773224857
 51
294.4327941374
  0
ARC
  5
290
100
AcDbEntity
  8
0
100
AcDbCircle
 62
7
  6
BYLAYER
 10
89.3720529749
 20
78.4687200238
 40
2.5349125779
100
AcDbArc
 50
261.2688401196
 51
270.0582260684
  0
ARC
  5
291
100
AcDbEntity
  8
0
100
AcDbCircle
 62
7
  6
BYLAYER
 10
61.3819844899
 20
116.1541722432
 40
0.5009685316
100
AcDbArc
 50
0.0233419134
 51
1.6646043865
  0
ARC
  5
292
100
AcDbEntity
  8
0
100
AcDbCircle
 62
7
  6
BYLAYER
 10
121.4861815928
 20
99.4163760936
 40
0.5009685316
100
AcDbArc
 50
0.0233419135
 51
1.6646043864
  0
ARC
  5
293
100
AcDbEntity
  8
0
100
AcDbCircle
 62
7
  6
BYLAYER
 10
90.3736127554
 20
81.4536333233
 40
0.5009685316
100
AcDbArc
 50
0.0233419135
 51
1.6646043864
  0
ARC
  5
294
100
AcDbEntity
  8
0
100
AcDbCircle
 62
7
  6
BYLAYER
 10
119.4875519798
 20
99.4167785054
 40
0.500348279
100
AcDbArc
 50
176.7551069926
 51
180.0226990494
  0
ARC
  5
295
100
AcDbEntity
  8
0
100
AcDbCircle
 62
7
  6
BYLAYER
 10
88.3749831423
 20
81.4540357351
 40
0.500348279
100
AcDbArc
 50
176.7551069926
 51
180.0226990494
  0
ARC
  5
296
100
AcDbEntity
  8
0
100
AcDbCircle
 62
7
  6
BYLAYER
 10
59.3833548769
 20
116.1545746551
 40
0.5003482791
100
AcDbArc
 50
176.7551069928
 51
180.0226990491
  0
ARC
  5
297
100
AcDbEntity
  8
0
100
AcDbCircle
 62
7
  6
BYLAYER
 10
59.9586274208
 20
129.6264026142
 40
0.3
100
AcDbArc
 50
0.0
 51
60.0005612632
  0
SPLINE
  5
298
100
AcDbEntity
  8
0
100
AcDbSpline
 62
7
  6
BYLAYER
 70
0
 71
3
 72
11
 73
7
 74
0
 42
0.0000001
 43
0.0000001
 44
0.0000000001
 40
0.0
 40
0.0
 40
0.0
 40
0.0
 40
0.2789662882
 40
0.5348149407
 40
0.7725623006
 40
1.0
 40
1.0
 40
1.0
 40
1.0
 10
20.4003325037
 20
131.2910654689
 30
0.0
 10
20.3828892607
 20
131.3976437604
 30
0.0
 10
20.3339717396
 20
131.6000247753
 30
0.0
 10
20.2100571485
 20
131.8744615965
 30
0.0
 10
20.0406250368
 20
132.0994802106
 30
0.0
 10
19.8976879306
 20
132.2129536822
 30
0.0
 10
19.8220711341
 20
132.2580597029
 30
0.0
  0
SPLINE
  5
299
100
AcDbEntity
  8
0
100
AcDbSpline
 62
7
  6
BYLAYER
 70
0
 71
3
 72
11
 73
7
 74
0
 42
0.0000001
 43
0.0000001
 44
0.0000000001
 40
0.0
 40
0.0
 40
0.0
 40
0.0
 40
0.2274088504
 40
0.4651448303
 40
0.7210675508
 40
1.0
 40
1.0
 40
1.0
 40
1.0
 10
16.822895185
 20
127.0617207672
 30
0.0
 10
16.8998253313
 20
127.0188291115
 30
0.0
 10
17.0696877105
 20
126.9518938913
 30
0.0
 10
17.3494481871
 20
126.9178599334
 30
0.0
 10
17.6492050821
 20
126.9480400453
 30
0.0
 10
17.8490001012
 20
127.0070246967
 30
0.0
 10
17.950037506
 20
127.0452742504
 30
0.0
  0
SPLINE
  5
29A
100
AcDbEntity
  8
0
100
AcDbSpline
 62
7
  6
BYLAYER
 70
0
 71
3
 72
11
 73
7
 74
0
 42
0.0000001
 43
0.0000001
 44
0.0000000001
 40
0.0
 40
0.0
 40
0.0
 40
0.0
 40
0.2702973459
 40
0.5254855651
 40
0.7676973699
 40
1.0
 40
1.0
 40
1.0
 40
1.0
 10
51.6578115083
 20
114.4455998547
 30
0.0
 10
50.941541147
 20
113.7611001562
 30
0.0
 10
49.6214009751
 20
112.3509901097
 30
0.0
 10
47.9739226815
 20
110.0591383183
 30
0.0
 10
46.7372575314
 20
107.6765037209
 30
0.0
 10
46.1888221022
 20
106.0159846617
 30
0.0
 10
45.9928476081
 20
105.1873611402
 30
0.0
  0
SPLINE
  5
29B
100
AcDbEntity
  8
0
100
AcDbSpline
 62
7
  6
BYLAYER
 70
0
 71
3
 72
15
 73
11
 74
0
 42
0.0000001
 43
0.0000001
 44
0.0000000001
 40
0.0
 40
0.0
 40
0.0
 40
0.0
 40
0.1226485723
 40
0.2505390964
 40
0.381435179
 40
0.5129945302
 40
0.6428031604
 40
0.7685473005
 40
0.8881826047
 40
1.0
 40
1.0
 40
1.0
 40
1.0
 10
65.8882762322
 20
122.6615134514
 30
0.0
 10
65.5963175626
 20
122.559677859
 30
0.0
 10
64.9871303585
 20
122.3870848862
 30
0.0
 10
64.0381263737
 20
122.2226021747
 30
0.0
 10
63.0551404847
 20
122.1501568962
 30
0.0
 10
62.0649422759
 20
122.1716185726
 30
0.0
 10
61.0942214023
 20
122.28650658
 30
0.0
 10
60.1690509905
 20
122.4916547164
 30
0.0
 10
59.3145630712
 20
122.7816186073
 30
0.0
 10
58.7871569742
 20
123.0360569329
 30
0.0
 10
58.5430206383
 20
123.1770059235
 30
0.0
  0
SPLINE
  5
29C
100
AcDbEntity
  8
0
100
AcDbSpline
 62
7
  6
BYLAYER
 70
0
 71
3
 72
10
 73
6
 74
0
 42
0.0000001
 43
0.0000001
 44
0.0000000001
 40
0.0
 40
0.0
 40
0.0
 40
0.0
 40
0.5113775063
 40
0.7593396371
 40
1.0
 40
1.0
 40
1.0
 40
1.0
 10
81.924198151
 20
125.9322122184
 30
0.0
 10
79.1366625181
 20
125.7124484833
 30
0.0
 10
75.0097062533
 20
125.1438046473
 30
0.0
 10
69.6863603866
 20
123.8834258045
 30
0.0
 10
67.1307801775
 20
123.0949005657
 30
0.0
 10
65.8882762322
 20
122.6615134514
 30
0.0
  0
SPLINE
  5
29D
100
AcDbEntity
  8
0
100
AcDbSpline
 62
7
  6
BYLAYER
 70
0
 71
3
 72
10
 73
6
 74
0
 42
0.0000001
 43
0.0000001
 44
0.0000000001
 40
0.0
 40
0.0
 40
0.0
 40
0.0
 40
0.2279819146
 40
0.4760029333
 40
1.0
 40
1.0
 40
1.0
 40
1.0
 10
83.1878005524
 20
125.6865284301
 30
0.0
 10
83.1020543521
 20
125.736032902
 30
0.0
 10
82.9120594259
 20
125.8209649062
 30
0.0
 10
82.4913918058
 20
125.9329325514
 30
0.0
 10
82.1510617246
 20
125.9500976889
 30
0.0
 10
81.924198151
 20
125.9322122184
 30
0.0
  0
SPLINE
  5
29E
100
AcDbEntity
  8
0
100
AcDbSpline
 62
7
  6
BYLAYER
 70
0
 71
3
 72
11
 73
7
 74
0
 42
0.0000001
 43
0.0000001
 44
0.0000000001
 40
0.0
 40
0.0
 40
0.0
 40
0.0
 40
0.2897485302
 40
0.5490818528
 40
0.7822235759
 40
1.0
 40
1.0
 40
1.0
 40
1.0
 10
58.2616682968
 20
116.3993482717
 30
0.0
 10
58.1300098133
 20
116.475359613
 30
0.0
 10
57.8911674475
 20
116.6398233037
 30
0.0
 10
57.6057616775
 20
116.9398264799
 30
0.0
 10
57.4252302288
 20
117.2716456338
 30
0.0
 10
57.3829777453
 20
117.5098178
 30
0.0
 10
57.3829970625
 20
117.624080735
 30
0.0
  0
SPLINE
  5
29F
100
AcDbEntity
  8
0
100
AcDbSpline
 62
7
  6
BYLAYER
 70
0
 71
3
 72
11
 73
7
 74
0
 42
0.0000001
 43
0.0000001
 44
0.0000000001
 40
0.0
 40
0.0
 40
0.0
 40
0.0
 40
0.2897485302
 40
0.5490818528
 40
0.7822235759
 40
1.0
 40
1.0
 40
1.0
 40
1.0
 10
87.2532965624
 20
81.6988093517
 30
0.0
 10
87.1216380788
 20
81.774820693
 30
0.0
 10
86.8827957131
 20
81.9392843837
 30
0.0
 10
86.5973899431
 20
82.2392875599
 30
0.0
 10
86.4168584944
 20
82.5711067138
 30
0.0
 10
86.3746060108
 20
82.8092788801
 30
0.0
 10
86.3746253281
 20
82.9235418151
 30
0.0
  0
SPLINE
  5
2A0
100
AcDbEntity
  8
0
100
AcDbSpline
 62
7
  6
BYLAYER
 70
0
 71
3
 72
11
 73
7
 74
0
 42
0.0000001
 43
0.0000001
 44
0.0000000001
 40
0.0
 40
0.0
 40
0.0
 40
0.0
 40
0.2897485302
 40
0.5490818528
 40
0.7822235759
 40
1.0
 40
1.0
 40
1.0
 40
1.0
 10
118.3658653998
 20
99.6615521221
 30
0.0
 10
118.2342069163
 20
99.7375634634
 30
0.0
 10
117.9953645505
 20
99.9020271541
 30
0.0
 10
117.7099587805
 20
100.2020303303
 30
0.0
 10
117.5294273318
 20
100.5338494842
 30
0.0
 10
117.4871748482
 20
100.7720216504
 30
0.0
 10
117.4871941655
 20
100.8862845854
 30
0.0
  0
SPLINE
  5
2A1
100
AcDbEntity
  8
0
100
AcDbSpline
 62
7
  6
BYLAYER
 70
0
 71
3
 72
13
 73
9
 74
0
 42
0.0000001
 43
0.0000001
 44
0.0000000001
 40
0.0
 40
0.0
 40
0.0
 40
0.0
 40
0.1012105238
 40
0.2056829299
 40
0.316189297
 40
0.4347193381
 40
0.6990454411
 40
1.0
 40
1.0
 40
1.0
 40
1.0
 10
63.3829625544
 20
117.6240807316
 30
0.0
 10
63.382949883
 20
117.5491280037
 30
0.0
 10
63.3655551228
 20
117.3962892698
 30
0.0
 10
63.2884026652
 20
117.1734718716
 30
0.0
 10
63.1623849115
 20
116.9593556492
 30
0.0
 10
62.9241490995
 20
116.6803175822
 30
0.0
 10
62.5111317112
 20
116.3764292834
 30
0.0
 10
62.125295589
 20
116.2070406613
 30
0.0
 10
61.9144627137
 20
116.1347698339
 30
0.0
  0
SPLINE
  5
2A2
100
AcDbEntity
  8
0
100
AcDbSpline
 62
7
  6
BYLAYER
 70
0
 71
3
 72
11
 73
7
 74
0
 42
0.0000001
 43
0.0000001
 44
0.0000000001
 40
0.0
 40
0.0
 40
0.0
 40
0.0
 40
0.2440596056
 40
0.500066046
 40
0.7560495069
 40
1.0
 40
1.0
 40
1.0
 40
1.0
 10
61.9144627137
 20
116.1347698339
 30
0.0
 10
61.674620981
 20
116.0525551392
 30
0.0
 10
61.1663601124
 20
115.9311785651
 30
0.0
 10
60.3802540445
 20
115.8718317652
 30
0.0
 10
59.594327405
 20
115.9319919961
 30
0.0
 10
59.0863223841
 20
116.0538869886
 30
0.0
 10
58.8467000821
 20
116.1363915296
 30
0.0
  0
SPLINE
  5
2A3
100
AcDbEntity
  8
0
100
AcDbSpline
 62
7
  6
BYLAYER
 70
0
 71
3
 72
9
 73
5
 74
0
 42
0.0000001
 43
0.0000001
 44
0.0000000001
 40
0.0
 40
0.0
 40
0.0
 40
0.0
 40
0.2601374451
 40
1.0
 40
1.0
 40
1.0
 40
1.0
 10
58.8467000821
 20
116.1363915296
 30
0.0
 10
58.7940678243
 20
116.1545133831
 30
0.0
 10
58.5933046467
 20
116.2285339758
 30
0.0
 10
58.3987757138
 20
116.3201910584
 30
0.0
 10
58.2616682968
 20
116.3993482717
 30
0.0
  0
SPLINE
  5
2A4
100
AcDbEntity
  8
0
100
AcDbSpline
 62
7
  6
BYLAYER
 70
0
 71
3
 72
11
 73
7
 74
0
 42
0.0000001
 43
0.0000001
 44
0.0000000001
 40
0.0
 40
0.0
 40
0.0
 40
0.0
 40
0.2897403735
 40
0.549029767
 40
0.7821436959
 40
1.0
 40
1.0
 40
1.0
 40
1.0
 10
46.4184010172
 20
100.3753203432
 30
0.0
 10
46.3525735396
 20
100.4133249953
 30
0.0
 10
46.2331520019
 20
100.4955388188
 30
0.0
 10
46.0904918513
 20
100.6455419825
 30
0.0
 10
46.0001565235
 20
100.8114223175
 30
0.0
 10
45.9790755701
 20
100.9305340399
 30
0.0
 10
45.9790808783
 20
100.987686541
 30
0.0
  0
SPLINE
  5
2A5
100
AcDbEntity
  8
0
100
AcDbSpline
 62
7
  6
BYLAYER
 70
0
 71
3
 72
11
 73
7
 74
0
 42
0.0000001
 43
0.0000001
 44
0.0000000001
 40
0.0
 40
0.0
 40
0.0
 40
0.0
 40
0.2372398078
 40
0.4999994051
 40
0.7627593222
 40
1.0
 40
1.0
 40
1.0
 40
1.0
 10
90.4352873816
 20
76.1874563249
 30
0.0
 10
90.2847037563
 20
76.1005173473
 30
0.0
 10
89.9345234744
 20
75.9736528234
 30
0.0
 10
89.3746290062
 20
75.9128706032
 30
0.0
 10
88.8147336119
 20
75.9736502204
 30
0.0
 10
88.4645518424
 20
76.1005130154
 30
0.0
 10
88.3139670381
 20
76.1874512259
 30
0.0
  0
SPLINE
  5
2A6
100
AcDbEntity
  8
0
100
AcDbSpline
 62
7
  6
BYLAYER
 70
0
 71
3
 72
13
 73
9
 74
0
 42
0.0000001
 43
0.0000001
 44
0.0000000001
 40
0.0
 40
0.0
 40
0.0
 40
0.0
 40
0.1012105238
 40
0.2056829299
 40
0.316189297
 40
0.4347193381
 40
0.6990454411
 40
1.0
 40
1.0
 40
1.0
 40
1.0
 10
92.37459082
 20
82.9235418116
 30
0.0
 10
92.3745781485
 20
82.8485890838
 30
0.0
 10
92.3571833884
 20
82.6957503498
 30
0.0
 10
92.2800309308
 20
82.4729329516
 30
0.0
 10
92.1540131771
 20
82.2588167292
 30
0.0
 10
91.9157773651
 20
81.9797786623
 30
0.0
 10
91.5027599768
 20
81.6758903634
 30
0.0
 10
91.1169238545
 20
81.5065017414
 30
0.0
 10
90.9060909792
 20
81.4342309139
 30
0.0
  0
SPLINE
  5
2A7
100
AcDbEntity
  8
0
100
AcDbSpline
 62
7
  6
BYLAYER
 70
0
 71
3
 72
11
 73
7
 74
0
 42
0.0000001
 43
0.0000001
 44
0.0000000001
 40
0.0
 40
0.0
 40
0.0
 40
0.0
 40
0.2440596056
 40
0.500066046
 40
0.7560495069
 40
1.0
 40
1.0
 40
1.0
 40
1.0
 10
90.9060909792
 20
81.4342309139
 30
0.0
 10
90.6662492466
 20
81.3520162193
 30
0.0
 10
90.157988378
 20
81.2306396452
 30
0.0
 10
89.3718823101
 20
81.1712928452
 30
0.0
 10
88.5859556705
 20
81.2314530762
 30
0.0
 10
88.0779506496
 20
81.3533480686
 30
0.0
 10
87.8383283476
 20
81.4358526096
 30
0.0
  0
SPLINE
  5
2A8
100
AcDbEntity
  8
0
100
AcDbSpline
 62
7
  6
BYLAYER
 70
0
 71
3
 72
9
 73
5
 74
0
 42
0.0000001
 43
0.0000001
 44
0.0000000001
 40
0.0
 40
0.0
 40
0.0
 40
0.0
 40
0.2601374451
 40
1.0
 40
1.0
 40
1.0
 40
1.0
 10
87.8383283476
 20
81.4358526096
 30
0.0
 10
87.7856960899
 20
81.4539744632
 30
0.0
 10
87.5849329122
 20
81.5279950559
 30
0.0
 10
87.3904039794
 20
81.6196521384
 30
0.0
 10
87.2532965624
 20
81.6988093517
 30
0.0
  0
SPLINE
  5
2A9
100
AcDbEntity
  8
0
100
AcDbSpline
 62
7
  6
BYLAYER
 70
0
 71
3
 72
11
 73
7
 74
0
 42
0.0000001
 43
0.0000001
 44
0.0000000001
 40
0.0
 40
0.0
 40
0.0
 40
0.0
 40
0.2313962684
 40
0.4709536473
 40
0.7256595044
 40
1.0
 40
1.0
 40
1.0
 40
1.0
 10
52.5222391429
 20
116.2368553183
 30
0.0
 10
52.5222200125
 20
116.0793744344
 30
0.0
 10
52.4836661795
 20
115.7576834534
 30
0.0
 10
52.3132769312
 20
115.2901054742
 30
0.0
 10
52.0354424255
 20
114.8431483036
 30
0.0
 10
51.7927931998
 20
114.5745943408
 30
0.0
 10
51.6578115083
 20
114.4455998547
 30
0.0
  0
SPLINE
  5
2AA
100
AcDbEntity
  8
0
100
AcDbSpline
 62
7
  6
BYLAYER
 70
0
 71
3
 72
9
 73
5
 74
0
 42
0.0000001
 43
0.0000001
 44
0.0000000001
 40
0.0
 40
0.0
 40
0.0
 40
0.0
 40
0.2416412259
 40
1.0
 40
1.0
 40
1.0
 40
1.0
 10
51.4234290799
 20
114.152507545
 30
0.0
 10
51.3736094828
 20
114.1932292567
 30
0.0
 10
51.1636597766
 20
114.35710787
 30
0.0
 10
50.9397624217
 20
114.5028411091
 30
0.0
 10
50.7648784289
 20
114.6038081452
 30
0.0
  0
SPLINE
  5
2AB
100
AcDbEntity
  8
0
100
AcDbSpline
 62
7
  6
BYLAYER
 70
0
 71
3
 72
11
 73
7
 74
0
 42
0.0000001
 43
0.0000001
 44
0.0000000001
 40
0.0
 40
0.0
 40
0.0
 40
0.0
 40
0.2177821605
 40
0.4509085882
 40
0.7102951949
 40
1.0
 40
1.0
 40
1.0
 40
1.0
 10
125.5227033326
 20
96.8037809964
 30
0.0
 10
125.5227033165
 20
96.7466489912
 30
0.0
 10
125.5015904797
 20
96.6275678982
 30
0.0
 10
125.4113155784
 20
96.4616495285
 30
0.0
 10
125.2686036206
 20
96.3116657889
 30
0.0
 10
125.1491933237
 20
96.2294196308
 30
0.0
 10
125.0833754051
 20
96.1914198646
 30
0.0
  0
SPLINE
  5
2AC
100
AcDbEntity
  8
0
100
AcDbSpline
 62
7
  6
BYLAYER
 70
0
 71
3
 72
11
 73
7
 74
0
 42
0.0000001
 43
0.0000001
 44
0.0000000001
 40
0.0
 40
0.0
 40
0.0
 40
0.0
 40
0.2177817009
 40
0.4509079353
 40
0.7102947134
 40
1.0
 40
1.0
 40
1.0
 40
1.0
 10
125.5227033326
 20
100.8862930821
 30
0.0
 10
125.522703322
 20
100.9434257027
 30
0.0
 10
125.5015899891
 20
101.0625081686
 30
0.0
 10
125.4113131433
 20
101.2284281457
 30
0.0
 10
125.2685982862
 20
101.3784129969
 30
0.0
 10
125.149185723
 20
101.4606594687
 30
0.0
 10
125.0833665732
 20
101.4986593129
 30
0.0
  0
SPLINE
  5
2AD
100
AcDbEntity
  8
0
100
AcDbSpline
 62
7
  6
BYLAYER
 70
0
 71
3
 72
13
 73
9
 74
0
 42
0.0000001
 43
0.0000001
 44
0.0000000001
 40
0.0
 40
0.0
 40
0.0
 40
0.0
 40
0.1012105238
 40
0.2056829299
 40
0.316189297
 40
0.4347193381
 40
0.6990454411
 40
1.0
 40
1.0
 40
1.0
 40
1.0
 10
123.4871596574
 20
100.886284582
 30
0.0
 10
123.4871469859
 20
100.8113318541
 30
0.0
 10
123.4697522258
 20
100.6584931201
 30
0.0
 10
123.3925997682
 20
100.435675722
 30
0.0
 10
123.2665820145
 20
100.2215594995
 30
0.0
 10
123.0283462025
 20
99.9425214326
 30
0.0
 10
122.6153288142
 20
99.6386331338
 30
0.0
 10
122.2294926919
 20
99.4692445117
 30
0.0
 10
122.0186598166
 20
99.3969736843
 30
0.0
  0
SPLINE
  5
2AE
100
AcDbEntity
  8
0
100
AcDbSpline
 62
7
  6
BYLAYER
 70
0
 71
3
 72
11
 73
7
 74
0
 42
0.0000001
 43
0.0000001
 44
0.0000000001
 40
0.0
 40
0.0
 40
0.0
 40
0.0
 40
0.2440596056
 40
0.500066046
 40
0.7560495069
 40
1.0
 40
1.0
 40
1.0
 40
1.0
 10
122.0186598166
 20
99.3969736843
 30
0.0
 10
121.778818084
 20
99.3147589896
 30
0.0
 10
121.2705572154
 20
99.1933824155
 30
0.0
 10
120.4844511475
 20
99.1340356156
 30
0.0
 10
119.6985245079
 20
99.1941958465
 30
0.0
 10
119.1905194871
 20
99.316090839
 30
0.0
 10
118.950897185
 20
99.39859538
 30
0.0
  0
SPLINE
  5
2AF
100
AcDbEntity
  8
0
100
AcDbSpline
 62
7
  6
BYLAYER
 70
0
 71
3
 72
9
 73
5
 74
0
 42
0.0000001
 43
0.0000001
 44
0.0000000001
 40
0.0
 40
0.0
 40
0.0
 40
0.0
 40
0.2601374451
 40
1.0
 40
1.0
 40
1.0
 40
1.0
 10
118.950897185
 20
99.39859538
 30
0.0
 10
118.8982649273
 20
99.4167172335
 30
0.0
 10
118.6975017496
 20
99.4907378262
 30
0.0
 10
118.5029728168
 20
99.5823949088
 30
0.0
 10
118.3658653998
 20
99.6615521221
 30
0.0
  0
SPLINE
  5
2B0
100
AcDbEntity
  8
0
100
AcDbSpline
 62
7
  6
BYLAYER
 70
0
 71
3
 72
9
 73
5
 74
0
 42
0.0000001
 43
0.0000001
 44
0.0000000001
 40
0.0
 40
0.0
 40
0.0
 40
0.0
 40
0.4966456278
 40
1.0
 40
1.0
 40
1.0
 40
1.0
 10
121.1379338394
 20
99.2170505783
 30
0.0
 10
120.9511548581
 20
99.2689710699
 30
0.0
 10
120.560445262
 20
99.323458925
 30
0.0
 10
120.1676012678
 20
99.2911055638
 30
0.0
 10
119.9753001253
 20
99.2507994784
 30
0.0
  0
SPLINE
  5
2B1
100
AcDbEntity
  8
0
100
AcDbSpline
 62
7
  6
BYLAYER
 70
0
 71
3
 72
9
 73
5
 74
0
 42
0.0000001
 43
0.0000001
 44
0.0000000001
 40
0.0
 40
0.0
 40
0.0
 40
0.0
 40
0.4966456278
 40
1.0
 40
1.0
 40
1.0
 40
1.0
 10
90.025365002
 20
81.254307808
 30
0.0
 10
89.8385860207
 20
81.3062282996
 30
0.0
 10
89.4478764245
 20
81.3607161547
 30
0.0
 10
89.0550324304
 20
81.3283627935
 30
0.0
 10
88.8627312879
 20
81.288056708
 30
0.0
  0
SPLINE
  5
2B2
100
AcDbEntity
  8
0
100
AcDbSpline
 62
7
  6
BYLAYER
 70
0
 71
3
 72
12
 73
8
 74
0
 42
0.0000001
 43
0.0000001
 44
0.0000000001
 40
0.0
 40
0.0
 40
0.0
 40
0.0
 40
0.2895880188
 40
0.5486361003
 40
0.7816385599
 40
0.8918381455
 40
1.0
 40
1.0
 40
1.0
 40
1.0
 10
50.7648784289
 20
118.6863202309
 30
0.0
 10
51.0282519148
 20
118.5342649179
 30
0.0
 10
51.5059776272
 20
118.2052572633
 30
0.0
 10
52.0766797687
 20
117.6057843201
 30
0.0
 10
52.3831468799
 20
117.0409270899
 30
0.0
 10
52.5024669867
 20
116.5802327844
 30
0.0
 10
52.5222529412
 20
116.3504433296
 30
0.0
 10
52.5222391429
 20
116.2368553183
 30
0.0
  0
SPLINE
  5
2B3
100
AcDbEntity
  8
0
100
AcDbSpline
 62
7
  6
BYLAYER
 70
0
 71
3
 72
11
 73
7
 74
0
 42
0.0000001
 43
0.0000001
 44
0.0000000001
 40
0.0
 40
0.0
 40
0.0
 40
0.0
 40
0.2178563041
 40
0.450970233
 40
0.7102596265
 40
1.0
 40
1.0
 40
1.0
 40
1.0
 10
45.9790808783
 20
105.0701986267
 30
0.0
 10
45.9790755701
 20
105.0130461256
 30
0.0
 10
46.0001565235
 20
104.8939344031
 30
0.0
 10
46.0904918513
 20
104.7280540681
 30
0.0
 10
46.2331520019
 20
104.5780509044
 30
0.0
 10
46.3525735396
 20
104.495837081
 30
0.0
 10
46.4184010172
 20
104.4578324288
 30
0.0
  0
SPLINE
  5
2B4
100
AcDbEntity
  8
0
100
AcDbSpline
 62
7
  6
BYLAYER
 70
0
 71
3
 72
9
 73
5
 74
0
 42
0.0000001
 43
0.0000001
 44
0.0000000001
 40
0.0
 40
0.0
 40
0.0
 40
0.0
 40
0.2331702937
 40
1.0
 40
1.0
 40
1.0
 40
1.0
 10
92.070525409
 20
82.2136577724
 30
0.0
 10
92.0333281766
 20
82.2576552091
 30
0.0
 10
91.8637628078
 20
82.4378608517
 30
0.0
 10
91.6600122437
 20
82.5838331271
 30
0.0
 10
91.4959195857
 20
82.6785699241
 30
0.0
  0
SPLINE
  5
2B5
100
AcDbEntity
  8
0
100
AcDbSpline
 62
7
  6
BYLAYER
 70
0
 71
3
 72
17
 73
13
 74
0
 42
0.0000001
 43
0.0000001
 44
0.0000000001
 40
0.0
 40
0.0
 40
0.0
 40
0.0
 40
0.0428573864
 40
0.0874855431
 40
0.1353166897
 40
0.187281716
 40
0.3045420264
 40
0.4382097308
 40
0.582553883
 40
0.7297151633
 40
0.8713051855
 40
1.0
 40
1.0
 40
1.0
 40
1.0
 10
86.3746253281
 20
82.9235418151
 30
0.0
 10
86.3746397653
 20
83.0089392658
 30
0.0
 10
86.3974318045
 20
83.1840116871
 30
0.0
 10
86.4978931946
 20
83.4367621494
 30
0.0
 10
86.6607474397
 20
83.6764550312
 30
0.0
 10
86.9674981533
 20
83.9842172521
 30
0.0
 10
87.4900597224
 20
84.3023868389
 30
0.0
 10
88.241495746
 20
84.5533709572
 30
0.0
 10
89.0847670827
 20
84.6718726405
 30
0.0
 10
89.9515201832
 20
84.6478710527
 30
0.0
 10
90.7710205784
 20
84.4839545884
 30
0.0
 10
91.2738375826
 20
84.2764904786
 30
0.0
 10
91.4959195857
 20
84.148274275
 30
0.0
  0
SPLINE
  5
2B6
100
AcDbEntity
  8
0
100
AcDbSpline
 62
7
  6
BYLAYER
 70
0
 71
3
 72
9
 73
5
 74
0
 42
0.0000001
 43
0.0000001
 44
0.0000000001
 40
0.0
 40
0.0
 40
0.0
 40
0.0
 40
0.2331702937
 40
1.0
 40
1.0
 40
1.0
 40
1.0
 10
123.1830942464
 20
100.1764005427
 30
0.0
 10
123.145897014
 20
100.2203979794
 30
0.0
 10
122.9763316452
 20
100.400603622
 30
0.0
 10
122.7725810811
 20
100.5465758974
 30
0.0
 10
122.6084884231
 20
100.6413126945
 30
0.0
  0
SPLINE
  5
2B7
100
AcDbEntity
  8
0
100
AcDbSpline
 62
7
  6
BYLAYER
 70
0
 71
3
 72
17
 73
13
 74
0
 42
0.0000001
 43
0.0000001
 44
0.0000000001
 40
0.0
 40
0.0
 40
0.0
 40
0.0
 40
0.0428573864
 40
0.0874855431
 40
0.1353166897
 40
0.187281716
 40
0.3045420264
 40
0.4382097308
 40
0.582553883
 40
0.7297151633
 40
0.8713051855
 40
1.0
 40
1.0
 40
1.0
 40
1.0
 10
117.4871941655
 20
100.8862845854
 30
0.0
 10
117.4872086028
 20
100.9716820361
 30
0.0
 10
117.5100006419
 20
101.1467544574
 30
0.0
 10
117.610462032
 20
101.3995049197
 30
0.0
 10
117.7733162771
 20
101.6391978016
 30
0.0
 10
118.0800669907
 20
101.9469600224
 30
0.0
 10
118.6026285598
 20
102.2651296092
 30
0.0
 10
119.3540645834
 20
102.5161137275
 30
0.0
 10
120.1973359201
 20
102.6346154108
 30
0.0
 10
121.0640890207
 20
102.610613823
 30
0.0
 10
121.8835894158
 20
102.4466973587
 30
0.0
 10
122.3864064201
 20
102.2392332489
 30
0.0
 10
122.6084884231
 20
102.1110170453
 30
0.0
  0
SPLINE
  5
2B8
100
AcDbEntity
  8
0
100
AcDbSpline
 62
7
  6
BYLAYER
 70
0
 71
3
 72
11
 73
7
 74
0
 42
0.0000001
 43
0.0000001
 44
0.0000000001
 40
0.0
 40
0.0
 40
0.0
 40
0.0
 40
0.2897485302
 40
0.5490818528
 40
0.7822235759
 40
1.0
 40
1.0
 40
1.0
 40
1.0
 10
91.4959195857
 20
84.148274275
 30
0.0
 10
91.6275780692
 20
84.0722629337
 30
0.0
 10
91.866420435
 20
83.907799243
 30
0.0
 10
92.151826205
 20
83.6077960668
 30
0.0
 10
92.3323576537
 20
83.2759769129
 30
0.0
 10
92.3746101373
 20
83.0378047466
 30
0.0
 10
92.37459082
 20
82.9235418116
 30
0.0
  0
SPLINE
  5
2B9
100
AcDbEntity
  8
0
100
AcDbSpline
 62
7
  6
BYLAYER
 70
0
 71
3
 72
11
 73
7
 74
0
 42
0.0000001
 43
0.0000001
 44
0.0000000001
 40
0.0
 40
0.0
 40
0.0
 40
0.0
 40
0.2897485302
 40
0.5490818528
 40
0.7822235759
 40
1.0
 40
1.0
 40
1.0
 40
1.0
 10
122.6084884231
 20
102.1110170453
 30
0.0
 10
122.7401469066
 20
102.035005704
 30
0.0
 10
122.9789892724
 20
101.8705420133
 30
0.0
 10
123.2643950424
 20
101.5705388371
 30
0.0
 10
123.4449264911
 20
101.2387196832
 30
0.0
 10
123.4871789747
 20
101.000547517
 30
0.0
 10
123.4871596574
 20
100.886284582
 30
0.0
  0
SPLINE
  5
2BA
100
AcDbEntity
  8
0
100
AcDbSpline
 62
7
  6
BYLAYER
 70
0
 71
3
 72
17
 73
13
 74
0
 42
0.0000001
 43
0.0000001
 44
0.0000000001
 40
0.0
 40
0.0
 40
0.0
 40
0.0
 40
0.042901717
 40
0.0878702083
 40
0.1362083467
 40
0.1887069027
 40
0.3068207595
 40
0.4407586848
 40
0.5847852361
 40
0.7312308921
 40
0.8719979681
 40
1.0
 40
1.0
 40
1.0
 40
1.0
 10
118.9880058992
 20
99.4451001178
 30
0.0
 10
118.9904027036
 20
99.4873712461
 30
0.0
 10
119.0065977383
 20
99.573635447
 30
0.0
 10
119.0624124384
 20
99.6971007232
 30
0.0
 10
119.1482862409
 20
99.8137056882
 30
0.0
 10
119.3058180836
 20
99.9629339128
 30
0.0
 10
119.5687877054
 20
100.1162147385
 30
0.0
 10
119.9430827229
 20
100.2362382929
 30
0.0
 10
120.3603810408
 20
100.2913543654
 30
0.0
 10
120.7876970695
 20
100.277055633
 30
0.0
 10
121.191045364
 20
100.1947113823
 30
0.0
 10
121.4384329697
 20
100.0921069797
 30
0.0
 10
121.5478326673
 20
100.0289464637
 30
0.0
  0
SPLINE
  5
2BB
100
AcDbEntity
  8
0
100
AcDbSpline
 62
7
  6
BYLAYER
 70
0
 71
3
 72
11
 73
7
 74
0
 42
0.0000001
 43
0.0000001
 44
0.0000000001
 40
0.0
 40
0.0
 40
0.0
 40
0.0
 40
0.289071628
 40
0.5486886228
 40
0.7822632787
 40
1.0
 40
1.0
 40
1.0
 40
1.0
 10
61.4436355643
 20
116.7667426133
 30
0.0
 10
61.508126495
 20
116.7295095994
 30
0.0
 10
61.625371409
 20
116.6489836789
 30
0.0
 10
61.7664675879
 20
116.5027492571
 30
0.0
 10
61.8575535418
 20
116.3411496773
 30
0.0
 10
61.8811124777
 20
116.2247919015
 30
0.0
 10
61.8827416109
 20
116.1687247481
 30
0.0
  0
SPLINE
  5
2BC
100
AcDbEntity
  8
0
100
AcDbSpline
 62
7
  6
BYLAYER
 70
0
 71
3
 72
15
 73
11
 74
0
 42
0.0000001
 43
0.0000001
 44
0.0000000001
 40
0.0
 40
0.0
 40
0.0
 40
0.0
 40
0.1194863576
 40
0.2497084583
 40
0.3864613857
 40
0.5247337279
 40
0.6593460009
 40
0.7855421106
 40
0.8996672442
 40
1.0
 40
1.0
 40
1.0
 40
1.0
 10
62.5042913201
 20
117.3791088441
 30
0.0
 10
62.3263339563
 20
117.4818502517
 30
0.0
 10
61.9309438574
 20
117.6568181689
 30
0.0
 10
61.2850710894
 20
117.8230915187
 30
0.0
 10
60.5899010853
 20
117.898412991
 30
0.0
 10
59.8835440914
 20
117.8785358138
 30
0.0
 10
59.2043904762
 20
117.7646470462
 30
0.0
 10
58.5889838523
 20
117.5625608256
 30
0.0
 10
58.070316711
 20
117.2831081192
 30
0.0
 10
57.7890038187
 20
117.0367951153
 30
0.0
 10
57.6786522883
 20
116.9041490044
 30
0.0
  0
SPLINE
  5
2BD
100
AcDbEntity
  8
0
100
AcDbSpline
 62
7
  6
BYLAYER
 70
0
 71
3
 72
9
 73
5
 74
0
 42
0.0000001
 43
0.0000001
 44
0.0000000001
 40
0.0
 40
0.0
 40
0.0
 40
0.0
 40
0.2331702937
 40
1.0
 40
1.0
 40
1.0
 40
1.0
 10
63.0788971435
 20
116.9141966923
 30
0.0
 10
63.0416999111
 20
116.958194129
 30
0.0
 10
62.8721345422
 20
117.1383997716
 30
0.0
 10
62.6683839781
 20
117.284372047
 30
0.0
 10
62.5042913201
 20
117.3791088441
 30
0.0
  0
SPLINE
  5
2BE
100
AcDbEntity
  8
0
100
AcDbSpline
 62
7
  6
BYLAYER
 70
0
 71
3
 72
17
 73
13
 74
0
 42
0.0000001
 43
0.0000001
 44
0.0000000001
 40
0.0
 40
0.0
 40
0.0
 40
0.0
 40
0.0428573864
 40
0.0874855431
 40
0.1353166897
 40
0.187281716
 40
0.3045420264
 40
0.4382097308
 40
0.582553883
 40
0.7297151633
 40
0.8713051855
 40
1.0
 40
1.0
 40
1.0
 40
1.0
 10
57.3829970625
 20
117.624080735
 30
0.0
 10
57.3830114998
 20
117.7094781857
 30
0.0
 10
57.405803539
 20
117.884550607
 30
0.0
 10
57.506264929
 20
118.1373010693
 30
0.0
 10
57.6691191742
 20
118.3769939512
 30
0.0
 10
57.9758698878
 20
118.684756172
 30
0.0
 10
58.4984314568
 20
119.0029257588
 30
0.0
 10
59.2498674804
 20
119.2539098771
 30
0.0
 10
60.0931388171
 20
119.3724115604
 30
0.0
 10
60.9598919177
 20
119.3484099726
 30
0.0
 10
61.7793923129
 20
119.1844935083
 30
0.0
 10
62.2822093171
 20
118.9770293985
 30
0.0
 10
62.5042913201
 20
118.8488131949
 30
0.0
  0
SPLINE
  5
2BF
100
AcDbEntity
  8
0
100
AcDbSpline
 62
7
  6
BYLAYER
 70
0
 71
3
 72
17
 73
13
 74
0
 42
0.0000001
 43
0.0000001
 44
0.0000000001
 40
0.0
 40
0.0
 40
0.0
 40
0.0
 40
0.042901717
 40
0.0878702083
 40
0.1362083467
 40
0.1887069027
 40
0.3068207595
 40
0.4407586848
 40
0.5847852361
 40
0.7312308921
 40
0.8719979681
 40
1.0
 40
1.0
 40
1.0
 40
1.0
 10
87.8754370618
 20
81.4823573474
 30
0.0
 10
87.8778338662
 20
81.5246284758
 30
0.0
 10
87.8940289009
 20
81.6108926767
 30
0.0
 10
87.949843601
 20
81.7343579529
 30
0.0
 10
88.0357174035
 20
81.8509629179
 30
0.0
 10
88.1932492462
 20
82.0001911424
 30
0.0
 10
88.456218868
 20
82.1534719681
 30
0.0
 10
88.8305138855
 20
82.2734955226
 30
0.0
 10
89.2478122034
 20
82.328611595
 30
0.0
 10
89.6751282321
 20
82.3143128627
 30
0.0
 10
90.0784765266
 20
82.231968612
 30
0.0
 10
90.3258641323
 20
82.1293642093
 30
0.0
 10
90.4352638299
 20
82.0662036933
 30
0.0
  0
SPLINE
  5
2C0
100
AcDbEntity
  8
0
100
AcDbSpline
 62
7
  6
BYLAYER
 70
0
 71
3
 72
11
 73
7
 74
0
 42
0.0000001
 43
0.0000001
 44
0.0000000001
 40
0.0
 40
0.0
 40
0.0
 40
0.0
 40
0.289071628
 40
0.5486886228
 40
0.7822632787
 40
1.0
 40
1.0
 40
1.0
 40
1.0
 10
121.5478326673
 20
100.0289464637
 30
0.0
 10
121.612323598
 20
99.9917134498
 30
0.0
 10
121.7295685119
 20
99.9111875293
 30
0.0
 10
121.8706646909
 20
99.7649531075
 30
0.0
 10
121.9617506448
 20
99.6033535277
 30
0.0
 10
121.9853095807
 20
99.4869957519
 30
0.0
 10
121.9869387139
 20
99.4309285984
 30
0.0
  0
SPLINE
  5
2C1
100
AcDbEntity
  8
0
100
AcDbSpline
 62
7
  6
BYLAYER
 70
0
 71
3
 72
11
 73
7
 74
0
 42
0.0000001
 43
0.0000001
 44
0.0000000001
 40
0.0
 40
0.0
 40
0.0
 40
0.0
 40
0.289071628
 40
0.5486886228
 40
0.7822632787
 40
1.0
 40
1.0
 40
1.0
 40
1.0
 10
90.4352638299
 20
82.0662036933
 30
0.0
 10
90.4997547606
 20
82.0289706794
 30
0.0
 10
90.6169996745
 20
81.948444759
 30
0.0
 10
90.7580958535
 20
81.8022103372
 30
0.0
 10
90.8491818074
 20
81.6406107574
 30
0.0
 10
90.8727407433
 20
81.5242529815
 30
0.0
 10
90.8743698764
 20
81.4681858281
 30
0.0
  0
SPLINE
  5
2C2
100
AcDbEntity
  8
0
100
AcDbSpline
 62
7
  6
BYLAYER
 70
0
 71
3
 72
15
 73
11
 74
0
 42
0.0000001
 43
0.0000001
 44
0.0000000001
 40
0.0
 40
0.0
 40
0.0
 40
0.0
 40
0.1194863576
 40
0.2497084583
 40
0.3864613857
 40
0.5247337279
 40
0.6593460009
 40
0.7855421106
 40
0.8996672442
 40
1.0
 40
1.0
 40
1.0
 40
1.0
 10
91.4959195857
 20
82.6785699241
 30
0.0
 10
91.3179622218
 20
82.7813113317
 30
0.0
 10
90.9225721229
 20
82.956279249
 30
0.0
 10
90.276699355
 20
83.1225525987
 30
0.0
 10
89.5815293508
 20
83.197874071
 30
0.0
 10
88.8751723569
 20
83.1779968938
 30
0.0
 10
88.1960187418
 20
83.0641081263
 30
0.0
 10
87.5806121179
 20
82.8620219057
 30
0.0
 10
87.0619449765
 20
82.5825691992
 30
0.0
 10
86.7806320842
 20
82.3362561954
 30
0.0
 10
86.6702805539
 20
82.2036100845
 30
0.0
  0
SPLINE
  5
2C3
100
AcDbEntity
  8
0
100
AcDbSpline
 62
7
  6
BYLAYER
 70
0
 71
3
 72
17
 73
13
 74
0
 42
0.0000001
 43
0.0000001
 44
0.0000000001
 40
0.0
 40
0.0
 40
0.0
 40
0.0
 40
0.042901717
 40
0.0878702083
 40
0.1362083467
 40
0.1887069027
 40
0.3068207595
 40
0.4407586848
 40
0.5847852361
 40
0.7312308921
 40
0.8719979681
 40
1.0
 40
1.0
 40
1.0
 40
1.0
 10
58.8838087963
 20
116.1828962674
 30
0.0
 10
58.8862056006
 20
116.2251673957
 30
0.0
 10
58.9024006353
 20
116.3114315966
 30
0.0
 10
58.9582153354
 20
116.4348968728
 30
0.0
 10
59.0440891379
 20
116.5515018378
 30
0.0
 10
59.2016209806
 20
116.7007300624
 30
0.0
 10
59.4645906025
 20
116.8540108881
 30
0.0
 10
59.8388856199
 20
116.9740344425
 30
0.0
 10
60.2561839379
 20
117.029150515
 30
0.0
 10
60.6834999665
 20
117.0148517826
 30
0.0
 10
61.086848261
 20
116.9325075319
 30
0.0
 10
61.3342358667
 20
116.8299031293
 30
0.0
 10
61.4436355643
 20
116.7667426133
 30
0.0
  0
SPLINE
  5
2C4
100
AcDbEntity
  8
0
100
AcDbSpline
 62
7
  6
BYLAYER
 70
0
 71
3
 72
11
 73
7
 74
0
 42
0.0000001
 43
0.0000001
 44
0.0000000001
 40
0.0
 40
0.0
 40
0.0
 40
0.0
 40
0.2897048043
 40
0.5490913404
 40
0.7822177947
 40
1.0
 40
1.0
 40
1.0
 40
1.0
 10
125.0833754051
 20
100.2739319503
 30
0.0
 10
125.1491933237
 20
100.3119317165
 30
0.0
 10
125.2686036195
 20
100.394177844
 30
0.0
 10
125.4113155598
 20
100.5441615907
 30
0.0
 10
125.5015904544
 20
100.7100799527
 30
0.0
 10
125.5227033431
 20
100.8291610648
 30
0.0
 10
125.5227033326
 20
100.8862930821
 30
0.0
  0
SPLINE
  5
2C5
100
AcDbEntity
  8
0
100
AcDbSpline
 62
7
  6
BYLAYER
 70
0
 71
3
 72
11
 73
7
 74
0
 42
0.0000001
 43
0.0000001
 44
0.0000000001
 40
0.0
 40
0.0
 40
0.0
 40
0.0
 40
0.2372405738
 40
0.5000004574
 40
0.7627600882
 40
1.0
 40
1.0
 40
1.0
 40
1.0
 10
88.3139670381
 20
80.2699633116
 30
0.0
 10
88.4645517764
 20
80.1830251391
 30
0.0
 10
88.8147334356
 20
80.056162354
 30
0.0
 10
89.3746287487
 20
79.9953826889
 30
0.0
 10
89.9345232981
 20
80.0561648611
 30
0.0
 10
90.2847036903
 20
80.1830293949
 30
0.0
 10
90.4352873816
 20
80.2699684106
 30
0.0
  0
SPLINE
  5
2C6
100
AcDbEntity
  8
0
100
AcDbSpline
 62
7
  6
BYLAYER
 70
0
 71
3
 72
15
 73
11
 74
0
 42
0.0000001
 43
0.0000001
 44
0.0000000001
 40
0.0
 40
0.0
 40
0.0
 40
0.0
 40
0.1194863576
 40
0.2497084583
 40
0.3864613857
 40
0.5247337279
 40
0.6593460009
 40
0.7855421106
 40
0.8996672442
 40
1.0
 40
1.0
 40
1.0
 40
1.0
 10
122.6084884231
 20
100.6413126945
 30
0.0
 10
122.4305310592
 20
100.7440541021
 30
0.0
 10
122.0351409604
 20
100.9190220193
 30
0.0
 10
121.3892681924
 20
101.0852953691
 30
0.0
 10
120.6940981882
 20
101.1606168414
 30
0.0
 10
119.9877411943
 20
101.1407396642
 30
0.0
 10
119.3085875792
 20
101.0268508966
 30
0.0
 10
118.6931809553
 20
100.824764676
 30
0.0
 10
118.1745138139
 20
100.5453119696
 30
0.0
 10
117.8932009216
 20
100.2989989657
 30
0.0
 10
117.7828493913
 20
100.1663528548
 30
0.0
  0
SPLINE
  5
2C7
100
AcDbEntity
  8
0
100
AcDbSpline
 62
7
  6
BYLAYER
 70
0
 71
3
 72
11
 73
7
 74
0
 42
0.0000001
 43
0.0000001
 44
0.0000000001
 40
0.0
 40
0.0
 40
0.0
 40
0.0
 40
0.2897485302
 40
0.5490818528
 40
0.7822235759
 40
1.0
 40
1.0
 40
1.0
 40
1.0
 10
62.5042913201
 20
118.8488131949
 30
0.0
 10
62.6359498037
 20
118.7728018536
 30
0.0
 10
62.8747921695
 20
118.6083381629
 30
0.0
 10
63.1601979394
 20
118.3083349867
 30
0.0
 10
63.3407293881
 20
117.9765158328
 30
0.0
 10
63.3829818717
 20
117.7383436666
 30
0.0
 10
63.3829625544
 20
117.6240807316
 30
0.0
  0
SPLINE
  5
2C8
100
AcDbEntity
  8
0
100
AcDbSpline
 62
7
  6
BYLAYER
 70
0
 71
3
 72
20
 73
16
 74
0
 42
0.0000001
 43
0.0000001
 44
0.0000000001
 40
0.0
 40
0.0
 40
0.0
 40
0.0
 40
0.0427914216
 40
0.0871843005
 40
0.1345028074
 40
0.1856415917
 40
0.2410490041
 40
0.300782958
 40
0.3645854031
 40
0.4319559904
 40
0.502212799
 40
0.5745420362
 40
0.7216412088
 40
0.8658212629
 40
1.0
 40
1.0
 40
1.0
 40
1.0
 10
75.3607977637
 20
79.4351701684
 30
0.0
 10
75.603057772
 20
79.5750081552
 30
0.0
 10
76.1338587568
 20
79.7999000973
 30
0.0
 10
77.0082509776
 20
79.9445891494
 30
0.0
 10
77.9470810437
 20
79.9004428306
 30
0.0
 10
78.9312476429
 20
79.6715549726
 30
0.0
 10
79.9430625083
 20
79.2645732719
 30
0.0
 10
80.9642392928
 20
78.6881557712
 30
0.0
 10
81.9760802099
 20
77.9536651285
 30
0.0
 10
82.9596408464
 20
77.075229589
 30
0.0
 10
83.8963688919
 20
76.0695876956
 30
0.0
 10
85.0647873206
 20
74.577099936
 30
0.0
 10
86.2961253882
 20
72.530661177
 30
0.0
 10
87.3386500728
 20
69.9404822464
 30
0.0
 10
87.7183077346
 20
68.1468092361
 30
0.0
 10
87.8031143587
 20
67.2738087061
 30
0.0
  0
SPLINE
  5
2C9
100
AcDbEntity
  8
0
100
AcDbSpline
 62
7
  6
BYLAYER
 70
0
 71
3
 72
9
 73
5
 74
0
 42
0.0000001
 43
0.0000001
 44
0.0000000001
 40
0.0
 40
0.0
 40
0.0
 40
0.0
 40
0.2553496082
 40
1.0
 40
1.0
 40
1.0
 40
1.0
 10
87.8031143587
 20
67.2738087061
 30
0.0
 10
87.8115810195
 20
67.1866527862
 30
0.0
 10
87.84085388
 20
66.8449735856
 30
0.0
 10
87.8543457167
 20
66.5018879971
 30
0.0
 10
87.8543457167
 20
66.2465275022
 30
0.0
  0
SPLINE
  5
2CA
100
AcDbEntity
  8
0
100
AcDbSpline
 62
7
  6
BYLAYER
 70
0
 71
3
 72
21
 73
17
 74
0
 42
0.0000001
 43
0.0000001
 44
0.0000000001
 40
0.0
 40
0.0
 40
0.0
 40
0.0
 40
0.0428267602
 40
0.0874217049
 40
0.1352177361
 40
0.1871411083
 40
0.2436036252
 40
0.304577512
 40
0.3696922226
 40
0.4383182844
 40
0.5825496221
 40
0.7295866245
 40
0.8015963619
 40
0.8712135128
 40
0.9375988145
 40
1.0
 40
1.0
 40
1.0
 40
1.0
 10
76.8428882059
 20
78.5010903964
 30
0.0
 10
77.0598485007
 20
78.6263450994
 30
0.0
 10
77.5381036782
 20
78.8251023466
 30
0.0
 10
78.3275537199
 20
78.9407817985
 30
0.0
 10
79.17528994
 20
78.8783931693
 30
0.0
 10
80.0625052355
 20
78.6426891255
 30
0.0
 10
80.9717567092
 20
78.2408101742
 30
0.0
 10
81.8849414985
 20
77.6821091607
 30
0.0
 10
82.7836088666
 20
76.9786121661
 30
0.0
 10
83.9563697036
 20
75.8489275886
 30
0.0
 10
85.2592199415
 20
74.1803398748
 30
0.0
 10
86.2758918575
 20
72.3021925836
 30
0.0
 10
86.8815070246
 20
70.7239073929
 30
0.0
 10
87.2124756721
 20
69.5509897187
 30
0.0
 10
87.4159064928
 20
68.406420726
 30
0.0
 10
87.4654294799
 20
67.6525683473
 30
0.0
 10
87.4654294799
 20
67.2875448256
 30
0.0
  0
SPLINE
  5
2CB
100
AcDbEntity
  8
0
100
AcDbSpline
 62
7
  6
BYLAYER
 70
0
 71
3
 72
9
 73
5
 74
0
 42
0.0000001
 43
0.0000001
 44
0.0000000001
 40
0.0
 40
0.0
 40
0.0
 40
0.0
 40
0.2567383179
 40
1.0
 40
1.0
 40
1.0
 40
1.0
 10
41.5096209681
 20
123.8083450339
 30
0.0
 10
41.6077311757
 20
123.8825175206
 30
0.0
 10
41.9939808905
 20
124.1659119014
 30
0.0
 10
42.3968744448
 20
124.4268830919
 30
0.0
 10
42.7052366798
 20
124.6049150486
 30
0.0
  0
SPLINE
  5
2CC
100
AcDbEntity
  8
0
100
AcDbSpline
 62
7
  6
BYLAYER
 70
0
 71
3
 72
16
 73
12
 74
0
 42
0.0000001
 43
0.0000001
 44
0.0000000001
 40
0.0
 40
0.0
 40
0.0
 40
0.0
 40
0.0428754974
 40
0.0875229036
 40
0.1869229067
 40
0.3042341567
 40
0.43795482
 40
0.5823566599
 40
0.7295682564
 40
0.8712589284
 40
1.0
 40
1.0
 40
1.0
 40
1.0
 10
57.6366163094
 20
125.1146212694
 30
0.0
 10
57.6058011192
 20
125.1324112794
 30
0.0
 10
57.5473454129
 20
125.1770704713
 30
0.0
 10
57.4503378333
 20
125.29986048
 30
0.0
 10
57.3779760428
 20
125.5104548734
 30
0.0
 10
57.371550547
 20
125.8040620371
 30
0.0
 10
57.4373634212
 20
126.1278578603
 30
0.0
 10
57.570325047
 20
126.456703365
 30
0.0
 10
57.7595105353
 20
126.7645391143
 30
0.0
 10
57.9894337896
 20
127.0260741195
 30
0.0
 10
58.1690534125
 20
127.164322749
 30
0.0
 10
58.2615799778
 20
127.2177426676
 30
0.0
  0
SPLINE
  5
2CD
100
AcDbEntity
  8
0
100
AcDbSpline
 62
7
  6
BYLAYER
 70
0
 71
3
 72
11
 73
7
 74
0
 42
0.0000001
 43
0.0000001
 44
0.0000000001
 40
0.0
 40
0.0
 40
0.0
 40
0.0
 40
0.2372446848
 40
0.5000016179
 40
0.7627576706
 40
1.0
 40
1.0
 40
1.0
 40
1.0
 10
37.0484471976
 20
118.6038012815
 30
0.0
 10
37.0484471976
 20
118.6385776473
 30
0.0
 10
37.0614943485
 20
118.7119168875
 30
0.0
 10
37.1069556106
 20
118.8149709709
 30
0.0
 10
37.1734717541
 20
118.9058686878
 30
0.0
 10
37.2304613866
 20
118.9538373203
 30
0.0
 10
37.2605783488
 20
118.9712252528
 30
0.0
  0
SPLINE
  5
2CE
100
AcDbEntity
  8
0
100
AcDbSpline
 62
7
  6
BYLAYER
 70
0
 71
3
 72
16
 73
12
 74
0
 42
0.0000001
 43
0.0000001
 44
0.0000000001
 40
0.0
 40
0.0
 40
0.0
 40
0.0
 40
0.0428754974
 40
0.0875229036
 40
0.1869229067
 40
0.3042341567
 40
0.43795482
 40
0.5823566599
 40
0.7295682564
 40
0.8712589284
 40
1.0
 40
1.0
 40
1.0
 40
1.0
 10
40.6661242163
 20
115.3167615765
 30
0.0
 10
40.635309026
 20
115.3345515865
 30
0.0
 10
40.5768533198
 20
115.3792107784
 30
0.0
 10
40.4798457402
 20
115.5020007871
 30
0.0
 10
40.4074839497
 20
115.7125951805
 30
0.0
 10
40.4010584539
 20
116.0062023442
 30
0.0
 10
40.466871328
 20
116.3299981674
 30
0.0
 10
40.5998329539
 20
116.6588436721
 30
0.0
 10
40.7890184422
 20
116.9666794214
 30
0.0
 10
41.0189416965
 20
117.2282144266
 30
0.0
 10
41.1985613193
 20
117.3664630561
 30
0.0
 10
41.2910878847
 20
117.4198829747
 30
0.0
  0
SPLINE
  5
2CF
100
AcDbEntity
  8
0
100
AcDbSpline
 62
7
  6
BYLAYER
 70
0
 71
3
 72
9
 73
5
 74
0
 42
0.0000001
 43
0.0000001
 44
0.0000000001
 40
0.0
 40
0.0
 40
0.0
 40
0.0
 40
0.5246710789
 40
1.0
 40
1.0
 40
1.0
 40
1.0
 10
47.7176875764
 20
109.2789926604
 30
0.0
 10
47.4998352083
 20
109.2965563213
 30
0.0
 10
47.0866840156
 20
109.3676731217
 30
0.0
 10
46.6951846994
 20
109.5233806662
 30
0.0
 10
46.5237063275
 20
109.6223815106
 30
0.0
  0
SPLINE
  5
2D0
100
AcDbEntity
  8
0
100
AcDbSpline
 62
7
  6
BYLAYER
 70
0
 71
3
 72
14
 73
10
 74
0
 42
0.0000001
 43
0.0000001
 44
0.0000000001
 40
0.0
 40
0.0
 40
0.0
 40
0.0
 40
0.2892778875
 40
0.4225507498
 40
0.5484967499
 40
0.6678926921
 40
0.7818706207
 40
0.8919536338
 40
1.0
 40
1.0
 40
1.0
 40
1.0
 10
87.8543457167
 20
66.2465275022
 30
0.0
 10
87.8543457167
 20
65.7219184665
 30
0.0
 10
87.7931048826
 20
64.9518481276
 30
0.0
 10
87.5563535916
 20
63.9839800991
 30
0.0
 10
87.3155105359
 20
63.339028693
 30
0.0
 10
87.0084992083
 20
62.7619214194
 30
0.0
 10
86.6377876761
 20
62.2583375065
 30
0.0
 10
86.2066679023
 20
61.8341012
 30
0.0
 10
85.8804237129
 20
61.6064239357
 30
0.0
 10
85.7107223592
 20
61.5084684546
 30
0.0
  0
SPLINE
  5
2D1
100
AcDbEntity
  8
0
100
AcDbSpline
 62
7
  6
BYLAYER
 70
0
 71
3
 72
11
 73
7
 74
0
 42
0.0000001
 43
0.0000001
 44
0.0000000001
 40
0.0
 40
0.0
 40
0.0
 40
0.0
 40
0.2897036169
 40
0.5490920547
 40
0.7822205729
 40
1.0
 40
1.0
 40
1.0
 40
1.0
 10
35.5635644671
 20
107.7852641218
 30
0.0
 10
35.434120595
 20
107.8599968855
 30
0.0
 10
35.1992753731
 20
108.0217482414
 30
0.0
 10
34.9185968985
 20
108.3167151621
 30
0.0
 10
34.741052367
 20
108.6430294405
 30
0.0
 10
34.6995393382
 20
108.8772244824
 30
0.0
 10
34.6995308425
 20
108.9895843814
 30
0.0
  0
SPLINE
  5
2D2
100
AcDbEntity
  8
0
100
AcDbSpline
 62
7
  6
BYLAYER
 70
0
 71
3
 72
11
 73
7
 74
0
 42
0.0000001
 43
0.0000001
 44
0.0000000001
 40
0.0
 40
0.0
 40
0.0
 40
0.0
 40
0.2896433527
 40
0.5491132405
 40
0.7822372579
 40
1.0
 40
1.0
 40
1.0
 40
1.0
 10
43.6952674269
 20
111.2553445287
 30
0.0
 10
43.6031404924
 20
111.3085328359
 30
0.0
 10
43.4359781447
 20
111.42371241
 30
0.0
 10
43.2361444996
 20
111.6336536933
 30
0.0
 10
43.1096949811
 20
111.8659606369
 30
0.0
 10
43.0802551759
 20
112.0326787724
 30
0.0
 10
43.0802230451
 20
112.1126573191
 30
0.0
  0
SPLINE
  5
2D3
100
AcDbEntity
  8
0
100
AcDbSpline
 62
7
  6
BYLAYER
 70
0
 71
3
 72
17
 73
13
 74
0
 42
0.0000001
 43
0.0000001
 44
0.0000000001
 40
0.0
 40
0.0
 40
0.0
 40
0.0
 40
0.0428584554
 40
0.0874839031
 40
0.1353177481
 40
0.1872794187
 40
0.3045395902
 40
0.4382053041
 40
0.582547581
 40
0.729712444
 40
0.8713059798
 40
1.0
 40
1.0
 40
1.0
 40
1.0
 10
45.5492788073
 20
106.1318990884
 30
0.0
 10
45.5492851568
 20
106.0479230927
 30
0.0
 10
45.5267753651
 20
105.875786312
 30
0.0
 10
45.4281044941
 20
105.6272079434
 30
0.0
 10
45.2678768332
 20
105.3915677022
 30
0.0
 10
44.9663065156
 20
105.0888864802
 30
0.0
 10
44.4524143129
 20
104.776075477
 30
0.0
 10
43.7135323117
 20
104.5292590986
 30
0.0
 10
42.8843172482
 20
104.4127111669
 30
0.0
 10
42.0320023239
 20
104.4363023006
 30
0.0
 10
41.2261503332
 20
104.5974914959
 30
0.0
 10
40.7317111561
 20
104.8015007414
 30
0.0
 10
40.5133325431
 20
104.9275788401
 30
0.0
  0
SPLINE
  5
2D4
100
AcDbEntity
  8
0
100
AcDbSpline
 62
7
  6
BYLAYER
 70
0
 71
3
 72
11
 73
7
 74
0
 42
0.0000001
 43
0.0000001
 44
0.0000000001
 40
0.0
 40
0.0
 40
0.0
 40
0.0
 40
0.2895448512
 40
0.5491358493
 40
0.7822770651
 40
1.0
 40
1.0
 40
1.0
 40
1.0
 10
41.2910878847
 20
117.4198829747
 30
0.0
 10
41.3459049808
 20
117.4515314509
 30
0.0
 10
41.4550462516
 20
117.5033836237
 30
0.0
 10
41.6227319485
 20
117.5439737454
 30
0.0
 10
41.7801406643
 20
117.5400062084
 30
0.0
 10
41.874831294
 20
117.5055453217
 30
0.0
 10
41.9160515532
 20
117.48174833
 30
0.0
  0
SPLINE
  5
2D5
100
AcDbEntity
  8
0
100
AcDbSpline
 62
7
  6
BYLAYER
 70
0
 71
3
 72
11
 73
7
 74
0
 42
0.0000001
 43
0.0000001
 44
0.0000000001
 40
0.0
 40
0.0
 40
0.0
 40
0.0
 40
0.2895448512
 40
0.5491358493
 40
0.7822770651
 40
1.0
 40
1.0
 40
1.0
 40
1.0
 10
58.2615799778
 20
127.2177426676
 30
0.0
 10
58.3163970739
 20
127.2493911439
 30
0.0
 10
58.4255383447
 20
127.3012433167
 30
0.0
 10
58.5932240416
 20
127.3418334383
 30
0.0
 10
58.7506327574
 20
127.3378659013
 30
0.0
 10
58.8453233871
 20
127.3034050146
 30
0.0
 10
58.8865436463
 20
127.279608023
 30
0.0
  0
SPLINE
  5
2D6
100
AcDbEntity
  8
0
100
AcDbSpline
 62
7
  6
BYLAYER
 70
0
 71
3
 72
11
 73
7
 74
0
 42
0.0000001
 43
0.0000001
 44
0.0000000001
 40
0.0
 40
0.0
 40
0.0
 40
0.0
 40
0.2897036169
 40
0.5490920547
 40
0.7822205729
 40
1.0
 40
1.0
 40
1.0
 40
1.0
 10
64.0598491068
 20
124.2375035228
 30
0.0
 10
63.9304052347
 20
124.3122362865
 30
0.0
 10
63.6955600128
 20
124.4739876424
 30
0.0
 10
63.4148815382
 20
124.7689545631
 30
0.0
 10
63.2373370068
 20
125.0952688415
 30
0.0
 10
63.195823978
 20
125.3294638834
 30
0.0
 10
63.1958154822
 20
125.4418237824
 30
0.0
  0
SPLINE
  5
2D7
100
AcDbEntity
  8
0
100
AcDbSpline
 62
7
  6
BYLAYER
 70
0
 71
3
 72
11
 73
7
 74
0
 42
0.0000001
 43
0.0000001
 44
0.0000000001
 40
0.0
 40
0.0
 40
0.0
 40
0.0
 40
0.2434007218
 40
0.5000131797
 40
0.7566197736
 40
1.0
 40
1.0
 40
1.0
 40
1.0
 10
65.0826047494
 20
129.4877721354
 30
0.0
 10
65.2222837463
 20
129.5684153605
 30
0.0
 10
65.5374292874
 20
129.6867802602
 30
0.0
 10
66.0397308277
 20
129.742827501
 30
0.0
 10
66.5420178432
 20
129.6867732485
 30
0.0
 10
66.8571451339
 20
129.568412765
 30
0.0
 10
66.9968129508
 20
129.4877773375
 30
0.0
  0
SPLINE
  5
2D8
100
AcDbEntity
  8
0
100
AcDbSpline
 62
7
  6
BYLAYER
 70
0
 71
3
 72
11
 73
7
 74
0
 42
0.0000001
 43
0.0000001
 44
0.0000000001
 40
0.0
 40
0.0
 40
0.0
 40
0.0
 40
0.2482782256
 40
0.4954812122
 40
0.7449254468
 40
1.0
 40
1.0
 40
1.0
 40
1.0
 10
29.8916253318
 20
108.6425544931
 30
0.0
 10
29.8916253318
 20
108.7291801038
 30
0.0
 10
29.9190656794
 20
108.9032777856
 30
0.0
 10
30.0365087773
 20
109.1389398179
 30
0.0
 10
30.2123430932
 20
109.3370792386
 30
0.0
 10
30.3574430468
 20
109.439310352
 30
0.0
 10
30.4345167259
 20
109.4838085957
 30
0.0
  0
SPLINE
  5
2D9
100
AcDbEntity
  8
0
100
AcDbSpline
 62
7
  6
BYLAYER
 70
0
 71
3
 72
11
 73
7
 74
0
 42
0.0000001
 43
0.0000001
 44
0.0000000001
 40
0.0
 40
0.0
 40
0.0
 40
0.0
 40
0.2434007218
 40
0.5000131797
 40
0.7566197736
 40
1.0
 40
1.0
 40
1.0
 40
1.0
 10
90.3317313998
 20
55.9542541345
 30
0.0
 10
90.1920524029
 20
55.8736109094
 30
0.0
 10
89.8769068618
 20
55.7552460097
 30
0.0
 10
89.3746053215
 20
55.6991987688
 30
0.0
 10
88.8723183059
 20
55.7552530214
 30
0.0
 10
88.5571910152
 20
55.8736135049
 30
0.0
 10
88.4175231984
 20
55.9542489323
 30
0.0
  0
SPLINE
  5
2DA
100
AcDbEntity
  8
0
100
AcDbSpline
 62
7
  6
BYLAYER
 70
0
 71
3
 72
11
 73
7
 74
0
 42
0.0000001
 43
0.0000001
 44
0.0000000001
 40
0.0
 40
0.0
 40
0.0
 40
0.0
 40
0.2550836862
 40
0.5045013676
 40
0.751709494
 40
1.0
 40
1.0
 40
1.0
 40
1.0
 10
30.4345257364
 20
89.429990803
 30
0.0
 10
30.3574481921
 20
89.4744905372
 30
0.0
 10
30.2123571548
 20
89.5767245196
 30
0.0
 10
30.0365044632
 20
89.7748464054
 30
0.0
 10
29.9190777239
 20
90.0105168126
 30
0.0
 10
29.8916253318
 20
90.1846193305
 30
0.0
 10
29.8916253318
 20
90.2712501077
 30
0.0
  0
SPLINE
  5
2DB
100
AcDbEntity
  8
0
100
AcDbSpline
 62
7
  6
BYLAYER
 70
0
 71
3
 72
11
 73
7
 74
0
 42
0.0000001
 43
0.0000001
 44
0.0000000001
 40
0.0
 40
0.0
 40
0.0
 40
0.0
 40
0.2482782256
 40
0.4954812122
 40
0.7449254468
 40
1.0
 40
1.0
 40
1.0
 40
1.0
 10
125.5227108174
 20
76.7994717768
 30
0.0
 10
125.5227108174
 20
76.7128461661
 30
0.0
 10
125.4952704698
 20
76.5387484843
 30
0.0
 10
125.3778273719
 20
76.303086452
 30
0.0
 10
125.2019930559
 20
76.1049470313
 30
0.0
 10
125.0568931024
 20
76.0027159179
 30
0.0
 10
124.9798194233
 20
75.9582176742
 30
0.0
  0
SPLINE
  5
2DC
100
AcDbEntity
  8
0
100
AcDbSpline
 62
7
  6
BYLAYER
 70
0
 71
3
 72
9
 73
5
 74
0
 42
0.0000001
 43
0.0000001
 44
0.0000000001
 40
0.0
 40
0.0
 40
0.0
 40
0.0
 40
0.525415782
 40
1.0
 40
1.0
 40
1.0
 40
1.0
 10
43.0587915424
 20
124.80904588
 30
0.0
 10
43.5261142464
 20
125.0788531584
 30
0.0
 10
44.4552728876
 20
125.5282536512
 30
0.0
 10
45.4556622216
 20
125.7972514308
 30
0.0
 10
45.9382142253
 20
125.8659066751
 30
0.0
  0
SPLINE
  5
2DD
100
AcDbEntity
  8
0
100
AcDbSpline
 62
7
  6
BYLAYER
 70
0
 71
3
 72
12
 73
8
 74
0
 42
0.0000001
 43
0.0000001
 44
0.0000000001
 40
0.0
 40
0.0
 40
0.0
 40
0.0
 40
0.289580301
 40
0.5486353253
 40
0.7816389062
 40
0.8918390359
 40
1.0
 40
1.0
 40
1.0
 40
1.0
 10
87.4654294799
 20
67.2875448256
 30
0.0
 10
87.4654294799
 20
66.841509522
 30
0.0
 10
87.3978508611
 20
65.9934268641
 30
0.0
 10
87.0549293362
 20
64.8288950687
 30
0.0
 10
86.5621770721
 20
64.0253726758
 30
0.0
 10
86.0644832979
 20
63.5359829022
 30
0.0
 10
85.7871201445
 20
63.3423320418
 30
0.0
 10
85.6428395914
 20
63.2590365344
 30
0.0
  0
SPLINE
  5
2DE
100
AcDbEntity
  8
0
100
AcDbSpline
 62
7
  6
BYLAYER
 70
0
 71
3
 72
9
 73
5
 74
0
 42
0.0000001
 43
0.0000001
 44
0.0000000001
 40
0.0
 40
0.0
 40
0.0
 40
0.0
 40
0.2605008897
 40
1.0
 40
1.0
 40
1.0
 40
1.0
 10
30.6845156067
 20
109.4590464562
 30
0.0
 10
30.6720773066
 20
109.4518652432
 30
0.0
 10
30.6249854039
 20
109.4231969055
 30
0.0
 10
30.5805608211
 20
109.3900035822
 30
0.0
 10
30.5502305326
 20
109.3627565578
 30
0.0
  0
SPLINE
  5
2DF
100
AcDbEntity
  8
0
100
AcDbSpline
 62
7
  6
BYLAYER
 70
0
 71
3
 72
14
 73
10
 74
0
 42
0.0000001
 43
0.0000001
 44
0.0000000001
 40
0.0
 40
0.0
 40
0.0
 40
0.0
 40
0.2520693306
 40
0.3650463407
 40
0.4757691616
 40
0.5903545568
 40
0.714103929
 40
0.8504321234
 40
1.0
 40
1.0
 40
1.0
 40
1.0
 10
30.5502305326
 20
109.3627565578
 30
0.0
 10
30.4950182408
 20
109.313156942
 30
0.0
 10
30.424793784
 20
109.2251259986
 30
0.0
 10
30.3887775621
 20
109.0879195021
 30
0.0
 10
30.3927890192
 20
108.9868797833
 30
0.0
 10
30.4268526599
 20
108.8885171689
 30
0.0
 10
30.4888496673
 20
108.7960375298
 30
0.0
 10
30.5762820395
 20
108.7119115594
 30
0.0
 10
30.6463825355
 20
108.664580588
 30
0.0
 10
30.6845214946
 20
108.6425615478
 30
0.0
  0
SPLINE
  5
2E0
100
AcDbEntity
  8
0
100
AcDbSpline
 62
7
  6
BYLAYER
 70
0
 71
3
 72
11
 73
7
 74
0
 42
0.0000001
 43
0.0000001
 44
0.0000000001
 40
0.0
 40
0.0
 40
0.0
 40
0.0
 40
0.2372428732
 40
0.4999994739
 40
0.7627563609
 40
1.0
 40
1.0
 40
1.0
 40
1.0
 10
39.3819075242
 20
112.4392372779
 30
0.0
 10
39.3517905285
 20
112.4218493261
 30
0.0
 10
39.2817535792
 20
112.3964793078
 30
0.0
 10
39.1697758234
 20
112.3843231576
 30
0.0
 10
39.0577978986
 20
112.3964787968
 30
0.0
 10
38.9877606739
 20
112.4218484673
 30
0.0
 10
38.9576434555
 20
112.439236258
 30
0.0
  0
SPLINE
  5
2E1
100
AcDbEntity
  8
0
100
AcDbSpline
 62
7
  6
BYLAYER
 70
0
 71
3
 72
11
 73
7
 74
0
 42
0.0000001
 43
0.0000001
 44
0.0000000001
 40
0.0
 40
0.0
 40
0.0
 40
0.0
 40
0.2897036169
 40
0.5490920547
 40
0.7822205729
 40
1.0
 40
1.0
 40
1.0
 40
1.0
 10
44.6852451827
 20
107.336219348
 30
0.0
 10
44.8146890548
 20
107.2614865843
 30
0.0
 10
45.0495342767
 20
107.0997352284
 30
0.0
 10
45.3302127513
 20
106.8047683077
 30
0.0
 10
45.5077572827
 20
106.4784540293
 30
0.0
 10
45.5492703115
 20
106.2442589874
 30
0.0
 10
45.5492788073
 20
106.1318990884
 30
0.0
  0
SPLINE
  5
2E2
100
AcDbEntity
  8
0
100
AcDbSpline
 62
7
  6
BYLAYER
 70
0
 71
3
 72
11
 73
7
 74
0
 42
0.0000001
 43
0.0000001
 44
0.0000000001
 40
0.0
 40
0.0
 40
0.0
 40
0.0
 40
0.2897114911
 40
0.5490754158
 40
0.7821845482
 40
1.0
 40
1.0
 40
1.0
 40
1.0
 10
48.7864268307
 20
112.5617326198
 30
0.0
 10
48.8785758468
 20
112.5085315641
 30
0.0
 10
49.0457618945
 20
112.3934043706
 30
0.0
 10
49.2455238177
 20
112.183405689
 30
0.0
 10
49.3719459082
 20
111.951149239
 30
0.0
 10
49.4015289466
 20
111.7844181589
 30
0.0
 10
49.4014957254
 20
111.7044198989
 30
0.0
  0
SPLINE
  5
2E3
100
AcDbEntity
  8
0
100
AcDbSpline
 62
7
  6
BYLAYER
 70
0
 71
3
 72
11
 73
7
 74
0
 42
0.0000001
 43
0.0000001
 44
0.0000000001
 40
0.0
 40
0.0
 40
0.0
 40
0.0
 40
0.2619773896
 40
0.52303113
 40
0.7721513045
 40
1.0
 40
1.0
 40
1.0
 40
1.0
 10
46.8144066631
 20
112.8837717286
 30
0.0
 10
46.9900031414
 20
112.9079462983
 30
0.0
 10
47.3447454309
 20
112.9294197263
 30
0.0
 10
47.86715907
 20
112.8853063152
 30
0.0
 10
48.3545733139
 20
112.7682080739
 30
0.0
 10
48.6529183741
 20
112.6388120194
 30
0.0
 10
48.7864268307
 20
112.5617326198
 30
0.0
  0
SPLINE
  5
2E4
100
AcDbEntity
  8
0
100
AcDbSpline
 62
7
  6
BYLAYER
 70
0
 71
3
 72
11
 73
7
 74
0
 42
0.0000001
 43
0.0000001
 44
0.0000000001
 40
0.0
 40
0.0
 40
0.0
 40
0.0
 40
0.2372196254
 40
0.500001618
 40
0.76278273
 40
1.0
 40
1.0
 40
1.0
 40
1.0
 10
30.330969576
 20
108.0301882623
 30
0.0
 10
30.330969576
 20
108.0881430528
 30
0.0
 10
30.3527065246
 20
108.2103766221
 30
0.0
 10
30.4284770379
 20
108.3821415319
 30
0.0
 10
30.5393434238
 20
108.5336432887
 30
0.0
 10
30.6343315972
 20
108.61358457
 30
0.0
 10
30.6845214946
 20
108.6425615478
 30
0.0
  0
SPLINE
  5
2E5
100
AcDbEntity
  8
0
100
AcDbSpline
 62
7
  6
BYLAYER
 70
0
 71
3
 72
11
 73
7
 74
0
 42
0.0000001
 43
0.0000001
 44
0.0000000001
 40
0.0
 40
0.0
 40
0.0
 40
0.0
 40
0.2372185796
 40
0.5000005262
 40
0.7627821863
 40
1.0
 40
1.0
 40
1.0
 40
1.0
 10
38.9576434555
 20
117.5015512443
 30
0.0
 10
38.98775765
 20
117.4841651993
 30
0.0
 10
39.0577931646
 20
117.4587907637
 30
0.0
 10
39.1697758234
 20
117.4466335992
 30
0.0
 10
39.2817583133
 20
117.4587912748
 30
0.0
 10
39.3517935523
 20
117.4841660581
 30
0.0
 10
39.3819075242
 20
117.5015522641
 30
0.0
  0
SPLINE
  5
2E6
100
AcDbEntity
  8
0
100
AcDbSpline
 62
7
  6
BYLAYER
 70
0
 71
3
 72
11
 73
7
 74
0
 42
0.0000001
 43
0.0000001
 44
0.0000000001
 40
0.0
 40
0.0
 40
0.0
 40
0.0
 40
0.23721727
 40
0.499998382
 40
0.7627803746
 40
1.0
 40
1.0
 40
1.0
 40
1.0
 10
39.1697746067
 20
117.8689752156
 30
0.0
 10
39.1396606683
 20
117.8515890289
 30
0.0
 10
39.0826677642
 20
117.8036242601
 30
0.0
 10
39.0161479327
 20
117.712723206
 30
0.0
 10
38.9706856247
 20
117.6096642601
 30
0.0
 10
38.9576434555
 20
117.5363241185
 30
0.0
 10
38.9576434555
 20
117.5015512443
 30
0.0
  0
SPLINE
  5
2E7
100
AcDbEntity
  8
0
100
AcDbSpline
 62
7
  6
BYLAYER
 70
0
 71
3
 72
11
 73
7
 74
0
 42
0.0000001
 43
0.0000001
 44
0.0000000001
 40
0.0
 40
0.0
 40
0.0
 40
0.0
 40
0.2372193634
 40
0.5000010919
 40
0.762782226
 40
1.0
 40
1.0
 40
1.0
 40
1.0
 10
39.3819075242
 20
117.5015522641
 30
0.0
 10
39.3819075242
 20
117.5363251197
 30
0.0
 10
39.3688652478
 20
117.6096652284
 30
0.0
 10
39.3234025301
 20
117.7127239996
 30
0.0
 10
39.2568821019
 20
117.8036247634
 30
0.0
 10
39.1998887516
 20
117.8515891992
 30
0.0
 10
39.1697746067
 20
117.8689752156
 30
0.0
  0
SPLINE
  5
2E8
100
AcDbEntity
  8
0
100
AcDbSpline
 62
7
  6
BYLAYER
 70
0
 71
3
 72
17
 73
13
 74
0
 42
0.0000001
 43
0.0000001
 44
0.0000000001
 40
0.0
 40
0.0
 40
0.0
 40
0.0
 40
0.0428584554
 40
0.0874839031
 40
0.1353177481
 40
0.1872794187
 40
0.3045395902
 40
0.4382053041
 40
0.582547581
 40
0.729712444
 40
0.8713059798
 40
1.0
 40
1.0
 40
1.0
 40
1.0
 10
34.6995308425
 20
108.9895843814
 30
0.0
 10
34.6995244929
 20
109.073560377
 30
0.0
 10
34.7220342847
 20
109.2456971578
 30
0.0
 10
34.8207051557
 20
109.4942755264
 30
0.0
 10
34.9809328166
 20
109.7299157675
 30
0.0
 10
35.2825031341
 20
110.0325969896
 30
0.0
 10
35.7963953368
 20
110.3454079927
 30
0.0
 10
36.535277338
 20
110.5922243712
 30
0.0
 10
37.3644924016
 20
110.7087723029
 30
0.0
 10
38.2168073258
 20
110.6851811692
 30
0.0
 10
39.0226593166
 20
110.5239919738
 30
0.0
 10
39.5170984936
 20
110.3199827284
 30
0.0
 10
39.7354771066
 20
110.1939046296
 30
0.0
  0
SPLINE
  5
2E9
100
AcDbEntity
  8
0
100
AcDbSpline
 62
7
  6
BYLAYER
 70
0
 71
3
 72
9
 73
5
 74
0
 42
0.0000001
 43
0.0000001
 44
0.0000000001
 40
0.0
 40
0.0
 40
0.0
 40
0.0
 40
0.2364409047
 40
1.0
 40
1.0
 40
1.0
 40
1.0
 10
59.9586274208
 20
129.8713533394
 30
0.0
 10
59.9645438067
 20
129.8679375897
 30
0.0
 10
59.9890268168
 20
129.8525615834
 30
0.0
 10
60.0113962447
 20
129.8339383106
 30
0.0
 10
60.0272271014
 20
129.8185723544
 30
0.0
  0
SPLINE
  5
2EA
100
AcDbEntity
  8
0
100
AcDbSpline
 62
7
  6
BYLAYER
 70
0
 71
3
 72
9
 73
5
 74
0
 42
0.0000001
 43
0.0000001
 44
0.0000000001
 40
0.0
 40
0.0
 40
0.0
 40
0.0
 40
0.2430466145
 40
1.0
 40
1.0
 40
1.0
 40
1.0
 10
60.0272271014
 20
129.8185723544
 30
0.0
 10
60.0349905274
 20
129.8110369148
 30
0.0
 10
60.0657202467
 20
129.7787976437
 30
0.0
 10
60.0917802212
 20
129.7421891166
 30
0.0
 10
60.1086280453
 20
129.7130079913
 30
0.0
  0
SPLINE
  5
2EB
100
AcDbEntity
  8
0
100
AcDbSpline
 62
7
  6
BYLAYER
 70
0
 71
3
 72
9
 73
5
 74
0
 42
0.0000001
 43
0.0000001
 44
0.0000000001
 40
0.0
 40
0.0
 40
0.0
 40
0.0
 40
0.2555022621
 40
1.0
 40
1.0
 40
1.0
 40
1.0
 10
60.1086280453
 20
129.7130079913
 30
0.0
 10
60.1143145174
 20
129.7031587873
 30
0.0
 10
60.1352806473
 20
129.6638921463
 30
0.0
 10
60.1512509701
 20
129.6218630035
 30
0.0
 10
60.1593501478
 20
129.5897289352
 30
0.0
  0
SPLINE
  5
2EC
100
AcDbEntity
  8
0
100
AcDbSpline
 62
7
  6
BYLAYER
 70
0
 71
3
 72
9
 73
5
 74
0
 42
0.0000001
 43
0.0000001
 44
0.0000000001
 40
0.0
 40
0.0
 40
0.0
 40
0.0
 40
0.2629546114
 40
1.0
 40
1.0
 40
1.0
 40
1.0
 10
60.1593501478
 20
129.5897289352
 30
0.0
 10
60.1612068179
 20
129.5823624631
 30
0.0
 10
60.1675031672
 20
129.5541713039
 30
0.0
 10
60.1707603383
 20
129.5252238859
 30
0.0
 10
60.1707603383
 20
129.5039303879
 30
0.0
  0
SPLINE
  5
2ED
100
AcDbEntity
  8
0
100
AcDbSpline
 62
7
  6
BYLAYER
 70
0
 71
3
 72
11
 73
7
 74
0
 42
0.0000001
 43
0.0000001
 44
0.0000000001
 40
0.0
 40
0.0
 40
0.0
 40
0.0
 40
0.2895448512
 40
0.5491358493
 40
0.7822770651
 40
1.0
 40
1.0
 40
1.0
 40
1.0
 10
41.2910878847
 20
115.3786269318
 30
0.0
 10
41.2362707886
 20
115.3469784556
 30
0.0
 10
41.1271295178
 20
115.2951262828
 30
0.0
 10
40.959443821
 20
115.2545361611
 30
0.0
 10
40.8020351052
 20
115.2585036981
 30
0.0
 10
40.7073444755
 20
115.2929645848
 30
0.0
 10
40.6661242163
 20
115.3167615765
 30
0.0
  0
SPLINE
  5
2EE
100
AcDbEntity
  8
0
100
AcDbSpline
 62
7
  6
BYLAYER
 70
0
 71
3
 72
11
 73
7
 74
0
 42
0.0000001
 43
0.0000001
 44
0.0000000001
 40
0.0
 40
0.0
 40
0.0
 40
0.0
 40
0.2895448512
 40
0.5491358493
 40
0.7822770651
 40
1.0
 40
1.0
 40
1.0
 40
1.0
 10
58.2615799778
 20
125.1764866248
 30
0.0
 10
58.2067628818
 20
125.1448381485
 30
0.0
 10
58.0976216109
 20
125.0929859757
 30
0.0
 10
57.9299359141
 20
125.0523958541
 30
0.0
 10
57.7725271983
 20
125.0563633911
 30
0.0
 10
57.6778365686
 20
125.0908242777
 30
0.0
 10
57.6366163094
 20
125.1146212694
 30
0.0
  0
SPLINE
  5
2EF
100
AcDbEntity
  8
0
100
AcDbSpline
 62
7
  6
BYLAYER
 70
0
 71
3
 72
11
 73
7
 74
0
 42
0.0000001
 43
0.0000001
 44
0.0000000001
 40
0.0
 40
0.0
 40
0.0
 40
0.0
 40
0.2372531816
 40
0.5000006935
 40
0.7627478297
 40
1.0
 40
1.0
 40
1.0
 40
1.0
 10
66.7468171925
 20
129.4630133953
 30
0.0
 10
66.6464223722
 20
129.5209750605
 30
0.0
 10
66.4129704594
 20
129.6055681606
 30
0.0
 10
66.0397090947
 20
129.6460107009
 30
0.0
 10
65.666448422
 20
129.6055663771
 30
0.0
 10
65.4329976045
 20
129.5209721381
 30
0.0
 10
65.3326036302
 20
129.4630099959
 30
0.0
  0
SPLINE
  5
2F0
100
AcDbEntity
  8
0
100
AcDbSpline
 62
7
  6
BYLAYER
 70
0
 71
3
 72
11
 73
7
 74
0
 42
0.0000001
 43
0.0000001
 44
0.0000000001
 40
0.0
 40
0.0
 40
0.0
 40
0.0
 40
0.2897023113
 40
0.5490868678
 40
0.7822157677
 40
1.0
 40
1.0
 40
1.0
 40
1.0
 10
30.330969576
 20
89.6588838769
 30
0.0
 10
30.2651507262
 20
89.6968835479
 30
0.0
 10
30.1457375208
 20
89.7791280598
 30
0.0
 10
30.0030212282
 20
89.9291121432
 30
0.0
 10
29.9127402503
 20
90.0950319236
 30
0.0
 10
29.8916253291
 20
90.2141164966
 30
0.0
 10
29.8916253318
 20
90.2712501077
 30
0.0
  0
SPLINE
  5
2F1
100
AcDbEntity
  8
0
100
AcDbSpline
 62
7
  6
BYLAYER
 70
0
 71
3
 72
22
 73
18
 74
0
 42
0.0000001
 43
0.0000001
 44
0.0000000001
 40
0.0
 40
0.0
 40
0.0
 40
0.0
 40
0.0428206611
 40
0.0874094001
 40
0.1351995183
 40
0.1871159791
 40
0.2435698337
 40
0.3045351014
 40
0.3696417637
 40
0.4382588152
 40
0.5095654937
 40
0.5826107795
 40
0.7296268591
 40
0.8016255723
 40
0.8712340598
 40
0.9376043745
 40
1.0
 40
1.0
 40
1.0
 40
1.0
 10
85.7107223592
 20
61.5084684546
 30
0.0
 10
85.4555371374
 20
61.3611697407
 30
0.0
 10
84.8930833507
 20
61.1273211427
 30
0.0
 10
83.9645596545
 20
60.9912796552
 30
0.0
 10
82.9675011877
 20
61.0646972683
 30
0.0
 10
81.9240194242
 20
61.3419492407
 30
0.0
 10
80.8546044251
 20
61.8145728494
 30
0.0
 10
79.7805409832
 20
62.4716649145
 30
0.0
 10
78.7236513148
 20
63.2991025007
 30
0.0
 10
77.7059102765
 20
64.2792957223
 30
0.0
 10
76.7485684231
 20
65.3915967187
 30
0.0
 10
75.5782757474
 20
67.0217029495
 30
0.0
 10
74.6161277288
 20
68.7994454114
 30
0.0
 10
73.9039542134
 20
70.6554761214
 30
0.0
 10
73.5146862511
 20
72.035002864
 30
0.0
 10
73.2753948099
 20
73.3811478394
 30
0.0
 10
73.2171744062
 20
74.267770794
 30
0.0
 10
73.2171744062
 20
74.6971111208
 30
0.0
  0
SPLINE
  5
2F2
100
AcDbEntity
  8
0
100
AcDbSpline
 62
7
  6
BYLAYER
 70
0
 71
3
 72
11
 73
7
 74
0
 42
0.0000001
 43
0.0000001
 44
0.0000000001
 40
0.0
 40
0.0
 40
0.0
 40
0.0
 40
0.2190045633
 40
0.4554854264
 40
0.7151383578
 40
1.0
 40
1.0
 40
1.0
 40
1.0
 10
75.4633923677
 20
79.4012571439
 30
0.0
 10
75.210195629
 20
79.1710869679
 30
0.0
 10
74.7511376925
 20
78.614364027
 30
0.0
 10
74.2698301033
 20
77.5961025783
 30
0.0
 10
73.9820486215
 20
76.4031252275
 30
0.0
 10
73.9242782434
 20
75.5504320782
 30
0.0
 10
73.9242782434
 20
75.1053552747
 30
0.0
  0
SPLINE
  5
2F3
100
AcDbEntity
  8
0
100
AcDbSpline
 62
7
  6
BYLAYER
 70
0
 71
3
 72
9
 73
5
 74
0
 42
0.0000001
 43
0.0000001
 44
0.0000000001
 40
0.0
 40
0.0
 40
0.0
 40
0.0
 40
0.244247502
 40
1.0
 40
1.0
 40
1.0
 40
1.0
 10
90.4352873816
 20
56.1831471053
 30
0.0
 10
90.4242806446
 20
56.1767924006
 30
0.0
 10
90.3788630081
 20
56.1513902558
 30
0.0
 10
90.3321116197
 20
56.1283917405
 30
0.0
 10
90.2962434422
 20
56.1122676367
 30
0.0
  0
SPLINE
  5
2F4
100
AcDbEntity
  8
0
100
AcDbSpline
 62
7
  6
BYLAYER
 70
0
 71
3
 72
11
 73
7
 74
0
 42
0.0000001
 43
0.0000001
 44
0.0000000001
 40
0.0
 40
0.0
 40
0.0
 40
0.0
 40
0.2409567038
 40
0.4999996051
 40
0.7590427154
 40
1.0
 40
1.0
 40
1.0
 40
1.0
 10
90.2962434422
 20
56.1122676367
 30
0.0
 10
90.1578445035
 20
56.050052074
 30
0.0
 10
89.8532057969
 20
55.9586967122
 30
0.0
 10
89.3746281854
 20
55.9143668314
 30
0.0
 10
88.8960500264
 20
55.9586947613
 30
0.0
 10
88.5914104353
 20
56.0500488101
 30
0.0
 10
88.4530108113
 20
56.1122637404
 30
0.0
  0
SPLINE
  5
2F5
100
AcDbEntity
  8
0
100
AcDbSpline
 62
7
  6
BYLAYER
 70
0
 71
3
 72
9
 73
5
 74
0
 42
0.0000001
 43
0.0000001
 44
0.0000000001
 40
0.0
 40
0.0
 40
0.0
 40
0.0
 40
0.2557015083
 40
1.0
 40
1.0
 40
1.0
 40
1.0
 10
88.4530108113
 20
56.1122637404
 30
0.0
 10
88.440875281
 20
56.1177190382
 30
0.0
 10
88.3936702224
 20
56.1396127586
 30
0.0
 10
88.3475077326
 20
56.1637777153
 30
0.0
 10
88.3139670381
 20
56.1831420062
 30
0.0
  0
SPLINE
  5
2F6
100
AcDbEntity
  8
0
100
AcDbSpline
 62
7
  6
BYLAYER
 70
0
 71
3
 72
16
 73
12
 74
0
 42
0.0000001
 43
0.0000001
 44
0.0000000001
 40
0.0
 40
0.0
 40
0.0
 40
0.0
 40
0.0428754974
 40
0.0875229036
 40
0.1869229067
 40
0.3042341567
 40
0.43795482
 40
0.5823566599
 40
0.7295682564
 40
0.8712589284
 40
1.0
 40
1.0
 40
1.0
 40
1.0
 10
58.8865436463
 20
127.279608023
 30
0.0
 10
58.9173588365
 20
127.2618180129
 30
0.0
 10
58.9758145428
 20
127.217158821
 30
0.0
 10
59.0728221224
 20
127.0943688124
 30
0.0
 10
59.1451839129
 20
126.8837744189
 30
0.0
 10
59.1516094087
 20
126.5901672553
 30
0.0
 10
59.0857965345
 20
126.266371432
 30
0.0
 10
58.9528349087
 20
125.9375259273
 30
0.0
 10
58.7636494204
 20
125.629690178
 30
0.0
 10
58.5337261661
 20
125.3681551728
 30
0.0
 10
58.3541065432
 20
125.2299065433
 30
0.0
 10
58.2615799778
 20
125.1764866248
 30
0.0
  0
SPLINE
  5
2F7
100
AcDbEntity
  8
0
100
AcDbSpline
 62
7
  6
BYLAYER
 70
0
 71
3
 72
21
 73
17
 74
0
 42
0.0000001
 43
0.0000001
 44
0.0000000001
 40
0.0
 40
0.0
 40
0.0
 40
0.0
 40
0.0428267602
 40
0.0874217049
 40
0.1352177361
 40
0.1871411083
 40
0.2436036252
 40
0.304577512
 40
0.3696922226
 40
0.4383182844
 40
0.5825496221
 40
0.7295866245
 40
0.8015963619
 40
0.8712135128
 40
0.9375988145
 40
1.0
 40
1.0
 40
1.0
 40
1.0
 10
85.6428395914
 20
63.2590365344
 30
0.0
 10
85.4258792966
 20
63.1337818314
 30
0.0
 10
84.9476241191
 20
62.9350245842
 30
0.0
 10
84.1581740774
 20
62.8193451323
 30
0.0
 10
83.3104378573
 20
62.8817337615
 30
0.0
 10
82.4232225618
 20
63.1174378053
 30
0.0
 10
81.5139710881
 20
63.5193167566
 30
0.0
 10
80.6007862988
 20
64.07801777
 30
0.0
 10
79.7021189307
 20
64.7815147646
 30
0.0
 10
78.5293580937
 20
65.9111993422
 30
0.0
 10
77.2265078558
 20
67.579787056
 30
0.0
 10
76.2098359398
 20
69.4579343472
 30
0.0
 10
75.6042207727
 20
71.0362195379
 30
0.0
 10
75.2732521252
 20
72.209137212
 30
0.0
 10
75.0698213045
 20
73.3537062048
 30
0.0
 10
75.0202983174
 20
74.1075585835
 30
0.0
 10
75.0202983174
 20
74.4725821052
 30
0.0
  0
SPLINE
  5
2F8
100
AcDbEntity
  8
0
100
AcDbSpline
 62
7
  6
BYLAYER
 70
0
 71
3
 72
16
 73
12
 74
0
 42
0.0000001
 43
0.0000001
 44
0.0000000001
 40
0.0
 40
0.0
 40
0.0
 40
0.0
 40
0.0428754974
 40
0.0875229036
 40
0.1869229067
 40
0.3042341567
 40
0.43795482
 40
0.5823566599
 40
0.7295682564
 40
0.8712589284
 40
1.0
 40
1.0
 40
1.0
 40
1.0
 10
41.9160515532
 20
117.48174833
 30
0.0
 10
41.9468667434
 20
117.46395832
 30
0.0
 10
42.0053224496
 20
117.4192991281
 30
0.0
 10
42.1023300292
 20
117.2965091195
 30
0.0
 10
42.1746918197
 20
117.085914726
 30
0.0
 10
42.1811173155
 20
116.7923075624
 30
0.0
 10
42.1153044414
 20
116.4685117391
 30
0.0
 10
41.9823428156
 20
116.1396662344
 30
0.0
 10
41.7931573273
 20
115.8318304851
 30
0.0
 10
41.5632340729
 20
115.5702954799
 30
0.0
 10
41.3836144501
 20
115.4320468504
 30
0.0
 10
41.2910878847
 20
115.3786269318
 30
0.0
  0
SPLINE
  5
2F9
100
AcDbEntity
  8
0
100
AcDbSpline
 62
7
  6
BYLAYER
 70
0
 71
3
 72
17
 73
13
 74
0
 42
0.0000001
 43
0.0000001
 44
0.0000000001
 40
0.0
 40
0.0
 40
0.0
 40
0.0
 40
0.0428584554
 40
0.0874839031
 40
0.1353177481
 40
0.1872794187
 40
0.3045395902
 40
0.4382053041
 40
0.582547581
 40
0.729712444
 40
0.8713059798
 40
1.0
 40
1.0
 40
1.0
 40
1.0
 10
63.1958154822
 20
125.4418237824
 30
0.0
 10
63.1958091326
 20
125.525799778
 30
0.0
 10
63.2183189244
 20
125.6979365588
 30
0.0
 10
63.3169897954
 20
125.9465149274
 30
0.0
 10
63.4772174563
 20
126.1821551685
 30
0.0
 10
63.7787877738
 20
126.4848363906
 30
0.0
 10
64.2926799765
 20
126.7976473937
 30
0.0
 10
65.0315619777
 20
127.0444637722
 30
0.0
 10
65.8607770413
 20
127.1610117039
 30
0.0
 10
66.7130919655
 20
127.1374205702
 30
0.0
 10
67.5189439563
 20
126.9762313748
 30
0.0
 10
68.0133831334
 20
126.7722221294
 30
0.0
 10
68.2317617464
 20
126.6461440306
 30
0.0
  0
SPLINE
  5
2FA
100
AcDbEntity
  8
0
100
AcDbSpline
 62
7
  6
BYLAYER
 70
0
 71
3
 72
9
 73
5
 74
0
 42
0.0000001
 43
0.0000001
 44
0.0000000001
 40
0.0
 40
0.0
 40
0.0
 40
0.0
 40
0.2616123982
 40
1.0
 40
1.0
 40
1.0
 40
1.0
 10
87.0680206864
 20
69.4584409413
 30
0.0
 10
87.0046127135
 20
69.4779485987
 30
0.0
 10
86.7642012647
 20
69.5585499523
 30
0.0
 10
86.5314885109
 20
69.6635908315
 30
0.0
 10
86.3693296245
 20
69.7572111903
 30
0.0
  0
SPLINE
  5
2FB
100
AcDbEntity
  8
0
100
AcDbSpline
 62
7
  6
BYLAYER
 70
0
 71
3
 72
11
 73
7
 74
0
 42
0.0000001
 43
0.0000001
 44
0.0000000001
 40
0.0
 40
0.0
 40
0.0
 40
0.0
 40
0.2897036169
 40
0.5490920547
 40
0.7822205729
 40
1.0
 40
1.0
 40
1.0
 40
1.0
 10
86.3693296245
 20
69.7572111903
 30
0.0
 10
86.2398857524
 20
69.831943954
 30
0.0
 10
86.0050405304
 20
69.9936953098
 30
0.0
 10
85.7243620559
 20
70.2886622306
 30
0.0
 10
85.5468175244
 20
70.614976509
 30
0.0
 10
85.5053044956
 20
70.8491715508
 30
0.0
 10
85.5052959999
 20
70.9615314498
 30
0.0
  0
SPLINE
  5
2FC
100
AcDbEntity
  8
0
100
AcDbSpline
 62
7
  6
BYLAYER
 70
0
 71
3
 72
9
 73
5
 74
0
 42
0.0000001
 43
0.0000001
 44
0.0000000001
 40
0.0
 40
0.0
 40
0.0
 40
0.0
 40
0.2560198503
 40
1.0
 40
1.0
 40
1.0
 40
1.0
 10
41.5588485711
 20
123.7826460764
 30
0.0
 10
41.6556299998
 20
123.8593942474
 30
0.0
 10
42.0376181045
 20
124.1541108432
 30
0.0
 10
42.4356017204
 20
124.4282806712
 30
0.0
 10
42.7403190237
 20
124.6179775896
 30
0.0
  0
SPLINE
  5
2FD
100
AcDbEntity
  8
0
100
AcDbSpline
 62
7
  6
BYLAYER
 70
0
 71
3
 72
9
 73
5
 74
0
 42
0.0000001
 43
0.0000001
 44
0.0000000001
 40
0.0
 40
0.0
 40
0.0
 40
0.0
 40
0.2459909655
 40
1.0
 40
1.0
 40
1.0
 40
1.0
 10
45.9791433159
 20
100.9876862365
 30
0.0
 10
45.9791522226
 20
100.9694566104
 30
0.0
 10
45.9831636288
 20
100.8953707467
 30
0.0
 10
46.0037720229
 20
100.8224626277
 30
0.0
 10
46.0265546079
 20
100.7714408334
 30
0.0
  0
SPLINE
  5
2FE
100
AcDbEntity
  8
0
100
AcDbSpline
 62
7
  6
BYLAYER
 70
0
 71
3
 72
9
 73
5
 74
0
 42
0.0000001
 43
0.0000001
 44
0.0000000001
 40
0.0
 40
0.0
 40
0.0
 40
0.0
 40
0.2445875643
 40
1.0
 40
1.0
 40
1.0
 40
1.0
 10
46.0265546079
 20
100.7714408334
 30
0.0
 10
46.0304263296
 20
100.7627700797
 30
0.0
 10
46.0471023618
 20
100.7277006207
 30
0.0
 10
46.067065886
 20
100.6942191093
 30
0.0
 10
46.0836080179
 20
100.6700012672
 30
0.0
  0
SPLINE
  5
2FF
100
AcDbEntity
  8
0
100
AcDbSpline
 62
7
  6
BYLAYER
 70
0
 71
3
 72
14
 73
10
 74
0
 42
0.0000001
 43
0.0000001
 44
0.0000000001
 40
0.0
 40
0.0
 40
0.0
 40
0.0
 40
0.2892778875
 40
0.4225507498
 40
0.5484967499
 40
0.6678926921
 40
0.7818706207
 40
0.8919536338
 40
1.0
 40
1.0
 40
1.0
 40
1.0
 10
73.2171744062
 20
74.6971111208
 30
0.0
 10
73.2171744062
 20
75.2217201565
 30
0.0
 10
73.2784152403
 20
75.9917904955
 30
0.0
 10
73.5151665313
 20
76.959658524
 30
0.0
 10
73.7560095869
 20
77.6046099301
 30
0.0
 10
74.0630209145
 20
78.1817172036
 30
0.0
 10
74.4337324468
 20
78.6853011165
 30
0.0
 10
74.8648522206
 20
79.109537423
 30
0.0
 10
75.19109641
 20
79.3372146873
 30
0.0
 10
75.3607977637
 20
79.4351701684
 30
0.0
  0
SPLINE
  5
300
100
AcDbEntity
  8
0
100
AcDbSpline
 62
7
  6
BYLAYER
 70
0
 71
3
 72
11
 73
7
 74
0
 42
0.0000001
 43
0.0000001
 44
0.0000000001
 40
0.0
 40
0.0
 40
0.0
 40
0.0
 40
0.2758429092
 40
0.5413794484
 40
0.7882176089
 40
1.0
 40
1.0
 40
1.0
 40
1.0
 10
46.4184010172
 20
98.7423155089
 30
0.0
 10
46.3535946379
 20
98.8229350249
 30
0.0
 10
46.2368063935
 20
98.9897728055
 30
0.0
 10
46.0989466026
 20
99.2522849007
 30
0.0
 10
46.0079133979
 20
99.5088794218
 30
0.0
 10
45.9791848538
 20
99.6805091785
 30
0.0
 10
45.9790999047
 20
99.7599249834
 30
0.0
  0
SPLINE
  5
301
100
AcDbEntity
  8
0
100
AcDbSpline
 62
7
  6
BYLAYER
 70
0
 71
3
 72
11
 73
7
 74
0
 42
0.0000001
 43
0.0000001
 44
0.0000000001
 40
0.0
 40
0.0
 40
0.0
 40
0.0
 40
0.2177842323
 40
0.4509131322
 40
0.7102976887
 40
1.0
 40
1.0
 40
1.0
 40
1.0
 10
29.8916253318
 20
108.6425544931
 30
0.0
 10
29.8916253291
 20
108.585420882
 30
0.0
 10
29.9127402503
 20
108.466336309
 30
0.0
 10
30.0030212282
 20
108.3004165286
 30
0.0
 10
30.1457375208
 20
108.1504324452
 30
0.0
 10
30.2651507262
 20
108.0681879333
 30
0.0
 10
30.330969576
 20
108.0301882623
 30
0.0
  0
SPLINE
  5
302
100
AcDbEntity
  8
0
100
AcDbSpline
 62
7
  6
BYLAYER
 70
0
 71
3
 72
17
 73
13
 74
0
 42
0.0000001
 43
0.0000001
 44
0.0000000001
 40
0.0
 40
0.0
 40
0.0
 40
0.0
 40
0.0428571277
 40
0.087483909
 40
0.1353159407
 40
0.187279013
 40
0.3045397097
 40
0.4382076182
 40
0.5825507004
 40
0.7297102646
 40
0.8713099941
 40
1.0
 40
1.0
 40
1.0
 40
1.0
 10
43.0802230451
 20
112.1126573191
 30
0.0
 10
43.0801990299
 20
112.1724349445
 30
0.0
 10
43.0962049496
 20
112.2949794381
 30
0.0
 10
43.1664639532
 20
112.471924278
 30
0.0
 10
43.2805257023
 20
112.6396660913
 30
0.0
 10
43.4951906282
 20
112.8551466698
 30
0.0
 10
43.8610176407
 20
113.0778304935
 30
0.0
 10
44.387004933
 20
113.25353452
 30
0.0
 10
44.977291087
 20
113.3364898882
 30
0.0
 10
45.5840266245
 20
113.3197072374
 30
0.0
 10
46.1576745651
 20
113.2049385108
 30
0.0
 10
46.5096525355
 20
113.0597176258
 30
0.0
 10
46.6651035432
 20
112.969969975
 30
0.0
  0
SPLINE
  5
303
100
AcDbEntity
  8
0
100
AcDbSpline
 62
7
  6
BYLAYER
 70
0
 71
3
 72
9
 73
5
 74
0
 42
0.0000001
 43
0.0000001
 44
0.0000000001
 40
0.0
 40
0.0
 40
0.0
 40
0.0
 40
0.477376548
 40
1.0
 40
1.0
 40
1.0
 40
1.0
 10
88.3139670381
 20
76.1874512259
 30
0.0
 10
88.4121709439
 20
76.1307544571
 30
0.0
 10
88.632119381
 20
76.036198237
 30
0.0
 10
88.8645654028
 20
75.9821111089
 30
0.0
 10
88.9872573449
 20
75.9631833346
 30
0.0
  0
SPLINE
  5
304
100
AcDbEntity
  8
0
100
AcDbSpline
 62
7
  6
BYLAYER
 70
0
 71
3
 72
9
 73
5
 74
0
 42
0.0000001
 43
0.0000001
 44
0.0000000001
 40
0.0
 40
0.0
 40
0.0
 40
0.0
 40
0.2518833738
 40
1.0
 40
1.0
 40
1.0
 40
1.0
 10
89.3746290454
 20
75.9338087548
 30
0.0
 10
89.407264253
 20
75.9338088359
 30
0.0
 10
89.536814389
 20
75.9362689296
 30
0.0
 10
89.6662040844
 20
75.9484061428
 30
0.0
 10
89.7620003093
 20
75.9631851968
 30
0.0
  0
SPLINE
  5
305
100
AcDbEntity
  8
0
100
AcDbSpline
 62
7
  6
BYLAYER
 70
0
 71
3
 72
9
 73
5
 74
0
 42
0.0000001
 43
0.0000001
 44
0.0000000001
 40
0.0
 40
0.0
 40
0.0
 40
0.0
 40
0.5226237847
 40
1.0
 40
1.0
 40
1.0
 40
1.0
 10
89.7620003093
 20
75.9631851968
 30
0.0
 10
89.8846918848
 20
75.9821135568
 30
0.0
 10
90.1171369735
 20
76.0362017327
 30
0.0
 10
90.3370842316
 20
76.1307590483
 30
0.0
 10
90.4352873816
 20
76.1874563249
 30
0.0
  0
SPLINE
  5
306
100
AcDbEntity
  8
0
100
AcDbSpline
 62
7
  6
BYLAYER
 70
0
 71
3
 72
11
 73
7
 74
0
 42
0.0000001
 43
0.0000001
 44
0.0000000001
 40
0.0
 40
0.0
 40
0.0
 40
0.0
 40
0.217784692
 40
0.4509137851
 40
0.7102981701
 40
1.0
 40
1.0
 40
1.0
 40
1.0
 10
125.5227108174
 20
76.7994717768
 30
0.0
 10
125.5227108146
 20
76.742338781
 30
0.0
 10
125.5015963895
 20
76.623255581
 30
0.0
 10
125.411317356
 20
76.457337408
 30
0.0
 10
125.2686039628
 20
76.3073544362
 30
0.0
 10
125.1491930237
 20
76.225110238
 30
0.0
 10
125.0833754051
 20
76.187110645
 30
0.0
  0
SPLINE
  5
307
100
AcDbEntity
  8
0
100
AcDbSpline
 62
7
  6
BYLAYER
 70
0
 71
3
 72
9
 73
5
 74
0
 42
0.0000001
 43
0.0000001
 44
0.0000000001
 40
0.0
 40
0.0
 40
0.0
 40
0.0
 40
0.2576836314
 40
1.0
 40
1.0
 40
1.0
 40
1.0
 10
125.4718264199
 20
96.5801431402
 30
0.0
 10
125.4801370849
 20
96.5980999008
 30
0.0
 10
125.5089750862
 20
96.6692913903
 30
0.0
 10
125.5227033431
 20
96.7467809816
 30
0.0
 10
125.5227033326
 20
96.8037809964
 30
0.0
  0
SPLINE
  5
308
100
AcDbEntity
  8
0
100
AcDbSpline
 62
7
  6
BYLAYER
 70
0
 71
3
 72
21
 73
17
 74
0
 42
0.0000001
 43
0.0000001
 44
0.0000000001
 40
0.0
 40
0.0
 40
0.0
 40
0.0
 40
0.0611702951
 40
0.1260679122
 40
0.1940491153
 40
0.2643928555
 40
0.4085707321
 40
0.5514198595
 40
0.620151996
 40
0.6859781658
 40
0.7482516706
 40
0.806507907
 40
0.8605233001
 40
0.9103876482
 40
0.9565763825
 40
1.0
 40
1.0
 40
1.0
 40
1.0
 10
73.9242782434
 20
75.1053552747
 30
0.0
 10
73.9242782434
 20
74.7001579925
 30
0.0
 10
73.9761071311
 20
73.8645588174
 30
0.0
 10
74.1901575533
 20
72.5951375753
 30
0.0
 10
74.5391084819
 20
71.2929713223
 30
0.0
 10
75.180133003
 20
69.5327945666
 30
0.0
 10
76.2642824124
 20
67.4162785805
 30
0.0
 10
77.6608225046
 20
65.5040865929
 30
0.0
 10
78.9283401871
 20
64.1706804954
 30
0.0
 10
79.9116255202
 20
63.3112864192
 30
0.0
 10
80.920798614
 20
62.5962479552
 30
0.0
 10
81.9372880933
 20
62.039164764
 30
0.0
 10
82.9425873668
 20
61.6509586905
 30
0.0
 10
83.9189421482
 20
61.4400463351
 30
0.0
 10
84.8480932237
 20
61.4124373258
 30
0.0
 10
85.4375984799
 20
61.5217865318
 30
0.0
 10
85.712094141
 20
61.6077511658
 30
0.0
  0
SPLINE
  5
309
100
AcDbEntity
  8
0
100
AcDbSpline
 62
7
  6
BYLAYER
 70
0
 71
3
 72
12
 73
8
 74
0
 42
0.0000001
 43
0.0000001
 44
0.0000000001
 40
0.0
 40
0.0
 40
0.0
 40
0.0
 40
0.289580301
 40
0.5486353253
 40
0.7816389062
 40
0.8918390359
 40
1.0
 40
1.0
 40
1.0
 40
1.0
 10
75.0202983174
 20
74.4725821052
 30
0.0
 10
75.0202983174
 20
74.9186174088
 30
0.0
 10
75.0878769362
 20
75.7667000667
 30
0.0
 10
75.4307984611
 20
76.9312318621
 30
0.0
 10
75.9235507252
 20
77.734754255
 30
0.0
 10
76.4212444994
 20
78.2241440286
 30
0.0
 10
76.6986076528
 20
78.417794889
 30
0.0
 10
76.8428882059
 20
78.5010903964
 30
0.0
  0
ELLIPSE
  5
30A
100
AcDbEntity
  8
0
100
AcDbEllipse
 62
7
  6
BYLAYER
 10
86.9360301127
 20
74.1669948913
 30
0.0
 11
-4.4570403616
 21
7.5879980665
 31
0.0
 40
0.5722968075
 41
0.7086979231
 42
2.4164132982
  0
ENDSEC
  0
SECTION
  2
OBJECTS
  0
DICTIONARY
  5
C
100
AcDbDictionary
280
0
281
1
  3
ACAD_GROUP
350
D
  3
ACAD_MLINESTYLE
350
17
  3
ACAD_LAYOUT
350
1A
  3
ACAD_PLOTSETTINGS
350
19
  3
ACAD_PLOTSTYLENAME
350
E
  0
DICTIONARY
  5
D
102
{ACAD_REACTORS
330
C
102
}
100
AcDbDictionary
280
0
281
1
  0
ACDBDICTIONARYWDFLT
  5
E
102
{ACAD_REACTORS
330
C
102
}
100
AcDbDictionary
281
1
  3
Normal
350
F
100
AcDbDictionaryWithDefault
340
F
  0
DICTIONARY
  5
17
102
{ACAD_REACTORS
330
C
102
}
100
AcDbDictionary
280
0
281
1
  3
Standard
350
18
  0
DICTIONARY
  5
19
102
{ACAD_REACTORS
330
C
102
}
100
AcDbDictionary
281
1
  0
DICTIONARY
  5
1A
102
{ACAD_REACTORS
330
C
102
}
100
AcDbDictionary
281
1
  3
Model
350
30B
  3
Layout1
350
30C
  0
ACDBPLACEHOLDER
  5
F
102
{ACAD_REACTORS
330
E
102
}
  0
MLINESTYLE
  5
18
102
{ACAD_REACTORS
330
17
102
}
100
AcDbMlineStyle
  2
STANDARD
 70
0
  3

 62
256
 51
90.0
 52
90.0
 71
2
 49
0.5
 62
256
  6
BYLAYER
 49
-0.5
 62
256
  6
BYLAYER
  0
LAYOUT
  5
30B
102
{ACAD_REACTORS
330
1A
102
}
100
AcDbPlotSettings
  1

  2
none_device
  4

  6

 40
0.0
 41
0.0
 42
0.0
 43
0.0
 44
210.0
 45
297.0
 46
0.0
 47
0.0
 48
0.0
 49
0.0
140
0.0
141
0.0
142
1.0
143
1.0
 70
1024
 72
1
 73
0
 74
0
  7

 75
0
147
1.0
148
0.0
149
0.0
100
AcDbLayout
  1
Model
 70
0
 71
0
 10
0.0
 20
0.0
 11
210.0
 21
297.0
 12
0.0
 22
0.0
 32
0.0
 14
0.0
 24
0.0
 34
0.0
 15
0.0
 25
0.0
 35
0.0
146
0.0
 13
0.0
 23
0.0
 33
0.0
 16
1.0
 26
0.0
 36
0.0
 17
0.0
 27
1.0
 37
0.0
 76
0
330
210
345
0
346
0
  0
LAYOUT
  5
30C
102
{ACAD_REACTORS
330
1A
102
}
100
AcDbPlotSettings
  1

  2
none_device
  4

  6

 40
0.0
 41
0.0
 42
0.0
 43
0.0
 44
210.0
 45
297.0
 46
0.0
 47
0.0
 48
0.0
 49
0.0
140
0.0
141
0.0
142
1.0
143
1.0
 70
0
 72
1
 73
0
 74
0
  7

 75
0
147
1.0
148
0.0
149
0.0
100
AcDbLayout
  1
Layout1
 70
0
 71
1
 10
0.0
 20
0.0
 11
210.0
 21
297.0
 12
0.0
 22
0.0
 32
0.0
 14
0.0
 24
0.0
 34
0.0
 15
0.0
 25
0.0
 35
0.0
146
0.0
 13
0.0
 23
0.0
 33
0.0
 16
1.0
 26
0.0
 36
0.0
 17
0.0
 27
1.0
 37
0.0
 76
0
330
211
345
0
346
0
  0
ENDSEC
  0
EOF
