999
DXF file: C:\Users\sesa63760\Dev\_Creo\CAD\MCADID0004755_3D-CAD\drw0001_7.dxf
999
Pro/ENGINEER 2019471 by Parametric Technology Corporation
  0
SECTION
  2
HEADER
  9
$ACADVER
  1
AC1024
  9
$DWGCODEPAGE
  3
ANSI_1252
  9
$EXTMAX
 10
204.8414008797
 20
289.7042669584
 30
0.0
  9
$EXTMIN
 10
0.0
 20
0.0
 30
0.0
  9
$LIMMIN
 10
0.0
 20
0.0
  9
$LIMMAX
 10
204.8414008797
 20
289.7042669584
  9
$VIEWCTR
 10
102.4207004398
 20
144.8521334792
  9
$VIEWSIZE
 40
289.7042669584
  9
$CLAYER
  8
0
  9
$LTSCALE
 40
18.8844262906
  9
$CELTYPE
  6
BYLAYER
  9
$DIMSCALE
 40
1.0
  9
$DIMASZ
 40
2.4385881057
  9
$DIMEXO
 40
1.0
  9
$DIMDLI
 40
13.0474218008
  9
$DIMEXE
 40
1.0
  9
$DIMCEN
 40
3.0901788476
  9
$DIMLFAC
 40
1.0
  9
$DIMBLK
  1
_FILLED
  9
$DIMALT
 70
0
  9
$DIMALTF
 40
0.0393700787
  9
$DIMTXT
 40
3.414023348
  9
$DIMTOL
 70
1
  9
$DIMLIM
 70
0
  9
$DIMTFAC
 40
1.0
  9
$DIMTP
 40
0.01
  9
$DIMTM
 40
0.01
  9
$DIMGAP
 40
0.625
  9
$DIMDSEP
 70
46
  9
$AUNITS
 70
0
  9
$PDMODE
 70
3
  9
$PDSIZE
 40
0.3125
  9
$HANDSEED
  5
32C
  9
$TILEMODE
 70
1
  9
$MEASUREMENT
 70
1
  9
$INSUNITS
 70
4
  0
ENDSEC
  0
SECTION
  2
CLASSES
  0
CLASS
  1
ACDBDICTIONARYWDFLT
  2
AcDbDictionaryWithDefault
  3
AutoCAD 2000
 90
0
 91
1
280
0
281
0
  0
CLASS
  1
ACDBPLACEHOLDER
  2
AcDbPlaceHolder
  3
AutoCAD 2000
 90
0
 91
1
280
0
281
0
  0
CLASS
  1
LAYOUT
  2
AcDbLayout
  3
AutoCAD 2000
 90
0
 91
0
280
0
281
0
  0
ENDSEC
  0
SECTION
  2
TABLES
  0
TABLE
  2
VPORT
  5
8
100
AcDbSymbolTable
 70
2
  0
VPORT
  5
1F4
100
AcDbSymbolTableRecord
100
AcDbViewportTableRecord
  2
*ACTIVE
 70
0
 10
0.0
 20
0.0
 11
1.0
 21
1.0
 12
102.4207004398
 22
144.8521334792
 13
0.0
 23
0.0
 14
1.0
 24
1.0
 15
0.0
 25
0.0
 16
0.0
 26
0.0
 36
1.0
 17
0.0
 27
0.0
 37
0.0
 40
289.7042669584
 41
0.7070707071
 42
50.0
 43
0.0
 44
0.0
 50
0.0
 51
0.0
 71
0
 72
100
 73
1
 74
1
 75
0
 76
0
 77
0
 78
0
  0
ENDTAB
  0
TABLE
  2
LTYPE
  5
5
100
AcDbSymbolTable
 70
6
  0
LTYPE
  5
14
100
AcDbSymbolTableRecord
100
AcDbLinetypeTableRecord
  2
BYBLOCK
 70
0
  3

 72
65
 73
0
 40
0.0
  0
LTYPE
  5
15
100
AcDbSymbolTableRecord
100
AcDbLinetypeTableRecord
  2
BYLAYER
 70
0
  3

 72
65
 73
0
 40
0.0
  0
LTYPE
  5
16
100
AcDbSymbolTableRecord
100
AcDbLinetypeTableRecord
  2
CONTINUOUS
 70
64
  3
Solid line
 72
65
 73
0
 40
0.0
  0
LTYPE
  5
1F5
100
AcDbSymbolTableRecord
100
AcDbLinetypeTableRecord
  2
CENTER
 70
64
  3
____ _ ____ _ ____ _ ____ _ ____ _ ____ _ ____
 72
65
 73
4
 40
0.6
 49
0.375
 74
0
 49
-0.075
 74
0
 49
0.075
 74
0
 49
-0.075
 74
0
  0
LTYPE
  5
1F6
100
AcDbSymbolTableRecord
100
AcDbLinetypeTableRecord
  2
HIDDEN
 70
64
  3
- - - - - - - - - - - - - - - - - - - -
 72
65
 73
2
 40
0.2
 49
0.1
 74
0
 49
-0.1
 74
0
  0
LTYPE
  5
1F7
100
AcDbSymbolTableRecord
100
AcDbLinetypeTableRecord
  2
PHANTOM
 70
64
  3
_____ _ _ _____ _ _ _____ _ _ _____
 72
65
 73
6
 40
0.8
 49
0.45
 74
0
 49
-0.05
 74
0
 49
0.1
 74
0
 49
-0.05
 74
0
 49
0.1
 74
0
 49
-0.05
 74
0
  0
LTYPE
  5
1F8
100
AcDbSymbolTableRecord
100
AcDbLinetypeTableRecord
  2
DOT
 70
64
  3
. . . . . . . . . . . . . . . . . . . .
 72
65
 73
2
 40
0.2
 49
0.1
 74
0
 49
-0.1
 74
0
  0
LTYPE
  5
1F9
100
AcDbSymbolTableRecord
100
AcDbLinetypeTableRecord
  2
DASHED
 70
64
  3
- - - - - - - - - - - - - - - - - - - -
 72
65
 73
2
 40
0.2
 49
0.1
 74
0
 49
-0.1
 74
0
  0
ENDTAB
  0
TABLE
  2
LAYER
  5
2
100
AcDbSymbolTable
 70
36
  0
LAYER
  5
10
100
AcDbSymbolTableRecord
100
AcDbLayerTableRecord
  2
0
 70
0
 62
7
  6
CONTINUOUS
370
-3
390
F
  0
LAYER
  5
1FA
100
AcDbSymbolTableRecord
100
AcDbLayerTableRecord
  2
DEFAULT_1
 70
0
 62
7
  6
CENTER
370
-3
390
F
  0
LAYER
  5
1FB
100
AcDbSymbolTableRecord
100
AcDbLayerTableRecord
  2
DEFAULT_2
 70
0
 62
7
  6
HIDDEN
370
-3
390
F
  0
LAYER
  5
1FC
100
AcDbSymbolTableRecord
100
AcDbLayerTableRecord
  2
DEFAULT_3
 70
0
 62
7
  6
PHANTOM
370
-3
390
F
  0
LAYER
  5
1FD
100
AcDbSymbolTableRecord
100
AcDbLayerTableRecord
  2
00_COMPONENTS
 70
0
 62
7
  6
CONTINUOUS
370
-3
390
F
  0
LAYER
  5
1FE
100
AcDbSymbolTableRecord
100
AcDbLayerTableRecord
  2
01_1_DEFAULT_DATUMS
 70
0
 62
7
  6
CONTINUOUS
370
-3
390
F
  0
LAYER
  5
1FF
100
AcDbSymbolTableRecord
100
AcDbLayerTableRecord
  2
01_PLANES
 70
0
 62
7
  6
CONTINUOUS
370
-3
390
F
  0
LAYER
  5
200
100
AcDbSymbolTableRecord
100
AcDbLayerTableRecord
  2
02_COORD_SYS
 70
0
 62
7
  6
CONTINUOUS
370
-3
390
F
  0
LAYER
  5
201
100
AcDbSymbolTableRecord
100
AcDbLayerTableRecord
  2
03_AXES
 70
0
 62
7
  6
CONTINUOUS
370
-3
390
F
  0
LAYER
  5
202
100
AcDbSymbolTableRecord
100
AcDbLayerTableRecord
  2
04_POINTS
 70
0
 62
7
  6
CONTINUOUS
370
-3
390
F
  0
LAYER
  5
203
100
AcDbSymbolTableRecord
100
AcDbLayerTableRecord
  2
05_CURVES
 70
0
 62
7
  6
CONTINUOUS
370
-3
390
F
  0
LAYER
  5
204
100
AcDbSymbolTableRecord
100
AcDbLayerTableRecord
  2
06_SURFS
 70
0
 62
7
  6
CONTINUOUS
370
-3
390
F
  0
LAYER
  5
205
100
AcDbSymbolTableRecord
100
AcDbLayerTableRecord
  2
07_COSMETICS
 70
0
 62
7
  6
CONTINUOUS
370
-3
390
F
  0
LAYER
  5
206
100
AcDbSymbolTableRecord
100
AcDbLayerTableRecord
  2
10_NOTES
 70
0
 62
7
  6
CONTINUOUS
370
-3
390
F
  0
LAYER
  5
207
100
AcDbSymbolTableRecord
100
AcDbLayerTableRecord
  2
11_NOTES_PUB
 70
0
 62
7
  6
CONTINUOUS
370
-3
390
F
  0
LAYER
  5
208
100
AcDbSymbolTableRecord
100
AcDbLayerTableRecord
  2
13_REF_GTOL
 70
0
 62
7
  6
CONTINUOUS
370
-3
390
F
  0
LAYER
  5
209
100
AcDbSymbolTableRecord
100
AcDbLayerTableRecord
  2
16_MISC
 70
0
 62
7
  6
CONTINUOUS
370
-3
390
F
  0
LAYER
  5
20A
100
AcDbSymbolTableRecord
100
AcDbLayerTableRecord
  2
17_NO_PRINT
 70
0
 62
7
  6
CONTINUOUS
370
-3
390
F
  0
LAYER
  5
20B
100
AcDbSymbolTableRecord
100
AcDbLayerTableRecord
  2
18_DATUM_CAMS_JOINTS
 70
0
 62
7
  6
CONTINUOUS
370
-3
390
F
  0
LAYER
  5
20C
100
AcDbSymbolTableRecord
100
AcDbLayerTableRecord
  2
19_DATUM_FUNCTIONAL
 70
0
 62
7
  6
CONTINUOUS
370
-3
390
F
  0
LAYER
  5
20D
100
AcDbSymbolTableRecord
100
AcDbLayerTableRecord
  2
20_DATUM_KINEMATIC_SCHEME
 70
0
 62
7
  6
CONTINUOUS
370
-3
390
F
  0
ENDTAB
  0
TABLE
  2
STYLE
  5
3
100
AcDbSymbolTable
 70
1
  0
STYLE
  5
11
100
AcDbSymbolTableRecord
100
AcDbTextStyleTableRecord
  2
STANDARD
 70
0
 40
0.0
 41
1.0
 50
0.0
 71
0
 42
0.2
  3
ARIAL.TTF
  4

  0
STYLE
  5
20E
100
AcDbSymbolTableRecord
100
AcDbTextStyleTableRecord
  2
TEXTSTYLE_1
 70
0
 40
0.0
 41
0.8
 50
0.0
 71
0
 42
0.2
  3
gdt
  4

  0
ENDTAB
  0
TABLE
  2
VIEW
  5
6
100
AcDbSymbolTable
 70
0
  0
ENDTAB
  0
TABLE
  2
UCS
  5
7
100
AcDbSymbolTable
 70
0
  0
ENDTAB
  0
TABLE
  2
APPID
  5
9
100
AcDbSymbolTable
 70
1
  0
APPID
  5
20F
100
AcDbSymbolTableRecord
100
AcDbRegAppTableRecord
  2
ACAD
 70
0
  0
ENDTAB
  0
TABLE
  2
BLOCK_RECORD
  5
1
100
AcDbSymbolTable
 70
0
  0
BLOCK_RECORD
  5
210
100
AcDbSymbolTableRecord
100
AcDbBlockTableRecord
  2
*Model_Space
  0
BLOCK_RECORD
  5
211
100
AcDbSymbolTableRecord
100
AcDbBlockTableRecord
  2
*Paper_Space
  0
BLOCK_RECORD
  5
212
100
AcDbSymbolTableRecord
100
AcDbBlockTableRecord
  2
_FILLED
  0
ENDTAB
  0
TABLE
  2
DIMSTYLE
  5
A
100
AcDbSymbolTable
 70
1
100
AcDbDimStyleTable
 71
0
  0
DIMSTYLE
105
213
100
AcDbSymbolTableRecord
100
AcDbDimStyleTableRecord
  2
STANDARD
 70
0
  3

  4

 40
1.0
 41
2.4385881057
 42
1.0
 43
0.38
 44
1.0
 45
0.0
 46
0.0
 47
0.01
 48
0.01
140
3.414023348
141
0.09
142
0.0
143
25.4
144
1.0
145
0.0
146
1.0
147
0.625
 71
1
 72
0
 73
0
 74
0
 75
0
 76
0
 77
1
 78
8
 79
2
170
0
171
1
172
0
173
0
174
0
175
0
176
0
177
0
178
0
270
2
179
2
271
2
272
2
273
2
274
2
275
0
280
0
281
0
282
0
283
1
284
8
285
0
286
0
287
3
288
0
340
11
278
46
341
212
342
212
343
212
344
212
  0
ENDTAB
  0
ENDSEC
  0
SECTION
  2
BLOCKS
  0
BLOCK
  5
20
100
AcDbEntity
  8
0
100
AcDbBlockBegin
  2
*Model_Space
 70
0
 10
0.0
 20
0.0
 30
0.0
  3
*Model_Space
  1

  0
ENDBLK
  5
21
100
AcDbEntity
  8
0
100
AcDbBlockEnd
  0
BLOCK
  5
1C
100
AcDbEntity
  8
0
100
AcDbBlockBegin
  2
*Paper_Space
 70
0
 10
0.0
 20
0.0
 30
0.0
  3
*Paper_Space
  1

  0
ENDBLK
  5
1D
100
AcDbEntity
  8
0
100
AcDbBlockEnd
  0
BLOCK
  5
214
100
AcDbEntity
  8
0
100
AcDbBlockBegin
  2
_FILLED
 70
64
 10
0.0
 20
0.0
  3
_FILLED
  1

  0
SOLID
  5
215
100
AcDbEntity
  8
0
  6
BYBLOCK
 62
0
100
AcDbTrace
 10
0.0
 20
0.0
 11
-1.0
 21
0.25
 12
-1.0
 22
-0.25
 13
-1.0
 23
-0.25
  0
ENDBLK
  5
216
100
AcDbEntity
  8
0
  6
BYBLOCK
 62
0
100
AcDbBlockEnd
  0
ENDSEC
  0
SECTION
  2
ENTITIES
  0
LINE
  5
217
100
AcDbEntity
  8
0
100
AcDbLine
 62
7
  6
BYLAYER
 10
52.4002956258
 20
153.5613238512
 11
52.4002956258
 21
137.5613238512
  0
LINE
  5
218
100
AcDbEntity
  8
0
100
AcDbLine
 62
7
  6
BYLAYER
 10
53.3002956258
 20
138.0613279934
 11
53.3002956258
 21
153.061319709
  0
LINE
  5
219
100
AcDbEntity
  8
0
100
AcDbLine
 62
7
  6
BYLAYER
 10
53.8002956258
 20
153.0613238512
 11
53.8002956258
 21
138.0613238512
  0
LINE
  5
21A
100
AcDbEntity
  8
0
100
AcDbLine
 62
7
  6
BYLAYER
 10
54.0002956258
 20
152.8613194997
 11
54.0002956258
 21
138.2613299572
  0
LINE
  5
21B
100
AcDbEntity
  8
0
100
AcDbLine
 62
7
  6
BYLAYER
 10
55.2002956258
 20
138.2613279382
 11
55.2002956258
 21
152.8613197642
  0
LINE
  5
21C
100
AcDbEntity
  8
0
100
AcDbLine
 62
7
  6
BYLAYER
 10
55.4002956258
 20
138.0613238512
 11
55.4002956258
 21
153.0613238512
  0
LINE
  5
21D
100
AcDbEntity
  8
0
100
AcDbLine
 62
7
  6
BYLAYER
 10
57.6002956258
 20
153.0613238512
 11
57.6002956258
 21
138.0613238512
  0
LINE
  5
21E
100
AcDbEntity
  8
0
100
AcDbLine
 62
7
  6
BYLAYER
 10
58.7002956258
 20
151.9612417985
 11
58.7002956258
 21
139.1614059039
  0
LINE
  5
21F
100
AcDbEntity
  8
0
100
AcDbLine
 62
7
  6
BYLAYER
 10
60.2196703628
 20
150.3113238687
 11
60.2196703628
 21
140.8113238337
  0
LINE
  5
220
100
AcDbEntity
  8
0
100
AcDbLine
 62
7
  6
BYLAYER
 10
69.2966687031
 20
146.5391855489
 11
69.3423574879
 21
146.0277756056
  0
LWPOLYLINE
  5
221
100
AcDbEntity
  8
0
100
AcDbPolyline
 62
7
  6
BYLAYER
 90
5
 70
0
 10
70.6180825598
 20
145.1390351615
 10
70.5453654805
 20
145.9944896275
 10
70.4940299726
 20
146.5764411965
 10
70.4397528301
 20
147.1292436206
 10
70.3815150859
 20
147.6088861485
  0
LWPOLYLINE
  5
222
100
AcDbEntity
  8
0
100
AcDbPolyline
 62
7
  6
BYLAYER
 90
5
 70
0
 10
69.3423574879
 20
146.0277756056
 10
69.4144037827
 20
145.1806788155
 10
69.4652426715
 20
144.599684005
 10
69.5193637703
 20
144.0412338022
 10
69.5778690401
 20
143.5496410644
  0
LINE
  5
223
100
AcDbEntity
  8
0
100
AcDbLine
 62
7
  6
BYLAYER
 10
67.8002956258
 20
148.9214904567
 11
67.8002956258
 21
142.2011572457
  0
LINE
  5
224
100
AcDbEntity
  8
0
100
AcDbLine
 62
7
  6
BYLAYER
 10
67.8802956284
 20
142.6213238531
 11
67.8802956284
 21
148.5013238493
  0
LINE
  5
225
100
AcDbEntity
  8
0
100
AcDbLine
 62
7
  6
BYLAYER
 10
68.8002956258
 20
147.8113194763
 11
68.8002956258
 21
146.7042200506
  0
LWPOLYLINE
  5
226
100
AcDbEntity
  8
0
100
AcDbPolyline
 62
7
  6
BYLAYER
 90
6
 70
0
 10
69.145600252
 20
147.7349783598
 10
69.1455901091
 20
147.7328673127
 10
69.1729881376
 20
147.6008557336
 10
69.2109050294
 20
147.3451649741
 10
69.2527547889
 20
146.9843666559
 10
69.2966687031
 20
146.5391855489
  0
LWPOLYLINE
  5
227
100
AcDbEntity
  8
0
100
AcDbPolyline
 62
7
  6
BYLAYER
 90
11
 70
0
 10
70.4468877029
 20
147.7315273646
 10
70.4468216132
 20
147.7292564994
 10
70.4773804918
 20
147.5764370236
 10
70.5187097975
 20
147.2824362078
 10
70.5637998477
 20
146.8772526176
 10
70.6114727628
 20
146.3785591133
 10
70.6614376519
 20
145.805897023
 10
70.7136206503
 20
145.1891713948
 10
70.7684733063
 20
144.5637195197
 10
70.8260447649
 20
143.9800030349
 10
70.8841434703
 20
143.504375462
  0
LINE
  5
228
100
AcDbEntity
  8
0
100
AcDbLine
 62
7
  6
BYLAYER
 10
68.8390901874
 20
146.7784694406
 11
68.8333887746
 21
146.7151735472
  0
LINE
  5
229
100
AcDbEntity
  8
0
100
AcDbLine
 62
7
  6
BYLAYER
 10
70.6034079563
 20
145.3053040288
 11
70.6605472022
 21
145.8143723825
  0
LWPOLYLINE
  5
22A
100
AcDbEntity
  8
0
100
AcDbPolyline
 62
7
  6
BYLAYER
 90
3
 70
0
 10
70.6029660982
 20
145.3161855328
 10
70.6512125217
 20
145.7317005115
 10
70.6609890212
 20
145.8110389098
  0
LWPOLYLINE
  5
22B
100
AcDbEntity
  8
0
100
AcDbPolyline
 62
7
  6
BYLAYER
 90
5
 70
0
 10
69.5778690401
 20
143.5496410644
 10
69.6399740747
 20
143.1809681315
 10
69.7299174317
 20
142.8945137164
 10
70.002077913
 20
142.5934929066
 10
70.3064072515
 20
142.5123966666
  0
LWPOLYLINE
  5
22C
100
AcDbEntity
  8
0
100
AcDbPolyline
 62
7
  6
BYLAYER
 90
9
 70
0
 10
69.5178888181
 20
143.3897275055
 10
69.5173190303
 20
143.3947162381
 10
69.4852751618
 20
143.5565635596
 10
69.4428983976
 20
143.8604983034
 10
69.396499531
 20
144.2838538916
 10
69.3473216216
 20
144.8053867385
 10
69.295628408
 20
145.4011769782
 10
69.2416121233
 20
146.0376775872
 10
69.199937971
 20
146.5121500309
  0
LWPOLYLINE
  5
22D
100
AcDbEntity
  8
0
100
AcDbPolyline
 62
7
  6
BYLAYER
 90
3
 70
0
 10
74.4249204651
 20
146.2320427033
 10
74.3665185497
 20
146.8671902842
 10
74.3085817588
 20
147.4011825306
  0
LWPOLYLINE
  5
22E
100
AcDbEntity
  8
0
100
AcDbPolyline
 62
7
  6
BYLAYER
 90
3
 70
0
 10
71.8320226922
 20
146.1503304311
 10
71.7727429022
 20
146.8026635772
 10
71.7134704015
 20
147.3614925605
  0
LWPOLYLINE
  5
22F
100
AcDbEntity
  8
0
100
AcDbPolyline
 62
7
  6
BYLAYER
 90
4
 70
0
 10
73.2216058181
 20
145.0972024491
 10
73.1402652281
 20
146.0543002594
 10
73.0827577138
 20
146.6989987278
 10
73.0230804487
 20
147.278696877
  0
LINE
  5
230
100
AcDbEntity
  8
0
100
AcDbLine
 62
7
  6
BYLAYER
 10
71.9031245707
 20
145.3028600199
 11
71.9607857687
 21
145.8170953911
  0
LINE
  5
231
100
AcDbEntity
  8
0
100
AcDbLine
 62
7
  6
BYLAYER
 10
73.2036715099
 20
145.3083182032
 11
73.260909439
 21
145.817958594
  0
LINE
  5
232
100
AcDbEntity
  8
0
100
AcDbLine
 62
7
  6
BYLAYER
 10
75.8036168651
 20
145.3077750642
 11
75.8606547444
 21
145.8152358781
  0
LINE
  5
233
100
AcDbEntity
  8
0
100
AcDbLine
 62
7
  6
BYLAYER
 10
71.9031326942
 20
145.3139329337
 11
71.9605296209
 21
145.8150977866
  0
LINE
  5
234
100
AcDbEntity
  8
0
100
AcDbLine
 62
7
  6
BYLAYER
 10
75.8028982825
 20
145.3158706693
 11
75.8613512046
 21
145.8061443306
  0
LWPOLYLINE
  5
235
100
AcDbEntity
  8
0
100
AcDbPolyline
 62
7
  6
BYLAYER
 90
3
 70
0
 10
73.2033100558
 20
145.3112336774
 10
73.2118969237
 20
145.3809690935
 10
73.2612836237
 20
145.8067623643
  0
LWPOLYLINE
  5
236
100
AcDbEntity
  8
0
100
AcDbPolyline
 62
7
  6
BYLAYER
 90
11
 70
0
 10
71.7465014813
 20
147.7341922897
 10
71.7461836498
 20
147.732768868
 10
71.7756145395
 20
147.585660583
 10
71.8147988176
 20
147.3129428253
 10
71.8576397418
 20
146.9378878674
 10
71.9032442682
 20
146.4693494415
 10
71.9514529952
 20
145.92224049
 10
72.0026893204
 20
145.3174344101
 10
72.0573984062
 20
144.6868398246
 10
72.1148339939
 20
144.0861414508
 10
72.1745175356
 20
143.5724675904
  0
LWPOLYLINE
  5
237
100
AcDbEntity
  8
0
100
AcDbPolyline
 62
7
  6
BYLAYER
 90
3
 70
0
 10
72.985888101
 20
148.2387469709
 10
72.9286405815
 20
148.0912686469
 10
72.9077891283
 20
147.9975513033
  0
LINE
  5
238
100
AcDbEntity
  8
0
100
AcDbLine
 62
7
  6
BYLAYER
 10
72.9900617573
 20
148.2471653387
 11
72.9858684738
 21
148.2387432283
  0
LWPOLYLINE
  5
239
100
AcDbEntity
  8
0
100
AcDbPolyline
 62
7
  6
BYLAYER
 90
8
 70
0
 10
74.718454004
 20
143.3881789851
 10
74.7197703619
 20
143.3846096748
 10
74.7019191789
 20
143.4624033929
 10
74.6620204828
 20
143.7127667891
 10
74.6156314952
 20
144.1004189738
 10
74.5651479437
 20
144.6087896848
 10
74.5108524334
 20
145.2222131584
 10
74.4249204651
 20
146.2320427033
  0
LWPOLYLINE
  5
23A
100
AcDbEntity
  8
0
100
AcDbPolyline
 62
7
  6
BYLAYER
 90
7
 70
0
 10
73.4195628939
 20
143.3855516321
 10
73.4204802369
 20
143.3829731625
 10
73.4009042396
 20
143.4680711307
 10
73.3626450615
 20
143.7077463272
 10
73.3186594741
 20
144.0722756671
 10
73.2716435129
 20
144.5397139844
 10
73.2216058181
 20
145.0972024491
  0
LWPOLYLINE
  5
23B
100
AcDbEntity
  8
0
100
AcDbPolyline
 62
7
  6
BYLAYER
 90
8
 70
0
 10
72.1194534271
 20
143.3842799459
 10
72.1203128727
 20
143.3818216572
 10
72.1007994529
 20
143.4683961639
 10
72.0628970422
 20
143.707352485
 10
72.0189362043
 20
144.0697830593
 10
71.9706413554
 20
144.5492308974
 10
71.9176679011
 20
145.1431065941
 10
71.8320226922
 20
146.1503304311
  0
LWPOLYLINE
  5
23C
100
AcDbEntity
  8
0
100
AcDbPolyline
 62
7
  6
BYLAYER
 90
7
 70
0
 10
70.8202419543
 20
143.3820209489
 10
70.8175466213
 20
143.3929191559
 10
70.7885762922
 20
143.5379477226
 10
70.7501828638
 20
143.8030220442
 10
70.7081153089
 20
144.1694801694
 10
70.6640195765
 20
144.6209052967
 10
70.6180825598
 20
145.1390351615
  0
LWPOLYLINE
  5
23D
100
AcDbEntity
  8
0
100
AcDbPolyline
 62
7
  6
BYLAYER
 90
5
 70
0
 10
74.2507009451
 20
147.8062983661
 10
74.1815472429
 20
148.1057722442
 10
74.0203435592
 20
148.4004362426
 10
73.6177479831
 20
148.6054478014
 10
73.5571633067
 20
148.6085714917
  0
LWPOLYLINE
  5
23E
100
AcDbEntity
  8
0
100
AcDbPolyline
 62
7
  6
BYLAYER
 90
5
 70
0
 10
71.6541630593
 20
147.7866070083
 10
71.5847754779
 20
148.0941534677
 10
71.4283418466
 20
148.3909381213
 10
71.0227304021
 20
148.6052707252
 10
70.9563724575
 20
148.6090044699
  0
LWPOLYLINE
  5
23F
100
AcDbEntity
  8
0
100
AcDbPolyline
 62
7
  6
BYLAYER
 90
11
 70
0
 10
76.019202732
 20
143.3862631249
 10
76.0174832065
 20
143.3941342124
 10
75.9866199293
 20
143.5487105766
 10
75.9454738308
 20
143.8394349529
 10
75.9005991326
 20
144.2430980764
 10
75.8531400627
 20
144.7406653213
 10
75.8031181803
 20
145.3132764252
 10
75.7506550751
 20
145.9322099938
 10
75.6959556758
 20
146.5562728418
 10
75.6389150949
 20
147.1372154562
 10
75.5803611728
 20
147.6156645457
  0
LWPOLYLINE
  5
240
100
AcDbEntity
  8
0
100
AcDbPolyline
 62
7
  6
BYLAYER
 90
5
 70
0
 10
72.9615638724
 20
147.7406417256
 10
72.8925996967
 20
148.0701190213
 10
72.7294308892
 20
148.3905280997
 10
72.3251319774
 20
148.6046991425
 10
72.2575233929
 20
148.6085820074
  0
LWPOLYLINE
  5
241
100
AcDbEntity
  8
0
100
AcDbPolyline
 62
7
  6
BYLAYER
 90
11
 70
0
 10
74.3447780964
 20
147.7385955282
 10
74.3456063878
 20
147.7339550833
 10
74.3727369481
 20
147.6017217327
 10
74.4105642991
 20
147.3464787989
 10
74.4533136325
 20
146.9796961751
 10
74.4997329848
 20
146.5069379342
 10
74.5494575783
 20
145.9450630382
 10
74.6024892154
 20
145.3201907325
 10
74.6587903866
 20
144.6717704345
 10
74.7172658026
 20
144.0618386942
 10
74.7772755613
 20
143.5524758813
  0
LWPOLYLINE
  5
242
100
AcDbEntity
  8
0
100
AcDbPolyline
 62
7
  6
BYLAYER
 90
5
 70
0
 10
70.3815150859
 20
147.6088861485
 10
70.3191495432
 20
147.9638374158
 10
70.2253336103
 20
148.2452901534
 10
69.9466658729
 20
148.5379406388
 10
69.6567567195
 20
148.611238344
  0
LWPOLYLINE
  5
243
100
AcDbEntity
  8
0
100
AcDbPolyline
 62
7
  6
BYLAYER
 90
5
 70
0
 10
75.5803611728
 20
147.6156645457
 10
75.5193492002
 20
147.9640518139
 10
75.4270383874
 20
148.2432202494
 10
75.145818852
 20
148.5379075984
 10
74.857884793
 20
148.6101012935
  0
LWPOLYLINE
  5
244
100
AcDbEntity
  8
0
100
AcDbPolyline
 62
7
  6
BYLAYER
 90
5
 70
0
 10
70.8841434703
 20
143.504375462
 10
70.944775507
 20
143.1577260404
 10
71.0350282584
 20
142.8854672763
 10
71.3060703316
 20
142.5934221095
 10
71.6070415412
 20
142.5143265728
  0
LWPOLYLINE
  5
245
100
AcDbEntity
  8
0
100
AcDbPolyline
 62
7
  6
BYLAYER
 90
5
 70
0
 10
74.7772755613
 20
143.5524758813
 10
74.8404274409
 20
143.1796887889
 10
74.9323360147
 20
142.8909556076
 10
75.2027173909
 20
142.5929413621
 10
75.5075795333
 20
142.5114765153
  0
LWPOLYLINE
  5
246
100
AcDbEntity
  8
0
100
AcDbPolyline
 62
7
  6
BYLAYER
 90
5
 70
0
 10
73.4780153612
 20
143.5471163523
 10
73.5401850283
 20
143.179251718
 10
73.6333027722
 20
142.8900113426
 10
73.9052209504
 20
142.5937678264
 10
74.2077783873
 20
142.5137638679
  0
LWPOLYLINE
  5
247
100
AcDbEntity
  8
0
100
AcDbPolyline
 62
7
  6
BYLAYER
 90
5
 70
0
 10
72.1745175356
 20
143.5724675904
 10
72.2385725184
 20
143.1873584912
 10
72.3327433907
 20
142.891155172
 10
72.6063957839
 20
142.5924962845
 10
72.9079561686
 20
142.513002663
  0
LWPOLYLINE
  5
248
100
AcDbEntity
  8
0
100
AcDbPolyline
 62
7
  6
BYLAYER
 90
5
 70
0
 10
76.0757934924
 20
143.5648858128
 10
76.1378753599
 20
143.1905733934
 10
76.2256592841
 20
142.9036998717
 10
76.4949085002
 20
142.5978659545
 10
76.8064025136
 20
142.5127010942
  0
LINE
  5
249
100
AcDbEntity
  8
0
100
AcDbLine
 62
7
  6
BYLAYER
 10
74.3085817588
 20
147.4011825306
 11
74.2507009451
 21
147.8062983661
  0
LINE
  5
24A
100
AcDbEntity
  8
0
100
AcDbLine
 62
7
  6
BYLAYER
 10
71.7134704015
 20
147.3614925605
 11
71.6541630593
 21
147.7866070083
  0
LINE
  5
24B
100
AcDbEntity
  8
0
100
AcDbLine
 62
7
  6
BYLAYER
 10
73.0230804487
 20
147.278696877
 11
72.9615638724
 21
147.7406417256
  0
LWPOLYLINE
  5
24C
100
AcDbEntity
  8
0
100
AcDbPolyline
 62
7
  6
BYLAYER
 90
11
 70
0
 10
73.0463917298
 20
147.7340070533
 10
73.0468674508
 20
147.7301767452
 10
73.0759263195
 20
147.5842979902
 10
73.1156503427
 20
147.3061860538
 10
73.1592733609
 20
146.92170966
 10
73.2056767564
 20
146.4428077956
 10
73.2547093242
 20
145.8844387272
 10
73.3064112943
 20
145.2735719734
 10
73.3609686562
 20
144.6468174157
 10
73.4186149959
 20
144.0500082623
 10
73.4780153612
 20
143.5471163523
  0
LWPOLYLINE
  5
24D
100
AcDbEntity
  8
0
100
AcDbPolyline
 62
7
  6
BYLAYER
 90
3
 70
0
 10
80.9296567864
 20
146.1775013765
 10
80.8720298987
 20
146.8109989761
 10
80.8132789356
 20
147.3623197221
  0
LWPOLYLINE
  5
24E
100
AcDbEntity
  8
0
100
AcDbPolyline
 62
7
  6
BYLAYER
 90
4
 70
0
 10
77.121941986
 20
145.0942340628
 10
77.0378205437
 20
146.0824125587
 10
76.9773000895
 20
146.7553256281
 10
76.9157369816
 20
147.3435273369
  0
LWPOLYLINE
  5
24F
100
AcDbEntity
  8
0
100
AcDbPolyline
 62
7
  6
BYLAYER
 90
4
 70
0
 10
78.4200102399
 20
145.1157891883
 10
78.3365008315
 20
146.0985646182
 10
78.277826504
 20
146.7498867216
 10
78.217892407
 20
147.3238158468
  0
LWPOLYLINE
  5
250
100
AcDbEntity
  8
0
100
AcDbPolyline
 62
7
  6
BYLAYER
 90
4
 70
0
 10
78.4414994166
 20
146.0384586424
 10
78.5282146735
 20
145.0188175735
 10
78.5897613975
 20
144.3366471254
 10
78.6503944725
 20
143.7649426238
  0
LWPOLYLINE
  5
251
100
AcDbEntity
  8
0
100
AcDbPolyline
 62
7
  6
BYLAYER
 90
4
 70
0
 10
79.7398287791
 20
146.0575463122
 10
79.8262399361
 20
145.0413957953
 10
79.8878908724
 20
144.3573529344
 10
79.9490046744
 20
143.775842741
  0
LINE
  5
252
100
AcDbEntity
  8
0
100
AcDbLine
 62
7
  6
BYLAYER
 10
77.1035919834
 20
145.3068662725
 11
77.1604192119
 21
145.8132973292
  0
LINE
  5
253
100
AcDbEntity
  8
0
100
AcDbLine
 62
7
  6
BYLAYER
 10
79.703326634
 20
145.3045562593
 11
79.760481342
 21
145.814313698
  0
LWPOLYLINE
  5
254
100
AcDbEntity
  8
0
100
AcDbPolyline
 62
7
  6
BYLAYER
 90
3
 70
0
 10
79.7029841272
 20
145.3157093108
 10
79.7564065368
 20
145.777866182
 10
79.7607505612
 20
145.812804732
  0
LINE
  5
255
100
AcDbEntity
  8
0
100
AcDbLine
 62
7
  6
BYLAYER
 10
77.1029185193
 20
145.3168749245
 11
77.1611034276
 21
145.8074617009
  0
LWPOLYLINE
  5
256
100
AcDbEntity
  8
0
100
AcDbPolyline
 62
7
  6
BYLAYER
 90
7
 70
0
 10
78.2464582247
 20
147.7324604877
 10
78.2448231229
 20
147.7367438765
 10
78.259156188
 20
147.6754176329
 10
78.2964198811
 20
147.4518902811
 10
78.3408178835
 20
147.0934703227
 10
78.3892283736
 20
146.618459162
 10
78.4414994166
 20
146.0384586424
  0
LWPOLYLINE
  5
257
100
AcDbEntity
  8
0
100
AcDbPolyline
 62
7
  6
BYLAYER
 90
7
 70
0
 10
79.5458560409
 20
147.7355486202
 10
79.5444856618
 20
147.7392730276
 10
79.5599898028
 20
147.6716852467
 10
79.5966649709
 20
147.448701581
 10
79.6400529044
 20
147.1001994639
 10
79.6878473869
 20
146.6341467443
 10
79.7398287791
 20
146.0575463122
  0
LWPOLYLINE
  5
258
100
AcDbEntity
  8
0
100
AcDbPolyline
 62
7
  6
BYLAYER
 90
7
 70
0
 10
77.3202599732
 20
143.3818088894
 10
77.3213117817
 20
143.3788599896
 10
77.3035927125
 20
143.4555594883
 10
77.2658319445
 20
143.6863597732
 10
77.2214327188
 20
144.0458718481
 10
77.1732791225
 20
144.5214396104
 10
77.121941986
 20
145.0942340628
  0
LWPOLYLINE
  5
259
100
AcDbEntity
  8
0
100
AcDbPolyline
 62
7
  6
BYLAYER
 90
7
 70
0
 10
78.6193296509
 20
143.3848217592
 10
78.6202137267
 20
143.3823043852
 10
78.6007236254
 20
143.4686417181
 10
78.562636767
 20
143.7091261543
 10
78.5187895708
 20
144.071240179
 10
78.4713228242
 20
144.5420760319
 10
78.4200102399
 20
145.1157891883
  0
LWPOLYLINE
  5
25A
100
AcDbEntity
  8
0
100
AcDbPolyline
 62
7
  6
BYLAYER
 90
11
 70
0
 10
75.6448899126
 20
147.7366653431
 10
75.6467467369
 20
147.7285050021
 10
75.6768899422
 20
147.5783231564
 10
75.7172730525
 20
147.2951062138
 10
75.7612467726
 20
146.9027557071
 10
75.807484629
 20
146.421683564
 10
75.8558189358
 20
145.8713996921
 10
75.9062664722
 20
145.2763504712
 10
75.9592997573
 20
144.6653715278
 10
76.0158562123
 20
144.0748420686
 10
76.0757934924
 20
143.5648858128
  0
LWPOLYLINE
  5
25B
100
AcDbEntity
  8
0
100
AcDbPolyline
 62
7
  6
BYLAYER
 90
5
 70
0
 10
76.8540282461
 20
147.7858521469
 10
76.783896975
 20
148.0967796416
 10
76.6224295542
 20
148.3994462143
 10
76.2205837228
 20
148.6076012772
 10
76.1565661195
 20
148.6110860673
  0
LWPOLYLINE
  5
25C
100
AcDbEntity
  8
0
100
AcDbPolyline
 62
7
  6
BYLAYER
 90
5
 70
0
 10
80.7540631013
 20
147.7865411672
 10
80.6843515695
 20
148.0971270178
 10
80.5202728188
 20
148.4004981552
 10
80.118424348
 20
148.6051797236
 10
80.0572769727
 20
148.6083554384
  0
LWPOLYLINE
  5
25D
100
AcDbEntity
  8
0
100
AcDbPolyline
 62
7
  6
BYLAYER
 90
5
 70
0
 10
80.0090072876
 20
143.3423102889
 10
80.0779018139
 20
143.0335754862
 10
80.2308877048
 20
142.7375209246
 10
80.6280897751
 20
142.5189106198
 10
80.707868558
 20
142.5135130005
  0
LWPOLYLINE
  5
25E
100
AcDbEntity
  8
0
100
AcDbPolyline
 62
7
  6
BYLAYER
 90
5
 70
0
 10
78.7094514948
 20
143.340598419
 10
78.7777133352
 20
143.0322231753
 10
78.9330755952
 20
142.7342562082
 10
79.3297916364
 20
142.5191756302
 10
79.4068066644
 20
142.5141462025
  0
LWPOLYLINE
  5
25F
100
AcDbEntity
  8
0
100
AcDbPolyline
 62
7
  6
BYLAYER
 90
5
 70
0
 10
78.1574445996
 20
147.7671466788
 10
78.0874617561
 20
148.0856694195
 10
77.9277211044
 20
148.3915777839
 10
77.5230526147
 20
148.605013284
 10
77.4564802028
 20
148.6087719724
  0
LWPOLYLINE
  5
260
100
AcDbEntity
  8
0
100
AcDbPolyline
 62
7
  6
BYLAYER
 90
10
 70
0
 10
76.9463732817
 20
147.7329936241
 10
76.9478973603
 20
147.7253880638
 10
76.9828464638
 20
147.5425365488
 10
77.030109322
 20
147.1872489847
 10
77.0825042025
 20
146.6889755242
 10
77.1397973512
 20
146.0582357883
 10
77.2007037076
 20
145.3413634879
 10
77.2620786206
 20
144.6340169924
 10
77.3217319509
 20
144.0203755557
 10
77.3797214909
 20
143.5357019696
  0
LWPOLYLINE
  5
261
100
AcDbEntity
  8
0
100
AcDbPolyline
 62
7
  6
BYLAYER
 90
11
 70
0
 10
80.8446376556
 20
147.7387947971
 10
80.8456583289
 20
147.7335494276
 10
80.872991032
 20
147.6002252511
 10
80.9109189132
 20
147.3439537216
 10
80.9536342594
 20
146.9766993576
 10
81.0001284545
 20
146.5025373626
 10
81.0503294743
 20
145.9348956829
 10
81.1044790259
 20
145.2968926229
 10
81.1620867692
 20
144.6352082659
 10
81.2212946871
 20
144.023271785
 10
81.2808438325
 20
143.5270734414
  0
LWPOLYLINE
  5
262
100
AcDbEntity
  8
0
100
AcDbPolyline
 62
7
  6
BYLAYER
 90
11
 70
0
 10
79.9183052632
 20
143.3870350228
 10
79.9172910368
 20
143.3927290892
 10
79.8869021801
 20
143.5471568442
 10
79.8474298914
 20
143.8255707657
 10
79.8044135256
 20
144.2057140271
 10
79.7586645316
 20
144.6786151715
 10
79.7103512288
 20
145.2287044757
 10
79.6590344436
 20
145.8347512896
 10
79.6043609751
 20
146.463276553
 10
79.5470878472
 20
147.0586582622
 10
79.4875810817
 20
147.565839017
  0
LWPOLYLINE
  5
263
100
AcDbEntity
  8
0
100
AcDbPolyline
 62
7
  6
BYLAYER
 90
5
 70
0
 10
81.2808438325
 20
143.5270734414
 10
81.3422328044
 20
143.1714937353
 10
81.4319828998
 20
142.8914385703
 10
81.7007930475
 20
142.5938284535
 10
82.0073898785
 20
142.5113597199
  0
LWPOLYLINE
  5
264
100
AcDbEntity
  8
0
100
AcDbPolyline
 62
7
  6
BYLAYER
 90
5
 70
0
 10
77.3797214909
 20
143.5357019696
 10
77.4401772225
 20
143.1784723985
 10
77.5305461007
 20
142.8949755034
 10
77.8007136835
 20
142.5964848398
 10
78.1071937331
 20
142.514304444
  0
LWPOLYLINE
  5
265
100
AcDbEntity
  8
0
100
AcDbPolyline
 62
7
  6
BYLAYER
 90
5
 70
0
 10
79.4875810817
 20
147.565839017
 10
79.4236303709
 20
147.9447251044
 10
79.3275174849
 20
148.2396661984
 10
79.0476440676
 20
148.5356181885
 10
78.7562817084
 20
148.6095454808
  0
LINE
  5
266
100
AcDbEntity
  8
0
100
AcDbLine
 62
7
  6
BYLAYER
 10
76.9157369816
 20
147.3435273369
 11
76.8540282461
 21
147.7858521469
  0
LINE
  5
267
100
AcDbEntity
  8
0
100
AcDbLine
 62
7
  6
BYLAYER
 10
80.8132789356
 20
147.3623197221
 11
80.7540631013
 21
147.7865411672
  0
LINE
  5
268
100
AcDbEntity
  8
0
100
AcDbLine
 62
7
  6
BYLAYER
 10
78.6503944725
 20
143.7649426238
 11
78.7094514948
 21
143.340598419
  0
LINE
  5
269
100
AcDbEntity
  8
0
100
AcDbLine
 62
7
  6
BYLAYER
 10
79.9490046744
 20
143.775842741
 11
80.0090072876
 21
143.3423102889
  0
LINE
  5
26A
100
AcDbEntity
  8
0
100
AcDbLine
 62
7
  6
BYLAYER
 10
78.217892407
 20
147.3238158468
 11
78.1574445996
 21
147.7671466788
  0
LWPOLYLINE
  5
26B
100
AcDbEntity
  8
0
100
AcDbPolyline
 62
7
  6
BYLAYER
 90
3
 70
0
 10
86.1089192599
 20
146.4127405304
 10
86.0448828663
 20
147.079656736
 10
85.9843342766
 20
147.5893356928
  0
LWPOLYLINE
  5
26C
100
AcDbEntity
  8
0
100
AcDbPolyline
 62
7
  6
BYLAYER
 90
4
 70
0
 10
84.9201751037
 20
145.1147681619
 10
84.8331169714
 20
146.13665852
 10
84.7714359064
 20
146.816628885
 10
84.7108098961
 20
147.3847585757
  0
LWPOLYLINE
  5
26D
100
AcDbEntity
  8
0
100
AcDbPolyline
 62
7
  6
BYLAYER
 90
4
 70
0
 10
82.3368066272
 20
146.0919687608
 10
82.4218681533
 20
145.0932185643
 10
82.4831798684
 20
144.4055780202
 10
82.5449428618
 20
143.8105608141
  0
LINE
  5
26E
100
AcDbEntity
  8
0
100
AcDbLine
 62
7
  6
BYLAYER
 10
86.2035692907
 20
145.3067519471
 11
86.260423693
 21
145.8138519737
  0
LINE
  5
26F
100
AcDbEntity
  8
0
100
AcDbLine
 62
7
  6
BYLAYER
 10
84.9037332246
 20
145.3082365835
 11
84.9606392118
 21
145.8151422876
  0
LINE
  5
270
100
AcDbEntity
  8
0
100
AcDbLine
 62
7
  6
BYLAYER
 10
82.3036910892
 20
145.3083549101
 11
82.3608879907
 21
145.8172466516
  0
LWPOLYLINE
  5
271
100
AcDbEntity
  8
0
100
AcDbPolyline
 62
7
  6
BYLAYER
 90
3
 70
0
 10
86.203032996
 20
145.3173920737
 10
86.2494035747
 20
145.7156060003
 10
86.2609786839
 20
145.8100981623
  0
LINE
  5
272
100
AcDbEntity
  8
0
100
AcDbLine
 62
7
  6
BYLAYER
 10
84.9029282793
 20
145.3167924317
 11
84.9613119277
 21
145.8071060959
  0
LWPOLYLINE
  5
273
100
AcDbEntity
  8
0
100
AcDbPolyline
 62
7
  6
BYLAYER
 90
3
 70
0
 10
82.3031643472
 20
145.3130723148
 10
82.3177773933
 20
145.4332415809
 10
82.3613328913
 20
145.8066105848
  0
LINE
  5
274
100
AcDbEntity
  8
0
100
AcDbLine
 62
7
  6
BYLAYER
 10
68.3949516596
 20
143.0073158765
 11
67.8802956284
 21
142.6213238531
  0
LINE
  5
275
100
AcDbEntity
  8
0
100
AcDbLine
 62
7
  6
BYLAYER
 10
68.8002956258
 20
147.8113238512
 11
67.8802956284
 21
148.5013238493
  0
LWPOLYLINE
  5
276
100
AcDbEntity
  8
0
100
AcDbPolyline
 62
7
  6
BYLAYER
 90
3
 70
0
 10
84.0252865472
 20
142.9046162093
 10
84.2964960312
 20
142.5964830109
 10
84.6064495046
 20
142.5121662671
  0
LWPOLYLINE
  5
277
100
AcDbEntity
  8
0
100
AcDbPolyline
 62
7
  6
BYLAYER
 90
7
 70
0
 10
82.1451758462
 20
147.7358010355
 10
82.1437997588
 20
147.739493115
 10
82.1590998954
 20
147.6746834853
 10
82.1952462538
 20
147.460159694
 10
82.2383266729
 20
147.116562184
 10
82.285571053
 20
146.6567577432
 10
82.3368066272
 20
146.0919687608
  0
LWPOLYLINE
  5
278
100
AcDbEntity
  8
0
100
AcDbPolyline
 62
7
  6
BYLAYER
 90
8
 70
0
 10
81.2185090089
 20
143.3881796229
 10
81.2198429347
 20
143.3845693678
 10
81.2012437867
 20
143.4659883546
 10
81.1607547621
 20
143.7219234144
 10
81.1145247836
 20
144.1106648702
 10
81.0649683875
 20
144.6108775207
 10
81.0125021984
 20
145.2029180133
 10
80.9296567864
 20
146.1775013765
  0
LWPOLYLINE
  5
279
100
AcDbEntity
  8
0
100
AcDbPolyline
 62
7
  6
BYLAYER
 90
7
 70
0
 10
85.1203564914
 20
143.3818590552
 10
85.1214046813
 20
143.3789282967
 10
85.1035335195
 20
143.4560893623
 10
85.0656213806
 20
143.6876081974
 10
85.0210291521
 20
144.0493103787
 10
84.9724540807
 20
144.5304151323
 10
84.9201751037
 20
145.1147681619
  0
LINE
  5
27A
100
AcDbEntity
  8
0
100
AcDbLine
 62
7
  6
BYLAYER
 10
83.9360663432
 20
143.1995532566
 11
84.0252865472
 21
142.9046162093
  0
LWPOLYLINE
  5
27B
100
AcDbEntity
  8
0
100
AcDbPolyline
 62
7
  6
BYLAYER
 90
11
 70
0
 10
83.8203472204
 20
143.3814689236
 10
83.816965044
 20
143.394852839
 10
83.7877544092
 20
143.5428208777
 10
83.7492270436
 20
143.8109342747
 10
83.7059320333
 20
144.1904522764
 10
83.6585527687
 20
144.6802554608
 10
83.6070974666
 20
145.2672149623
 10
83.552396455
 20
145.9124856367
 10
83.4952120312
 20
146.563512989
 10
83.4369451691
 20
147.155099682
 10
83.3788540115
 20
147.6278666034
  0
LWPOLYLINE
  5
27C
100
AcDbEntity
  8
0
100
AcDbPolyline
 62
7
  6
BYLAYER
 90
7
 70
0
 10
86.4194425213
 20
143.3841580506
 10
86.4149092324
 20
143.4021959936
 10
86.380511209
 20
143.586768031
 10
86.3356044219
 20
143.9229357817
 10
86.2857355628
 20
144.3914897477
 10
86.2317578677
 20
144.9804440333
 10
86.1089192599
 20
146.4127405304
  0
LWPOLYLINE
  5
27D
100
AcDbEntity
  8
0
100
AcDbPolyline
 62
7
  6
BYLAYER
 90
11
 70
0
 10
82.5198347695
 20
143.3844431267
 10
82.517029672
 20
143.395867721
 10
82.4862098546
 20
143.551385032
 10
82.4456177542
 20
143.8382715049
 10
82.4013341495
 20
144.2357546739
 10
82.3547733347
 20
144.7226507855
 10
82.3059231465
 20
145.2805334797
 10
82.2545401827
 20
145.8865731388
 10
82.2007458037
 20
146.5034725627
 10
82.1444031318
 20
147.085816244
 10
82.0851618221
 20
147.5817048843
  0
LWPOLYLINE
  5
27E
100
AcDbEntity
  8
0
100
AcDbPolyline
 62
7
  6
BYLAYER
 90
5
 70
0
 10
84.6515788289
 20
147.7996991947
 10
84.5829168384
 20
148.100211333
 10
84.4246831906
 20
148.397342209
 10
84.0216810676
 20
148.6077371935
 10
83.9569097037
 20
148.611306779
  0
LWPOLYLINE
  5
27F
100
AcDbEntity
  8
0
100
AcDbPolyline
 62
7
  6
BYLAYER
 90
5
 70
0
 10
82.6055685818
 20
143.364962403
 10
82.673385099
 20
143.046759029
 10
82.8257081987
 20
142.7416275102
 10
83.2254448906
 20
142.5183738484
 10
83.3064963661
 20
142.5128009161
  0
LWPOLYLINE
  5
280
100
AcDbEntity
  8
0
100
AcDbPolyline
 62
7
  6
BYLAYER
 90
11
 70
0
 10
83.444866355
 20
147.7370076539
 10
83.4462349258
 20
147.7304935278
 10
83.4752270669
 20
147.5877556315
 10
83.5145933898
 20
147.3163755274
 10
83.557852303
 20
146.9358780663
 10
83.6035988111
 20
146.4642116187
 10
83.6517390112
 20
145.9187937743
 10
83.7024603865
 20
145.3211827141
 10
83.7562196716
 20
144.699958251
 10
83.8136472198
 20
144.0960889093
 10
83.8737885514
 20
143.5794297022
  0
LWPOLYLINE
  5
281
100
AcDbEntity
  8
0
100
AcDbPolyline
 62
7
  6
BYLAYER
 90
11
 70
0
 10
86.0456586226
 20
147.7362594525
 10
86.0472004649
 20
147.7289091424
 10
86.0771723577
 20
147.5764691239
 10
86.1171109373
 20
147.2945692197
 10
86.1605097971
 20
146.9101730964
 10
86.2062035113
 20
146.4370257179
 10
86.253955307
 20
145.8930522811
 10
86.3039233361
 20
145.3028726782
 10
86.3566497971
 20
144.6950614542
 10
86.4127140013
 20
144.1067763702
 10
86.4726964858
 20
143.5861722351
  0
LWPOLYLINE
  5
282
100
AcDbEntity
  8
0
100
AcDbPolyline
 62
7
  6
BYLAYER
 90
11
 70
0
 10
84.7461030688
 20
147.7334315208
 10
84.7471986627
 20
147.7276604259
 10
84.7770936723
 20
147.5781720012
 10
84.817654997
 20
147.2910900844
 10
84.8618339031
 20
146.8964239211
 10
84.9084568666
 20
146.4116562438
 10
84.9574516747
 20
145.8527196884
 10
85.0088653428
 20
145.2452045552
 10
85.0630067109
 20
144.6237085381
 10
85.1204059336
 20
144.0326407915
 10
85.1796462653
 20
143.5365487504
  0
LWPOLYLINE
  5
283
100
AcDbEntity
  8
0
100
AcDbPolyline
 62
7
  6
BYLAYER
 90
5
 70
0
 10
83.3788540115
 20
147.6278666034
 10
83.3176816566
 20
147.9703160912
 10
83.2267221088
 20
148.2419823845
 10
82.9500580238
 20
148.5356407706
 10
82.6564167922
 20
148.6108744892
  0
LWPOLYLINE
  5
284
100
AcDbEntity
  8
0
100
AcDbPolyline
 62
7
  6
BYLAYER
 90
5
 70
0
 10
85.9843342766
 20
147.5893356928
 10
85.9226127635
 20
147.9495576279
 10
85.8300361626
 20
148.2344375613
 10
85.552806579
 20
148.5325475217
 10
85.2563200882
 20
148.6092101299
  0
LWPOLYLINE
  5
285
100
AcDbEntity
  8
0
100
AcDbPolyline
 62
7
  6
BYLAYER
 90
5
 70
0
 10
82.0851618221
 20
147.5817048843
 10
82.0230216081
 20
147.9472503665
 10
81.9310325145
 20
148.2350026714
 10
81.6506724185
 20
148.5355935835
 10
81.3578568394
 20
148.6104007462
  0
LWPOLYLINE
  5
286
100
AcDbEntity
  8
0
100
AcDbPolyline
 62
7
  6
BYLAYER
 90
5
 70
0
 10
85.1796462653
 20
143.5365487504
 10
85.2410645783
 20
143.1744267456
 10
85.3309045038
 20
142.8937857872
 10
85.6006767036
 20
142.5963306288
 10
85.9069409541
 20
142.5142675497
  0
LINE
  5
287
100
AcDbEntity
  8
0
100
AcDbLine
 62
7
  6
BYLAYER
 10
83.8737885514
 20
143.5794297022
 11
83.9360663432
 21
143.1995532566
  0
LWPOLYLINE
  5
288
100
AcDbEntity
  8
0
100
AcDbPolyline
 62
7
  6
BYLAYER
 90
5
 70
0
 10
86.4726964858
 20
143.5861722351
 10
86.5363662528
 20
143.1974812634
 10
86.6297333672
 20
142.8975388956
 10
86.9023604717
 20
142.5949601235
 10
87.2079309771
 20
142.5132345942
  0
LINE
  5
289
100
AcDbEntity
  8
0
100
AcDbLine
 62
7
  6
BYLAYER
 10
84.7108098961
 20
147.3847585757
 11
84.6515788289
 21
147.7996991947
  0
LINE
  5
28A
100
AcDbEntity
  8
0
100
AcDbLine
 62
7
  6
BYLAYER
 10
82.5449428618
 20
143.8105608141
 11
82.6055685818
 21
143.364962403
  0
LINE
  5
28B
100
AcDbEntity
  8
0
100
AcDbLine
 62
7
  6
BYLAYER
 10
87.6367931704
 20
143.9122570988
 11
87.5865101231
 21
144.3847291341
  0
LINE
  5
28C
100
AcDbEntity
  8
0
100
AcDbLine
 62
7
  6
BYLAYER
 10
88.8993465043
 20
144.2546867386
 11
88.8994275716
 21
144.253907759
  0
LWPOLYLINE
  5
28D
100
AcDbEntity
  8
0
100
AcDbPolyline
 62
7
  6
BYLAYER
 90
3
 70
0
 10
87.7011229299
 20
144.2202783513
 10
87.7174408818
 20
144.0606829036
 10
87.7798813667
 20
143.5434766075
  0
LWPOLYLINE
  5
28E
100
AcDbEntity
  8
0
100
AcDbPolyline
 62
7
  6
BYLAYER
 90
3
 70
0
 10
87.4076273847
 20
146.4277687991
 10
87.3436204574
 20
147.0920258582
 10
87.2837761833
 20
147.5917874706
  0
LWPOLYLINE
  5
28F
100
AcDbEntity
  8
0
100
AcDbPolyline
 62
7
  6
BYLAYER
 90
10
 70
0
 10
88.89943461
 20
144.254670614
 10
88.838166915
 20
144.9086464458
 10
88.7665954598
 20
145.7444318252
 10
88.7002679603
 20
146.5085212719
 10
88.6384732557
 20
147.1415234958
 10
88.5798777632
 20
147.619274501
 10
88.5195795048
 20
147.9626106515
 10
88.4276528071
 20
148.2418610531
 10
88.1462195754
 20
148.5381810282
 10
87.8577926818
 20
148.6106743303
  0
LWPOLYLINE
  5
290
100
AcDbEntity
  8
0
100
AcDbPolyline
 62
7
  6
BYLAYER
 90
3
 70
0
 10
87.5865101231
 20
144.3847291341
 10
87.5319188272
 20
144.9785681096
 10
87.4076273847
 20
146.4277687991
  0
LWPOLYLINE
  5
291
100
AcDbEntity
  8
0
100
AcDbPolyline
 62
7
  6
BYLAYER
 90
3
 70
0
 10
87.6376131111
 20
144.9114277141
 10
87.6899274274
 20
144.3360754177
 10
87.7011263052
 20
144.2210980886
  0
LWPOLYLINE
  5
292
100
AcDbEntity
  8
0
100
AcDbPolyline
 62
7
  6
BYLAYER
 90
5
 70
0
 10
89.0170296468
 20
143.4042359235
 10
89.0163831834
 20
143.4114164627
 10
88.9809436644
 20
143.5938794428
 10
88.9351907457
 20
143.9282909942
 10
88.8994275716
 20
144.253907759
  0
LINE
  5
293
100
AcDbEntity
  8
0
100
AcDbLine
 62
7
  6
BYLAYER
 10
90.400253938
 20
145.5615968324
 11
90.40025028
 21
145.5616479837
  0
LINE
  5
294
100
AcDbEntity
  8
0
100
AcDbLine
 62
7
  6
BYLAYER
 10
87.5031482144
 20
145.3036430677
 11
87.5612076943
 21
145.820659131
  0
LINE
  5
295
100
AcDbEntity
  8
0
100
AcDbLine
 62
7
  6
BYLAYER
 10
87.5037740012
 20
145.3083741829
 11
87.5609374028
 21
145.8090561541
  0
LWPOLYLINE
  5
296
100
AcDbEntity
  8
0
100
AcDbPolyline
 62
7
  6
BYLAYER
 90
6
 70
0
 10
88.8603514186
 20
147.6766328039
 10
88.8598052364
 20
147.6778066569
 10
88.8990081002
 20
147.5419896497
 10
88.930347494
 20
147.4007066204
 10
89.0029086504
 20
146.993601805
 10
89.0851225036
 20
146.4328941606
  0
LWPOLYLINE
  5
297
100
AcDbEntity
  8
0
100
AcDbPolyline
 62
7
  6
BYLAYER
 90
9
 70
0
 10
87.3452328287
 20
147.737062045
 10
87.3433023335
 20
147.7422169498
 10
87.3574852484
 20
147.6822263888
 10
87.3914274545
 20
147.4848674043
 10
87.4312207188
 20
147.1790488201
 10
87.4521395547
 20
146.9907558715
 10
87.4954161328
 20
146.5531345338
 10
87.5405992843
 20
146.0477083132
 10
87.6376131111
 20
144.9114277141
  0
LWPOLYLINE
  5
298
100
AcDbEntity
  8
0
100
AcDbPolyline
 62
7
  6
BYLAYER
 90
4
 70
0
 10
87.7190559192
 20
143.3868495457
 10
87.7155139895
 20
143.4010239393
 10
87.6819312018
 20
143.5764549385
 10
87.6367931704
 20
143.9122570988
  0
LWPOLYLINE
  5
299
100
AcDbEntity
  8
0
100
AcDbPolyline
 62
7
  6
BYLAYER
 90
6
 70
0
 10
87.7798813667
 20
143.5434766075
 10
87.8466042415
 20
143.1666231648
 10
87.8879682133
 20
143.0170675071
 10
88.0612785428
 20
142.7120509764
 10
88.4581365182
 20
142.5169265695
 10
88.5167564598
 20
142.5140212236
  0
LWPOLYLINE
  5
29A
100
AcDbEntity
  8
0
100
AcDbPolyline
 62
7
  6
BYLAYER
 90
5
 70
0
 10
87.2837761833
 20
147.5917874706
 10
87.2230334346
 20
147.9487530425
 10
87.1298589548
 20
148.2362387433
 10
86.8504216718
 20
148.5336859258
 10
86.5574151531
 20
148.6084627901
  0
LWPOLYLINE
  5
29B
100
AcDbEntity
  8
0
100
AcDbPolyline
 62
7
  6
BYLAYER
 90
5
 70
0
 10
89.2007606258
 20
145.5577576972
 10
89.3613354056
 20
144.6094052808
 10
89.958131892
 20
143.5240281299
 10
90.9265778884
 20
142.8021191796
 10
91.044654016
 20
142.7547671997
  0
LINE
  5
29C
100
AcDbEntity
  8
0
100
AcDbLine
 62
7
  6
BYLAYER
 10
89.0851225036
 20
146.4328941606
 11
89.2007655647
 21
145.5576847071
  0
LWPOLYLINE
  5
29D
100
AcDbEntity
  8
0
100
AcDbPolyline
 62
7
  6
BYLAYER
 90
8
 70
0
 10
90.40025028
 20
145.5616479837
 10
90.3248296879
 20
146.142845835
 10
90.2268753658
 20
146.8623830393
 10
90.1329701319
 20
147.4509368458
 10
90.0389395428
 20
147.8910506291
 10
89.9214241531
 20
148.219327915
 10
89.6307445715
 20
148.5303507207
 10
89.3252621619
 20
148.6099765875
  0
LINE
  5
29E
100
AcDbEntity
  8
0
100
AcDbLine
 62
7
  6
BYLAYER
 10
92.800309666
 20
143.7113210628
 11
92.8002951279
 21
143.1113238512
  0
LINE
  5
29F
100
AcDbEntity
  8
0
100
AcDbLine
 62
7
  6
BYLAYER
 10
29.7502956258
 20
137.5613238512
 11
52.4002956258
 21
137.5613238512
  0
LINE
  5
2A0
100
AcDbEntity
  8
0
100
AcDbLine
 62
7
  6
BYLAYER
 10
53.3002956258
 20
138.0613238512
 11
53.8002956258
 21
138.0613238512
  0
LINE
  5
2A1
100
AcDbEntity
  8
0
100
AcDbLine
 62
7
  6
BYLAYER
 10
55.4002956258
 20
138.0613238512
 11
57.6002956258
 21
138.0613238512
  0
LWPOLYLINE
  5
2A2
100
AcDbEntity
  8
0
100
AcDbPolyline
 62
7
  6
BYLAYER
 90
4
 70
0
 10
91.0424455282
 20
142.7555964337
 10
91.4454007983
 20
142.6347090663
 10
91.9369007101
 20
142.5524091243
 10
92.8002860959
 20
142.5116934667
  0
LINE
  5
2A3
100
AcDbEntity
  8
0
100
AcDbLine
 62
7
  6
BYLAYER
 10
91.044654016
 20
142.7547671997
 11
91.0424512322
 21
142.7555942861
  0
LINE
  5
2A4
100
AcDbEntity
  8
0
100
AcDbLine
 62
7
  6
BYLAYER
 10
91.4677139106
 20
143.8778437885
 11
91.4667873075
 21
143.878192663
  0
LWPOLYLINE
  5
2A5
100
AcDbEntity
  8
0
100
AcDbPolyline
 62
7
  6
BYLAYER
 90
5
 70
0
 10
91.4667873075
 20
143.878192663
 10
91.0171310399
 20
144.1476777751
 10
90.8241556756
 20
144.3601118349
 10
90.5064674894
 20
144.9656185918
 10
90.3998324474
 20
145.5615861107
  0
LWPOLYLINE
  5
2A6
100
AcDbEntity
  8
0
100
AcDbPolyline
 62
7
  6
BYLAYER
 90
7
 70
0
 10
88.5166176535
 20
142.514028143
 10
88.8197836226
 20
142.5938800478
 10
89.0979325729
 20
142.8968215553
 10
89.1982181189
 20
143.2018019574
 10
89.2711086201
 20
143.6035144898
 10
89.3451398717
 20
144.1621214575
 10
89.3893771887
 20
144.5584064705
  0
LWPOLYLINE
  5
2A7
100
AcDbEntity
  8
0
100
AcDbPolyline
 62
7
  6
BYLAYER
 90
5
 70
0
 10
85.9067889637
 20
142.5142674872
 10
85.9736018757
 20
142.5180533628
 10
86.3775397356
 20
142.7308432273
 10
86.5399199177
 20
143.0444982367
 10
86.5579124228
 20
143.1282640737
  0
LWPOLYLINE
  5
2A8
100
AcDbEntity
  8
0
100
AcDbPolyline
 62
7
  6
BYLAYER
 90
5
 70
0
 10
87.2078446708
 20
142.5132345216
 10
87.2739850726
 20
142.5169546965
 10
87.6794415061
 20
142.7311519184
 10
87.8406960209
 20
143.0460903714
 10
87.8577970048
 20
143.1261545879
  0
LWPOLYLINE
  5
2A9
100
AcDbEntity
  8
0
100
AcDbPolyline
 62
7
  6
BYLAYER
 90
5
 70
0
 10
76.8062292821
 20
142.5127009749
 10
76.8685685226
 20
142.5159995358
 10
77.2711329569
 20
142.7229026348
 10
77.4301997198
 20
143.0144932493
 10
77.4566163866
 20
143.1269009717
  0
LWPOLYLINE
  5
2AA
100
AcDbEntity
  8
0
100
AcDbPolyline
 62
7
  6
BYLAYER
 90
5
 70
0
 10
78.1070800825
 20
142.5143043387
 10
78.1691520484
 20
142.5175769176
 10
78.5685419175
 20
142.7204511478
 10
78.7370298713
 20
143.0344680458
 10
78.7570112267
 20
143.1257456724
  0
LWPOLYLINE
  5
2AB
100
AcDbEntity
  8
0
100
AcDbPolyline
 62
7
  6
BYLAYER
 90
5
 70
0
 10
82.0072813507
 20
142.5113596141
 10
82.0678178105
 20
142.5144807222
 10
82.4666332906
 20
142.7159860785
 10
82.6307120922
 20
143.0151531426
 10
82.6564523824
 20
143.1262094016
  0
LWPOLYLINE
  5
2AC
100
AcDbEntity
  8
0
100
AcDbPolyline
 62
7
  6
BYLAYER
 90
6
 70
0
 10
83.3063440486
 20
142.5128007233
 10
83.3432383209
 20
142.5139582543
 10
83.7270062338
 20
142.6780744595
 10
83.8410480426
 20
142.8168052796
 10
83.9477042511
 20
143.0724142831
 10
83.9595478681
 20
143.1174841116
  0
LINE
  5
2AD
100
AcDbEntity
  8
0
100
AcDbLine
 62
7
  6
BYLAYER
 10
89.2002909045
 20
145.5613375204
 11
89.2910828096
 21
145.5637580925
  0
LINE
  5
2AE
100
AcDbEntity
  8
0
100
AcDbLine
 62
7
  6
BYLAYER
 10
83.3063440486
 20
142.5128007233
 11
83.3064378255
 21
142.5128009205
  0
LINE
  5
2AF
100
AcDbEntity
  8
0
100
AcDbLine
 62
7
  6
BYLAYER
 10
84.6063021357
 20
142.512166149
 11
84.60642709
 21
142.5121662681
  0
LINE
  5
2B0
100
AcDbEntity
  8
0
100
AcDbLine
 62
7
  6
BYLAYER
 10
82.0072813507
 20
142.5113596141
 11
82.0073970714
 21
142.5113597198
  0
LINE
  5
2B1
100
AcDbEntity
  8
0
100
AcDbLine
 62
7
  6
BYLAYER
 10
80.7077790892
 20
142.5135128912
 11
80.7079006351
 21
142.5135130007
  0
LINE
  5
2B2
100
AcDbEntity
  8
0
100
AcDbLine
 62
7
  6
BYLAYER
 10
78.1070800825
 20
142.5143043387
 11
78.1072021139
 21
142.5143044439
  0
LINE
  5
2B3
100
AcDbEntity
  8
0
100
AcDbLine
 62
7
  6
BYLAYER
 10
76.8062292821
 20
142.5127009749
 11
76.8063589444
 21
142.512701097
  0
LINE
  5
2B4
100
AcDbEntity
  8
0
100
AcDbLine
 62
7
  6
BYLAYER
 10
70.30625308
 20
142.5123965897
 11
70.306371839
 21
142.5123966685
  0
LINE
  5
2B5
100
AcDbEntity
  8
0
100
AcDbLine
 62
7
  6
BYLAYER
 10
87.2078446708
 20
142.5132345216
 11
87.207973359
 21
142.5132345948
  0
LINE
  5
2B6
100
AcDbEntity
  8
0
100
AcDbLine
 62
7
  6
BYLAYER
 10
85.9067889637
 20
142.5142674872
 11
85.9069208037
 21
142.5142675505
  0
LINE
  5
2B7
100
AcDbEntity
  8
0
100
AcDbLine
 62
7
  6
BYLAYER
 10
79.4066655901
 20
142.5141461335
 11
79.4067870533
 21
142.5141462033
  0
LINE
  5
2B8
100
AcDbEntity
  8
0
100
AcDbLine
 62
7
  6
BYLAYER
 10
75.5074814106
 20
142.5114764422
 11
75.5076022299
 21
142.5114765152
  0
LINE
  5
2B9
100
AcDbEntity
  8
0
100
AcDbLine
 62
7
  6
BYLAYER
 10
74.2076791049
 20
142.5137638064
 11
74.207801822
 21
142.5137638678
  0
LINE
  5
2BA
100
AcDbEntity
  8
0
100
AcDbLine
 62
7
  6
BYLAYER
 10
69.0076258888
 20
142.5116523304
 11
69.0077355438
 21
142.5116523704
  0
LINE
  5
2BB
100
AcDbEntity
  8
0
100
AcDbLine
 62
7
  6
BYLAYER
 10
72.9078752389
 20
142.5130026067
 11
72.9079946203
 21
142.5130026635
  0
LINE
  5
2BC
100
AcDbEntity
  8
0
100
AcDbLine
 62
7
  6
BYLAYER
 10
71.6069163801
 20
142.5143265205
 11
71.6070357591
 21
142.5143265729
  0
LINE
  5
2BD
100
AcDbEntity
  8
0
100
AcDbLine
 62
7
  6
BYLAYER
 10
92.8002871394
 20
142.5113238512
 11
183.8002956258
 21
142.5113238512
  0
LINE
  5
2BE
100
AcDbEntity
  8
0
100
AcDbLine
 62
7
  6
BYLAYER
 10
92.8003097264
 20
143.7113238512
 11
183.8002956258
 21
143.7113238512
  0
LINE
  5
2BF
100
AcDbEntity
  8
0
100
AcDbLine
 62
7
  6
BYLAYER
 10
89.7865516875
 20
145.5613256548
 11
89.8002734476
 21
145.5613227673
  0
LINE
  5
2C0
100
AcDbEntity
  8
0
100
AcDbLine
 62
7
  6
BYLAYER
 10
88.5166176535
 20
142.514028143
 11
88.5167469574
 21
142.5140280532
  0
LWPOLYLINE
  5
2C1
100
AcDbEntity
  8
0
100
AcDbPolyline
 62
7
  6
BYLAYER
 90
4
 70
0
 10
92.8003077999
 20
143.7109541684
 10
92.1252607366
 20
143.7386264383
 10
91.7580612978
 20
143.7941423485
 10
91.4677224524
 20
143.8778405724
  0
LWPOLYLINE
  5
2C2
100
AcDbEntity
  8
0
100
AcDbPolyline
 62
7
  6
BYLAYER
 90
4
 70
0
 10
75.5074814106
 20
142.5114764422
 10
75.8009318495
 20
142.586683517
 10
76.0787316731
 20
142.8834182093
 10
76.1576783604
 20
143.1258581673
  0
LWPOLYLINE
  5
2C3
100
AcDbEntity
  8
0
100
AcDbPolyline
 62
7
  6
BYLAYER
 90
4
 70
0
 10
74.2076791049
 20
142.5137638064
 10
74.4999477897
 20
142.5881740635
 10
74.7841369385
 20
142.8947108894
 10
74.8565155058
 20
143.1291477136
  0
LWPOLYLINE
  5
2C4
100
AcDbEntity
  8
0
100
AcDbPolyline
 62
7
  6
BYLAYER
 90
4
 70
0
 10
69.0076258888
 20
142.5116523304
 10
69.2989525096
 20
142.5857006386
 10
69.5775367337
 20
142.8807686246
 10
69.6578569066
 20
143.1240143293
  0
LWPOLYLINE
  5
2C5
100
AcDbEntity
  8
0
100
AcDbPolyline
 62
7
  6
BYLAYER
 90
4
 70
0
 10
71.6069163801
 20
142.5143265205
 10
71.8984945065
 20
142.588319619
 10
72.1790965574
 20
142.8857280053
 10
72.25747035
 20
143.1279176011
  0
LWPOLYLINE
  5
2C6
100
AcDbEntity
  8
0
100
AcDbPolyline
 62
7
  6
BYLAYER
 90
4
 70
0
 10
72.9078752389
 20
142.5130026067
 10
73.1970375547
 20
142.5858151723
 10
73.4779805133
 20
142.8814404312
 10
73.5570570004
 20
143.1268443536
  0
LWPOLYLINE
  5
2C7
100
AcDbEntity
  8
0
100
AcDbPolyline
 62
7
  6
BYLAYER
 90
4
 70
0
 10
80.7077790892
 20
142.5135128912
 10
80.9966342883
 20
142.5861334815
 10
81.2770196913
 20
142.8798144519
 10
81.3576395039
 20
143.1234188473
  0
LWPOLYLINE
  5
2C8
100
AcDbEntity
  8
0
100
AcDbPolyline
 62
7
  6
BYLAYER
 90
4
 70
0
 10
79.4066655901
 20
142.5141461335
 10
79.6957664122
 20
142.5868277559
 10
79.9799734465
 20
142.8878457649
 10
80.0568496618
 20
143.1279158116
  0
LWPOLYLINE
  5
2C9
100
AcDbEntity
  8
0
100
AcDbPolyline
 62
7
  6
BYLAYER
 90
4
 70
0
 10
70.30625308
 20
142.5123965897
 10
70.5951377382
 20
142.5850511027
 10
70.8756101549
 20
142.8788936017
 10
70.9563817156
 20
143.1227144537
  0
LWPOLYLINE
  5
2CA
100
AcDbEntity
  8
0
100
AcDbPolyline
 62
7
  6
BYLAYER
 90
4
 70
0
 10
84.6063021357
 20
142.512166149
 10
84.8946615334
 20
142.5845662792
 10
85.1759805531
 20
142.8794952474
 10
85.2569943375
 20
143.1246655411
  0
LWPOLYLINE
  5
2CB
100
AcDbEntity
  8
0
100
AcDbPolyline
 62
7
  6
BYLAYER
 90
5
 70
0
 10
80.0573995911
 20
148.6083553069
 10
79.9743127981
 20
148.6025053414
 10
79.5773453082
 20
148.3808142558
 10
79.4204208715
 20
148.0649926253
 10
79.4064116266
 20
147.997564172
  0
LWPOLYLINE
  5
2CC
100
AcDbEntity
  8
0
100
AcDbPolyline
 62
7
  6
BYLAYER
 90
5
 70
0
 10
70.9565528719
 20
148.6090043724
 10
70.8744220388
 20
148.6032857208
 10
70.4736153173
 20
148.3777519674
 10
70.323458516
 20
148.0764376071
 10
70.3071324989
 20
147.9998891812
  0
LWPOLYLINE
  5
2CD
100
AcDbEntity
  8
0
100
AcDbPolyline
 62
7
  6
BYLAYER
 90
7
 70
0
 10
69.6568680359
 20
148.6112382879
 10
69.5802327101
 20
148.6062459295
 10
69.1877427434
 20
148.3956548491
 10
69.0304285414
 20
148.0978441862
 10
68.9619671389
 20
147.7955614926
 10
68.9012326784
 20
147.3664400876
 10
68.8390901874
 20
146.7784694406
  0
LINE
  5
2CE
100
AcDbEntity
  8
0
100
AcDbLine
 62
7
  6
BYLAYER
 10
73.5571633067
 20
148.6085714917
 11
73.5572418925
 21
148.6085715361
  0
LINE
  5
2CF
100
AcDbEntity
  8
0
100
AcDbLine
 62
7
  6
BYLAYER
 10
89.3252621619
 20
148.6099765875
 11
89.3254686463
 21
148.6099765868
  0
LINE
  5
2D0
100
AcDbEntity
  8
0
100
AcDbLine
 62
7
  6
BYLAYER
 10
77.4564802028
 20
148.6087719724
 11
77.4566066304
 21
148.6087719381
  0
LINE
  5
2D1
100
AcDbEntity
  8
0
100
AcDbLine
 62
7
  6
BYLAYER
 10
82.6564167922
 20
148.6108744892
 11
82.656533277
 21
148.6108744499
  0
LINE
  5
2D2
100
AcDbEntity
  8
0
100
AcDbLine
 62
7
  6
BYLAYER
 10
69.6567567195
 20
148.611238344
 11
69.6568676103
 21
148.6112382879
  0
LINE
  5
2D3
100
AcDbEntity
  8
0
100
AcDbLine
 62
7
  6
BYLAYER
 10
72.2575233929
 20
148.6085820074
 11
72.2576538254
 21
148.6085819472
  0
LINE
  5
2D4
100
AcDbEntity
  8
0
100
AcDbLine
 62
7
  6
BYLAYER
 10
81.3578568394
 20
148.6104007462
 11
81.3579731322
 21
148.6104006882
  0
LINE
  5
2D5
100
AcDbEntity
  8
0
100
AcDbLine
 62
7
  6
BYLAYER
 10
85.2563200882
 20
148.6092101299
 11
85.2564527951
 21
148.6092100586
  0
LINE
  5
2D6
100
AcDbEntity
  8
0
100
AcDbLine
 62
7
  6
BYLAYER
 10
86.5574151531
 20
148.6084627901
 11
86.5575351865
 21
148.608462738
  0
LINE
  5
2D7
100
AcDbEntity
  8
0
100
AcDbLine
 62
7
  6
BYLAYER
 10
70.9563724575
 20
148.6090044699
 11
70.9565129162
 21
148.6090043699
  0
LINE
  5
2D8
100
AcDbEntity
  8
0
100
AcDbLine
 62
7
  6
BYLAYER
 10
83.9569097037
 20
148.611306779
 11
83.9570322509
 21
148.6113067029
  0
LINE
  5
2D9
100
AcDbEntity
  8
0
100
AcDbLine
 62
7
  6
BYLAYER
 10
78.7562817084
 20
148.6095454808
 11
78.756412732
 21
148.6095453706
  0
LINE
  5
2DA
100
AcDbEntity
  8
0
100
AcDbLine
 62
7
  6
BYLAYER
 10
76.1565661195
 20
148.6110860673
 11
76.1566910398
 21
148.6110859666
  0
LINE
  5
2DB
100
AcDbEntity
  8
0
100
AcDbLine
 62
7
  6
BYLAYER
 10
80.0572769727
 20
148.6083554384
 11
80.0574047041
 21
148.608355307
  0
LINE
  5
2DC
100
AcDbEntity
  8
0
100
AcDbLine
 62
7
  6
BYLAYER
 10
87.8577926818
 20
148.6106743303
 11
87.8579119397
 21
148.6106742174
  0
LINE
  5
2DD
100
AcDbEntity
  8
0
100
AcDbLine
 62
7
  6
BYLAYER
 10
74.857884793
 20
148.6101012935
 11
74.8580081079
 21
148.6101011581
  0
LWPOLYLINE
  5
2DE
100
AcDbEntity
  8
0
100
AcDbPolyline
 62
7
  6
BYLAYER
 90
4
 70
0
 10
74.8579762279
 20
148.6101011582
 10
74.5474505859
 20
148.525499915
 10
74.2801993105
 20
148.2262913366
 10
74.2068327787
 20
147.9962718526
  0
LWPOLYLINE
  5
2DF
100
AcDbEntity
  8
0
100
AcDbPolyline
 62
7
  6
BYLAYER
 90
4
 70
0
 10
78.7564409125
 20
148.609545372
 10
78.4468084994
 20
148.5254858878
 10
78.1736097833
 20
148.2143383449
 10
78.1076754515
 20
147.9936679897
  0
LWPOLYLINE
  5
2E0
100
AcDbEntity
  8
0
100
AcDbPolyline
 62
7
  6
BYLAYER
 90
4
 70
0
 10
76.1567082414
 20
148.6110859672
 10
75.8479955064
 20
148.5274226095
 10
75.5793626632
 20
148.2264650978
 10
75.5079374928
 20
147.9985633559
  0
LWPOLYLINE
  5
2E1
100
AcDbEntity
  8
0
100
AcDbPolyline
 62
7
  6
BYLAYER
 90
4
 70
0
 10
87.8578781472
 20
148.6106742176
 10
87.5499194162
 20
148.5275019112
 10
87.2826941763
 20
148.2318909835
 10
87.2066330354
 20
147.9993557425
  0
LWPOLYLINE
  5
2E2
100
AcDbEntity
  8
0
100
AcDbPolyline
 62
7
  6
BYLAYER
 90
4
 70
0
 10
85.2564860125
 20
148.6092100604
 10
84.9491072688
 20
148.5264608865
 10
84.6775215588
 20
148.2227330688
 10
84.6072959656
 20
147.9935114895
  0
LWPOLYLINE
  5
2E3
100
AcDbEntity
  8
0
100
AcDbPolyline
 62
7
  6
BYLAYER
 90
4
 70
0
 10
72.2576230425
 20
148.6085819473
 10
71.9534188077
 20
148.5276738
 10
71.67901378
 20
148.2237641177
 10
71.607524075
 20
147.9933248993
  0
LWPOLYLINE
  5
2E4
100
AcDbEntity
  8
0
100
AcDbPolyline
 62
7
  6
BYLAYER
 90
4
 70
0
 10
77.4566351372
 20
148.6087719394
 10
77.1544512026
 20
148.5289748777
 10
76.8833606499
 20
148.2346379868
 10
76.8061630926
 20
147.9980626489
  0
LWPOLYLINE
  5
2E5
100
AcDbEntity
  8
0
100
AcDbPolyline
 62
7
  6
BYLAYER
 90
4
 70
0
 10
83.9570390524
 20
148.6113067031
 10
83.6569334477
 20
148.5324640856
 10
83.3865514794
 20
148.2410801938
 10
83.3076947182
 20
148.0001437959
  0
LWPOLYLINE
  5
2E6
100
AcDbEntity
  8
0
100
AcDbPolyline
 62
7
  6
BYLAYER
 90
4
 70
0
 10
81.357933623
 20
148.6104006887
 10
81.0575700302
 20
148.5315210167
 10
80.7836179751
 20
148.2336330797
 10
80.7072430442
 20
147.99513861
  0
LWPOLYLINE
  5
2E7
100
AcDbEntity
  8
0
100
AcDbPolyline
 62
7
  6
BYLAYER
 90
4
 70
0
 10
82.6565655239
 20
148.6108744515
 10
82.3569139474
 20
148.5323339029
 10
82.0835914511
 20
148.2355985424
 10
82.0068357223
 20
147.9978816506
  0
LWPOLYLINE
  5
2E8
100
AcDbEntity
  8
0
100
AcDbPolyline
 62
7
  6
BYLAYER
 90
4
 70
0
 10
86.5575205112
 20
148.6084627379
 10
86.2578148005
 20
148.5300619816
 10
85.9823714862
 20
148.230953296
 10
85.9077429814
 20
147.9953154383
  0
LWPOLYLINE
  5
2E9
100
AcDbEntity
  8
0
100
AcDbPolyline
 62
7
  6
BYLAYER
 90
5
 70
0
 10
89.3254164222
 20
148.6100124659
 10
89.0209166405
 20
148.5309467156
 10
88.7249602542
 20
148.2107847496
 10
88.604938877
 20
147.8568185378
 10
88.5700923679
 20
147.6749921958
  0
LWPOLYLINE
  5
2EA
100
AcDbEntity
  8
0
100
AcDbPolyline
 62
7
  6
BYLAYER
 90
4
 70
0
 10
73.5571852568
 20
148.6085715387
 10
73.2923168701
 20
148.5479930391
 10
73.1236861327
 20
148.4313252531
 10
72.9900617573
 20
148.2471653387
  0
LINE
  5
2EB
100
AcDbEntity
  8
0
100
AcDbLine
 62
7
  6
BYLAYER
 10
53.3002956258
 20
153.0613238512
 11
53.8002956258
 21
153.0613238512
  0
LINE
  5
2EC
100
AcDbEntity
  8
0
100
AcDbLine
 62
7
  6
BYLAYER
 10
55.4002956258
 20
153.0613238512
 11
57.6002956258
 21
153.0613238512
  0
LINE
  5
2ED
100
AcDbEntity
  8
0
100
AcDbLine
 62
7
  6
BYLAYER
 10
52.4002956258
 20
153.5613238512
 11
29.7502956258
 21
153.5613238512
  0
LINE
  5
2EE
100
AcDbEntity
  8
0
100
AcDbLine
 62
7
  6
BYLAYER
 10
183.8002956258
 20
143.7113073486
 11
183.8002956258
 21
142.5113403538
  0
ARC
  5
2EF
100
AcDbEntity
  8
0
100
AcDbCircle
 62
7
  6
BYLAYER
 10
173.9994542271
 20
133.7727113462
 40
85.9155398472
100
AcDbArc
 50
171.949327983
 51
172.0868727646
  0
ARC
  5
2F0
100
AcDbEntity
  8
0
100
AcDbCircle
 62
7
  6
BYLAYER
 10
29.7502956258
 20
145.5613238512
 40
8.0
100
AcDbArc
 50
90.0
 51
270.0
  0
ARC
  5
2F1
100
AcDbEntity
  8
0
100
AcDbCircle
 62
7
  6
BYLAYER
 10
78.4504169179
 20
152.2865024075
 40
6.5629177225
100
AcDbArc
 50
269.2447790764
 51
269.9989405944
  0
ARC
  5
2F2
100
AcDbEntity
  8
0
100
AcDbCircle
 62
7
  6
BYLAYER
 10
78.4502891278
 20
152.2280802108
 40
6.5045076552
100
AcDbArc
 50
270.0000567365
 51
270.1612729248
  0
ARC
  5
2F3
100
AcDbEntity
  8
0
100
AcDbCircle
 62
7
  6
BYLAYER
 10
63.8165439968
 20
148.5613238512
 40
4.0
100
AcDbArc
 50
5.1660626579
 51
154.0555202276
  0
ARC
  5
2F4
100
AcDbEntity
  8
0
100
AcDbCircle
 62
7
  6
BYLAYER
 10
63.8165439968
 20
142.5613238512
 40
4.0
100
AcDbArc
 50
205.9444797724
 51
354.8339373421
  0
ARC
  5
2F5
100
AcDbEntity
  8
0
100
AcDbCircle
 62
7
  6
BYLAYER
 10
91.9440974326
 20
145.1501270966
 40
2.5587291642
100
AcDbArc
 50
248.8244426871
 51
249.3661288785
  0
ARC
  5
2F6
100
AcDbEntity
  8
0
100
AcDbCircle
 62
7
  6
BYLAYER
 10
91.9097953111
 20
145.0634874876
 40
2.4655488867
100
AcDbArc
 50
245.4989644042
 51
248.8404639045
  0
ARC
  5
2F7
100
AcDbEntity
  8
0
100
AcDbCircle
 62
7
  6
BYLAYER
 10
57.6002956258
 20
151.9613238512
 40
1.1
100
AcDbArc
 50
0.0
 51
90.0
  0
ARC
  5
2F8
100
AcDbEntity
  8
0
100
AcDbCircle
 62
7
  6
BYLAYER
 10
57.6002956258
 20
139.1613238512
 40
1.1
100
AcDbArc
 50
270.0
 51
360.0
  0
ARC
  5
2F9
100
AcDbEntity
  8
0
100
AcDbCircle
 62
7
  6
BYLAYER
 10
59.5002956258
 20
140.4613238512
 40
0.8
100
AcDbArc
 50
25.9444797724
 51
180.0
  0
ARC
  5
2FA
100
AcDbEntity
  8
0
100
AcDbCircle
 62
7
  6
BYLAYER
 10
59.5002956258
 20
150.6613238512
 40
0.8
100
AcDbArc
 50
180.0
 51
334.0555202276
  0
ARC
  5
2FB
100
AcDbEntity
  8
0
100
AcDbCircle
 62
7
  6
BYLAYER
 10
54.6002956258
 20
138.5613238512
 40
0.6
100
AcDbArc
 50
0.0
 51
180.0
  0
ARC
  5
2FC
100
AcDbEntity
  8
0
100
AcDbCircle
 62
7
  6
BYLAYER
 10
54.6002956258
 20
152.5613238512
 40
0.6
100
AcDbArc
 50
180.0
 51
360.0
  0
ARC
  5
2FD
100
AcDbEntity
  8
0
100
AcDbCircle
 62
7
  6
BYLAYER
 10
73.5089737554
 20
147.9741369574
 40
0.5800235451
100
AcDbArc
 50
215.3980463686
 51
225.1602185602
  0
ARC
  5
2FE
100
AcDbEntity
  8
0
100
AcDbCircle
 62
7
  6
BYLAYER
 10
83.414542354
 20
143.2385931938
 40
0.5604690674
100
AcDbArc
 50
46.5989315785
 51
49.4712983369
  0
ARC
  5
2FF
100
AcDbEntity
  8
0
100
AcDbCircle
 62
7
  6
BYLAYER
 10
53.8002956258
 20
138.2613238512
 40
0.2
100
AcDbArc
 50
270.0
 51
360.0
  0
ARC
  5
300
100
AcDbEntity
  8
0
100
AcDbCircle
 62
7
  6
BYLAYER
 10
53.8002956258
 20
152.8613238512
 40
0.2
100
AcDbArc
 50
0.0
 51
90.0
  0
ARC
  5
301
100
AcDbEntity
  8
0
100
AcDbCircle
 62
7
  6
BYLAYER
 10
55.4002956258
 20
152.8613238512
 40
0.2
100
AcDbArc
 50
90.0
 51
180.0
  0
ARC
  5
302
100
AcDbEntity
  8
0
100
AcDbCircle
 62
7
  6
BYLAYER
 10
55.4002956258
 20
138.2613238512
 40
0.2
100
AcDbArc
 50
180.0
 51
270.0
  0
ARC
  5
303
100
AcDbEntity
  8
0
100
AcDbCircle
 62
7
  6
BYLAYER
 10
68.0002956258
 20
148.6613238512
 40
0.2
100
AcDbArc
 50
180.0000016725
 51
233.1301023542
  0
ARC
  5
304
100
AcDbEntity
  8
0
100
AcDbCircle
 62
7
  6
BYLAYER
 10
68.0002956258
 20
142.4613238512
 40
0.2
100
AcDbArc
 50
126.8698976458
 51
179.9999983275
  0
SPLINE
  5
305
100
AcDbEntity
  8
0
100
AcDbSpline
 62
7
  6
BYLAYER
 70
0
 71
3
 72
12
 73
8
 74
0
 42
0.0000001
 43
0.0000001
 44
0.0000000001
 40
0.0
 40
0.0
 40
0.0
 40
0.0
 40
0.3343915583
 40
0.628617469
 40
0.7497284999
 40
0.851080716
 40
1.0
 40
1.0
 40
1.0
 40
1.0
 10
68.6002955945
 20
146.7354621867
 30
0.0
 10
68.6754170524
 20
146.7354616976
 30
0.0
 10
68.8167403991
 20
146.7247783063
 30
0.0
 10
68.9820883654
 20
146.6878733265
 30
0.0
 10
69.0890351978
 20
146.6404943545
 30
0.0
 10
69.1582351388
 20
146.5955830246
 30
0.0
 10
69.1969134075
 20
146.5454774748
 30
0.0
 10
69.1999371123
 20
146.5121595057
 30
0.0
  0
SPLINE
  5
306
100
AcDbEntity
  8
0
100
AcDbSpline
 62
7
  6
BYLAYER
 70
0
 71
3
 72
13
 73
9
 74
0
 42
0.0000001
 43
0.0000001
 44
0.0000000001
 40
0.0
 40
0.0
 40
0.0
 40
0.0
 40
0.0677090715
 40
0.1471818173
 40
0.2455935968
 40
0.3649224966
 40
0.6602153678
 40
1.0
 40
1.0
 40
1.0
 40
1.0
 10
68.0006487469
 20
146.4966574287
 30
0.0
 10
67.9992145137
 20
146.5121861971
 30
0.0
 10
68.0064528234
 20
146.5471627565
 30
0.0
 10
68.0422098063
 20
146.5924806844
 30
0.0
 10
68.0978529307
 20
146.6332120626
 30
0.0
 10
68.2051189659
 20
146.684006371
 30
0.0
 10
68.3757397302
 20
146.7240421072
 30
0.0
 10
68.522035865
 20
146.735443877
 30
0.0
 10
68.600295599
 20
146.7354434403
 30
0.0
  0
SPLINE
  5
307
100
AcDbEntity
  8
0
100
AcDbSpline
 62
7
  6
BYLAYER
 70
0
 71
3
 72
9
 73
5
 74
0
 42
0.0000001
 43
0.0000001
 44
0.0000000001
 40
0.0
 40
0.0
 40
0.0
 40
0.0
 40
0.5516267208
 40
1.0
 40
1.0
 40
1.0
 40
1.0
 10
92.8002956362
 20
143.7002777263
 30
0.0
 10
92.55212074
 20
143.7001994869
 30
0.0
 10
92.101684224
 20
143.7133196247
 30
0.0
 10
91.6565405289
 20
143.8068297145
 30
0.0
 10
91.4677310319
 20
143.8778406844
 30
0.0
  0
SPLINE
  5
308
100
AcDbEntity
  8
0
100
AcDbSpline
 62
7
  6
BYLAYER
 70
0
 71
3
 72
30
 73
26
 74
0
 42
0.0000001
 43
0.0000001
 44
0.0000000001
 40
0.0
 40
0.0
 40
0.0
 40
0.0
 40
0.0041184377
 40
0.0075810662
 40
0.0121147466
 40
0.0244592923
 40
0.0411414911
 40
0.062042922
 40
0.0870175029
 40
0.1485481421
 40
0.2238301284
 40
0.309618787
 40
0.4024827712
 40
0.4989838656
 40
0.5956094915
 40
0.6887365479
 40
0.7747347493
 40
0.8500107944
 40
0.9118117859
 40
0.9583091481
 40
0.9752889569
 40
0.9878419017
 40
0.992428487
 40
0.99590266
 40
1.0
 40
1.0
 40
1.0
 40
1.0
 10
83.9570390664
 20
148.6113067031
 30
0.0
 10
83.9654960435
 20
148.6112628767
 30
0.0
 10
83.9779587696
 20
148.5970569806
 30
0.0
 10
83.9886280779
 20
148.5756915576
 30
0.0
 10
84.0036864414
 20
148.5361570092
 30
0.0
 10
84.0206869425
 20
148.4695695281
 30
0.0
 10
84.0404620821
 20
148.3688166416
 30
0.0
 10
84.0602446844
 20
148.2419095283
 30
0.0
 10
84.088945303
 20
148.0231955361
 30
0.0
 10
84.1232709873
 20
147.6927134038
 30
0.0
 10
84.1625115297
 20
147.2372860564
 30
0.0
 10
84.2020890678
 20
146.7173374687
 30
0.0
 10
84.2418662663
 20
146.1537182482
 30
0.0
 10
84.2817088192
 20
145.5677976875
 30
0.0
 10
84.3215303191
 20
144.9813344135
 30
0.0
 10
84.3612641854
 20
144.4164825836
 30
0.0
 10
84.4008169821
 20
143.8955720041
 30
0.0
 10
84.4400659699
 20
143.4391653512
 30
0.0
 10
84.4793204286
 20
143.0642132815
 30
0.0
 10
84.5131801856
 20
142.8091591396
 30
0.0
 10
84.5426710887
 20
142.6556423881
 30
0.0
 10
84.5596301076
 20
142.5878506386
 30
0.0
 10
84.5747064284
 20
142.5477329384
 30
0.0
 10
84.5853183618
 20
142.5262032577
 30
0.0
 10
84.5979107201
 20
142.5121960772
 30
0.0
 10
84.606324434
 20
142.512166149
 30
0.0
  0
SPLINE
  5
309
100
AcDbEntity
  8
0
100
AcDbSpline
 62
7
  6
BYLAYER
 70
0
 71
3
 72
30
 73
26
 74
0
 42
0.0000001
 43
0.0000001
 44
0.0000000001
 40
0.0
 40
0.0
 40
0.0
 40
0.0
 40
0.0040971526
 40
0.0075683452
 40
0.0121538547
 40
0.02471164
 40
0.0417035352
 40
0.0882352238
 40
0.1500642829
 40
0.2253467391
 40
0.3113596
 40
0.404507611
 40
0.5011514967
 40
0.5976586066
 40
0.6905142929
 40
0.7762904655
 40
0.8515664798
 40
0.9130882509
 40
0.9380459554
 40
0.9589257654
 40
0.9755847488
 40
0.987907725
 40
0.9924323383
 40
0.9958877229
 40
1.0
 40
1.0
 40
1.0
 40
1.0
 10
81.3579336372
 20
148.6104006887
 30
0.0
 10
81.3663468674
 20
148.6103611988
 30
0.0
 10
81.3789344368
 20
148.5963762012
 30
0.0
 10
81.3895592314
 20
148.5748567139
 30
0.0
 10
81.4046355238
 20
148.5347392234
 30
0.0
 10
81.4215952745
 20
148.4669132942
 30
0.0
 10
81.451085297
 20
148.3132910064
 30
0.0
 10
81.4849422965
 20
148.0580837685
 30
0.0
 10
81.5241982032
 20
147.682992795
 30
0.0
 10
81.5634618168
 20
147.226489319
 30
0.0
 10
81.6030153309
 20
146.7054959175
 30
0.0
 10
81.6427512945
 20
146.1405373377
 30
0.0
 10
81.6825741717
 20
145.5539852155
 30
0.0
 10
81.7224194902
 20
144.9680360949
 30
0.0
 10
81.7622021552
 20
144.4044516605
 30
0.0
 10
81.8017852303
 20
143.8845622162
 30
0.0
 10
81.8410292867
 20
143.4291949083
 30
0.0
 10
81.8753471238
 20
143.0987794654
 30
0.0
 10
81.9040562619
 20
142.8801663268
 30
0.0
 10
81.923840302
 20
142.7533881268
 30
0.0
 10
81.943617808
 20
142.6527763161
 30
0.0
 10
81.960619805
 20
142.5863012425
 30
0.0
 10
81.9756825429
 20
142.5468544719
 30
0.0
 10
81.9863528159
 20
142.5255353283
 30
0.0
 10
81.9988297616
 20
142.5113881467
 30
0.0
 10
82.0072740938
 20
142.5113596139
 30
0.0
  0
SPLINE
  5
30A
100
AcDbEntity
  8
0
100
AcDbSpline
 62
7
  6
BYLAYER
 70
0
 71
3
 72
29
 73
25
 74
0
 42
0.0000001
 43
0.0000001
 44
0.0000000001
 40
0.0
 40
0.0
 40
0.0
 40
0.0
 40
0.0040524353
 40
0.0074141531
 40
0.0118343237
 40
0.0240154059
 40
0.0407746473
 40
0.0874374854
 40
0.149656582
 40
0.2249493084
 40
0.3107874877
 40
0.4040944326
 40
0.5010976174
 40
0.5979767483
 40
0.6909330486
 40
0.7765784146
 40
0.8518961412
 40
0.9138950755
 40
0.9597482739
 40
0.9761593523
 40
0.9881921347
 40
0.9925885208
 40
0.995945135
 40
1.0
 40
1.0
 40
1.0
 40
1.0
 10
80.0573996049
 20
148.6083553069
 30
0.0
 10
80.0657168672
 20
148.6083098808
 30
0.0
 10
80.0782910179
 20
148.5950469266
 30
0.0
 10
80.0890677985
 20
148.5742369847
 30
0.0
 10
80.1042323748
 20
148.535659693
 30
0.0
 10
80.1213369363
 20
148.4694933791
 30
0.0
 10
80.1509583722
 20
148.316989936
 30
0.0
 10
80.1846076674
 20
148.0612596344
 30
0.0
 10
80.2237877582
 20
147.6852660152
 30
0.0
 10
80.2632085189
 20
147.2285350744
 30
0.0
 10
80.3029519088
 20
146.7078272766
 30
0.0
 10
80.3426932317
 20
146.1424420625
 30
0.0
 10
80.3825501485
 20
145.5543521128
 30
0.0
 10
80.4223935669
 20
144.9669824826
 30
0.0
 10
80.4622281627
 20
144.4029771659
 30
0.0
 10
80.5019964584
 20
143.8833388721
 30
0.0
 10
80.5413172999
 20
143.4273988953
 30
0.0
 10
80.5802447807
 20
143.0534525137
 30
0.0
 10
80.6140825797
 20
142.8005858536
 30
0.0
 10
80.6438934549
 20
142.6508504214
 30
0.0
 10
80.6609782074
 20
142.5857889559
 30
0.0
 10
80.6760970639
 20
142.547583984
 30
0.0
 10
80.6868741797
 20
142.5268494397
 30
0.0
 10
80.6994246988
 20
142.5135408301
 30
0.0
 10
80.7077470249
 20
142.5135128898
 30
0.0
  0
SPLINE
  5
30B
100
AcDbEntity
  8
0
100
AcDbSpline
 62
7
  6
BYLAYER
 70
0
 71
3
 72
18
 73
14
 74
0
 42
0.0000001
 43
0.0000001
 44
0.0000000001
 40
0.0
 40
0.0
 40
0.0
 40
0.0
 40
0.0082466206
 40
0.0149529612
 40
0.023693158
 40
0.0475212024
 40
0.0799252284
 40
0.1702200153
 40
0.2929028007
 40
0.4430039185
 40
0.6147754319
 40
0.8024411897
 40
1.0
 40
1.0
 40
1.0
 40
1.0
 10
78.7564409266
 20
148.609545372
 30
0.0
 10
78.7642930736
 20
148.6095024879
 30
0.0
 10
78.7762667983
 20
148.5974637542
 30
0.0
 10
78.7866608225
 20
148.5782697116
 30
0.0
 10
78.8010738497
 20
148.5433186958
 30
0.0
 10
78.8174155322
 20
148.4837452893
 30
0.0
 10
78.8458544759
 20
148.3469976225
 30
0.0
 10
78.878356529
 20
148.1155241596
 30
0.0
 10
78.9155390395
 20
147.7717964687
 30
0.0
 10
78.9530917176
 20
147.3501497101
 30
0.0
 10
78.9910779351
 20
146.8664641717
 30
0.0
 10
79.029201067
 20
146.3374730573
 30
0.0
 10
79.0542737496
 20
145.9715278973
 30
0.0
 10
79.067042063
 20
145.7838502558
 30
0.0
  0
SPLINE
  5
30C
100
AcDbEntity
  8
0
100
AcDbSpline
 62
7
  6
BYLAYER
 70
0
 71
3
 72
19
 73
15
 74
0
 42
0.0000001
 43
0.0000001
 44
0.0000000001
 40
0.0
 40
0.0
 40
0.0
 40
0.0
 40
0.1896624247
 40
0.3743167818
 40
0.5458772377
 40
0.6970876607
 40
0.8225473471
 40
0.8740263982
 40
0.9171686788
 40
0.9513735766
 40
0.9762208402
 40
0.9851963834
 40
0.9919841991
 40
1.0
 40
1.0
 40
1.0
 40
1.0
 10
79.067042063
 20
145.7838502558
 30
0.0
 10
79.0812083314
 20
145.575624488
 30
0.0
 10
79.1089415924
 20
145.1646558781
 30
0.0
 10
79.1504357831
 20
144.5653995669
 30
0.0
 10
79.1917732183
 20
144.0085487803
 30
0.0
 10
79.2330921482
 20
143.5170338441
 30
0.0
 10
79.2688921131
 20
143.1576854073
 30
0.0
 10
79.2987309529
 20
142.9173176169
 30
0.0
 10
79.3193509962
 20
142.7770883545
 30
0.0
 10
79.3399257083
 20
142.6663701451
 30
0.0
 10
79.357716609
 20
142.593854492
 30
0.0
 10
79.373593502
 20
142.5514753718
 30
0.0
 10
79.3847282255
 20
142.5289332862
 30
0.0
 10
79.3978647886
 20
142.5141783374
 30
0.0
 10
79.4066854256
 20
142.5141461335
 30
0.0
  0
SPLINE
  5
30D
100
AcDbEntity
  8
0
100
AcDbSpline
 62
7
  6
BYLAYER
 70
0
 71
3
 72
29
 73
25
 74
0
 42
0.0000001
 43
0.0000001
 44
0.0000000001
 40
0.0
 40
0.0
 40
0.0
 40
0.0
 40
0.0040464106
 40
0.0074006996
 40
0.0118087457
 40
0.0239445598
 40
0.0406256776
 40
0.0871966116
 40
0.1493979683
 40
0.2246810256
 40
0.310460925
 40
0.4037346066
 40
0.5007518297
 40
0.5976810837
 40
0.6907011169
 40
0.776364158
 40
0.851695477
 40
0.9137626051
 40
0.9597374137
 40
0.9761681998
 40
0.988201183
 40
0.9925941894
 40
0.9959471894
 40
1.0
 40
1.0
 40
1.0
 40
1.0
 10
73.5571825422
 20
148.6085715387
 30
0.0
 10
73.5654876228
 20
148.6085534202
 30
0.0
 10
73.5780770504
 20
148.5953371784
 30
0.0
 10
73.5888533076
 20
148.5745849694
 30
0.0
 10
73.6040161236
 20
148.5361507918
 30
0.0
 10
73.6211227394
 20
148.4702709462
 30
0.0
 10
73.6508207708
 20
148.3182309239
 30
0.0
 10
73.6844320023
 20
148.0628767841
 30
0.0
 10
73.7236078987
 20
147.6871275809
 30
0.0
 10
73.7630162212
 20
147.2305668629
 30
0.0
 10
73.8027918296
 20
146.7100652006
 30
0.0
 10
73.8425411983
 20
146.1448344118
 30
0.0
 10
73.882403191
 20
145.5566756089
 30
0.0
 10
73.9222522604
 20
144.9690376416
 30
0.0
 10
73.9620772829
 20
144.4047554824
 30
0.0
 10
74.0018657482
 20
143.8849183786
 30
0.0
 10
74.0412043966
 20
143.4287698952
 30
0.0
 10
74.0801761106
 20
143.0544068584
 30
0.0
 10
74.1139465649
 20
142.8010934934
 30
0.0
 10
74.1437785513
 20
142.6510653218
 30
0.0
 10
74.1608708378
 20
142.5859671353
 30
0.0
 10
74.175997708
 20
142.5477826288
 30
0.0
 10
74.1867819607
 20
142.5270649137
 30
0.0
 10
74.1993376163
 20
142.5137952636
 30
0.0
 10
74.2076557931
 20
142.5137638056
 30
0.0
  0
SPLINE
  5
30E
100
AcDbEntity
  8
0
100
AcDbSpline
 62
7
  6
BYLAYER
 70
0
 71
3
 72
15
 73
11
 74
0
 42
0.0000001
 43
0.0000001
 44
0.0000000001
 40
0.0
 40
0.0
 40
0.0
 40
0.0
 40
0.0334582127
 40
0.0581108702
 40
0.0895243377
 40
0.1738675416
 40
0.2868249258
 40
0.4273509891
 40
0.5940715188
 40
1.0
 40
1.0
 40
1.0
 40
1.0
 10
89.3254162068
 20
148.6099765874
 30
0.0
 10
89.3363085949
 20
148.6099351222
 30
0.0
 10
89.3538806662
 20
148.5974239155
 30
0.0
 10
89.3703352142
 20
148.5739158502
 30
0.0
 10
89.3917461783
 20
148.5331613033
 30
0.0
 10
89.4164602969
 20
148.4628117647
 30
0.0
 10
89.4450921708
 20
148.3565565087
 30
0.0
 10
89.4740196776
 20
148.2228139143
 30
0.0
 10
89.5160093081
 20
147.9944430829
 30
0.0
 10
89.543429945
 20
147.8099898002
 30
0.0
 10
89.5616075989
 20
147.6790941637
 30
0.0
  0
SPLINE
  5
30F
100
AcDbEntity
  8
0
100
AcDbSpline
 62
7
  6
BYLAYER
 70
0
 71
3
 72
9
 73
5
 74
0
 42
0.0000001
 43
0.0000001
 44
0.0000000001
 40
0.0
 40
0.0
 40
0.0
 40
0.0
 40
0.46093492
 40
1.0
 40
1.0
 40
1.0
 40
1.0
 10
89.5616075989
 20
147.6790941637
 30
0.0
 10
89.6066493135
 20
147.3547528628
 30
0.0
 10
89.6874802624
 20
146.6488244929
 30
0.0
 10
89.7605302834
 20
145.9422133423
 30
0.0
 10
89.8002913563
 20
145.5613245533
 30
0.0
  0
SPLINE
  5
310
100
AcDbEntity
  8
0
100
AcDbSpline
 62
7
  6
BYLAYER
 70
0
 71
3
 72
29
 73
25
 74
0
 42
0.0000001
 43
0.0000001
 44
0.0000000001
 40
0.0
 40
0.0
 40
0.0
 40
0.0
 40
0.0040901754
 40
0.0075442792
 40
0.0121150575
 40
0.0246688082
 40
0.0416839106
 40
0.088303577
 40
0.1502064819
 40
0.2254861371
 40
0.311523222
 40
0.40472633
 40
0.501426279
 40
0.597957748
 40
0.6907918793
 40
0.7765371322
 40
0.8518133176
 40
0.9133458771
 40
0.9590880314
 40
0.9756864248
 40
0.9879541403
 40
0.9924568641
 40
0.9958962776
 40
1.0
 40
1.0
 40
1.0
 40
1.0
 10
74.8579762423
 20
148.6101011582
 30
0.0
 10
74.8663747252
 20
148.610054848
 30
0.0
 10
74.8789585825
 20
148.5961874427
 30
0.0
 10
74.8896220955
 20
148.5747565451
 30
0.0
 10
74.9047109252
 20
148.5347302183
 30
0.0
 10
74.9216643103
 20
148.4668901585
 30
0.0
 10
74.9511557212
 20
148.3130547189
 30
0.0
 10
74.9849949767
 20
148.0574714212
 30
0.0
 10
75.0242502971
 20
147.6820712156
 30
0.0
 10
75.0635609493
 20
147.2253961512
 30
0.0
 10
75.1031164299
 20
146.7042693414
 30
0.0
 10
75.1428562922
 20
146.1390583875
 30
0.0
 10
75.182680211
 20
145.5522544056
 30
0.0
 10
75.2225341655
 20
144.9662118476
 30
0.0
 10
75.2623198352
 20
144.4027109443
 30
0.0
 10
75.3019651218
 20
143.8829593159
 30
0.0
 10
75.3410854124
 20
143.4276406726
 30
0.0
 10
75.3801673116
 20
143.0548024245
 30
0.0
 10
75.414172311
 20
142.8026817831
 30
0.0
 10
75.4437685965
 20
142.6521650925
 30
0.0
 10
75.4607922208
 20
142.585979791
 30
0.0
 10
75.4758595087
 20
142.546751793
 30
0.0
 10
75.4865474933
 20
142.5255270078
 30
0.0
 10
75.4990321812
 20
142.5115087931
 30
0.0
 10
75.5074585466
 20
142.5114764413
 30
0.0
  0
SPLINE
  5
311
100
AcDbEntity
  8
0
100
AcDbSpline
 62
7
  6
BYLAYER
 70
0
 71
3
 72
29
 73
25
 74
0
 42
0.0000001
 43
0.0000001
 44
0.0000000001
 40
0.0
 40
0.0
 40
0.0
 40
0.0
 40
0.0040563036
 40
0.007431001
 40
0.0118752572
 40
0.0241484199
 40
0.0410293608
 40
0.0877791139
 40
0.1499674819
 40
0.2252432726
 40
0.3111651784
 40
0.4045013143
 40
0.5014669563
 40
0.5982637202
 40
0.6911459252
 40
0.7767961406
 40
0.8521087693
 40
0.9139924934
 40
0.9596910903
 40
0.9760999368
 40
0.9881563948
 40
0.9925674268
 40
0.9959367449
 40
1.0
 40
1.0
 40
1.0
 40
1.0
 10
72.2576230564
 20
148.6085819473
 30
0.0
 10
72.2659490528
 20
148.6085402234
 30
0.0
 10
72.2785310738
 20
148.5952009592
 30
0.0
 10
72.289290286
 20
148.5742973375
 30
0.0
 10
72.3044674048
 20
148.5354286322
 30
0.0
 10
72.3215371286
 20
148.4687472236
 30
0.0
 10
72.3510574492
 20
148.3155812748
 30
0.0
 10
72.384786823
 20
148.0594764693
 30
0.0
 10
72.4239791832
 20
147.683364068
 30
0.0
 10
72.463420457
 20
147.2265189286
 30
0.0
 10
72.5031050636
 20
146.7055597603
 30
0.0
 10
72.5428455408
 20
146.1399667646
 30
0.0
 10
72.5826970842
 20
145.5520080371
 30
0.0
 10
72.6225413613
 20
144.9649826169
 30
0.0
 10
72.6623892071
 20
144.4012376417
 30
0.0
 10
72.7021262553
 20
143.8817009491
 30
0.0
 10
72.7414141025
 20
143.4259546237
 30
0.0
 10
72.7803023316
 20
143.052531957
 30
0.0
 10
72.8142527336
 20
142.8002246374
 30
0.0
 10
72.8440163522
 20
142.6507417146
 30
0.0
 10
72.861090152
 20
142.5856016937
 30
0.0
 10
72.8761963966
 20
142.5472677858
 30
0.0
 10
72.886960349
 20
142.5264600011
 30
0.0
 10
72.8994965568
 20
142.5130337662
 30
0.0
 10
72.9078368683
 20
142.5130026048
 30
0.0
  0
SPLINE
  5
312
100
AcDbEntity
  8
0
100
AcDbSpline
 62
7
  6
BYLAYER
 70
0
 71
3
 72
9
 73
5
 74
0
 42
0.0000001
 43
0.0000001
 44
0.0000000001
 40
0.0
 40
0.0
 40
0.0
 40
0.0
 40
0.245462994
 40
1.0
 40
1.0
 40
1.0
 40
1.0
 10
88.8238759369
 20
145.039621126
 30
0.0
 10
88.8303765637
 20
145.085524742
 30
0.0
 10
88.8566364005
 20
145.2725646725
 30
0.0
 10
88.8823657496
 20
145.4596783775
 30
0.0
 10
88.9020067174
 20
145.6008310007
 30
0.0
  0
SPLINE
  5
313
100
AcDbEntity
  8
0
100
AcDbSpline
 62
7
  6
BYLAYER
 70
0
 71
3
 72
9
 73
5
 74
0
 42
0.0000001
 43
0.0000001
 44
0.0000000001
 40
0.0
 40
0.0
 40
0.0
 40
0.0
 40
0.2660360047
 40
1.0
 40
1.0
 40
1.0
 40
1.0
 10
88.9306465892
 20
145.8050824468
 30
0.0
 10
88.9411052105
 20
145.8789454058
 30
0.0
 10
88.9809605681
 20
146.1565027796
 30
0.0
 10
89.0236136679
 20
146.433720351
 30
0.0
 10
89.0598435171
 20
146.636318849
 30
0.0
  0
SPLINE
  5
314
100
AcDbEntity
  8
0
100
AcDbSpline
 62
7
  6
BYLAYER
 70
0
 71
3
 72
29
 73
25
 74
0
 42
0.0000001
 43
0.0000001
 44
0.0000000001
 40
0.0
 40
0.0
 40
0.0
 40
0.0
 40
0.004102283
 40
0.0075360167
 40
0.0120304167
 40
0.0242765267
 40
0.0408516512
 40
0.0865653322
 40
0.1481206818
 40
0.2234058048
 40
0.3091432213
 40
0.4019738259
 40
0.498523625
 40
0.5952519938
 40
0.6884776665
 40
0.7745170321
 40
0.8497870117
 40
0.911716284
 40
0.9583628176
 40
0.9753785504
 40
0.9879178441
 40
0.9924748439
 40
0.9959173483
 40
1.0
 40
1.0
 40
1.0
 40
1.0
 10
76.1567082554
 20
148.6110859672
 30
0.0
 10
76.1651314017
 20
148.6110406487
 30
0.0
 10
76.1776122384
 20
148.5970687468
 30
0.0
 10
76.1883117591
 20
148.5758750477
 30
0.0
 10
76.2033804855
 20
148.5367318797
 30
0.0
 10
76.2204105671
 20
148.4706589007
 30
0.0
 10
76.2500199922
 20
148.3203038132
 30
0.0
 10
76.2840355614
 20
148.0682482659
 30
0.0
 10
76.3230928419
 20
147.6954106503
 30
0.0
 10
76.3622248681
 20
147.2400547517
 30
0.0
 10
76.4018789209
 20
146.7203214529
 30
0.0
 10
76.4416738877
 20
146.1568205256
 30
0.0
 10
76.481529684
 20
145.570703357
 30
0.0
 10
76.5213556767
 20
144.9837711142
 30
0.0
 10
76.5610975638
 20
144.4184643547
 30
0.0
 10
76.6006567184
 20
143.8973193099
 30
0.0
 10
76.6399896987
 20
143.4406178012
 30
0.0
 10
76.6792445121
 20
143.0651381484
 30
0.0
 10
76.7130714627
 20
142.8094456162
 30
0.0
 10
76.7425693513
 20
142.6555905442
 30
0.0
 10
76.7595137225
 20
142.5878036328
 30
0.0
 10
76.774620648
 20
142.5478757215
 30
0.0
 10
76.785294992
 20
142.5265167035
 30
0.0
 10
76.7978898967
 20
142.5127319149
 30
0.0
 10
76.8062727988
 20
142.512700974
 30
0.0
  0
SPLINE
  5
315
100
AcDbEntity
  8
0
100
AcDbSpline
 62
7
  6
BYLAYER
 70
0
 71
3
 72
21
 73
17
 74
0
 42
0.0000001
 43
0.0000001
 44
0.0000000001
 40
0.0
 40
0.0
 40
0.0
 40
0.0
 40
0.003277302
 40
0.0086066377
 40
0.0165719488
 40
0.0272540622
 40
0.0566195239
 40
0.0961941068
 40
0.1453156237
 40
0.2032848515
 40
0.2693642098
 40
0.3424103338
 40
0.5034830285
 40
0.67459604
 40
0.8439083193
 40
1.0
 40
1.0
 40
1.0
 40
1.0
 10
87.8578781612
 20
148.6106742176
 30
0.0
 10
87.8630479857
 20
148.6106469611
 30
0.0
 10
87.875588824
 20
148.6021038771
 30
0.0
 10
87.88785389
 20
148.5790833355
 30
0.0
 10
87.9014113055
 20
148.5436143378
 30
0.0
 10
87.9212293523
 20
148.4704804267
 30
0.0
 10
87.9447044204
 20
148.3469495815
 30
0.0
 10
87.9713830997
 20
148.1626301401
 30
0.0
 10
87.9983710801
 20
147.9328176283
 30
0.0
 10
88.0255746202
 20
147.6609976612
 30
0.0
 10
88.052808103
 20
147.351272045
 30
0.0
 10
88.0904076278
 20
146.8792059497
 30
0.0
 10
88.1359897322
 20
146.2415787416
 30
0.0
 10
88.1894108035
 20
145.4522795543
 30
0.0
 10
88.2428525408
 20
144.670857496
 30
0.0
 10
88.2805582147
 20
144.158915029
 30
0.0
 10
88.3003047657
 20
143.91347573
 30
0.0
  0
SPLINE
  5
316
100
AcDbEntity
  8
0
100
AcDbSpline
 62
7
  6
BYLAYER
 70
0
 71
3
 72
30
 73
26
 74
0
 42
0.0000001
 43
0.0000001
 44
0.0000000001
 40
0.0
 40
0.0
 40
0.0
 40
0.0
 40
0.0041098528
 40
0.0075584668
 40
0.0120733304
 40
0.0243708815
 40
0.0410014801
 40
0.0618556931
 40
0.08679626
 40
0.1483266911
 40
0.2236077499
 40
0.3093720537
 40
0.4022189972
 40
0.4987389662
 40
0.5954113696
 40
0.6885867205
 40
0.7746102353
 40
0.84988664
 40
0.9117472126
 40
0.9583179249
 40
0.9753189302
 40
0.9878721253
 40
0.9924489585
 40
0.9959094021
 40
1.0
 40
1.0
 40
1.0
 40
1.0
 10
69.6568680497
 20
148.6112382879
 30
0.0
 10
69.6653072083
 20
148.6111994152
 30
0.0
 10
69.6777823205
 20
148.5971066749
 30
0.0
 10
69.6884638493
 20
148.5758255485
 30
0.0
 10
69.7035282271
 20
148.5364776533
 30
0.0
 10
69.7205363944
 20
148.4701359898
 30
0.0
 10
69.7403167462
 20
148.3696943246
 30
0.0
 10
69.7601039847
 20
148.2430660721
 30
0.0
 10
69.7888261591
 20
148.0245293833
 30
0.0
 10
69.8231272566
 20
147.6941249348
 30
0.0
 10
69.8623789837
 20
147.2387632249
 30
0.0
 10
69.9019710526
 20
146.7189159822
 30
0.0
 10
69.9417627536
 20
146.1553585201
 30
0.0
 10
69.9816113018
 20
145.5693532011
 30
0.0
 10
70.0214356084
 20
144.9826705251
 30
0.0
 10
70.061173915
 20
144.417585572
 30
0.0
 10
70.1007282215
 20
143.8965360265
 30
0.0
 10
70.140016326
 20
143.4399684297
 30
0.0
 10
70.1792728404
 20
143.0647521897
 30
0.0
 10
70.2131209567
 20
142.8093823525
 30
0.0
 10
70.2426123009
 20
142.6556737647
 30
0.0
 10
70.2595689043
 20
142.5878539767
 30
0.0
 10
70.274651263
 20
142.5477949514
 30
0.0
 10
70.2852934032
 20
142.5263334352
 30
0.0
 10
70.2978888547
 20
142.5124268316
 30
0.0
 10
70.3062885098
 20
142.5123965891
 30
0.0
  0
SPLINE
  5
317
100
AcDbEntity
  8
0
100
AcDbSpline
 62
7
  6
BYLAYER
 70
0
 71
3
 72
29
 73
25
 74
0
 42
0.0000001
 43
0.0000001
 44
0.0000000001
 40
0.0
 40
0.0
 40
0.0
 40
0.0
 40
0.0040531646
 40
0.0074206769
 40
0.0118524991
 40
0.0240805204
 40
0.0409090532
 40
0.0876249748
 40
0.1498282595
 40
0.2251092191
 40
0.3109931545
 40
0.4043198218
 40
0.5013053063
 40
0.5981404933
 40
0.6910535919
 40
0.7767016873
 40
0.8520194194
 40
0.9139586041
 40
0.9597198779
 40
0.976127214
 40
0.9881719078
 40
0.9925762344
 40
0.9959399566
 40
1.0
 40
1.0
 40
1.0
 40
1.0
 10
86.5575205251
 20
148.6084627379
 30
0.0
 10
86.5658397306
 20
148.6084243727
 30
0.0
 10
86.5784219499
 20
148.5951305957
 30
0.0
 10
86.5891885462
 20
148.5742782616
 30
0.0
 10
86.604360875
 20
148.5355560111
 30
0.0
 10
86.6214510198
 20
148.4691134965
 30
0.0
 10
86.6510084886
 20
148.3162360217
 30
0.0
 10
86.6847051744
 20
148.0602830385
 30
0.0
 10
86.723891657
 20
147.6842164518
 30
0.0
 10
86.7633264862
 20
147.2274272843
 30
0.0
 10
86.8030380059
 20
146.7065802845
 30
0.0
 10
86.8427781396
 20
146.1410687769
 30
0.0
 10
86.8826327036
 20
145.5530357038
 30
0.0
 10
86.9224761824
 20
144.9658525997
 30
0.0
 10
86.9623204084
 20
144.4019937812
 30
0.0
 10
87.0020715613
 20
143.8824114333
 30
0.0
 10
87.0413760132
 20
143.4265656279
 30
0.0
 10
87.0802755831
 20
143.052908235
 30
0.0
 10
87.1141807991
 20
142.8003622278
 30
0.0
 10
87.1439665562
 20
142.6507882192
 30
0.0
 10
87.1610458418
 20
142.585691648
 30
0.0
 10
87.1761572296
 20
142.5474183402
 30
0.0
 10
87.1869284123
 20
142.5266424004
 30
0.0
 10
87.1994689336
 20
142.513267491
 30
0.0
 10
87.2078022813
 20
142.5132345192
 30
0.0
  0
SPLINE
  5
318
100
AcDbEntity
  8
0
100
AcDbSpline
 62
7
  6
BYLAYER
 70
0
 71
3
 72
29
 73
25
 74
0
 42
0.0000001
 43
0.0000001
 44
0.0000000001
 40
0.0
 40
0.0
 40
0.0
 40
0.0
 40
0.0040593512
 40
0.0074200834
 40
0.0118208497
 40
0.023861105
 40
0.0402748896
 40
0.0861095868
 40
0.1480998451
 40
0.2234232638
 40
0.3090726073
 40
0.4020180765
 40
0.4988853668
 40
0.5958825846
 40
0.6891924211
 40
0.7750381581
 40
0.8503214425
 40
0.9125302118
 40
0.9592021635
 40
0.9759772028
 40
0.9881668125
 40
0.9925881708
 40
0.995949655
 40
1.0
 40
1.0
 40
1.0
 40
1.0
 10
85.2564860269
 20
148.6092100604
 30
0.0
 10
85.2648175937
 20
148.609166834
 30
0.0
 10
85.2773557025
 20
148.5958214426
 30
0.0
 10
85.288134445
 20
148.5750598279
 30
0.0
 10
85.303248995
 20
148.5368165872
 30
0.0
 10
85.3203334587
 20
148.4717246465
 30
0.0
 10
85.3501361373
 20
148.3220027582
 30
0.0
 10
85.3839939542
 20
148.0691873123
 30
0.0
 10
85.4229119547
 20
147.6952790608
 30
0.0
 10
85.462228598
 20
147.2393315423
 30
0.0
 10
85.5019918519
 20
146.7196890154
 30
0.0
 10
85.5418291927
 20
146.1557157146
 30
0.0
 10
85.5816720519
 20
145.5683979966
 30
0.0
 10
85.6215279994
 20
144.9803316964
 30
0.0
 10
85.6612682126
 20
144.4149305259
 30
0.0
 10
85.701002672
 20
143.8942137106
 30
0.0
 10
85.7404271044
 20
143.4375029986
 30
0.0
 10
85.7796086728
 20
143.061526478
 30
0.0
 10
85.8132699555
 20
142.8057656278
 30
0.0
 10
85.8428729993
 20
142.6531869619
 30
0.0
 10
85.8599736247
 20
142.5869649556
 30
0.0
 10
85.875141562
 20
142.5483665404
 30
0.0
 10
85.8859134781
 20
142.5275578578
 30
0.0
 10
85.8984962041
 20
142.5143015665
 30
0.0
 10
85.9068093282
 20
142.5142674872
 30
0.0
  0
SPLINE
  5
319
100
AcDbEntity
  8
0
100
AcDbSpline
 62
7
  6
BYLAYER
 70
0
 71
3
 72
18
 73
14
 74
0
 42
0.0000001
 43
0.0000001
 44
0.0000000001
 40
0.0
 40
0.0
 40
0.0
 40
0.0
 40
0.0082105612
 40
0.0148752136
 40
0.0235684386
 40
0.0473201565
 40
0.0797258847
 40
0.1704624913
 40
0.2934091249
 40
0.443365201
 40
0.6148858719
 40
0.802485728
 40
1.0
 40
1.0
 40
1.0
 40
1.0
 10
77.4566351513
 20
148.6087719394
 30
0.0
 10
77.4644737729
 20
148.6087352763
 30
0.0
 10
77.4764760864
 20
148.5968193712
 30
0.0
 10
77.4868947933
 20
148.5776863142
 30
0.0
 10
77.5013388776
 20
148.5428179059
 30
0.0
 10
77.5177096668
 20
148.483194027
 30
0.0
 10
77.5462389135
 20
148.3457302594
 30
0.0
 10
77.5785975822
 20
148.1129220909
 30
0.0
 10
77.6158708393
 20
147.7677478879
 30
0.0
 10
77.6535042073
 20
147.3451035235
 30
0.0
 10
77.6915696343
 20
146.8605735566
 30
0.0
 10
77.7297117764
 20
146.3305160914
 30
0.0
 10
77.7548065964
 20
145.9637010582
 30
0.0
 10
77.7675953153
 20
145.7755663126
 30
0.0
  0
SPLINE
  5
31A
100
AcDbEntity
  8
0
100
AcDbSpline
 62
7
  6
BYLAYER
 70
0
 71
3
 72
19
 73
15
 74
0
 42
0.0000001
 43
0.0000001
 44
0.0000000001
 40
0.0
 40
0.0
 40
0.0
 40
0.0
 40
0.1900971408
 40
0.3749321725
 40
0.546427398
 40
0.6978065433
 40
0.8234516282
 40
0.8748966887
 40
0.9178505636
 40
0.9517017022
 40
0.9763075603
 40
0.9852250321
 40
0.9919848105
 40
1.0
 40
1.0
 40
1.0
 40
1.0
 10
77.7675953153
 20
145.7755663126
 30
0.0
 10
77.7817465716
 20
145.5673872904
 30
0.0
 10
77.809449262
 20
145.1567777539
 30
0.0
 10
77.8509107583
 20
144.5584278743
 30
0.0
 10
77.8923019371
 20
144.0026761192
 30
0.0
 10
77.9335804111
 20
143.512085207
 30
0.0
 10
77.9693091714
 20
143.153287899
 30
0.0
 10
77.9991386323
 20
142.9135740473
 30
0.0
 10
78.0197070151
 20
142.7743340258
 30
0.0
 10
78.0403438742
 20
142.6647910542
 30
0.0
 10
78.0581608432
 20
142.5932071295
 30
0.0
 10
78.0740054547
 20
142.5513322163
 30
0.0
 10
78.0851545071
 20
142.5289577376
 30
0.0
 10
78.0982740836
 20
142.5143339445
 30
0.0
 10
78.1070718778
 20
142.5143043385
 30
0.0
  0
SPLINE
  5
31B
100
AcDbEntity
  8
0
100
AcDbSpline
 62
7
  6
BYLAYER
 70
0
 71
3
 72
9
 73
5
 74
0
 42
0.0000001
 43
0.0000001
 44
0.0000000001
 40
0.0
 40
0.0
 40
0.0
 40
0.0
 40
0.1878817239
 40
1.0
 40
1.0
 40
1.0
 40
1.0
 10
89.2910828096
 20
145.5637580925
 30
0.0
 10
89.3221122472
 20
145.5635354259
 30
0.0
 10
89.4872666639
 20
145.5624549177
 30
0.0
 10
89.6524237339
 20
145.5611153445
 30
0.0
 10
89.7865516875
 20
145.5613256548
 30
0.0
  0
LINE
  5
31C
100
AcDbEntity
  8
0
100
AcDbLine
 62
7
  6
BYLAYER
 10
78.4035600414
 20
145.3064538639
 11
78.4503048256
 21
145.7235807848
  0
SPLINE
  5
31D
100
AcDbEntity
  8
0
100
AcDbSpline
 62
7
  6
BYLAYER
 70
0
 71
3
 72
13
 73
9
 74
0
 42
0.0000001
 43
0.0000001
 44
0.0000000001
 40
0.0
 40
0.0
 40
0.0
 40
0.0
 40
0.0869448175
 40
0.1802602279
 40
0.2854231056
 40
0.404872669
 40
0.6852375582
 40
1.0
 40
1.0
 40
1.0
 40
1.0
 10
88.8994298088
 20
144.2538857972
 30
0.0
 10
88.9016492633
 20
144.232073382
 30
0.0
 10
88.896885577
 20
144.1855017814
 30
0.0
 10
88.8637665343
 20
144.1202656293
 30
0.0
 10
88.8086789534
 20
144.0609172606
 30
0.0
 10
88.7030667239
 20
143.9883051683
 30
0.0
 10
88.5299286999
 20
143.9290951708
 30
0.0
 10
88.3796699103
 20
143.9125163838
 30
0.0
 10
88.3002956621
 20
143.9125165224
 30
0.0
  0
SPLINE
  5
31E
100
AcDbEntity
  8
0
100
AcDbSpline
 62
7
  6
BYLAYER
 70
0
 71
3
 72
19
 73
15
 74
0
 42
0.0000001
 43
0.0000001
 44
0.0000000001
 40
0.0
 40
0.0
 40
0.0
 40
0.0
 40
0.1947848966
 40
0.3826217746
 40
0.5554823655
 40
0.7069436158
 40
0.8313526914
 40
0.8818446143
 40
0.9238147454
 40
0.9569185331
 40
0.980823615
 40
0.9892230355
 40
0.9952159844
 40
1.0
 40
1.0
 40
1.0
 40
1.0
 10
92.8002951282
 20
143.1113238512
 30
0.0
 10
92.8003908211
 20
143.0723704963
 30
0.0
 10
92.8005455586
 20
142.9958534416
 30
0.0
 10
92.8005567083
 20
142.8847656703
 30
0.0
 10
92.8003034203
 20
142.7823472013
 30
0.0
 10
92.8001755856
 20
142.692597682
 30
0.0
 10
92.8002857205
 20
142.6273590953
 30
0.0
 10
92.8003130009
 20
142.5839443085
 30
0.0
 10
92.8003622155
 20
142.5589298529
 30
0.0
 10
92.80022475
 20
142.5388820807
 30
0.0
 10
92.8004677983
 20
142.5263347789
 30
0.0
 10
92.8001057179
 20
142.5179551012
 30
0.0
 10
92.8007188462
 20
142.5153842737
 30
0.0
 10
92.7995275928
 20
142.5107907844
 30
0.0
 10
92.8002826166
 20
142.5113783612
 30
0.0
  0
SPLINE
  5
31F
100
AcDbEntity
  8
0
100
AcDbSpline
 62
7
  6
BYLAYER
 70
0
 71
3
 72
11
 73
7
 74
0
 42
0.0000001
 43
0.0000001
 44
0.0000000001
 40
0.0
 40
0.0
 40
0.0
 40
0.0
 40
0.3098728346
 40
0.5900618141
 40
0.818573606
 40
1.0
 40
1.0
 40
1.0
 40
1.0
 10
88.300295662
 20
143.9125137353
 30
0.0
 10
88.2258095261
 20
143.9125138784
 30
0.0
 10
88.0836021377
 20
143.9272218343
 30
0.0
 10
87.894495898
 20
143.9879716066
 30
0.0
 10
87.7550125561
 20
144.0835858262
 30
0.0
 10
87.7054218301
 20
144.176902751
 30
0.0
 10
87.7011207036
 20
144.2203007669
 30
0.0
  0
SPLINE
  5
320
100
AcDbEntity
  8
0
100
AcDbSpline
 62
7
  6
BYLAYER
 70
0
 71
3
 72
29
 73
25
 74
0
 42
0.0000001
 43
0.0000001
 44
0.0000000001
 40
0.0
 40
0.0
 40
0.0
 40
0.0
 40
0.0040573776
 40
0.0074145615
 40
0.0118115809
 40
0.0238486612
 40
0.040273071
 40
0.0861938077
 40
0.1482328854
 40
0.2235595821
 40
0.3092124243
 40
0.4021972049
 40
0.4990977553
 40
0.5961044389
 40
0.6893924256
 40
0.7752000012
 40
0.8504886279
 40
0.912699866
 40
0.9593150386
 40
0.9760309152
 40
0.9881838668
 40
0.9925956528
 40
0.9959518622
 40
1.0
 40
1.0
 40
1.0
 40
1.0
 10
70.956552886
 20
148.6090043724
 30
0.0
 10
70.9648801018
 20
148.608957572
 30
0.0
 10
70.9774207453
 20
148.5956478222
 30
0.0
 10
70.9882050476
 20
148.5749046343
 30
0.0
 10
71.0033244038
 20
148.5366904376
 30
0.0
 10
71.0204136081
 20
148.4715916253
 30
0.0
 10
71.0502324634
 20
148.3216832617
 30
0.0
 10
71.0840352181
 20
148.0685664828
 30
0.0
 10
71.1229814007
 20
147.6943906106
 30
0.0
 10
71.162309457
 20
147.2383444395
 30
0.0
 10
71.2020856893
 20
146.7186258424
 30
0.0
 10
71.2419134384
 20
146.1545143865
 30
0.0
 10
71.281757131
 20
145.5670478947
 30
0.0
 10
71.3216143827
 20
144.9789586912
 30
0.0
 10
71.3613569853
 20
144.41368072
 30
0.0
 10
71.4011146223
 20
143.8930961678
 30
0.0
 10
71.4405259208
 20
143.4364617042
 30
0.0
 10
71.479701489
 20
143.0606003417
 30
0.0
 10
71.5133261058
 20
142.8050742835
 30
0.0
 10
71.5429854462
 20
142.6528310341
 30
0.0
 10
71.560091372
 20
142.5868348124
 30
0.0
 10
71.5752546602
 20
142.5483521467
 30
0.0
 10
71.5860316724
 20
142.527582527
 30
0.0
 10
71.5986139421
 20
142.5143572954
 30
0.0
 10
71.6069222687
 20
142.5143265206
 30
0.0
  0
SPLINE
  5
321
100
AcDbEntity
  8
0
100
AcDbSpline
 62
7
  6
BYLAYER
 70
0
 71
3
 72
9
 73
5
 74
0
 42
0.0000001
 43
0.0000001
 44
0.0000000001
 40
0.0
 40
0.0
 40
0.0
 40
0.0
 40
0.4859383658
 40
1.0
 40
1.0
 40
1.0
 40
1.0
 10
90.8873082973
 20
142.8199519699
 30
0.0
 10
90.7469352364
 20
142.8839778684
 30
0.0
 10
90.4702646397
 20
143.0449735902
 30
0.0
 10
90.2349882842
 20
143.262155804
 30
0.0
 10
90.1261571006
 20
143.3837891744
 30
0.0
  0
SPLINE
  5
322
100
AcDbEntity
  8
0
100
AcDbSpline
 62
7
  6
BYLAYER
 70
0
 71
3
 72
10
 73
6
 74
0
 42
0.0000001
 43
0.0000001
 44
0.0000000001
 40
0.0
 40
0.0
 40
0.0
 40
0.0
 40
0.2231972913
 40
0.4711025491
 40
1.0
 40
1.0
 40
1.0
 40
1.0
 10
90.1261571006
 20
143.3837891744
 30
0.0
 10
90.008402657
 20
143.5153954785
 30
0.0
 10
89.7873571338
 20
143.8187124825
 30
0.0
 10
89.4300584024
 20
144.5257342379
 30
0.0
 10
89.290462137
 20
145.1452613976
 30
0.0
 10
89.290781192
 20
145.5637316115
 30
0.0
  0
SPLINE
  5
323
100
AcDbEntity
  8
0
100
AcDbSpline
 62
7
  6
BYLAYER
 70
0
 71
3
 72
18
 73
14
 74
0
 42
0.0000001
 43
0.0000001
 44
0.0000000001
 40
0.0
 40
0.0
 40
0.0
 40
0.0
 40
0.1941210856
 40
0.3808060014
 40
0.5534429023
 40
0.7050741035
 40
0.8291138036
 40
0.8796561258
 40
0.9220048357
 40
0.9556342586
 40
0.9800068343
 40
0.9947013257
 40
1.0
 40
1.0
 40
1.0
 40
1.0
 10
89.8002734486
 20
145.5613226839
 30
0.0
 10
89.8381272809
 20
145.5522884068
 30
0.0
 10
89.9148979619
 20
145.5432587932
 30
0.0
 10
90.0254221912
 20
145.5551296682
 30
0.0
 10
90.1275312144
 20
145.5637876156
 30
0.0
 10
90.2174560952
 20
145.5634501237
 30
0.0
 10
90.2828882414
 20
145.5628387428
 30
0.0
 10
90.3262899868
 20
145.5616394209
 30
0.0
 10
90.3517948626
 20
145.5605507654
 30
0.0
 10
90.3714633348
 20
145.5597624148
 30
0.0
 10
90.3870251914
 20
145.5591410121
 30
0.0
 10
90.3941577401
 20
145.5598712629
 30
0.0
 10
90.4000205646
 20
145.5603491419
 30
0.0
 10
90.4000063525
 20
145.5614113136
 30
0.0
  0
SPLINE
  5
324
100
AcDbEntity
  8
0
100
AcDbSpline
 62
7
  6
BYLAYER
 70
0
 71
3
 72
9
 73
5
 74
0
 42
0.0000001
 43
0.0000001
 44
0.0000000001
 40
0.0
 40
0.0
 40
0.0
 40
0.0
 40
0.2494861055
 40
1.0
 40
1.0
 40
1.0
 40
1.0
 10
68.6002864928
 20
146.7354555119
 30
0.0
 10
68.6168587411
 20
146.5096554746
 30
0.0
 10
68.6802800544
 20
145.6043806477
 30
0.0
 10
68.7385373619
 20
144.6987163346
 30
0.0
 10
68.7918716785
 20
144.019720256
 30
0.0
  0
SPLINE
  5
325
100
AcDbEntity
  8
0
100
AcDbSpline
 62
7
  6
BYLAYER
 70
0
 71
3
 72
9
 73
5
 74
0
 42
0.0000001
 43
0.0000001
 44
0.0000000001
 40
0.0
 40
0.0
 40
0.0
 40
0.0
 40
0.2752751652
 40
1.0
 40
1.0
 40
1.0
 40
1.0
 10
68.7918716785
 20
144.019720256
 30
0.0
 10
68.7975067161
 20
143.9479809203
 30
0.0
 10
68.818486272
 20
143.6874150301
 30
0.0
 10
68.8414905152
 20
143.4269872804
 30
0.0
 10
68.8612267289
 20
143.2385661275
 30
0.0
  0
SPLINE
  5
326
100
AcDbEntity
  8
0
100
AcDbSpline
 62
7
  6
BYLAYER
 70
0
 71
3
 72
13
 73
9
 74
0
 42
0.0000001
 43
0.0000001
 44
0.0000000001
 40
0.0
 40
0.0
 40
0.0
 40
0.0
 40
0.4158035945
 40
0.7232935638
 40
0.8346236868
 40
0.9170028447
 40
0.9707328485
 40
1.0
 40
1.0
 40
1.0
 40
1.0
 10
68.8612267289
 20
143.2385661275
 30
0.0
 10
68.8720698122
 20
143.1350474748
 30
0.0
 10
68.8925818883
 20
142.9552299936
 30
0.0
 10
68.9238202072
 20
142.7482959608
 30
0.0
 10
68.9498030603
 20
142.6258183026
 30
0.0
 10
68.9680807739
 20
142.5659087351
 30
0.0
 10
68.9829950844
 20
142.5285848306
 30
0.0
 10
69.0002789816
 20
142.5116789859
 30
0.0
 10
69.0076051588
 20
142.5116523297
 30
0.0
  0
SPLINE
  5
327
100
AcDbEntity
  8
0
100
AcDbSpline
 62
7
  6
BYLAYER
 70
0
 71
3
 72
15
 73
11
 74
0
 42
0.0000001
 43
0.0000001
 44
0.0000000001
 40
0.0
 40
0.0
 40
0.0
 40
0.0
 40
0.4088300039
 40
0.5790116103
 40
0.7228645649
 40
0.8378312059
 40
0.9216744285
 40
0.9518215624
 40
0.9744201458
 40
1.0
 40
1.0
 40
1.0
 40
1.0
 10
88.3002966282
 20
143.9125151939
 30
0.0
 10
88.3159673434
 20
143.7185202663
 30
0.0
 10
88.3397810242
 20
143.4438955183
 30
0.0
 10
88.3769230305
 20
143.1017259009
 30
0.0
 10
88.4029930972
 20
142.899235533
 30
0.0
 10
88.4293130899
 20
142.7379541998
 30
0.0
 10
88.452136322
 20
142.6318352873
 30
0.0
 10
88.4729118184
 20
142.5691751546
 30
0.0
 10
88.4872079361
 20
142.536721211
 30
0.0
 10
88.5044502551
 20
142.5140823321
 30
0.0
 10
88.5166276311
 20
142.5140281431
 30
0.0
  0
SPLINE
  5
328
100
AcDbEntity
  8
0
100
AcDbSpline
 62
7
  6
BYLAYER
 70
0
 71
3
 72
9
 73
5
 74
0
 42
0.0000001
 43
0.0000001
 44
0.0000000001
 40
0.0
 40
0.0
 40
0.0
 40
0.0
 40
0.4994382692
 40
1.0
 40
1.0
 40
1.0
 40
1.0
 10
72.9858880312
 20
148.2387468278
 30
0.0
 10
72.9401969749
 20
148.1451583657
 30
0.0
 10
72.8970168634
 20
147.9289832546
 30
0.0
 10
72.9756611832
 20
147.7232100531
 30
0.0
 10
73.0361689853
 20
147.6381563594
 30
0.0
  0
SPLINE
  5
329
100
AcDbEntity
  8
0
100
AcDbSpline
 62
7
  6
BYLAYER
 70
0
 71
3
 72
29
 73
25
 74
0
 42
0.0000001
 43
0.0000001
 44
0.0000000001
 40
0.0
 40
0.0
 40
0.0
 40
0.0
 40
0.0040932999
 40
0.0075122878
 40
0.0119872907
 40
0.0241871104
 40
0.0407160524
 40
0.0863836721
 40
0.1479963816
 40
0.2233044666
 40
0.3090380023
 40
0.4018802529
 40
0.4984878153
 40
0.5952861566
 40
0.6885606661
 40
0.7745969313
 40
0.8498397477
 40
0.9118032795
 40
0.9584769078
 40
0.9754803559
 40
0.9879786312
 40
0.9925061865
 40
0.9959286353
 40
1.0
 40
1.0
 40
1.0
 40
1.0
 10
82.6565655379
 20
148.6108744515
 30
0.0
 10
82.6649701503
 20
148.6108360746
 30
0.0
 10
82.6774680538
 20
148.5969875465
 30
0.0
 10
82.6881828846
 20
148.5758822607
 30
0.0
 10
82.7032622206
 20
148.5369290315
 30
0.0
 10
82.7203044003
 20
148.4710900448
 30
0.0
 10
82.7499484939
 20
148.3210372242
 30
0.0
 10
82.7839831741
 20
148.0690551128
 30
0.0
 10
82.8229982461
 20
147.6961497095
 30
0.0
 10
82.8621643577
 20
147.2406456519
 30
0.0
 10
82.9018417516
 20
146.7208585959
 30
0.0
 10
82.941661245
 20
146.1572327703
 30
0.0
 10
82.9815248774
 20
145.570837905
 30
0.0
 10
83.0213618732
 20
144.9835516849
 30
0.0
 10
83.0611128737
 20
144.4180156412
 30
0.0
 10
83.1006895001
 20
143.8968415041
 30
0.0
 10
83.1400693982
 20
143.4401417093
 30
0.0
 10
83.1793280113
 20
143.0646002535
 30
0.0
 10
83.2131383664
 20
142.8088024918
 30
0.0
 10
83.2426544999
 20
142.6550134253
 30
0.0
 10
83.2595886192
 20
142.5873896198
 30
0.0
 10
83.2747388933
 20
142.5476845104
 30
0.0
 10
83.2854316902
 20
142.526457336
 30
0.0
 10
83.2980421926
 20
142.5128111153
 30
0.0
 10
83.3064018471
 20
142.5128007207
 30
0.0
  0
ENDSEC
  0
SECTION
  2
OBJECTS
  0
DICTIONARY
  5
C
100
AcDbDictionary
280
0
281
1
  3
ACAD_GROUP
350
D
  3
ACAD_MLINESTYLE
350
17
  3
ACAD_LAYOUT
350
1A
  3
ACAD_PLOTSETTINGS
350
19
  3
ACAD_PLOTSTYLENAME
350
E
  0
DICTIONARY
  5
D
102
{ACAD_REACTORS
330
C
102
}
100
AcDbDictionary
280
0
281
1
  0
ACDBDICTIONARYWDFLT
  5
E
102
{ACAD_REACTORS
330
C
102
}
100
AcDbDictionary
281
1
  3
Normal
350
F
100
AcDbDictionaryWithDefault
340
F
  0
DICTIONARY
  5
17
102
{ACAD_REACTORS
330
C
102
}
100
AcDbDictionary
280
0
281
1
  3
Standard
350
18
  0
DICTIONARY
  5
19
102
{ACAD_REACTORS
330
C
102
}
100
AcDbDictionary
281
1
  0
DICTIONARY
  5
1A
102
{ACAD_REACTORS
330
C
102
}
100
AcDbDictionary
281
1
  3
Model
350
32A
  3
Layout1
350
32B
  0
ACDBPLACEHOLDER
  5
F
102
{ACAD_REACTORS
330
E
102
}
  0
MLINESTYLE
  5
18
102
{ACAD_REACTORS
330
17
102
}
100
AcDbMlineStyle
  2
STANDARD
 70
0
  3

 62
256
 51
90.0
 52
90.0
 71
2
 49
0.5
 62
256
  6
BYLAYER
 49
-0.5
 62
256
  6
BYLAYER
  0
LAYOUT
  5
32A
102
{ACAD_REACTORS
330
1A
102
}
100
AcDbPlotSettings
  1

  2
none_device
  4

  6

 40
0.0
 41
0.0
 42
0.0
 43
0.0
 44
210.0
 45
297.0
 46
0.0
 47
0.0
 48
0.0
 49
0.0
140
0.0
141
0.0
142
1.0
143
1.0
 70
1024
 72
1
 73
0
 74
0
  7

 75
0
147
1.0
148
0.0
149
0.0
100
AcDbLayout
  1
Model
 70
0
 71
0
 10
0.0
 20
0.0
 11
210.0
 21
297.0
 12
0.0
 22
0.0
 32
0.0
 14
0.0
 24
0.0
 34
0.0
 15
0.0
 25
0.0
 35
0.0
146
0.0
 13
0.0
 23
0.0
 33
0.0
 16
1.0
 26
0.0
 36
0.0
 17
0.0
 27
1.0
 37
0.0
 76
0
330
210
345
0
346
0
  0
LAYOUT
  5
32B
102
{ACAD_REACTORS
330
1A
102
}
100
AcDbPlotSettings
  1

  2
none_device
  4

  6

 40
0.0
 41
0.0
 42
0.0
 43
0.0
 44
210.0
 45
297.0
 46
0.0
 47
0.0
 48
0.0
 49
0.0
140
0.0
141
0.0
142
1.0
143
1.0
 70
0
 72
1
 73
0
 74
0
  7

 75
0
147
1.0
148
0.0
149
0.0
100
AcDbLayout
  1
Layout1
 70
0
 71
1
 10
0.0
 20
0.0
 11
210.0
 21
297.0
 12
0.0
 22
0.0
 32
0.0
 14
0.0
 24
0.0
 34
0.0
 15
0.0
 25
0.0
 35
0.0
146
0.0
 13
0.0
 23
0.0
 33
0.0
 16
1.0
 26
0.0
 36
0.0
 17
0.0
 27
1.0
 37
0.0
 76
0
330
211
345
0
346
0
  0
ENDSEC
  0
EOF
