999
DXF file: C:\Users\sesa63760\Dev\_Creo\CAD\MCADID0004322_3D-CAD\drw0001_4.dxf
999
Pro/ENGINEER 2019471 by Parametric Technology Corporation
  0
SECTION
  2
HEADER
  9
$ACADVER
  1
AC1024
  9
$DWGCODEPAGE
  3
ANSI_1252
  9
$EXTMAX
 10
79.5744160318
 20
112.5409598164
 30
0.0
  9
$EXTMIN
 10
0.0
 20
0.0
 30
0.0
  9
$LIMMIN
 10
0.0
 20
0.0
  9
$LIMMAX
 10
79.5744160318
 20
112.5409598164
  9
$VIEWCTR
 10
39.7872080159
 20
56.2704799082
  9
$VIEWSIZE
 40
112.5409598164
  9
$CLAYER
  8
0
  9
$LTSCALE
 40
7.3360033066
  9
$CELTYPE
  6
BYLAYER
  9
$DIMSCALE
 40
1.0
  9
$DIMASZ
 40
0.9473144766
  9
$DIMEXO
 40
1.0
  9
$DIMDLI
 40
5.0685113754
  9
$DIMEXE
 40
1.0
  9
$DIMCEN
 40
1.2004369047
  9
$DIMLFAC
 40
1.0
  9
$DIMBLK
  1
_FILLED
  9
$DIMALT
 70
0
  9
$DIMALTF
 40
0.0393700787
  9
$DIMTXT
 40
1.3262402672
  9
$DIMTOL
 70
1
  9
$DIMLIM
 70
0
  9
$DIMTFAC
 40
1.0
  9
$DIMTP
 40
0.01
  9
$DIMTM
 40
0.01
  9
$DIMGAP
 40
0.625
  9
$DIMDSEP
 70
46
  9
$AUNITS
 70
0
  9
$PDMODE
 70
3
  9
$PDSIZE
 40
0.3125
  9
$HANDSEED
  5
34C
  9
$TILEMODE
 70
1
  9
$MEASUREMENT
 70
1
  9
$INSUNITS
 70
4
  0
ENDSEC
  0
SECTION
  2
CLASSES
  0
CLASS
  1
ACDBDICTIONARYWDFLT
  2
AcDbDictionaryWithDefault
  3
AutoCAD 2000
 90
0
 91
1
280
0
281
0
  0
CLASS
  1
ACDBPLACEHOLDER
  2
AcDbPlaceHolder
  3
AutoCAD 2000
 90
0
 91
1
280
0
281
0
  0
CLASS
  1
LAYOUT
  2
AcDbLayout
  3
AutoCAD 2000
 90
0
 91
0
280
0
281
0
  0
ENDSEC
  0
SECTION
  2
TABLES
  0
TABLE
  2
VPORT
  5
8
100
AcDbSymbolTable
 70
2
  0
VPORT
  5
1F4
100
AcDbSymbolTableRecord
100
AcDbViewportTableRecord
  2
*ACTIVE
 70
0
 10
0.0
 20
0.0
 11
1.0
 21
1.0
 12
39.7872080159
 22
56.2704799082
 13
0.0
 23
0.0
 14
1.0
 24
1.0
 15
0.0
 25
0.0
 16
0.0
 26
0.0
 36
1.0
 17
0.0
 27
0.0
 37
0.0
 40
112.5409598164
 41
0.7070707071
 42
50.0
 43
0.0
 44
0.0
 50
0.0
 51
0.0
 71
0
 72
100
 73
1
 74
1
 75
0
 76
0
 77
0
 78
0
  0
ENDTAB
  0
TABLE
  2
LTYPE
  5
5
100
AcDbSymbolTable
 70
6
  0
LTYPE
  5
14
100
AcDbSymbolTableRecord
100
AcDbLinetypeTableRecord
  2
BYBLOCK
 70
0
  3

 72
65
 73
0
 40
0.0
  0
LTYPE
  5
15
100
AcDbSymbolTableRecord
100
AcDbLinetypeTableRecord
  2
BYLAYER
 70
0
  3

 72
65
 73
0
 40
0.0
  0
LTYPE
  5
16
100
AcDbSymbolTableRecord
100
AcDbLinetypeTableRecord
  2
CONTINUOUS
 70
64
  3
Solid line
 72
65
 73
0
 40
0.0
  0
LTYPE
  5
1F5
100
AcDbSymbolTableRecord
100
AcDbLinetypeTableRecord
  2
CENTER
 70
64
  3
____ _ ____ _ ____ _ ____ _ ____ _ ____ _ ____
 72
65
 73
4
 40
0.6
 49
0.375
 74
0
 49
-0.075
 74
0
 49
0.075
 74
0
 49
-0.075
 74
0
  0
LTYPE
  5
1F6
100
AcDbSymbolTableRecord
100
AcDbLinetypeTableRecord
  2
HIDDEN
 70
64
  3
- - - - - - - - - - - - - - - - - - - -
 72
65
 73
2
 40
0.2
 49
0.1
 74
0
 49
-0.1
 74
0
  0
LTYPE
  5
1F7
100
AcDbSymbolTableRecord
100
AcDbLinetypeTableRecord
  2
PHANTOM
 70
64
  3
_____ _ _ _____ _ _ _____ _ _ _____
 72
65
 73
6
 40
0.8
 49
0.45
 74
0
 49
-0.05
 74
0
 49
0.1
 74
0
 49
-0.05
 74
0
 49
0.1
 74
0
 49
-0.05
 74
0
  0
LTYPE
  5
1F8
100
AcDbSymbolTableRecord
100
AcDbLinetypeTableRecord
  2
DOT
 70
64
  3
. . . . . . . . . . . . . . . . . . . .
 72
65
 73
2
 40
0.2
 49
0.1
 74
0
 49
-0.1
 74
0
  0
LTYPE
  5
1F9
100
AcDbSymbolTableRecord
100
AcDbLinetypeTableRecord
  2
DASHED
 70
64
  3
- - - - - - - - - - - - - - - - - - - -
 72
65
 73
2
 40
0.2
 49
0.1
 74
0
 49
-0.1
 74
0
  0
ENDTAB
  0
TABLE
  2
LAYER
  5
2
100
AcDbSymbolTable
 70
36
  0
LAYER
  5
10
100
AcDbSymbolTableRecord
100
AcDbLayerTableRecord
  2
0
 70
0
 62
7
  6
CONTINUOUS
370
-3
390
F
  0
LAYER
  5
1FA
100
AcDbSymbolTableRecord
100
AcDbLayerTableRecord
  2
DEFAULT_1
 70
0
 62
7
  6
CENTER
370
-3
390
F
  0
LAYER
  5
1FB
100
AcDbSymbolTableRecord
100
AcDbLayerTableRecord
  2
DEFAULT_2
 70
0
 62
7
  6
HIDDEN
370
-3
390
F
  0
LAYER
  5
1FC
100
AcDbSymbolTableRecord
100
AcDbLayerTableRecord
  2
DEFAULT_3
 70
0
 62
7
  6
PHANTOM
370
-3
390
F
  0
LAYER
  5
1FD
100
AcDbSymbolTableRecord
100
AcDbLayerTableRecord
  2
00_COMPONENTS
 70
0
 62
7
  6
CONTINUOUS
370
-3
390
F
  0
LAYER
  5
1FE
100
AcDbSymbolTableRecord
100
AcDbLayerTableRecord
  2
01_1_DEFAULT_DATUMS
 70
0
 62
7
  6
CONTINUOUS
370
-3
390
F
  0
LAYER
  5
1FF
100
AcDbSymbolTableRecord
100
AcDbLayerTableRecord
  2
01_PLANES
 70
0
 62
7
  6
CONTINUOUS
370
-3
390
F
  0
LAYER
  5
200
100
AcDbSymbolTableRecord
100
AcDbLayerTableRecord
  2
02_COORD_SYS
 70
0
 62
7
  6
CONTINUOUS
370
-3
390
F
  0
LAYER
  5
201
100
AcDbSymbolTableRecord
100
AcDbLayerTableRecord
  2
03_AXES
 70
0
 62
7
  6
CONTINUOUS
370
-3
390
F
  0
LAYER
  5
202
100
AcDbSymbolTableRecord
100
AcDbLayerTableRecord
  2
04_POINTS
 70
0
 62
7
  6
CONTINUOUS
370
-3
390
F
  0
LAYER
  5
203
100
AcDbSymbolTableRecord
100
AcDbLayerTableRecord
  2
05_CURVES
 70
0
 62
7
  6
CONTINUOUS
370
-3
390
F
  0
LAYER
  5
204
100
AcDbSymbolTableRecord
100
AcDbLayerTableRecord
  2
06_SURFS
 70
0
 62
7
  6
CONTINUOUS
370
-3
390
F
  0
LAYER
  5
205
100
AcDbSymbolTableRecord
100
AcDbLayerTableRecord
  2
07_COSMETICS
 70
0
 62
7
  6
CONTINUOUS
370
-3
390
F
  0
LAYER
  5
206
100
AcDbSymbolTableRecord
100
AcDbLayerTableRecord
  2
10_NOTES
 70
0
 62
7
  6
CONTINUOUS
370
-3
390
F
  0
LAYER
  5
207
100
AcDbSymbolTableRecord
100
AcDbLayerTableRecord
  2
11_NOTES_PUB
 70
0
 62
7
  6
CONTINUOUS
370
-3
390
F
  0
LAYER
  5
208
100
AcDbSymbolTableRecord
100
AcDbLayerTableRecord
  2
13_REF_GTOL
 70
0
 62
7
  6
CONTINUOUS
370
-3
390
F
  0
LAYER
  5
209
100
AcDbSymbolTableRecord
100
AcDbLayerTableRecord
  2
16_MISC
 70
0
 62
7
  6
CONTINUOUS
370
-3
390
F
  0
LAYER
  5
20A
100
AcDbSymbolTableRecord
100
AcDbLayerTableRecord
  2
17_NO_PRINT
 70
0
 62
7
  6
CONTINUOUS
370
-3
390
F
  0
LAYER
  5
20B
100
AcDbSymbolTableRecord
100
AcDbLayerTableRecord
  2
18_DATUM_CAMS_JOINTS
 70
0
 62
7
  6
CONTINUOUS
370
-3
390
F
  0
LAYER
  5
20C
100
AcDbSymbolTableRecord
100
AcDbLayerTableRecord
  2
19_DATUM_FUNCTIONAL
 70
0
 62
7
  6
CONTINUOUS
370
-3
390
F
  0
LAYER
  5
20D
100
AcDbSymbolTableRecord
100
AcDbLayerTableRecord
  2
20_DATUM_KINEMATIC_SCHEME
 70
0
 62
7
  6
CONTINUOUS
370
-3
390
F
  0
LAYER
  5
20E
100
AcDbSymbolTableRecord
100
AcDbLayerTableRecord
  2
_1
 70
0
 62
7
  6
CONTINUOUS
370
-3
390
F
  0
ENDTAB
  0
TABLE
  2
STYLE
  5
3
100
AcDbSymbolTable
 70
1
  0
STYLE
  5
11
100
AcDbSymbolTableRecord
100
AcDbTextStyleTableRecord
  2
STANDARD
 70
0
 40
0.0
 41
1.0
 50
0.0
 71
0
 42
0.2
  3
ARIAL.TTF
  4

  0
STYLE
  5
20F
100
AcDbSymbolTableRecord
100
AcDbTextStyleTableRecord
  2
TEXTSTYLE_1
 70
0
 40
0.0
 41
0.8
 50
0.0
 71
0
 42
0.2
  3
gdt
  4

  0
ENDTAB
  0
TABLE
  2
VIEW
  5
6
100
AcDbSymbolTable
 70
0
  0
ENDTAB
  0
TABLE
  2
UCS
  5
7
100
AcDbSymbolTable
 70
0
  0
ENDTAB
  0
TABLE
  2
APPID
  5
9
100
AcDbSymbolTable
 70
1
  0
APPID
  5
210
100
AcDbSymbolTableRecord
100
AcDbRegAppTableRecord
  2
ACAD
 70
0
  0
ENDTAB
  0
TABLE
  2
BLOCK_RECORD
  5
1
100
AcDbSymbolTable
 70
0
  0
BLOCK_RECORD
  5
211
100
AcDbSymbolTableRecord
100
AcDbBlockTableRecord
  2
*Model_Space
  0
BLOCK_RECORD
  5
212
100
AcDbSymbolTableRecord
100
AcDbBlockTableRecord
  2
*Paper_Space
  0
BLOCK_RECORD
  5
213
100
AcDbSymbolTableRecord
100
AcDbBlockTableRecord
  2
_FILLED
  0
ENDTAB
  0
TABLE
  2
DIMSTYLE
  5
A
100
AcDbSymbolTable
 70
1
100
AcDbDimStyleTable
 71
0
  0
DIMSTYLE
105
214
100
AcDbSymbolTableRecord
100
AcDbDimStyleTableRecord
  2
STANDARD
 70
0
  3

  4

 40
1.0
 41
0.9473144766
 42
1.0
 43
0.38
 44
1.0
 45
0.0
 46
0.0
 47
0.01
 48
0.01
140
1.3262402672
141
0.09
142
0.0
143
25.4
144
1.0
145
0.0
146
1.0
147
0.625
 71
1
 72
0
 73
0
 74
0
 75
0
 76
0
 77
1
 78
8
 79
2
170
0
171
1
172
0
173
0
174
0
175
0
176
0
177
0
178
0
270
2
179
2
271
2
272
2
273
2
274
2
275
0
280
0
281
0
282
0
283
1
284
8
285
0
286
0
287
3
288
0
340
11
278
46
341
213
342
213
343
213
344
213
  0
ENDTAB
  0
ENDSEC
  0
SECTION
  2
BLOCKS
  0
BLOCK
  5
20
100
AcDbEntity
  8
0
100
AcDbBlockBegin
  2
*Model_Space
 70
0
 10
0.0
 20
0.0
 30
0.0
  3
*Model_Space
  1

  0
ENDBLK
  5
21
100
AcDbEntity
  8
0
100
AcDbBlockEnd
  0
BLOCK
  5
1C
100
AcDbEntity
  8
0
100
AcDbBlockBegin
  2
*Paper_Space
 70
0
 10
0.0
 20
0.0
 30
0.0
  3
*Paper_Space
  1

  0
ENDBLK
  5
1D
100
AcDbEntity
  8
0
100
AcDbBlockEnd
  0
BLOCK
  5
215
100
AcDbEntity
  8
0
100
AcDbBlockBegin
  2
_FILLED
 70
64
 10
0.0
 20
0.0
  3
_FILLED
  1

  0
SOLID
  5
216
100
AcDbEntity
  8
0
  6
BYBLOCK
 62
0
100
AcDbTrace
 10
0.0
 20
0.0
 11
-1.0
 21
0.25
 12
-1.0
 22
-0.25
 13
-1.0
 23
-0.25
  0
ENDBLK
  5
217
100
AcDbEntity
  8
0
  6
BYBLOCK
 62
0
100
AcDbBlockEnd
  0
ENDSEC
  0
SECTION
  2
ENTITIES
  0
LINE
  5
218
100
AcDbEntity
  8
_1
100
AcDbLine
 62
7
  6
BYLAYER
 10
9.132576892
 20
44.1517925588
 11
9.0778908285
 21
45.7436685213
  0
LINE
  5
219
100
AcDbEntity
  8
_1
100
AcDbLine
 62
7
  6
BYLAYER
 10
8.8625501471
 20
44.3517925588
 11
8.8625501471
 21
45.7017925588
  0
LINE
  5
21A
100
AcDbEntity
  8
_1
100
AcDbLine
 62
7
  6
BYLAYER
 10
8.8625501471
 20
50.1004284156
 11
8.8625501471
 21
54.2011073262
  0
LINE
  5
21B
100
AcDbEntity
  8
_1
100
AcDbLine
 62
7
  6
BYLAYER
 10
9.0625501471
 20
43.9004220935
 11
9.0625501471
 21
45.7436685213
  0
LINE
  5
21C
100
AcDbEntity
  8
_1
100
AcDbLine
 62
7
  6
BYLAYER
 10
9.0625501471
 20
50.1702583267
 11
9.0625501471
 21
67.4011073262
  0
LINE
  5
21D
100
AcDbEntity
  8
_1
100
AcDbLine
 62
7
  6
BYLAYER
 10
9.2997565595
 20
67.1645861464
 11
9.2997565595
 21
58.4814188219
  0
LINE
  5
21E
100
AcDbEntity
  8
_1
100
AcDbLine
 62
7
  6
BYLAYER
 10
9.2997565595
 20
44.2411392963
 11
9.2997565595
 21
44.1376285059
  0
LINE
  5
21F
100
AcDbEntity
  8
_1
100
AcDbLine
 62
7
  6
BYLAYER
 10
9.3125501471
 20
67.9011073262
 11
9.3125501471
 21
67.4011073262
  0
LINE
  5
220
100
AcDbEntity
  8
_1
100
AcDbLine
 62
7
  6
BYLAYER
 10
9.5625501471
 20
43.6011073262
 11
9.5625501471
 21
43.4511073262
  0
LINE
  5
221
100
AcDbEntity
  8
_1
100
AcDbLine
 62
7
  6
BYLAYER
 10
9.701418209
 20
49.5406606206
 11
9.701418209
 21
49.9254557211
  0
LINE
  5
222
100
AcDbEntity
  8
_1
100
AcDbLine
 62
7
  6
BYLAYER
 10
9.7990713269
 20
43.6383137385
 11
9.7990713269
 21
44.2411392963
  0
LINE
  5
223
100
AcDbEntity
  8
_1
100
AcDbLine
 62
7
  6
BYLAYER
 10
9.7990713269
 20
58.4814188219
 11
9.7990713269
 21
67.4011073262
  0
LINE
  5
224
100
AcDbEntity
  8
_1
100
AcDbLine
 62
7
  6
BYLAYER
 10
10.0125501471
 20
67.4011073262
 11
10.0125501471
 21
67.9011073262
  0
LINE
  5
225
100
AcDbEntity
  8
_1
100
AcDbLine
 62
7
  6
BYLAYER
 10
10.0625501471
 20
43.4511073262
 11
10.0625501471
 21
43.6011073262
  0
LINE
  5
226
100
AcDbEntity
  8
_1
100
AcDbLine
 62
7
  6
BYLAYER
 10
10.5625501471
 20
46.2011073262
 11
10.5625501471
 21
46.4011073262
  0
LINE
  5
227
100
AcDbEntity
  8
_1
100
AcDbLine
 62
7
  6
BYLAYER
 10
10.5625501471
 20
49.4011073262
 11
10.5625501471
 21
49.8011073262
  0
LINE
  5
228
100
AcDbEntity
  8
_1
100
AcDbLine
 62
7
  6
BYLAYER
 10
9.0804052683
 20
50.1702583267
 11
9.132576892
 21
54.4011073262
  0
LINE
  5
229
100
AcDbEntity
  8
_1
100
AcDbLine
 62
7
  6
BYLAYER
 10
9.2021034416
 20
50.039975388
 11
9.2934873972
 21
57.4507418201
  0
LINE
  5
22A
100
AcDbEntity
  8
_1
100
AcDbLine
 62
7
  6
BYLAYER
 10
9.7928021646
 20
57.3362221532
 11
9.701418209
 21
49.9254557211
  0
LINE
  5
22B
100
AcDbEntity
  8
_1
100
AcDbLine
 62
7
  6
BYLAYER
 10
9.2252591075
 20
45.7390835984
 11
9.0644674838
 21
45.8998752222
  0
LINE
  5
22C
100
AcDbEntity
  8
_1
100
AcDbLine
 62
7
  6
BYLAYER
 10
9.0644544508
 20
45.8998882552
 11
9.0625501471
 21
45.9017925588
  0
LINE
  5
22D
100
AcDbEntity
  8
_1
100
AcDbLine
 62
7
  6
BYLAYER
 10
10.5625501471
 20
49.4011073262
 11
10.5160701808
 21
49.5406606206
  0
LINE
  5
22E
100
AcDbEntity
  8
_1
100
AcDbLine
 62
7
  6
BYLAYER
 10
11.7125576409
 20
50.2661204613
 11
10.726360256
 21
54.3811559545
  0
LINE
  5
22F
100
AcDbEntity
  8
_1
100
AcDbLine
 62
7
  6
BYLAYER
 10
11.7129952478
 20
50.2649824843
 11
10.7271175766
 21
54.3786839309
  0
LINE
  5
230
100
AcDbEntity
  8
_1
100
AcDbLine
 62
7
  6
BYLAYER
 10
13.1125501471
 20
67.9011073262
 11
13.1125501471
 21
68.0011073262
  0
LINE
  5
231
100
AcDbEntity
  8
_1
100
AcDbLine
 62
7
  6
BYLAYER
 10
13.5625501471
 20
49.8011073262
 11
13.5625501471
 21
49.4011073262
  0
LINE
  5
232
100
AcDbEntity
  8
_1
100
AcDbLine
 62
7
  6
BYLAYER
 10
13.5625501471
 20
46.4011073262
 11
13.5625501471
 21
46.2011073262
  0
LINE
  5
233
100
AcDbEntity
  8
_1
100
AcDbLine
 62
7
  6
BYLAYER
 10
9.5618649145
 20
46.4011073262
 11
9.7245738748
 21
46.2383983658
  0
LINE
  5
234
100
AcDbEntity
  8
_1
100
AcDbLine
 62
7
  6
BYLAYER
 10
13.5625501471
 20
46.4011073262
 11
13.6167423969
 21
46.2383983658
  0
LINE
  5
235
100
AcDbEntity
  8
_1
100
AcDbLine
 62
7
  6
BYLAYER
 10
10.978504486
 20
54.1419511553
 11
11.9124869636
 21
50.2447890821
  0
LINE
  5
236
100
AcDbEntity
  8
_1
100
AcDbLine
 62
7
  6
BYLAYER
 10
14.5625501471
 20
54.4011073262
 11
14.5625501471
 21
58.4814188219
  0
LINE
  5
237
100
AcDbEntity
  8
_1
100
AcDbLine
 62
7
  6
BYLAYER
 10
12.2126133307
 20
50.2447890821
 11
13.1465958082
 21
54.1419511553
  0
LINE
  5
238
100
AcDbEntity
  8
_1
100
AcDbLine
 62
7
  6
BYLAYER
 10
13.3979827177
 20
54.3786839309
 11
12.4121050465
 21
50.2649824843
  0
LINE
  5
239
100
AcDbEntity
  8
_1
100
AcDbLine
 62
7
  6
BYLAYER
 10
13.3987400383
 20
54.3811559545
 11
12.4125426534
 21
50.2661204613
  0
LINE
  5
23A
100
AcDbEntity
  8
_1
100
AcDbLine
 62
7
  6
BYLAYER
 10
10.5083578973
 20
46.2383983658
 11
10.5625501471
 21
46.4011073262
  0
LINE
  5
23B
100
AcDbEntity
  8
_1
100
AcDbLine
 62
7
  6
BYLAYER
 10
13.5625501471
 20
46.2011073262
 11
13.6259991803
 21
46.137658293
  0
LINE
  5
23C
100
AcDbEntity
  8
_1
100
AcDbLine
 62
7
  6
BYLAYER
 10
10.5625501471
 20
49.8011073262
 11
10.5084169482
 21
49.8552405251
  0
LINE
  5
23D
100
AcDbEntity
  8
_1
100
AcDbLine
 62
7
  6
BYLAYER
 10
16.1125501471
 20
67.9011073262
 11
16.1125501471
 21
68.0011073262
  0
LINE
  5
23E
100
AcDbEntity
  8
0
100
AcDbLine
 62
7
  6
BYLAYER
 10
17.1125501471
 20
68.1511073262
 11
17.1125501471
 21
67.9011073262
  0
LINE
  5
23F
100
AcDbEntity
  8
_1
100
AcDbLine
 62
7
  6
BYLAYER
 10
17.1125501471
 20
67.9011073262
 11
17.1125501471
 21
67.6011073262
  0
LINE
  5
240
100
AcDbEntity
  8
0
100
AcDbLine
 62
7
  6
BYLAYER
 10
17.6125501471
 20
68.1511073262
 11
17.6125501471
 21
67.9011073262
  0
LINE
  5
241
100
AcDbEntity
  8
_1
100
AcDbLine
 62
7
  6
BYLAYER
 10
13.6090301135
 20
49.5406606206
 11
13.5625501471
 21
49.4011073262
  0
LINE
  5
242
100
AcDbEntity
  8
0
100
AcDbLine
 62
7
  6
BYLAYER
 10
20.3125501471
 20
68.1511073262
 11
20.3125501471
 21
68.1611073262
  0
LINE
  5
243
100
AcDbEntity
  8
0
100
AcDbLine
 62
7
  6
BYLAYER
 10
21.0625501471
 20
68.1611073262
 11
21.0625501471
 21
68.1511073262
  0
LINE
  5
244
100
AcDbEntity
  8
_1
100
AcDbLine
 62
7
  6
BYLAYER
 10
21.5625501471
 20
54.4011073262
 11
21.5625501471
 21
58.4814188219
  0
LINE
  5
245
100
AcDbEntity
  8
_1
100
AcDbLine
 62
7
  6
BYLAYER
 10
9.0625501471
 20
49.9004220935
 11
9.0644544508
 21
49.9023263971
  0
LINE
  5
246
100
AcDbEntity
  8
_1
100
AcDbLine
 62
7
  6
BYLAYER
 10
9.0644674838
 20
49.9023394301
 11
9.2021034416
 21
50.039975388
  0
LINE
  5
247
100
AcDbEntity
  8
_1
100
AcDbLine
 62
7
  6
BYLAYER
 10
9.701418209
 20
49.5406606206
 11
9.5618649145
 21
49.4011073262
  0
LINE
  5
248
100
AcDbEntity
  8
0
100
AcDbLine
 62
7
  6
BYLAYER
 10
20.8452586733
 20
68.1611073262
 11
21.7938059327
 21
68.4511073262
  0
LINE
  5
249
100
AcDbEntity
  8
_1
100
AcDbLine
 62
7
  6
BYLAYER
 10
18.1125501471
 20
67.9011073262
 11
17.1125501471
 21
67.6011073262
  0
LINE
  5
24A
100
AcDbEntity
  8
0
100
AcDbLine
 62
7
  6
BYLAYER
 10
25.5625501471
 20
68.1511073262
 11
25.5625501471
 21
68.1611073262
  0
LINE
  5
24B
100
AcDbEntity
  8
0
100
AcDbLine
 62
7
  6
BYLAYER
 10
26.3125501471
 20
68.1611073262
 11
26.3125501471
 21
68.1511073262
  0
LINE
  5
24C
100
AcDbEntity
  8
_1
100
AcDbLine
 62
7
  6
BYLAYER
 10
13.5625501471
 20
49.8011073262
 11
13.6166833461
 21
49.8552405251
  0
LINE
  5
24D
100
AcDbEntity
  8
_1
100
AcDbLine
 62
7
  6
BYLAYER
 10
10.5625501471
 20
46.2011073262
 11
10.499101114
 21
46.137658293
  0
LINE
  5
24E
100
AcDbEntity
  8
_1
100
AcDbLine
 62
7
  6
BYLAYER
 10
9.0625501471
 20
43.9004220935
 11
9.2997565595
 21
44.1376285059
  0
LINE
  5
24F
100
AcDbEntity
  8
0
100
AcDbLine
 62
7
  6
BYLAYER
 10
29.0452586733
 20
68.1611073262
 11
29.9938059327
 21
68.4511073262
  0
LINE
  5
250
100
AcDbEntity
  8
_1
100
AcDbLine
 62
7
  6
BYLAYER
 10
9.2997565595
 20
67.1645861464
 11
9.0632353798
 21
67.4011073262
  0
LINE
  5
251
100
AcDbEntity
  8
0
100
AcDbLine
 62
7
  6
BYLAYER
 10
28.5125501471
 20
68.1511073262
 11
28.5125501471
 21
68.1611073262
  0
LINE
  5
252
100
AcDbEntity
  8
0
100
AcDbLine
 62
7
  6
BYLAYER
 10
29.2625501471
 20
68.1611073262
 11
29.2625501471
 21
68.1511073262
  0
LINE
  5
253
100
AcDbEntity
  8
_1
100
AcDbLine
 62
7
  6
BYLAYER
 10
9.7990713269
 20
43.6383137385
 11
9.7618649145
 21
43.6011073262
  0
LINE
  5
254
100
AcDbEntity
  8
_1
100
AcDbLine
 62
7
  6
BYLAYER
 10
61.0625501471
 20
43.4011073262
 11
60.0625501471
 21
43.4011073262
  0
LINE
  5
255
100
AcDbEntity
  8
_1
100
AcDbLine
 62
7
  6
BYLAYER
 10
9.5625501471
 20
43.4511073262
 11
60.0625501471
 21
43.4511073262
  0
LINE
  5
256
100
AcDbEntity
  8
_1
100
AcDbLine
 62
7
  6
BYLAYER
 10
9.1620712873
 20
43.6011073262
 11
60.0625501471
 21
43.6011073262
  0
LINE
  5
257
100
AcDbEntity
  8
_1
100
AcDbLine
 62
7
  6
BYLAYER
 10
9.7990713269
 20
43.6383137385
 11
61.0625501471
 21
43.6383137385
  0
LINE
  5
258
100
AcDbEntity
  8
_1
100
AcDbLine
 62
7
  6
BYLAYER
 10
61.0625501471
 20
44.1376285059
 11
9.2997565595
 21
44.1376285059
  0
LINE
  5
259
100
AcDbEntity
  8
_1
100
AcDbLine
 62
7
  6
BYLAYER
 10
9.132576892
 20
44.1517925588
 11
9.0625501471
 21
44.1517925588
  0
LINE
  5
25A
100
AcDbEntity
  8
_1
100
AcDbLine
 62
7
  6
BYLAYER
 10
9.2997565595
 20
44.2411392963
 11
56.0694118771
 21
44.2411392963
  0
LINE
  5
25B
100
AcDbEntity
  8
_1
100
AcDbLine
 62
7
  6
BYLAYER
 10
9.0625501471
 20
45.7436685213
 11
9.0778908285
 21
45.7436685213
  0
LINE
  5
25C
100
AcDbEntity
  8
_1
100
AcDbLine
 62
7
  6
BYLAYER
 10
13.6259991803
 20
46.137658293
 11
10.499101114
 21
46.137658293
  0
LINE
  5
25D
100
AcDbEntity
  8
_1
100
AcDbLine
 62
7
  6
BYLAYER
 10
13.5625501471
 20
46.2011073262
 11
13.1230223885
 21
46.2011073262
  0
LINE
  5
25E
100
AcDbEntity
  8
_1
100
AcDbLine
 62
7
  6
BYLAYER
 10
11.0020779058
 20
46.2011073262
 11
10.5625501471
 21
46.2011073262
  0
LINE
  5
25F
100
AcDbEntity
  8
_1
100
AcDbLine
 62
7
  6
BYLAYER
 10
52.150099142
 20
46.2383983658
 11
13.6167423969
 21
46.2383983658
  0
LINE
  5
260
100
AcDbEntity
  8
_1
100
AcDbLine
 62
7
  6
BYLAYER
 10
10.5083578973
 20
46.2383983658
 11
9.7245738748
 21
46.2383983658
  0
LINE
  5
261
100
AcDbEntity
  8
_1
100
AcDbLine
 62
7
  6
BYLAYER
 10
9.5618649145
 20
46.4011073262
 11
10.5625501471
 21
46.4011073262
  0
LINE
  5
262
100
AcDbEntity
  8
_1
100
AcDbLine
 62
7
  6
BYLAYER
 10
13.5625501471
 20
46.4011073262
 11
51.0625501471
 21
46.4011073262
  0
LINE
  5
263
100
AcDbEntity
  8
0
100
AcDbLine
 62
7
  6
BYLAYER
 10
33.7625501471
 20
68.1511073262
 11
33.7625501471
 21
68.1611073262
  0
LINE
  5
264
100
AcDbEntity
  8
_1
100
AcDbLine
 62
7
  6
BYLAYER
 10
65.319016548
 20
48.6455361067
 11
66.0543263238
 21
48.6877614774
  0
LINE
  5
265
100
AcDbEntity
  8
0
100
AcDbLine
 62
7
  6
BYLAYER
 10
34.5125501471
 20
68.1611073262
 11
34.5125501471
 21
68.1511073262
  0
LINE
  5
266
100
AcDbEntity
  8
_1
100
AcDbLine
 62
7
  6
BYLAYER
 10
51.0625501471
 20
49.4011073262
 11
13.5625501471
 21
49.4011073262
  0
LINE
  5
267
100
AcDbEntity
  8
_1
100
AcDbLine
 62
7
  6
BYLAYER
 10
10.5625501471
 20
49.4011073262
 11
9.5618649145
 21
49.4011073262
  0
LINE
  5
268
100
AcDbEntity
  8
_1
100
AcDbLine
 62
7
  6
BYLAYER
 10
9.701418209
 20
49.5406606206
 11
10.5160701808
 21
49.5406606206
  0
LINE
  5
269
100
AcDbEntity
  8
_1
100
AcDbLine
 62
7
  6
BYLAYER
 10
13.6090301135
 20
49.5406606206
 11
51.8374729397
 21
49.5406606206
  0
LINE
  5
26A
100
AcDbEntity
  8
_1
100
AcDbLine
 62
7
  6
BYLAYER
 10
10.5625501471
 20
49.8011073262
 11
10.6606579913
 21
49.8011073262
  0
LINE
  5
26B
100
AcDbEntity
  8
_1
100
AcDbLine
 62
7
  6
BYLAYER
 10
13.464442303
 20
49.8011073262
 11
13.5625501471
 21
49.8011073262
  0
LINE
  5
26C
100
AcDbEntity
  8
_1
100
AcDbLine
 62
7
  6
BYLAYER
 10
10.5084169482
 20
49.8552405251
 11
13.6166833461
 21
49.8552405251
  0
LINE
  5
26D
100
AcDbEntity
  8
_1
100
AcDbLine
 62
7
  6
BYLAYER
 10
52.1649885161
 20
49.9254557211
 11
9.701418209
 21
49.9254557211
  0
LINE
  5
26E
100
AcDbEntity
  8
_1
100
AcDbLine
 62
7
  6
BYLAYER
 10
9.0804052683
 20
50.1702583267
 11
9.0625501471
 21
50.1702583267
  0
LINE
  5
26F
100
AcDbEntity
  8
0
100
AcDbLine
 62
7
  6
BYLAYER
 10
36.779046533
 20
68.1511073262
 11
36.779046533
 21
68.1611073262
  0
LINE
  5
270
100
AcDbEntity
  8
0
100
AcDbLine
 62
7
  6
BYLAYER
 10
37.3607581445
 20
68.1511073262
 11
37.3607581445
 21
68.1611073262
  0
LINE
  5
271
100
AcDbEntity
  8
0
100
AcDbLine
 62
7
  6
BYLAYER
 10
39.1058929791
 20
68.1511073262
 11
39.1058929791
 21
68.1611073262
  0
LINE
  5
272
100
AcDbEntity
  8
0
100
AcDbLine
 62
7
  6
BYLAYER
 10
40.6848244961
 20
68.1511073262
 11
40.6848244961
 21
68.1611073262
  0
LINE
  5
273
100
AcDbEntity
  8
_1
100
AcDbLine
 62
7
  6
BYLAYER
 10
72.6125501471
 20
59.1011073262
 11
71.2125501471
 21
58.9511073262
  0
LINE
  5
274
100
AcDbEntity
  8
_1
100
AcDbLine
 62
7
  6
BYLAYER
 10
66.3125501471
 20
57.6511073262
 11
65.5434675846
 21
57.5838213206
  0
LINE
  5
275
100
AcDbEntity
  8
_1
100
AcDbLine
 62
7
  6
BYLAYER
 10
10.978504486
 20
54.1419511553
 11
13.1465958082
 21
54.1419511553
  0
LINE
  5
276
100
AcDbEntity
  8
_1
100
AcDbLine
 62
7
  6
BYLAYER
 10
13.3987400383
 20
54.3811559545
 11
10.726360256
 21
54.3811559545
  0
LINE
  5
277
100
AcDbEntity
  8
_1
100
AcDbLine
 62
7
  6
BYLAYER
 10
63.2498254718
 20
54.4011073262
 11
63.1625501471
 21
54.4011073262
  0
LINE
  5
278
100
AcDbEntity
  8
_1
100
AcDbLine
 62
7
  6
BYLAYER
 10
58.9625501471
 20
54.4011073262
 11
58.8752748225
 21
54.4011073262
  0
LINE
  5
279
100
AcDbEntity
  8
_1
100
AcDbLine
 62
7
  6
BYLAYER
 10
9.132576892
 20
54.4011073262
 11
9.0625501471
 21
54.4011073262
  0
LINE
  5
27A
100
AcDbEntity
  8
0
100
AcDbLine
 62
7
  6
BYLAYER
 10
41.2665361077
 20
68.1511073262
 11
41.2665361077
 21
68.1611073262
  0
LINE
  5
27B
100
AcDbEntity
  8
0
100
AcDbLine
 62
7
  6
BYLAYER
 10
43.0116709422
 20
68.1511073262
 11
43.0116709422
 21
68.1611073262
  0
LINE
  5
27C
100
AcDbEntity
  8
_1
100
AcDbLine
 62
7
  6
BYLAYER
 10
58.8752748225
 20
56.4011073262
 11
58.9625501471
 21
56.4011073262
  0
LINE
  5
27D
100
AcDbEntity
  8
_1
100
AcDbLine
 62
7
  6
BYLAYER
 10
63.1625501471
 20
56.4011073262
 11
63.2498254718
 21
56.4011073262
  0
LINE
  5
27E
100
AcDbEntity
  8
_1
100
AcDbLine
 62
7
  6
BYLAYER
 10
9.7928021646
 20
57.3362221532
 11
14.5625501471
 21
57.3362221532
  0
LINE
  5
27F
100
AcDbEntity
  8
_1
100
AcDbLine
 62
7
  6
BYLAYER
 10
21.5625501471
 20
57.3362221532
 11
54.9242152085
 21
57.3362221532
  0
LINE
  5
280
100
AcDbEntity
  8
_1
100
AcDbLine
 62
7
  6
BYLAYER
 10
67.8075501471
 20
58.4011073262
 11
67.8175501471
 21
58.4011073262
  0
LINE
  5
281
100
AcDbEntity
  8
_1
100
AcDbLine
 62
7
  6
BYLAYER
 10
68.8075501471
 20
58.4011073262
 11
68.8175501471
 21
58.4011073262
  0
LINE
  5
282
100
AcDbEntity
  8
_1
100
AcDbLine
 62
7
  6
BYLAYER
 10
69.8075501471
 20
58.4011073262
 11
69.8175501471
 21
58.4011073262
  0
LINE
  5
283
100
AcDbEntity
  8
_1
100
AcDbLine
 62
7
  6
BYLAYER
 10
56.0694118771
 20
58.4814188219
 11
21.5625501471
 21
58.4814188219
  0
LINE
  5
284
100
AcDbEntity
  8
_1
100
AcDbLine
 62
7
  6
BYLAYER
 10
14.5625501471
 20
58.4814188219
 11
9.2997565595
 21
58.4814188219
  0
LINE
  5
285
100
AcDbEntity
  8
_1
100
AcDbLine
 62
7
  6
BYLAYER
 10
51.0625501471
 20
46.4011073262
 11
51.0762642034
 21
46.3873932699
  0
LINE
  5
286
100
AcDbEntity
  8
0
100
AcDbLine
 62
7
  6
BYLAYER
 10
44.7037025185
 20
68.1511073262
 11
44.7037025185
 21
68.1611073262
  0
LINE
  5
287
100
AcDbEntity
  8
_1
100
AcDbLine
 62
7
  6
BYLAYER
 10
68.3020456577
 20
66.3982888805
 11
68.307557665
 21
66.4011073262
  0
LINE
  5
288
100
AcDbEntity
  8
_1
100
AcDbLine
 62
7
  6
BYLAYER
 10
69.3020456577
 20
66.3982888805
 11
69.307557665
 21
66.4011073262
  0
LINE
  5
289
100
AcDbEntity
  8
_1
100
AcDbLine
 62
7
  6
BYLAYER
 10
66.3125501471
 20
58.9511073262
 11
67.3125501471
 21
58.9511073262
  0
LINE
  5
28A
100
AcDbEntity
  8
_1
100
AcDbLine
 62
7
  6
BYLAYER
 10
70.8125501471
 20
58.9511073262
 11
71.2125501471
 21
58.9511073262
  0
LINE
  5
28B
100
AcDbEntity
  8
_1
100
AcDbLine
 62
7
  6
BYLAYER
 10
70.0125501471
 20
59.1011073262
 11
70.8125501471
 21
59.1011073262
  0
LINE
  5
28C
100
AcDbEntity
  8
0
100
AcDbLine
 62
7
  6
BYLAYER
 10
45.8371273411
 20
68.1611073262
 11
45.8371273411
 21
68.1511073262
  0
LINE
  5
28D
100
AcDbEntity
  8
0
100
AcDbLine
 62
7
  6
BYLAYER
 10
46.2323819274
 20
68.1511073262
 11
46.2323819274
 21
68.1611073262
  0
LINE
  5
28E
100
AcDbEntity
  8
0
100
AcDbLine
 62
7
  6
BYLAYER
 10
47.5822621757
 20
68.1511073262
 11
47.5822621757
 21
68.1611073262
  0
LINE
  5
28F
100
AcDbEntity
  8
0
100
AcDbLine
 62
7
  6
BYLAYER
 10
48.7041345693
 20
68.1511073262
 11
48.7041345693
 21
68.1611073262
  0
LINE
  5
290
100
AcDbEntity
  8
_1
100
AcDbLine
 62
7
  6
BYLAYER
 10
54.9242152085
 20
57.3362221532
 11
56.0694118771
 21
58.4814188219
  0
LINE
  5
291
100
AcDbEntity
  8
_1
100
AcDbLine
 62
7
  6
BYLAYER
 10
64.323950842
 20
65.9735436159
 11
64.8875708502
 21
66.0059096534
  0
LINE
  5
292
100
AcDbEntity
  8
0
100
AcDbLine
 62
7
  6
BYLAYER
 10
25.7798416209
 20
68.1611073262
 11
24.8312943616
 21
68.4511073262
  0
LINE
  5
293
100
AcDbEntity
  8
0
100
AcDbLine
 62
7
  6
BYLAYER
 10
50.9478793567
 20
68.1511073262
 11
50.9478793567
 21
68.1611073262
  0
LINE
  5
294
100
AcDbEntity
  8
_1
100
AcDbLine
 62
7
  6
BYLAYER
 10
51.0625501471
 20
46.4011073262
 11
51.0625501471
 21
49.4011073262
  0
LINE
  5
295
100
AcDbEntity
  8
_1
100
AcDbLine
 62
7
  6
BYLAYER
 10
51.0762642034
 20
49.4148213824
 11
51.0762642034
 21
46.3873932699
  0
LINE
  5
296
100
AcDbEntity
  8
_1
100
AcDbLine
 62
7
  6
BYLAYER
 10
67.8230546368
 20
58.403925772
 11
67.8175426293
 21
58.4011073262
  0
LINE
  5
297
100
AcDbEntity
  8
_1
100
AcDbLine
 62
7
  6
BYLAYER
 10
68.8230546368
 20
58.403925772
 11
68.8175426293
 21
58.4011073262
  0
LINE
  5
298
100
AcDbEntity
  8
_1
100
AcDbLine
 62
7
  6
BYLAYER
 10
69.8230587246
 20
58.4039255979
 11
69.8175194631
 21
58.4011073262
  0
LINE
  5
299
100
AcDbEntity
  8
_1
100
AcDbLine
 62
7
  6
BYLAYER
 10
70.0125501471
 20
65.7011073262
 11
70.8125501471
 21
65.7011073262
  0
LINE
  5
29A
100
AcDbEntity
  8
_1
100
AcDbLine
 62
7
  6
BYLAYER
 10
66.3125501471
 20
65.8511073262
 11
67.3125501471
 21
65.8511073262
  0
LINE
  5
29B
100
AcDbEntity
  8
_1
100
AcDbLine
 62
7
  6
BYLAYER
 10
70.8125501471
 20
65.8511073262
 11
71.2125501471
 21
65.8511073262
  0
LINE
  5
29C
100
AcDbEntity
  8
_1
100
AcDbLine
 62
7
  6
BYLAYER
 10
67.3125501471
 20
66.4011073262
 11
67.3175501471
 21
66.4011073262
  0
LINE
  5
29D
100
AcDbEntity
  8
_1
100
AcDbLine
 62
7
  6
BYLAYER
 10
68.3075501471
 20
66.4011073262
 11
68.3175501471
 21
66.4011073262
  0
LINE
  5
29E
100
AcDbEntity
  8
_1
100
AcDbLine
 62
7
  6
BYLAYER
 10
69.3075501471
 20
66.4011073262
 11
69.3175501471
 21
66.4011073262
  0
LINE
  5
29F
100
AcDbEntity
  8
_1
100
AcDbLine
 62
7
  6
BYLAYER
 10
9.2997565595
 20
67.1645861464
 11
63.0625501471
 21
67.1645861464
  0
LINE
  5
2A0
100
AcDbEntity
  8
_1
100
AcDbLine
 62
7
  6
BYLAYER
 10
9.0625501471
 20
67.4011073262
 11
62.7625501471
 21
67.4011073262
  0
LINE
  5
2A1
100
AcDbEntity
  8
_1
100
AcDbLine
 62
7
  6
BYLAYER
 10
63.0625501471
 20
67.6639009138
 11
62.7625501471
 21
67.6639009138
  0
LINE
  5
2A2
100
AcDbEntity
  8
0
100
AcDbLine
 62
7
  6
BYLAYER
 10
33.9798416209
 20
68.1611073262
 11
33.0312943616
 21
68.4511073262
  0
LINE
  5
2A3
100
AcDbEntity
  8
_1
100
AcDbLine
 62
7
  6
BYLAYER
 10
68.3019877299
 20
66.3982889608
 11
67.8124920738
 21
65.9042430399
  0
LINE
  5
2A4
100
AcDbEntity
  8
_1
100
AcDbLine
 62
7
  6
BYLAYER
 10
69.3019877299
 20
66.3982889608
 11
68.8124920738
 21
65.9042430399
  0
LINE
  5
2A5
100
AcDbEntity
  8
_1
100
AcDbLine
 62
7
  6
BYLAYER
 10
70.0125501471
 20
66.1061480081
 11
69.8124920559
 21
65.904243057
  0
LINE
  5
2A6
100
AcDbEntity
  8
_1
100
AcDbLine
 62
7
  6
BYLAYER
 10
51.0625501471
 20
49.4011073262
 11
51.0762642034
 21
49.4148213824
  0
LINE
  5
2A7
100
AcDbEntity
  8
_1
100
AcDbLine
 62
7
  6
BYLAYER
 10
62.5125501471
 20
67.9011073262
 11
59.5125501471
 21
67.9011073262
  0
LINE
  5
2A8
100
AcDbEntity
  8
_1
100
AcDbLine
 62
7
  6
BYLAYER
 10
58.5125501471
 20
67.9011073262
 11
18.1125501471
 21
67.9011073262
  0
LINE
  5
2A9
100
AcDbEntity
  8
_1
100
AcDbLine
 62
7
  6
BYLAYER
 10
9.3125501471
 20
67.9011073262
 11
17.1125501471
 21
67.9011073262
  0
LINE
  5
2AA
100
AcDbEntity
  8
0
100
AcDbLine
 62
7
  6
BYLAYER
 10
17.1125501471
 20
67.9011073262
 11
18.1125501471
 21
67.9011073262
  0
LINE
  5
2AB
100
AcDbEntity
  8
0
100
AcDbLine
 62
7
  6
BYLAYER
 10
58.5125501471
 20
67.9011073262
 11
59.3125501471
 21
67.9011073262
  0
LINE
  5
2AC
100
AcDbEntity
  8
_1
100
AcDbLine
 62
7
  6
BYLAYER
 10
62.7625501471
 20
67.9011073262
 11
63.0625501471
 21
67.9011073262
  0
LINE
  5
2AD
100
AcDbEntity
  8
_1
100
AcDbLine
 62
7
  6
BYLAYER
 10
13.1125501471
 20
68.0011073262
 11
16.1125501471
 21
68.0011073262
  0
LINE
  5
2AE
100
AcDbEntity
  8
0
100
AcDbLine
 62
7
  6
BYLAYER
 10
17.1125501471
 20
68.1511073262
 11
59.3125501471
 21
68.1511073262
  0
LINE
  5
2AF
100
AcDbEntity
  8
0
100
AcDbLine
 62
7
  6
BYLAYER
 10
50.9477803779
 20
68.1611073262
 11
44.703754238
 21
68.1611073262
  0
LINE
  5
2B0
100
AcDbEntity
  8
0
100
AcDbLine
 62
7
  6
BYLAYER
 10
43.0116709422
 20
68.1611073262
 11
40.6848244961
 21
68.1611073262
  0
LINE
  5
2B1
100
AcDbEntity
  8
0
100
AcDbLine
 62
7
  6
BYLAYER
 10
39.1058929791
 20
68.1611073262
 11
36.779046533
 21
68.1611073262
  0
LINE
  5
2B2
100
AcDbEntity
  8
0
100
AcDbLine
 62
7
  6
BYLAYER
 10
34.5125501471
 20
68.1611073262
 11
28.5125501471
 21
68.1611073262
  0
LINE
  5
2B3
100
AcDbEntity
  8
0
100
AcDbLine
 62
7
  6
BYLAYER
 10
26.3125501471
 20
68.1611073262
 11
20.3125501471
 21
68.1611073262
  0
LINE
  5
2B4
100
AcDbEntity
  8
0
100
AcDbLine
 62
7
  6
BYLAYER
 10
33.0312943616
 20
68.4511073262
 11
29.9938059327
 21
68.4511073262
  0
LINE
  5
2B5
100
AcDbEntity
  8
0
100
AcDbLine
 62
7
  6
BYLAYER
 10
24.8312943616
 20
68.4511073262
 11
21.7938059327
 21
68.4511073262
  0
LINE
  5
2B6
100
AcDbEntity
  8
_1
100
AcDbLine
 62
7
  6
BYLAYER
 10
66.3125501471
 20
67.1511073262
 11
64.4807001785
 21
67.3113734317
  0
LINE
  5
2B7
100
AcDbEntity
  8
_1
100
AcDbLine
 62
7
  6
BYLAYER
 10
72.6125501471
 20
65.7011073262
 11
71.2125501471
 21
65.8511073262
  0
LINE
  5
2B8
100
AcDbEntity
  8
_1
100
AcDbLine
 62
7
  6
BYLAYER
 10
56.0694118771
 20
44.2411392963
 11
56.0694118771
 21
58.4814188219
  0
LINE
  5
2B9
100
AcDbEntity
  8
_1
100
AcDbLine
 62
7
  6
BYLAYER
 10
69.8019654443
 20
58.4039256606
 11
69.8075279042
 21
58.4011073262
  0
LINE
  5
2BA
100
AcDbEntity
  8
_1
100
AcDbLine
 62
7
  6
BYLAYER
 10
67.8020456577
 20
58.4039257718
 11
67.807557665
 21
58.4011073262
  0
LINE
  5
2BB
100
AcDbEntity
  8
_1
100
AcDbLine
 62
7
  6
BYLAYER
 10
68.8020456577
 20
58.4039257718
 11
68.807557665
 21
58.4011073262
  0
LINE
  5
2BC
100
AcDbEntity
  8
0
100
AcDbLine
 62
7
  6
BYLAYER
 10
58.8125501471
 20
68.1511073262
 11
58.8125501471
 21
67.9011073262
  0
LINE
  5
2BD
100
AcDbEntity
  8
_1
100
AcDbLine
 62
7
  6
BYLAYER
 10
58.8752748225
 20
54.4011073262
 11
58.8752748225
 21
56.4011073262
  0
LINE
  5
2BE
100
AcDbEntity
  8
_1
100
AcDbLine
 62
7
  6
BYLAYER
 10
58.9625501471
 20
54.4011073262
 11
58.9625501471
 21
56.4011073262
  0
LINE
  5
2BF
100
AcDbEntity
  8
0
100
AcDbLine
 62
7
  6
BYLAYER
 10
59.3125501471
 20
68.1511073262
 11
59.3125501471
 21
67.9011073262
  0
LINE
  5
2C0
100
AcDbEntity
  8
_1
100
AcDbLine
 62
7
  6
BYLAYER
 10
67.8231125646
 20
58.4039256917
 11
68.3126082182
 21
58.8979716124
  0
LINE
  5
2C1
100
AcDbEntity
  8
_1
100
AcDbLine
 62
7
  6
BYLAYER
 10
68.8231125646
 20
58.4039256917
 11
69.3126082182
 21
58.8979716124
  0
LINE
  5
2C2
100
AcDbEntity
  8
_1
100
AcDbLine
 62
7
  6
BYLAYER
 10
59.5125501471
 20
67.6011073262
 11
58.5125501471
 21
67.9011073262
  0
LINE
  5
2C3
100
AcDbEntity
  8
_1
100
AcDbLine
 62
7
  6
BYLAYER
 10
59.5125501471
 20
67.6011073262
 11
59.5125501471
 21
67.9011073262
  0
LINE
  5
2C4
100
AcDbEntity
  8
_1
100
AcDbLine
 62
7
  6
BYLAYER
 10
59.5625501471
 20
43.6011073262
 11
59.5625501471
 21
43.4511073262
  0
LINE
  5
2C5
100
AcDbEntity
  8
_1
100
AcDbLine
 62
7
  6
BYLAYER
 10
60.0625501471
 20
43.4011073262
 11
60.0625501471
 21
43.6011073262
  0
LINE
  5
2C6
100
AcDbEntity
  8
_1
100
AcDbLine
 62
7
  6
BYLAYER
 10
61.0625501471
 20
44.1376285059
 11
61.0625501471
 21
43.4011073262
  0
LINE
  5
2C7
100
AcDbEntity
  8
_1
100
AcDbLine
 62
7
  6
BYLAYER
 10
69.8231122492
 20
58.4039255231
 11
70.0125501471
 21
58.5951366204
  0
LINE
  5
2C8
100
AcDbEntity
  8
_1
100
AcDbLine
 62
7
  6
BYLAYER
 10
62.5125501471
 20
67.9011073262
 11
62.5125501471
 21
67.4011073262
  0
LINE
  5
2C9
100
AcDbEntity
  8
_1
100
AcDbLine
 62
7
  6
BYLAYER
 10
62.7625501471
 20
67.4011073262
 11
62.7625501471
 21
67.9011073262
  0
LINE
  5
2CA
100
AcDbEntity
  8
_1
100
AcDbLine
 62
7
  6
BYLAYER
 10
63.0625501471
 20
67.9011073262
 11
63.0625501471
 21
67.1645861464
  0
LINE
  5
2CB
100
AcDbEntity
  8
_1
100
AcDbLine
 62
7
  6
BYLAYER
 10
63.1625501471
 20
56.4011073262
 11
63.1625501471
 21
54.4011073262
  0
LINE
  5
2CC
100
AcDbEntity
  8
_1
100
AcDbLine
 62
7
  6
BYLAYER
 10
63.2498254718
 20
56.4011073262
 11
63.2498254718
 21
54.4011073262
  0
LINE
  5
2CD
100
AcDbEntity
  8
_1
100
AcDbLine
 62
7
  6
BYLAYER
 10
68.3230546368
 20
66.3982888803
 11
68.3175426293
 21
66.4011073262
  0
LINE
  5
2CE
100
AcDbEntity
  8
_1
100
AcDbLine
 62
7
  6
BYLAYER
 10
69.3230546368
 20
66.3982888803
 11
69.3175426293
 21
66.4011073262
  0
LINE
  5
2CF
100
AcDbEntity
  8
_1
100
AcDbLine
 62
7
  6
BYLAYER
 10
67.3230173155
 20
66.3982888283
 11
67.3175061769
 21
66.4011073262
  0
LINE
  5
2D0
100
AcDbEntity
  8
_1
100
AcDbLine
 62
7
  6
BYLAYER
 10
67.3125501471
 20
58.8979132379
 11
67.8019877299
 21
58.4039256915
  0
LINE
  5
2D1
100
AcDbEntity
  8
_1
100
AcDbLine
 62
7
  6
BYLAYER
 10
68.3062211011
 20
58.904300392
 11
68.8019877299
 21
58.4039256915
  0
LINE
  5
2D2
100
AcDbEntity
  8
_1
100
AcDbLine
 62
7
  6
BYLAYER
 10
69.3062211011
 20
58.904300392
 11
69.8019877299
 21
58.4039256915
  0
LINE
  5
2D3
100
AcDbEntity
  8
_1
100
AcDbLine
 62
7
  6
BYLAYER
 10
65.319016548
 20
48.6455361067
 11
64.323950842
 21
65.9735436159
  0
LINE
  5
2D4
100
AcDbEntity
  8
_1
100
AcDbLine
 62
7
  6
BYLAYER
 10
64.8224443541
 20
66.0021697461
 11
64.9258134867
 21
64.2021066003
  0
LINE
  5
2D5
100
AcDbEntity
  8
_1
100
AcDbLine
 62
7
  6
BYLAYER
 10
65.1298535839
 20
60.6489660229
 11
65.8175100601
 21
48.6741622368
  0
LINE
  5
2D6
100
AcDbEntity
  8
_1
100
AcDbLine
 62
7
  6
BYLAYER
 10
65.5434675846
 20
57.5838213206
 11
66.0543263238
 21
48.6877614774
  0
LINE
  5
2D7
100
AcDbEntity
  8
_1
100
AcDbLine
 62
7
  6
BYLAYER
 10
66.3125501471
 20
67.151098329
 11
66.3125501471
 21
57.6511163233
  0
LINE
  5
2D8
100
AcDbEntity
  8
_1
100
AcDbLine
 62
7
  6
BYLAYER
 10
67.3125501471
 20
58.8979760714
 11
67.3125501471
 21
66.4011072991
  0
LINE
  5
2D9
100
AcDbEntity
  8
_1
100
AcDbLine
 62
7
  6
BYLAYER
 10
67.8188791928
 20
65.8979142606
 11
67.3231125646
 21
66.3982889606
  0
LINE
  5
2DA
100
AcDbEntity
  8
_1
100
AcDbLine
 62
7
  6
BYLAYER
 10
68.8188791928
 20
65.8979142606
 11
68.3231125646
 21
66.3982889606
  0
LINE
  5
2DB
100
AcDbEntity
  8
_1
100
AcDbLine
 62
7
  6
BYLAYER
 10
69.8188792546
 20
65.8979141983
 11
69.3231125646
 21
66.3982889606
  0
LINE
  5
2DC
100
AcDbEntity
  8
_1
100
AcDbLine
 62
7
  6
BYLAYER
 10
70.0125501471
 20
66.1059511759
 11
70.0125501471
 21
58.5949096377
  0
LINE
  5
2DD
100
AcDbEntity
  8
_1
100
AcDbLine
 62
7
  6
BYLAYER
 10
70.8125501471
 20
58.9511530464
 11
70.8125501471
 21
65.8510616059
  0
LINE
  5
2DE
100
AcDbEntity
  8
_1
100
AcDbLine
 62
7
  6
BYLAYER
 10
71.2125501471
 20
65.8511073262
 11
71.2125501471
 21
58.9511073262
  0
LINE
  5
2DF
100
AcDbEntity
  8
_1
100
AcDbLine
 62
7
  6
BYLAYER
 10
72.6125501471
 20
65.7011036833
 11
72.6125501471
 21
59.101110969
  0
LINE
  5
2E0
100
AcDbEntity
  8
_1
100
AcDbLine
 62
7
  6
BYLAYER
 10
72.778101377
 20
63.8311817995
 11
72.778101377
 21
63.7311817995
  0
LINE
  5
2E1
100
AcDbEntity
  8
_1
100
AcDbLine
 62
7
  6
BYLAYER
 10
72.778101377
 20
61.8311817995
 11
72.778101377
 21
61.7311817995
  0
ARC
  5
2E2
100
AcDbEntity
  8
_1
100
AcDbCircle
 62
7
  6
BYLAYER
 10
18.0625501471
 20
54.4011073262
 40
3.5
100
AcDbArc
 50
180.0
 51
360.0
  0
ARC
  5
2E3
100
AcDbEntity
  8
_1
100
AcDbCircle
 62
7
  6
BYLAYER
 10
12.0625501471
 20
52.5011073262
 40
3.0
100
AcDbArc
 50
244.3202495619
 51
295.6797303974
  0
CIRCLE
  5
2E4
100
AcDbEntity
  8
_1
100
AcDbCircle
 62
7
  6
BYLAYER
 10
18.0625501471
 20
54.4011073262
 40
2.1872753246
  0
CIRCLE
  5
2E5
100
AcDbEntity
  8
_1
100
AcDbCircle
 62
7
  6
BYLAYER
 10
18.0625501471
 20
54.4011073262
 40
2.1
  0
ARC
  5
2E6
100
AcDbEntity
  8
_1
100
AcDbCircle
 62
7
  6
BYLAYER
 10
12.0625501471
 20
44.9611073262
 40
1.34
100
AcDbArc
 50
66.1330901222
 51
113.8669104527
  0
ARC
  5
2E7
100
AcDbEntity
  8
_1
100
AcDbCircle
 62
7
  6
BYLAYER
 10
9.5616394481
 20
49.9001966271
 40
0.4990887421
100
AcDbArc
 50
179.9741163053
 51
270.0258836947
  0
ARC
  5
2E8
100
AcDbEntity
  8
_1
100
AcDbCircle
 62
7
  6
BYLAYER
 10
9.561639448
 20
45.9020180253
 40
0.4990887421
100
AcDbArc
 50
89.9741163003
 51
180.0258836997
  0
ARC
  5
2E9
100
AcDbEntity
  8
_1
100
AcDbCircle
 62
7
  6
BYLAYER
 10
12.0848206637
 20
50.2661107778
 40
0.3277219898
100
AcDbArc
 50
357.8943176182
 51
0.0016929751
  0
ARC
  5
2EA
100
AcDbEntity
  8
_1
100
AcDbCircle
 62
7
  6
BYLAYER
 10
12.0366476499
 20
50.2660440843
 40
0.324090018
100
AcDbArc
 50
179.9864973349
 51
182.117492072
  0
ARC
  5
2EB
100
AcDbEntity
  8
_1
100
AcDbCircle
 62
7
  6
BYLAYER
 10
9.0625501471
 20
54.2011073262
 40
0.2
100
AcDbArc
 50
90.0
 51
180.0
  0
ARC
  5
2EC
100
AcDbEntity
  8
_1
100
AcDbCircle
 62
7
  6
BYLAYER
 10
9.0625501471
 20
45.7017925588
 40
0.2
100
AcDbArc
 50
90.0
 51
180.0
  0
ARC
  5
2ED
100
AcDbEntity
  8
_1
100
AcDbCircle
 62
7
  6
BYLAYER
 10
9.0625501471
 20
50.1004220935
 40
0.2
100
AcDbArc
 50
180.0
 51
270.0
  0
ARC
  5
2EE
100
AcDbEntity
  8
_1
100
AcDbCircle
 62
7
  6
BYLAYER
 10
9.0625501471
 20
44.3517925588
 40
0.2
100
AcDbArc
 50
180.0
 51
270.0
  0
ARC
  5
2EF
100
AcDbEntity
  8
_1
100
AcDbCircle
 62
7
  6
BYLAYER
 10
11.4294360158
 20
56.3650820219
 40
2.8090832317
100
AcDbArc
 50
307.6827158881
 51
309.1858166926
  0
ARC
  5
2F0
100
AcDbEntity
  8
_1
100
AcDbCircle
 62
7
  6
BYLAYER
 10
12.6956642785
 20
56.3650820218
 40
2.8090832317
100
AcDbArc
 50
230.8141833074
 51
232.3172841119
  0
ARC
  5
2F1
100
AcDbEntity
  8
_1
100
AcDbCircle
 62
7
  6
BYLAYER
 10
9.7997348644
 20
67.1633845183
 40
0.4998993139
100
AcDbArc
 50
151.6053951445
 51
153.7860543657
  0
ARC
  5
2F2
100
AcDbEntity
  8
_1
100
AcDbCircle
 62
7
  6
BYLAYER
 10
61.0625501471
 20
48.4011073262
 40
5.0
100
AcDbArc
 50
270.0
 51
3.2866167106
  0
ARC
  5
2F3
100
AcDbEntity
  8
_1
100
AcDbCircle
 62
7
  6
BYLAYER
 10
61.0625501471
 20
48.4011073262
 40
4.7627935876
100
AcDbArc
 50
270.0
 51
3.2866167106
  0
ARC
  5
2F4
100
AcDbEntity
  8
_1
100
AcDbCircle
 62
7
  6
BYLAYER
 10
61.0625501471
 20
48.4011073262
 40
4.2634788202
100
AcDbArc
 50
270.0
 51
3.2866167106
  0
CIRCLE
  5
2F5
100
AcDbEntity
  8
_1
100
AcDbCircle
 62
7
  6
BYLAYER
 10
61.0625501471
 20
48.4011073262
 40
2.1872753246
  0
ARC
  5
2F6
100
AcDbEntity
  8
_1
100
AcDbCircle
 62
7
  6
BYLAYER
 10
61.0625501471
 20
54.4011073262
 40
2.1872753246
100
AcDbArc
 50
180.0
 51
360.0
  0
ARC
  5
2F7
100
AcDbEntity
  8
_1
100
AcDbCircle
 62
7
  6
BYLAYER
 10
61.0625501471
 20
54.4011073262
 40
2.1
100
AcDbArc
 50
180.0
 51
360.0
  0
CIRCLE
  5
2F8
100
AcDbEntity
  8
_1
100
AcDbCircle
 62
7
  6
BYLAYER
 10
61.0625501471
 20
48.4011073262
 40
2.1
  0
ARC
  5
2F9
100
AcDbEntity
  8
_1
100
AcDbCircle
 62
7
  6
BYLAYER
 10
61.0625501471
 20
56.4011073262
 40
2.1872753246
100
AcDbArc
 50
0.0
 51
180.0
  0
ARC
  5
2FA
100
AcDbEntity
  8
_1
100
AcDbCircle
 62
7
  6
BYLAYER
 10
61.0625501471
 20
56.4011073262
 40
2.1
100
AcDbArc
 50
0.0
 51
180.0
  0
ARC
  5
2FB
100
AcDbEntity
  8
_1
100
AcDbCircle
 62
7
  6
BYLAYER
 10
63.0625501471
 20
65.9011073262
 40
2.0
100
AcDbArc
 50
44.8402941834
 51
90.0
  0
ARC
  5
2FC
100
AcDbEntity
  8
_1
100
AcDbCircle
 62
7
  6
BYLAYER
 10
63.0625501471
 20
65.9011073262
 40
1.7627935876
100
AcDbArc
 50
3.2866167106
 51
90.0
  0
ARC
  5
2FD
100
AcDbEntity
  8
_1
100
AcDbCircle
 62
7
  6
BYLAYER
 10
63.0625501471
 20
65.9011073262
 40
1.2634788202
100
AcDbArc
 50
3.2866167106
 51
90.0
  0
ARC
  5
2FE
100
AcDbEntity
  8
_1
100
AcDbCircle
 62
7
  6
BYLAYER
 10
72.328101377
 20
61.7311817995
 40
0.45
100
AcDbArc
 50
306.0104113432
 51
360.0
  0
ARC
  5
2FF
100
AcDbEntity
  8
_1
100
AcDbCircle
 62
7
  6
BYLAYER
 10
72.328101377
 20
61.8311817995
 40
0.45
100
AcDbArc
 50
0.0
 51
53.9895886568
  0
ARC
  5
300
100
AcDbEntity
  8
_1
100
AcDbCircle
 62
7
  6
BYLAYER
 10
72.328101377
 20
63.7311817995
 40
0.45
100
AcDbArc
 50
306.0104113432
 51
360.0
  0
ARC
  5
301
100
AcDbEntity
  8
_1
100
AcDbCircle
 62
7
  6
BYLAYER
 10
72.328101377
 20
63.8311817995
 40
0.45
100
AcDbArc
 50
0.0
 51
53.9895886568
  0
SPLINE
  5
302
100
AcDbEntity
  8
_1
100
AcDbSpline
 62
7
  6
BYLAYER
 70
0
 71
3
 72
29
 73
25
 74
0
 42
0.0000001
 43
0.0000001
 44
0.0000000001
 40
0.0
 40
0.0
 40
0.0
 40
0.0
 40
0.1938321522
 40
0.2873689044
 40
0.3769534795
 40
0.4613847781
 40
0.5411290468
 40
0.6169838035
 40
0.6889266858
 40
0.7555172491
 40
0.8155680316
 40
0.8681414849
 40
0.8913557765
 40
0.912418335
 40
0.9312653067
 40
0.9478516713
 40
0.9621577119
 40
0.9741694763
 40
0.9839012077
 40
0.9913901878
 40
0.9943110616
 40
0.9967006233
 40
0.9985831361
 40
1.0
 40
1.0
 40
1.0
 40
1.0
 10
68.5675501471
 20
62.4011073262
 30
0.0
 10
68.5567645786
 20
62.6599159063
 30
0.0
 10
68.5407865562
 20
63.0436171496
 30
0.0
 10
68.5198079427
 20
63.5469328518
 30
0.0
 10
68.5048789251
 20
63.9041727784
 30
0.0
 10
68.4909269467
 20
64.2430053769
 30
0.0
 10
68.4773878887
 20
64.5634911822
 30
0.0
 10
68.4634559155
 20
64.8672554343
 30
0.0
 10
68.4485818346
 20
65.1533748349
 30
0.0
 10
68.4331213578
 20
65.4183101648
 30
0.0
 10
68.4172644109
 20
65.6572863383
 30
0.0
 10
68.4033943108
 20
65.838292654
 30
0.0
 10
68.3920923502
 20
65.9672282026
 30
0.0
 10
68.3840135597
 20
66.0511990544
 30
0.0
 10
68.376010119
 20
66.1262751618
 30
0.0
 10
68.3681082277
 20
66.1922770363
 30
0.0
 10
68.3603382854
 20
66.2490872764
 30
0.0
 10
68.3527224534
 20
66.2966649239
 30
0.0
 10
68.3453020353
 20
66.3350241319
 30
0.0
 10
68.3389633475
 20
66.3612090817
 30
0.0
 10
68.3338315687
 20
66.377531679
 30
0.0
 10
68.3303780698
 20
66.386515862
 30
0.0
 10
68.3269928227
 20
66.3933307794
 30
0.0
 10
68.3244199939
 20
66.3969692309
 30
0.0
 10
68.3230873935
 20
66.3983143681
 30
0.0
  0
SPLINE
  5
303
100
AcDbEntity
  8
_1
100
AcDbSpline
 62
7
  6
BYLAYER
 70
0
 71
3
 72
11
 73
7
 74
0
 42
0.0000001
 43
0.0000001
 44
0.0000000001
 40
0.0
 40
0.0
 40
0.0
 40
0.0
 40
0.1704456414
 40
0.3801241054
 40
0.6527086115
 40
1.0
 40
1.0
 40
1.0
 40
1.0
 10
67.8175501471
 20
58.4011073262
 30
0.0
 10
67.8165705105
 20
58.4011073262
 30
0.0
 10
67.814376579
 20
58.4017489822
 30
0.0
 10
67.8114802105
 20
58.4042251389
 30
0.0
 10
67.808644786
 20
58.408084301
 30
0.0
 10
67.8069625877
 20
58.4112356939
 30
0.0
 10
67.8060942335
 20
58.4130329718
 30
0.0
  0
SPLINE
  5
304
100
AcDbEntity
  8
_1
100
AcDbSpline
 62
7
  6
BYLAYER
 70
0
 71
3
 72
26
 73
22
 74
0
 42
0.0000001
 43
0.0000001
 44
0.0000000001
 40
0.0
 40
0.0
 40
0.0
 40
0.0
 40
0.0021834233
 40
0.004865317
 40
0.0117829264
 40
0.0208219346
 40
0.0320191264
 40
0.0453952507
 40
0.0609411117
 40
0.0984606479
 40
0.1442365278
 40
0.1976863585
 40
0.2580038917
 40
0.3243008384
 40
0.39536638
 40
0.4700061215
 40
0.5484343362
 40
0.6314368691
 40
0.7192799389
 40
0.8107654349
 40
1.0
 40
1.0
 40
1.0
 40
1.0
 10
67.8060942335
 20
58.4130329718
 30
0.0
 10
67.8048283106
 20
58.4156531185
 30
0.0
 10
67.8023550242
 20
58.421658462
 30
0.0
 10
67.7973808555
 20
58.4365595454
 30
0.0
 10
67.7912531645
 20
58.4606596273
 30
0.0
 10
67.7840759978
 20
58.4961342113
 30
0.0
 10
67.7766988001
 20
58.5403271606
 30
0.0
 10
67.7691687368
 20
58.5932657363
 30
0.0
 10
67.7582606509
 20
58.6811443456
 30
0.0
 10
67.7447860063
 20
58.8121953432
 30
0.0
 10
67.7291863168
 20
58.9937769679
 30
0.0
 10
67.7136001848
 20
59.2058392015
 30
0.0
 10
67.6982425184
 20
59.445328755
 30
0.0
 10
67.6832935959
 20
59.7083623472
 30
0.0
 10
67.6689789492
 20
59.9905451532
 30
0.0
 10
67.6555484662
 20
60.2889558956
 30
0.0
 10
67.642355766
 20
60.603299928
 30
0.0
 10
67.6286748268
 20
60.9352354078
 30
0.0
 10
67.6140685205
 20
61.2845494351
 30
0.0
 10
67.5936200978
 20
61.7753225976
 30
0.0
 10
67.5780512185
 20
62.1491254887
 30
0.0
 10
67.5675501471
 20
62.4011073262
 30
0.0
  0
SPLINE
  5
305
100
AcDbEntity
  8
_1
100
AcDbSpline
 62
7
  6
BYLAYER
 70
0
 71
3
 72
11
 73
7
 74
0
 42
0.0000001
 43
0.0000001
 44
0.0000000001
 40
0.0
 40
0.0
 40
0.0
 40
0.0
 40
0.1704456414
 40
0.3801241054
 40
0.6527086115
 40
1.0
 40
1.0
 40
1.0
 40
1.0
 10
68.3075501472
 20
66.4011073262
 30
0.0
 10
68.3085297838
 20
66.4011073261
 30
0.0
 10
68.3107237153
 20
66.4004656702
 30
0.0
 10
68.3136200837
 20
66.3979895134
 30
0.0
 10
68.3164555082
 20
66.3941303513
 30
0.0
 10
68.3181377066
 20
66.3909789584
 30
0.0
 10
68.3190060607
 20
66.3891816805
 30
0.0
  0
SPLINE
  5
306
100
AcDbEntity
  8
_1
100
AcDbSpline
 62
7
  6
BYLAYER
 70
0
 71
3
 72
26
 73
22
 74
0
 42
0.0000001
 43
0.0000001
 44
0.0000000001
 40
0.0
 40
0.0
 40
0.0
 40
0.0
 40
0.0021834233
 40
0.004865317
 40
0.0117829264
 40
0.0208219346
 40
0.0320191264
 40
0.0453952507
 40
0.0609411117
 40
0.0984606479
 40
0.1442365278
 40
0.1976863585
 40
0.2580038917
 40
0.3243008384
 40
0.39536638
 40
0.4700061215
 40
0.5484343362
 40
0.6314368691
 40
0.7192799389
 40
0.8107654349
 40
1.0
 40
1.0
 40
1.0
 40
1.0
 10
68.3190060607
 20
66.3891816805
 30
0.0
 10
68.3202719837
 20
66.3865615338
 30
0.0
 10
68.32274527
 20
66.3805561903
 30
0.0
 10
68.3277194388
 20
66.3656551069
 30
0.0
 10
68.3338471297
 20
66.341555025
 30
0.0
 10
68.3410242964
 20
66.306080441
 30
0.0
 10
68.3484014941
 20
66.2618874917
 30
0.0
 10
68.3559315574
 20
66.208948916
 30
0.0
 10
68.3668396433
 20
66.1210703067
 30
0.0
 10
68.380314288
 20
65.9900193091
 30
0.0
 10
68.3959139774
 20
65.8084376844
 30
0.0
 10
68.4115001094
 20
65.5963754508
 30
0.0
 10
68.4268577759
 20
65.3568858973
 30
0.0
 10
68.4418066984
 20
65.0938523051
 30
0.0
 10
68.4561213451
 20
64.8116694991
 30
0.0
 10
68.4695518281
 20
64.5132587567
 30
0.0
 10
68.4827445283
 20
64.1989147243
 30
0.0
 10
68.4964254675
 20
63.8669792445
 30
0.0
 10
68.5110317738
 20
63.5176652172
 30
0.0
 10
68.5314801965
 20
63.0268920547
 30
0.0
 10
68.5470490757
 20
62.6530891636
 30
0.0
 10
68.5575501471
 20
62.4011073262
 30
0.0
  0
SPLINE
  5
307
100
AcDbEntity
  8
_1
100
AcDbSpline
 62
7
  6
BYLAYER
 70
0
 71
3
 72
11
 73
7
 74
0
 42
0.0000001
 43
0.0000001
 44
0.0000000001
 40
0.0
 40
0.0
 40
0.0
 40
0.0
 40
0.1704456414
 40
0.3801241054
 40
0.6527086115
 40
1.0
 40
1.0
 40
1.0
 40
1.0
 10
68.8175501471
 20
58.4011073262
 30
0.0
 10
68.8165705105
 20
58.4011073262
 30
0.0
 10
68.814376579
 20
58.4017489822
 30
0.0
 10
68.8114802105
 20
58.4042251389
 30
0.0
 10
68.808644786
 20
58.408084301
 30
0.0
 10
68.8069625877
 20
58.4112356939
 30
0.0
 10
68.8060942335
 20
58.4130329718
 30
0.0
  0
SPLINE
  5
308
100
AcDbEntity
  8
_1
100
AcDbSpline
 62
7
  6
BYLAYER
 70
0
 71
3
 72
26
 73
22
 74
0
 42
0.0000001
 43
0.0000001
 44
0.0000000001
 40
0.0
 40
0.0
 40
0.0
 40
0.0
 40
0.0021834233
 40
0.004865317
 40
0.0117829264
 40
0.0208219346
 40
0.0320191264
 40
0.0453952507
 40
0.0609411117
 40
0.0984606479
 40
0.1442365278
 40
0.1976863585
 40
0.2580038917
 40
0.3243008384
 40
0.39536638
 40
0.4700061215
 40
0.5484343362
 40
0.6314368691
 40
0.7192799389
 40
0.8107654349
 40
1.0
 40
1.0
 40
1.0
 40
1.0
 10
68.8060942335
 20
58.4130329718
 30
0.0
 10
68.8048283106
 20
58.4156531185
 30
0.0
 10
68.8023550242
 20
58.421658462
 30
0.0
 10
68.7973808555
 20
58.4365595454
 30
0.0
 10
68.7912531645
 20
58.4606596273
 30
0.0
 10
68.7840759978
 20
58.4961342113
 30
0.0
 10
68.7766988001
 20
58.5403271606
 30
0.0
 10
68.7691687368
 20
58.5932657363
 30
0.0
 10
68.7582606509
 20
58.6811443456
 30
0.0
 10
68.7447860063
 20
58.8121953432
 30
0.0
 10
68.7291863168
 20
58.9937769679
 30
0.0
 10
68.7136001848
 20
59.2058392015
 30
0.0
 10
68.6982425184
 20
59.445328755
 30
0.0
 10
68.6832935959
 20
59.7083623472
 30
0.0
 10
68.6689789492
 20
59.9905451532
 30
0.0
 10
68.6555484662
 20
60.2889558956
 30
0.0
 10
68.642355766
 20
60.603299928
 30
0.0
 10
68.6286748268
 20
60.9352354078
 30
0.0
 10
68.6140685205
 20
61.2845494351
 30
0.0
 10
68.5936200978
 20
61.7753225976
 30
0.0
 10
68.5780512185
 20
62.1491254887
 30
0.0
 10
68.5675501471
 20
62.4011073262
 30
0.0
  0
SPLINE
  5
309
100
AcDbEntity
  8
_1
100
AcDbSpline
 62
7
  6
BYLAYER
 70
0
 71
3
 72
46
 73
42
 74
0
 42
0.0000001
 43
0.0000001
 44
0.0000000001
 40
0.0
 40
0.0
 40
0.0
 40
0.0
 40
0.0007921148
 40
0.0018134079
 40
0.0030844269
 40
0.0046177313
 40
0.0084977575
 40
0.0134867703
 40
0.0196043363
 40
0.026856793
 40
0.0352374756
 40
0.0447366314
 40
0.0669884073
 40
0.0933384992
 40
0.1233783515
 40
0.156643843
 40
0.2112283871
 40
0.2701215988
 40
0.3014437439
 40
0.3342463314
 40
0.4034591797
 40
0.4756471299
 40
0.5486218206
 40
0.6200444606
 40
0.6877893835
 40
0.7500211763
 40
0.8074620977
 40
0.8603645617
 40
0.8844555099
 40
0.9066642856
 40
0.9267970523
 40
0.9446722249
 40
0.9601547382
 40
0.9731460278
 40
0.9835989752
 40
0.9878682321
 40
0.9915049894
 40
0.994517861
 40
0.9969184302
 40
0.9987295562
 40
1.0
 40
1.0
 40
1.0
 40
1.0
 10
69.3062211011
 20
58.904300392
 30
0.0
 10
69.3049164408
 20
58.9056170275
 30
0.0
 10
69.302370942
 20
58.9090578043
 30
0.0
 10
69.2989715818
 20
58.9154345472
 30
0.0
 10
69.2955091003
 20
58.9237014525
 30
0.0
 10
69.2903905363
 20
58.9384879111
 30
0.0
 10
69.2840483806
 20
58.9620137085
 30
0.0
 10
69.2766256718
 20
58.9962937566
 30
0.0
 10
69.2690177093
 20
59.0385828412
 30
0.0
 10
69.2612605334
 20
59.0888883313
 30
0.0
 10
69.2533746462
 20
59.1471697747
 30
0.0
 10
69.2421279702
 20
59.2404046212
 30
0.0
 10
69.2282409815
 20
59.3756601367
 30
0.0
 10
69.2122634002
 20
59.558991884
 30
0.0
 10
69.1964791256
 20
59.7681956486
 30
0.0
 10
69.1781724772
 20
60.0434535991
 30
0.0
 10
69.158626956
 20
60.3862840558
 30
0.0
 10
69.1422558369
 20
60.724722776
 30
0.0
 10
69.1286882823
 20
61.0122657387
 30
0.0
 10
69.1138733965
 20
61.3239249625
 30
0.0
 10
69.0944365552
 20
61.7310987086
 30
0.0
 10
69.0706046954
 20
62.2321727883
 30
0.0
 10
69.0464747326
 20
62.7384094669
 30
0.0
 10
69.0229100645
 20
63.23426451
 30
0.0
 10
69.0003664858
 20
63.7050014046
 30
0.0
 10
68.9798624405
 20
64.1430803753
 30
0.0
 10
68.9595153474
 20
64.5463980638
 30
0.0
 10
68.9404592652
 20
64.8604055199
 30
0.0
 10
68.9243096247
 20
65.0919784687
 30
0.0
 10
68.9123646349
 20
65.2469731149
 30
0.0
 10
68.9003071546
 20
65.3873662332
 30
0.0
 10
68.8882331621
 20
65.5119534526
 30
0.0
 10
68.8762657942
 20
65.6197537303
 30
0.0
 10
68.8645035373
 20
65.7100848475
 30
0.0
 10
68.8544226829
 20
65.7741633629
 30
0.0
 10
68.8462649341
 20
65.8163456735
 30
0.0
 10
68.8406788025
 20
65.841284565
 30
0.0
 10
68.8352386792
 20
65.8617537897
 30
0.0
 10
68.8299710552
 20
65.8778459598
 30
0.0
 10
68.8249011788
 20
65.8896227144
 30
0.0
 10
68.8209716896
 20
65.8958025574
 30
0.0
 10
68.8188791928
 20
65.8979142606
 30
0.0
  0
SPLINE
  5
30A
100
AcDbEntity
  8
_1
100
AcDbSpline
 62
7
  6
BYLAYER
 70
0
 71
3
 72
11
 73
7
 74
0
 42
0.0000001
 43
0.0000001
 44
0.0000000001
 40
0.0
 40
0.0
 40
0.0
 40
0.0
 40
0.1704456414
 40
0.3801241054
 40
0.6527086115
 40
1.0
 40
1.0
 40
1.0
 40
1.0
 10
69.3075501472
 20
66.4011073262
 30
0.0
 10
69.3085297838
 20
66.4011073261
 30
0.0
 10
69.3107237153
 20
66.4004656702
 30
0.0
 10
69.3136200837
 20
66.3979895134
 30
0.0
 10
69.3164555082
 20
66.3941303513
 30
0.0
 10
69.3181377066
 20
66.3909789584
 30
0.0
 10
69.3190060607
 20
66.3891816805
 30
0.0
  0
SPLINE
  5
30B
100
AcDbEntity
  8
_1
100
AcDbSpline
 62
7
  6
BYLAYER
 70
0
 71
3
 72
26
 73
22
 74
0
 42
0.0000001
 43
0.0000001
 44
0.0000000001
 40
0.0
 40
0.0
 40
0.0
 40
0.0
 40
0.0021834233
 40
0.004865317
 40
0.0117829264
 40
0.0208219346
 40
0.0320191264
 40
0.0453952507
 40
0.0609411117
 40
0.0984606479
 40
0.1442365278
 40
0.1976863585
 40
0.2580038917
 40
0.3243008384
 40
0.39536638
 40
0.4700061215
 40
0.5484343362
 40
0.6314368691
 40
0.7192799389
 40
0.8107654349
 40
1.0
 40
1.0
 40
1.0
 40
1.0
 10
69.3190060607
 20
66.3891816805
 30
0.0
 10
69.3202719837
 20
66.3865615338
 30
0.0
 10
69.32274527
 20
66.3805561903
 30
0.0
 10
69.3277194388
 20
66.3656551069
 30
0.0
 10
69.3338471297
 20
66.341555025
 30
0.0
 10
69.3410242964
 20
66.306080441
 30
0.0
 10
69.3484014941
 20
66.2618874917
 30
0.0
 10
69.3559315574
 20
66.208948916
 30
0.0
 10
69.3668396433
 20
66.1210703067
 30
0.0
 10
69.380314288
 20
65.9900193091
 30
0.0
 10
69.3959139774
 20
65.8084376844
 30
0.0
 10
69.4115001094
 20
65.5963754508
 30
0.0
 10
69.4268577759
 20
65.3568858973
 30
0.0
 10
69.4418066984
 20
65.0938523051
 30
0.0
 10
69.4561213451
 20
64.8116694991
 30
0.0
 10
69.4695518281
 20
64.5132587567
 30
0.0
 10
69.4827445283
 20
64.1989147243
 30
0.0
 10
69.4964254675
 20
63.8669792445
 30
0.0
 10
69.5110317738
 20
63.5176652172
 30
0.0
 10
69.5314801965
 20
63.0268920547
 30
0.0
 10
69.5470490757
 20
62.6530891636
 30
0.0
 10
69.5575501471
 20
62.4011073262
 30
0.0
  0
SPLINE
  5
30C
100
AcDbEntity
  8
_1
100
AcDbSpline
 62
7
  6
BYLAYER
 70
0
 71
3
 72
29
 73
25
 74
0
 42
0.0000001
 43
0.0000001
 44
0.0000000001
 40
0.0
 40
0.0
 40
0.0
 40
0.0
 40
0.1938321524
 40
0.2873689046
 40
0.3769534798
 40
0.4613847785
 40
0.5411290472
 40
0.616983804
 40
0.6889266863
 40
0.7555172496
 40
0.8155680321
 40
0.8681414853
 40
0.8913557769
 40
0.9124183354
 40
0.9312653071
 40
0.9478516716
 40
0.9621577122
 40
0.9741694765
 40
0.9839012079
 40
0.9913901879
 40
0.9943110617
 40
0.9967006233
 40
0.9985831361
 40
1.0
 40
1.0
 40
1.0
 40
1.0
 10
67.5575501471
 20
62.4011073262
 30
0.0
 10
67.5683357156
 20
62.1422987457
 30
0.0
 10
67.5843137381
 20
61.7585975021
 30
0.0
 10
67.6052923516
 20
61.2552817994
 30
0.0
 10
67.6202213692
 20
60.8980418726
 30
0.0
 10
67.6341733477
 20
60.5592092739
 30
0.0
 10
67.6477124057
 20
60.2387234683
 30
0.0
 10
67.6616443789
 20
59.9349592161
 30
0.0
 10
67.6765184598
 20
59.6488398153
 30
0.0
 10
67.6919789366
 20
59.3839044854
 30
0.0
 10
67.7078358835
 20
59.1449283119
 30
0.0
 10
67.7217059836
 20
58.9639219962
 30
0.0
 10
67.7330079442
 20
58.8349864477
 30
0.0
 10
67.7410867348
 20
58.7510155961
 30
0.0
 10
67.7490901754
 20
58.6759394888
 30
0.0
 10
67.7569920668
 20
58.6099376145
 30
0.0
 10
67.7647620091
 20
58.5531273745
 30
0.0
 10
67.7723778411
 20
58.5055497273
 30
0.0
 10
67.7797982592
 20
58.4671905195
 30
0.0
 10
67.786136947
 20
58.4410055699
 30
0.0
 10
67.7912687258
 20
58.4246829727
 30
0.0
 10
67.7947222247
 20
58.4156987899
 30
0.0
 10
67.7981074718
 20
58.4088838725
 30
0.0
 10
67.8006803006
 20
58.4052454212
 30
0.0
 10
67.8020129009
 20
58.403900284
 30
0.0
  0
SPLINE
  5
30D
100
AcDbEntity
  8
_1
100
AcDbSpline
 62
7
  6
BYLAYER
 70
0
 71
3
 72
11
 73
7
 74
0
 42
0.0000001
 43
0.0000001
 44
0.0000000001
 40
0.0
 40
0.0
 40
0.0
 40
0.0
 40
0.1566801806
 40
0.3610683349
 40
0.6384176991
 40
1.0
 40
1.0
 40
1.0
 40
1.0
 10
69.8175501469
 20
58.4011073262
 30
0.0
 10
69.8163779159
 20
58.4011073052
 30
0.0
 10
69.813682592
 20
58.4020749795
 30
0.0
 10
69.8103126943
 20
58.4055627716
 30
0.0
 10
69.8069733081
 20
58.4109395517
 30
0.0
 10
69.8050019966
 20
58.415307101
 30
0.0
 10
69.8039748408
 20
58.417809758
 30
0.0
  0
SPLINE
  5
30E
100
AcDbEntity
  8
_1
100
AcDbSpline
 62
7
  6
BYLAYER
 70
0
 71
3
 72
25
 73
21
 74
0
 42
0.0000001
 43
0.0000001
 44
0.0000000001
 40
0.0
 40
0.0
 40
0.0
 40
0.0
 40
0.0054362154
 40
0.0129169497
 40
0.0224923388
 40
0.0341951266
 40
0.0480370427
 40
0.0640052869
 40
0.1022303656
 40
0.1485073769
 40
0.202241751
 40
0.2626375349
 40
0.3288206083
 40
0.3995717303
 40
0.4738010657
 40
0.5517851832
 40
0.6343031568
 40
0.7215494353
 40
0.8123341267
 40
1.0
 40
1.0
 40
1.0
 40
1.0
 10
69.8039748408
 20
58.417809758
 30
0.0
 10
69.801227556
 20
58.4245034959
 30
0.0
 10
69.7961030256
 20
58.4409628931
 30
0.0
 10
69.7891862396
 20
58.4700905771
 30
0.0
 10
69.7820222715
 20
58.507706202
 30
0.0
 10
69.7746653781
 20
58.5538713308
 30
0.0
 10
69.7671726068
 20
58.6086185323
 30
0.0
 10
69.7563595007
 20
58.6985279752
 30
0.0
 10
69.7429951488
 20
58.8315954912
 30
0.0
 10
69.7275316842
 20
59.0149410258
 30
0.0
 10
69.7121053389
 20
59.2278886498
 30
0.0
 10
69.6969260101
 20
59.4674068176
 30
0.0
 10
69.6821594512
 20
59.7296387778
 30
0.0
 10
69.6680457436
 20
60.0103438346
 30
0.0
 10
69.6547841756
 20
60.3068134806
 30
0.0
 10
69.6417109114
 20
60.6189666864
 30
0.0
 10
69.6281248172
 20
60.9484390012
 30
0.0
 10
69.6136349395
 20
61.2949259981
 30
0.0
 10
69.5933742724
 20
61.7812454955
 30
0.0
 10
69.5779505442
 20
62.151541252
 30
0.0
 10
69.5675501471
 20
62.4011073262
 30
0.0
  0
SPLINE
  5
30F
100
AcDbEntity
  8
_1
100
AcDbSpline
 62
7
  6
BYLAYER
 70
0
 71
3
 72
17
 73
13
 74
0
 42
0.0000001
 43
0.0000001
 44
0.0000000001
 40
0.0
 40
0.0
 40
0.0
 40
0.0
 40
0.0154410618
 40
0.0363419532
 40
0.0631992375
 40
0.0962890236
 40
0.1816571754
 40
0.2931493035
 40
0.4310287813
 40
0.5951214652
 40
0.7850500029
 40
1.0
 40
1.0
 40
1.0
 40
1.0
 10
68.3062211011
 20
58.904300392
 30
0.0
 10
68.3045642585
 20
58.9059724424
 30
0.0
 10
68.3013817677
 20
58.9105867205
 30
0.0
 10
68.2972099374
 20
58.9192774878
 30
0.0
 10
68.2929229075
 20
58.9308503487
 30
0.0
 10
68.2864935199
 20
58.9520556203
 30
0.0
 10
68.2785486338
 20
58.986230241
 30
0.0
 10
68.2692738821
 20
59.0364153093
 30
0.0
 10
68.2597755326
 20
59.0987352013
 30
0.0
 10
68.2500693276
 20
59.1730953037
 30
0.0
 10
68.2402264466
 20
59.2592747043
 30
0.0
 10
68.2339828682
 20
59.3206810574
 30
0.0
 10
68.2308231391
 20
59.3532963387
 30
0.0
  0
SPLINE
  5
310
100
AcDbEntity
  8
_1
100
AcDbSpline
 62
7
  6
BYLAYER
 70
0
 71
3
 72
15
 73
11
 74
0
 42
0.0000001
 43
0.0000001
 44
0.0000000001
 40
0.0
 40
0.0
 40
0.0
 40
0.0
 40
0.0911147407
 40
0.1948119907
 40
0.3096122997
 40
0.4337503796
 40
0.5647884611
 40
0.702083389
 40
0.846709386
 40
1.0
 40
1.0
 40
1.0
 40
1.0
 10
68.2308231391
 20
59.3532963387
 30
0.0
 10
68.2252073012
 20
59.4112640093
 30
0.0
 10
68.2142311811
 20
59.5353046249
 30
0.0
 10
68.1990424067
 20
59.732622881
 30
0.0
 10
68.1841981028
 20
59.9511287705
 30
0.0
 10
68.1698459664
 20
60.1871776589
 30
0.0
 10
68.1563229101
 20
60.4376756242
 30
0.0
 10
68.1433661091
 20
60.7013145597
 30
0.0
 10
68.1302529174
 20
60.9791854529
 30
0.0
 10
68.1212234887
 20
61.1693947249
 30
0.0
 10
68.1165584056
 20
61.2672644765
 30
0.0
  0
SPLINE
  5
311
100
AcDbEntity
  8
_1
100
AcDbSpline
 62
7
  6
BYLAYER
 70
0
 71
3
 72
29
 73
25
 74
0
 42
0.0000001
 43
0.0000001
 44
0.0000000001
 40
0.0
 40
0.0
 40
0.0
 40
0.0
 40
0.1721163124
 40
0.2612963206
 40
0.350116303
 40
0.4367489538
 40
0.5195421086
 40
0.5968391456
 40
0.6690253832
 40
0.7370239881
 40
0.8000009296
 40
0.856135122
 40
0.8812257182
 40
0.9041318186
 40
0.9247263044
 40
0.9429196491
 40
0.9586377231
 40
0.9718479008
 40
0.9825349544
 40
0.9907263918
 40
0.9939056552
 40
0.996489811
 40
0.9985054676
 40
1.0
 40
1.0
 40
1.0
 40
1.0
 10
68.1165584056
 20
61.2672644765
 30
0.0
 10
68.1038696826
 20
61.5334638438
 30
0.0
 10
68.0846240942
 20
61.93759207
 30
0.0
 10
68.0588365474
 20
62.479091773
 30
0.0
 10
68.0393418269
 20
62.8883798885
 30
0.0
 10
68.020348175
 20
63.2877913567
 30
0.0
 10
68.0020914386
 20
63.6693758605
 30
0.0
 10
67.9851955105
 20
64.0286310263
 30
0.0
 10
67.9688894831
 20
64.3649815034
 30
0.0
 10
67.9516821901
 20
64.6790857326
 30
0.0
 10
67.9333254547
 20
64.9682242619
 30
0.0
 10
67.9169779112
 20
65.1909103038
 30
0.0
 10
67.903433169
 20
65.3515761548
 30
0.0
 10
67.8936304912
 20
65.4573295984
 30
0.0
 10
67.8838491244
 20
65.5523550812
 30
0.0
 10
67.8741577271
 20
65.6361958055
 30
0.0
 10
67.8646028069
 20
65.7085329074
 30
0.0
 10
67.8552529101
 20
65.769164868
 30
0.0
 10
67.846121538
 20
65.8180097999
 30
0.0
 10
67.8383020189
 20
65.8512879916
 30
0.0
 10
67.8319754666
 20
65.8719548032
 30
0.0
 10
67.8277529618
 20
65.883252494
 30
0.0
 10
67.8236408942
 20
65.8917527365
 30
0.0
 10
67.8205080201
 20
65.8962704828
 30
0.0
 10
67.8188791928
 20
65.8979142606
 30
0.0
  0
LINE
  5
312
100
AcDbEntity
  8
_1
100
AcDbLine
 62
7
  6
BYLAYER
 10
67.3126013251
 20
66.3987666707
 11
67.3139822926
 21
66.3973160777
  0
SPLINE
  5
313
100
AcDbEntity
  8
_1
100
AcDbSpline
 62
7
  6
BYLAYER
 70
0
 71
3
 72
29
 73
25
 74
0
 42
0.0000001
 43
0.0000001
 44
0.0000000001
 40
0.0
 40
0.0
 40
0.0
 40
0.0
 40
0.0015285991
 40
0.0035322479
 40
0.00604521
 40
0.0090884697
 40
0.0168137464
 40
0.0267754694
 40
0.0390194597
 40
0.0535512601
 40
0.0703348658
 40
0.0893303423
 40
0.1104966823
 40
0.133792237
 40
0.1865028888
 40
0.2466069674
 40
0.3131526101
 40
0.3849622637
 40
0.4606252663
 40
0.5401609712
 40
0.6243665969
 40
0.7136777869
 40
0.8068918346
 40
1.0
 40
1.0
 40
1.0
 40
1.0
 10
67.3139822926
 20
66.3973160777
 30
0.0
 10
67.3153054233
 20
66.3957605982
 30
0.0
 10
67.3178567328
 20
66.3917480775
 30
0.0
 10
67.321248977
 20
66.3844120201
 30
0.0
 10
67.3247104009
 20
66.3749133083
 30
0.0
 10
67.3298372825
 20
66.3579217645
 30
0.0
 10
67.3361780064
 20
66.3309407614
 30
0.0
 10
67.3435960423
 20
66.2916441663
 30
0.0
 10
67.3511994379
 20
66.2431509576
 30
0.0
 10
67.3589565117
 20
66.1854751117
 30
0.0
 10
67.3668416918
 20
66.1187249467
 30
0.0
 10
67.3748221532
 20
66.0430679685
 30
0.0
 10
67.3828699964
 20
65.9586749032
 30
0.0
 10
67.3941167891
 20
65.8293458919
 30
0.0
 10
67.4079179295
 20
65.6480312489
 30
0.0
 10
67.4236991037
 20
65.4089355115
 30
0.0
 10
67.439081053
 20
65.1442516441
 30
0.0
 10
67.4538696717
 20
64.8587186134
 30
0.0
 10
67.4677221623
 20
64.5557660994
 30
0.0
 10
67.4812068589
 20
64.2362224198
 30
0.0
 10
67.4951166926
 20
63.8984477314
 30
0.0
 10
67.50999656
 20
63.5424242132
 30
0.0
 10
67.5308934369
 20
63.0410387895
 30
0.0
 10
67.5468084577
 20
62.6588629915
 30
0.0
 10
67.5575501471
 20
62.4011073262
 30
0.0
  0
SPLINE
  5
314
100
AcDbEntity
  8
_1
100
AcDbSpline
 62
7
  6
BYLAYER
 70
0
 71
3
 72
29
 73
25
 74
0
 42
0.0000001
 43
0.0000001
 44
0.0000000001
 40
0.0
 40
0.0
 40
0.0
 40
0.0
 40
0.1938321521
 40
0.2873689042
 40
0.3769534792
 40
0.4613847779
 40
0.5411290464
 40
0.6169838032
 40
0.6889266854
 40
0.7555172487
 40
0.8155680312
 40
0.8681414845
 40
0.8913557762
 40
0.9124183347
 40
0.9312653064
 40
0.947851671
 40
0.9621577117
 40
0.9741694761
 40
0.9839012076
 40
0.9913901877
 40
0.9943110615
 40
0.9967006232
 40
0.9985831361
 40
1.0
 40
1.0
 40
1.0
 40
1.0
 10
67.5675501471
 20
62.4011073262
 30
0.0
 10
67.5567645786
 20
62.6599159061
 30
0.0
 10
67.5407865562
 20
63.0436171491
 30
0.0
 10
67.5198079427
 20
63.546932851
 30
0.0
 10
67.5048789252
 20
63.9041727773
 30
0.0
 10
67.4909269467
 20
64.2430053756
 30
0.0
 10
67.4773878887
 20
64.5634911808
 30
0.0
 10
67.4634559156
 20
64.8672554327
 30
0.0
 10
67.4485818347
 20
65.1533748332
 30
0.0
 10
67.4331213579
 20
65.418310163
 30
0.0
 10
67.417264411
 20
65.6572863366
 30
0.0
 10
67.4033943109
 20
65.8382926524
 30
0.0
 10
67.3920923503
 20
65.9672282011
 30
0.0
 10
67.3840135598
 20
66.0511990529
 30
0.0
 10
67.3760101192
 20
66.1262751605
 30
0.0
 10
67.3681082279
 20
66.1922770351
 30
0.0
 10
67.3603382856
 20
66.2490872753
 30
0.0
 10
67.3527224536
 20
66.296664923
 30
0.0
 10
67.3453020355
 20
66.3350241311
 30
0.0
 10
67.3389633477
 20
66.3612090811
 30
0.0
 10
67.3338315688
 20
66.3775316786
 30
0.0
 10
67.33037807
 20
66.3865158616
 30
0.0
 10
67.3269928229
 20
66.3933307792
 30
0.0
 10
67.3244199941
 20
66.3969692307
 30
0.0
 10
67.3230873937
 20
66.3983143679
 30
0.0
  0
SPLINE
  5
315
100
AcDbEntity
  8
_1
100
AcDbSpline
 62
7
  6
BYLAYER
 70
0
 71
3
 72
26
 73
22
 74
0
 42
0.0000001
 43
0.0000001
 44
0.0000000001
 40
0.0
 40
0.0
 40
0.0
 40
0.0
 40
0.1021907095
 40
0.1996303826
 40
0.2925418358
 40
0.3816208696
 40
0.4673155393
 40
0.5493587381
 40
0.6265816087
 40
0.6980648983
 40
0.7631031859
 40
0.8210339877
 40
0.8712934315
 40
0.9134942731
 40
0.947408279
 40
0.9612302508
 40
0.9729712662
 40
0.9826594663
 40
0.9903320367
 40
0.9960591384
 40
1.0
 40
1.0
 40
1.0
 40
1.0
 10
70.0125308655
 20
63.4513002387
 30
0.0
 10
70.0085405353
 20
63.5349543261
 30
0.0
 10
70.0007421472
 20
63.698373119
 30
0.0
 10
69.9894479054
 20
63.9378561905
 30
0.0
 10
69.978542286
 20
64.1666001319
 30
0.0
 10
69.9676275589
 20
64.3857070335
 30
0.0
 10
69.9562674366
 20
64.5958724584
 30
0.0
 10
69.9442980455
 20
64.7962711508
 30
0.0
 10
69.9319275332
 20
64.9849752559
 30
0.0
 10
69.9192733337
 20
65.1596910086
 30
0.0
 10
69.9064229498
 20
65.3185356353
 30
0.0
 10
69.8935037248
 20
65.4599168939
 30
0.0
 10
69.8806469837
 20
65.5825015455
 30
0.0
 10
69.8679890665
 20
65.6852985336
 30
0.0
 10
69.8571329126
 20
65.7582190881
 30
0.0
 10
69.8483439822
 20
65.8061676559
 30
0.0
 10
69.8423259114
 20
65.8344313034
 30
0.0
 10
69.8364690093
 20
65.8575520032
 30
0.0
 10
69.8308056797
 20
65.875639999
 30
0.0
 10
69.8253781729
 20
65.8887576926
 30
0.0
 10
69.8211524699
 20
65.8956201176
 30
0.0
 10
69.818879193
 20
65.8979142604
 30
0.0
  0
SPLINE
  5
316
100
AcDbEntity
  8
_1
100
AcDbSpline
 62
7
  6
BYLAYER
 70
0
 71
3
 72
29
 73
25
 74
0
 42
0.0000001
 43
0.0000001
 44
0.0000000001
 40
0.0
 40
0.0
 40
0.0
 40
0.0
 40
0.1938321523
 40
0.2873689046
 40
0.3769534797
 40
0.4613847784
 40
0.5411290471
 40
0.6169838039
 40
0.6889266862
 40
0.7555172495
 40
0.815568032
 40
0.8681414852
 40
0.8913557768
 40
0.9124183353
 40
0.931265307
 40
0.9478516715
 40
0.9621577121
 40
0.9741694765
 40
0.9839012079
 40
0.9913901879
 40
0.9943110616
 40
0.9967006233
 40
0.9985831361
 40
1.0
 40
1.0
 40
1.0
 40
1.0
 10
69.5575501471
 20
62.4011073262
 30
0.0
 10
69.5683357157
 20
62.1422987458
 30
0.0
 10
69.5843137381
 20
61.7585975022
 30
0.0
 10
69.6052923516
 20
61.2552817997
 30
0.0
 10
69.6202213692
 20
60.8980418729
 30
0.0
 10
69.6341733476
 20
60.5592092742
 30
0.0
 10
69.6477124056
 20
60.2387234687
 30
0.0
 10
69.6616443789
 20
59.9349592165
 30
0.0
 10
69.6765184598
 20
59.6488398158
 30
0.0
 10
69.6919789366
 20
59.3839044859
 30
0.0
 10
69.7078358835
 20
59.1449283124
 30
0.0
 10
69.7217059836
 20
58.9639219967
 30
0.0
 10
69.7330079442
 20
58.8349864482
 30
0.0
 10
69.7410867348
 20
58.7510155965
 30
0.0
 10
69.7490901754
 20
58.6759394892
 30
0.0
 10
69.7569920667
 20
58.6099376148
 30
0.0
 10
69.764762009
 20
58.5531273748
 30
0.0
 10
69.772377841
 20
58.5055497275
 30
0.0
 10
69.7797982591
 20
58.4671905197
 30
0.0
 10
69.7861369469
 20
58.44100557
 30
0.0
 10
69.7912687257
 20
58.4246829728
 30
0.0
 10
69.7947222246
 20
58.41569879
 30
0.0
 10
69.7981074717
 20
58.4088838726
 30
0.0
 10
69.8006803005
 20
58.4052454212
 30
0.0
 10
69.8020129009
 20
58.403900284
 30
0.0
  0
SPLINE
  5
317
100
AcDbEntity
  8
_1
100
AcDbSpline
 62
7
  6
BYLAYER
 70
0
 71
3
 72
29
 73
25
 74
0
 42
0.0000001
 43
0.0000001
 44
0.0000000001
 40
0.0
 40
0.0
 40
0.0
 40
0.0
 40
0.1938321522
 40
0.2873689044
 40
0.3769534795
 40
0.4613847781
 40
0.5411290468
 40
0.6169838035
 40
0.6889266858
 40
0.7555172491
 40
0.8155680316
 40
0.8681414849
 40
0.8913557765
 40
0.912418335
 40
0.9312653067
 40
0.9478516713
 40
0.9621577119
 40
0.9741694763
 40
0.9839012077
 40
0.9913901878
 40
0.9943110616
 40
0.9967006233
 40
0.9985831361
 40
1.0
 40
1.0
 40
1.0
 40
1.0
 10
69.5675501471
 20
62.4011073262
 30
0.0
 10
69.5567645786
 20
62.6599159063
 30
0.0
 10
69.5407865562
 20
63.0436171496
 30
0.0
 10
69.5198079427
 20
63.5469328518
 30
0.0
 10
69.5048789251
 20
63.9041727784
 30
0.0
 10
69.4909269467
 20
64.2430053769
 30
0.0
 10
69.4773878887
 20
64.5634911822
 30
0.0
 10
69.4634559155
 20
64.8672554343
 30
0.0
 10
69.4485818346
 20
65.1533748349
 30
0.0
 10
69.4331213578
 20
65.4183101648
 30
0.0
 10
69.4172644109
 20
65.6572863383
 30
0.0
 10
69.4033943108
 20
65.838292654
 30
0.0
 10
69.3920923502
 20
65.9672282026
 30
0.0
 10
69.3840135597
 20
66.0511990544
 30
0.0
 10
69.376010119
 20
66.1262751618
 30
0.0
 10
69.3681082277
 20
66.1922770363
 30
0.0
 10
69.3603382854
 20
66.2490872764
 30
0.0
 10
69.3527224534
 20
66.2966649239
 30
0.0
 10
69.3453020353
 20
66.3350241319
 30
0.0
 10
69.3389633475
 20
66.3612090817
 30
0.0
 10
69.3338315687
 20
66.377531679
 30
0.0
 10
69.3303780698
 20
66.386515862
 30
0.0
 10
69.3269928227
 20
66.3933307794
 30
0.0
 10
69.3244199939
 20
66.3969692309
 30
0.0
 10
69.3230873935
 20
66.3983143681
 30
0.0
  0
SPLINE
  5
318
100
AcDbEntity
  8
_1
100
AcDbSpline
 62
7
  6
BYLAYER
 70
0
 71
3
 72
29
 73
25
 74
0
 42
0.0000001
 43
0.0000001
 44
0.0000000001
 40
0.0
 40
0.0
 40
0.0
 40
0.0
 40
0.1938321524
 40
0.2873689046
 40
0.3769534798
 40
0.4613847785
 40
0.5411290472
 40
0.616983804
 40
0.6889266863
 40
0.7555172496
 40
0.8155680321
 40
0.8681414853
 40
0.8913557769
 40
0.9124183354
 40
0.9312653071
 40
0.9478516716
 40
0.9621577122
 40
0.9741694765
 40
0.9839012079
 40
0.9913901879
 40
0.9943110617
 40
0.9967006233
 40
0.9985831361
 40
1.0
 40
1.0
 40
1.0
 40
1.0
 10
68.5575501471
 20
62.4011073262
 30
0.0
 10
68.5683357157
 20
62.1422987458
 30
0.0
 10
68.5843137381
 20
61.7585975021
 30
0.0
 10
68.6052923516
 20
61.2552817994
 30
0.0
 10
68.6202213692
 20
60.8980418726
 30
0.0
 10
68.6341733477
 20
60.5592092738
 30
0.0
 10
68.6477124057
 20
60.2387234683
 30
0.0
 10
68.6616443789
 20
59.9349592161
 30
0.0
 10
68.6765184598
 20
59.6488398153
 30
0.0
 10
68.6919789366
 20
59.3839044854
 30
0.0
 10
68.7078358835
 20
59.1449283119
 30
0.0
 10
68.7217059836
 20
58.9639219962
 30
0.0
 10
68.7330079442
 20
58.8349864477
 30
0.0
 10
68.7410867348
 20
58.7510155961
 30
0.0
 10
68.7490901754
 20
58.6759394888
 30
0.0
 10
68.7569920668
 20
58.6099376145
 30
0.0
 10
68.7647620091
 20
58.5531273745
 30
0.0
 10
68.7723778411
 20
58.5055497273
 30
0.0
 10
68.7797982592
 20
58.4671905195
 30
0.0
 10
68.786136947
 20
58.4410055699
 30
0.0
 10
68.7912687258
 20
58.4246829727
 30
0.0
 10
68.7947222247
 20
58.4156987899
 30
0.0
 10
68.7981074718
 20
58.4088838725
 30
0.0
 10
68.8006803006
 20
58.4052454212
 30
0.0
 10
68.8020129009
 20
58.403900284
 30
0.0
  0
SPLINE
  5
319
100
AcDbEntity
  8
_1
100
AcDbSpline
 62
7
  6
BYLAYER
 70
0
 71
3
 72
9
 73
5
 74
0
 42
0.0000001
 43
0.0000001
 44
0.0000000001
 40
0.0
 40
0.0
 40
0.0
 40
0.0
 40
0.5000039064
 40
1.0
 40
1.0
 40
1.0
 40
1.0
 10
9.0625501471
 20
43.9004220935
 30
0.0
 10
9.0625501471
 20
43.8471649732
 30
0.0
 10
9.0797663016
 20
43.7399471866
 30
0.0
 10
9.1301631155
 20
43.6437465194
 30
0.0
 10
9.1620712873
 20
43.6011073262
 30
0.0
  0
SPLINE
  5
31A
100
AcDbEntity
  8
_1
100
AcDbSpline
 62
7
  6
BYLAYER
 70
0
 71
3
 72
12
 73
8
 74
0
 42
0.0000001
 43
0.0000001
 44
0.0000000001
 40
0.0
 40
0.0
 40
0.0
 40
0.0
 40
0.191310061
 40
0.2997868541
 40
0.4183990476
 40
0.6879907387
 40
1.0
 40
1.0
 40
1.0
 40
1.0
 10
51.8374729397
 20
49.5406606206
 30
0.0
 10
51.8715465143
 20
49.5434985953
 30
0.0
 10
51.9240397782
 20
49.5618780405
 30
0.0
 10
51.9858735777
 20
49.6041022295
 30
0.0
 10
52.0507425254
 20
49.6652584786
 30
0.0
 10
52.1213859343
 20
49.7705627047
 30
0.0
 10
52.154673572
 20
49.8706547282
 30
0.0
 10
52.1649885161
 20
49.9254557211
 30
0.0
  0
SPLINE
  5
31B
100
AcDbEntity
  8
_1
100
AcDbSpline
 62
7
  6
BYLAYER
 70
0
 71
3
 72
13
 73
9
 74
0
 42
0.0000001
 43
0.0000001
 44
0.0000000001
 40
0.0
 40
0.0
 40
0.0
 40
0.0
 40
0.3553689828
 40
0.6615415263
 40
0.7837276197
 40
0.8809883233
 40
0.9516878044
 40
1.0
 40
1.0
 40
1.0
 40
1.0
 10
11.9124869636
 20
50.2447890821
 30
0.0
 10
11.8884904462
 20
50.2403616778
 30
0.0
 10
11.8427740986
 20
50.2394776443
 30
0.0
 10
11.7889476704
 20
50.2398415958
 30
0.0
 10
11.7531038243
 20
50.244547297
 30
0.0
 10
11.7337240772
 20
50.2495407311
 30
0.0
 10
11.7200985198
 20
50.2554979763
 30
0.0
 10
11.7140127483
 20
50.2618250077
 30
0.0
 10
11.7129952478
 20
50.2649824843
 30
0.0
  0
LINE
  5
31C
100
AcDbEntity
  8
_1
100
AcDbLine
 62
7
  6
BYLAYER
 10
11.7129952478
 20
50.2649824843
 11
11.7125576409
 21
50.2661204613
  0
SPLINE
  5
31D
100
AcDbEntity
  8
_1
100
AcDbSpline
 62
7
  6
BYLAYER
 70
0
 71
3
 72
9
 73
5
 74
0
 42
0.0000001
 43
0.0000001
 44
0.0000000001
 40
0.0
 40
0.0
 40
0.0
 40
0.0
 40
0.5001844301
 40
1.0
 40
1.0
 40
1.0
 40
1.0
 10
9.4464850149
 20
43.7850421939
 30
0.0
 10
9.4923845921
 20
43.7391426168
 30
0.0
 10
9.6032245638
 20
43.6646370732
 30
0.0
 10
9.7342076348
 20
43.6384914036
 30
0.0
 10
9.7990713269
 20
43.6383137385
 30
0.0
  0
SPLINE
  5
31E
100
AcDbEntity
  8
_1
100
AcDbSpline
 62
7
  6
BYLAYER
 70
0
 71
3
 72
9
 73
5
 74
0
 42
0.0000001
 43
0.0000001
 44
0.0000000001
 40
0.0
 40
0.0
 40
0.0
 40
0.0
 40
0.4998155699
 40
1.0
 40
1.0
 40
1.0
 40
1.0
 10
9.2997565595
 20
44.1376285059
 30
0.0
 10
9.2999342246
 20
44.0727648138
 30
0.0
 10
9.3260798942
 20
43.9417817428
 30
0.0
 10
9.4005854378
 20
43.8309417711
 30
0.0
 10
9.4464850149
 20
43.7850421939
 30
0.0
  0
SPLINE
  5
31F
100
AcDbEntity
  8
_1
100
AcDbSpline
 62
7
  6
BYLAYER
 70
0
 71
3
 72
12
 73
8
 74
0
 42
0.0000001
 43
0.0000001
 44
0.0000000001
 40
0.0
 40
0.0
 40
0.0
 40
0.0
 40
0.239738204
 40
0.4993498576
 40
0.6311536291
 40
0.7602617949
 40
1.0
 40
1.0
 40
1.0
 40
1.0
 10
9.7245738748
 20
46.2383983658
 30
0.0
 10
9.6622708982
 20
46.2382277113
 30
0.0
 10
9.5314194717
 20
46.2130969066
 30
0.0
 10
9.3903202251
 20
46.1201970577
 30
0.0
 10
9.3049074267
 20
46.0142129051
 30
0.0
 10
9.2440489494
 20
45.8984731528
 30
0.0
 10
9.2254297586
 20
45.8013865754
 30
0.0
 10
9.2252591075
 20
45.7390835984
 30
0.0
  0
SPLINE
  5
320
100
AcDbEntity
  8
_1
100
AcDbSpline
 62
7
  6
BYLAYER
 70
0
 71
3
 72
13
 73
9
 74
0
 42
0.0000001
 43
0.0000001
 44
0.0000000001
 40
0.0
 40
0.0
 40
0.0
 40
0.0
 40
0.3798093163
 40
0.6819966617
 40
0.7990409058
 40
0.8915755203
 40
0.9586925735
 40
1.0
 40
1.0
 40
1.0
 40
1.0
 10
9.0778908284
 20
45.7436685213
 30
0.0
 10
9.0772080531
 20
45.76354367
 30
0.0
 10
9.0757106327
 20
45.7992208385
 30
0.0
 10
9.0730742279
 20
45.8409895223
 30
0.0
 10
9.0705300258
 20
45.8676585827
 30
0.0
 10
9.0687406449
 20
45.8820552515
 30
0.0
 10
9.0668734045
 20
45.8923813591
 30
0.0
 10
9.0654326184
 20
45.8979396365
 30
0.0
 10
9.0644674838
 20
45.8998752222
 30
0.0
  0
SPLINE
  5
321
100
AcDbEntity
  8
_1
100
AcDbSpline
 62
7
  6
BYLAYER
 70
0
 71
3
 72
20
 73
16
 74
0
 42
0.0000001
 43
0.0000001
 44
0.0000000001
 40
0.0
 40
0.0
 40
0.0
 40
0.0
 40
0.1882847735
 40
0.3698141213
 40
0.5380725106
 40
0.6871398392
 40
0.7527142308
 40
0.8115571697
 40
0.8631777729
 40
0.9070900182
 40
0.9428664448
 40
0.9702952301
 40
0.9892719457
 40
0.995623527
 40
1.0
 40
1.0
 40
1.0
 40
1.0
 10
9.2997592368
 20
44.2411392963
 30
0.0
 10
9.2997592368
 20
44.3354801618
 30
0.0
 10
9.298841943
 20
44.5207783001
 30
0.0
 10
9.2948011717
 20
44.7903565844
 30
0.0
 10
9.2882015269
 20
45.0402283275
 30
0.0
 10
9.280578025
 20
45.2319396671
 30
0.0
 10
9.2731624022
 20
45.3687721326
 30
0.0
 10
9.2673905038
 20
45.4567890852
 30
0.0
 10
9.2612424023
 20
45.5339008422
 30
0.0
 10
9.2547759478
 20
45.5993731996
 30
0.0
 10
9.2480943862
 20
45.6526564856
 30
0.0
 10
9.2412269758
 20
45.6932275173
 30
0.0
 10
9.235114964
 20
45.7190718003
 30
0.0
 10
9.2296430501
 20
45.732897729
 30
0.0
 10
9.2268098191
 20
45.7375853583
 30
0.0
 10
9.2252592537
 20
45.739135951
 30
0.0
  0
SPLINE
  5
322
100
AcDbEntity
  8
_1
100
AcDbSpline
 62
7
  6
BYLAYER
 70
0
 71
3
 72
15
 73
11
 74
0
 42
0.0000001
 43
0.0000001
 44
0.0000000001
 40
0.0
 40
0.0
 40
0.0
 40
0.0
 40
0.1247091935
 40
0.2495547624
 40
0.3746953227
 40
0.4999920434
 40
0.6252948861
 40
0.75043882
 40
0.8752882592
 40
1.0
 40
1.0
 40
1.0
 40
1.0
 10
11.7127790479
 20
50.254070324
 30
0.0
 10
11.7145453964
 20
50.2103577576
 30
0.0
 10
11.7360277341
 20
50.1227442153
 30
0.0
 10
11.8152916126
 20
50.0138071464
 30
0.0
 10
11.9301278366
 20
49.943251794
 30
0.0
 10
12.0625409971
 20
49.9177403973
 30
0.0
 10
12.1949640531
 20
49.943241019
 30
0.0
 10
12.3097847764
 20
50.0138226102
 30
0.0
 10
12.3890850074
 20
50.1227352537
 30
0.0
 10
12.4105576502
 20
50.2103584866
 30
0.0
 10
12.4123212407
 20
50.2540720587
 30
0.0
  0
LINE
  5
323
100
AcDbEntity
  8
_1
100
AcDbLine
 62
7
  6
BYLAYER
 10
12.4125426534
 20
50.2661204613
 11
12.4121050465
 21
50.2649824843
  0
SPLINE
  5
324
100
AcDbEntity
  8
_1
100
AcDbSpline
 62
7
  6
BYLAYER
 70
0
 71
3
 72
13
 73
9
 74
0
 42
0.0000001
 43
0.0000001
 44
0.0000000001
 40
0.0
 40
0.0
 40
0.0
 40
0.0
 40
0.0481767549
 40
0.1189438459
 40
0.2162458106
 40
0.3384474711
 40
0.644616238
 40
1.0
 40
1.0
 40
1.0
 40
1.0
 10
12.4121050465
 20
50.2649824843
 30
0.0
 10
12.4110882031
 20
50.2618347666
 30
0.0
 10
12.4049896816
 20
50.2555291859
 30
0.0
 10
12.3913848664
 20
50.2495473149
 30
0.0
 10
12.3719947345
 20
50.2445469252
 30
0.0
 10
12.3361514755
 20
50.2398370665
 30
0.0
 10
12.2823245692
 20
50.2395036798
 30
0.0
 10
12.2366094642
 20
50.2403616937
 30
0.0
 10
12.2126133307
 20
50.2447890821
 30
0.0
  0
SPLINE
  5
325
100
AcDbEntity
  8
_1
100
AcDbSpline
 62
7
  6
BYLAYER
 70
0
 71
3
 72
15
 73
11
 74
0
 42
0.0000001
 43
0.0000001
 44
0.0000000001
 40
0.0
 40
0.0
 40
0.0
 40
0.0
 40
0.1234343631
 40
0.2473761156
 40
0.3727528695
 40
0.4994412871
 40
0.6260507306
 40
0.752076874
 40
0.8765310684
 40
1.0
 40
1.0
 40
1.0
 40
1.0
 10
12.2126133307
 20
50.2447890821
 30
0.0
 10
12.2141052005
 20
50.2252720934
 30
0.0
 10
12.2118036135
 20
50.1851328709
 30
0.0
 10
12.1834457763
 20
50.1310554476
 30
0.0
 10
12.1348732334
 20
50.0936330853
 30
0.0
 10
12.0756231483
 20
50.0772516047
 30
0.0
 10
12.0143305439
 20
50.083791813
 30
0.0
 10
11.9603661414
 20
50.1128978043
 30
0.0
 10
11.9220755735
 20
50.1606353977
 30
0.0
 10
11.9134250667
 20
50.2004275746
 30
0.0
 10
11.91276376
 20
50.2199958098
 30
0.0
  0
SPLINE
  5
326
100
AcDbEntity
  8
_1
100
AcDbSpline
 62
7
  6
BYLAYER
 70
0
 71
3
 72
14
 73
10
 74
0
 42
0.0000001
 43
0.0000001
 44
0.0000000001
 40
0.0
 40
0.0
 40
0.0
 40
0.0
 40
0.3479943015
 40
0.5075726111
 40
0.6502773328
 40
0.7718310956
 40
0.8699005479
 40
0.9447359125
 40
1.0
 40
1.0
 40
1.0
 40
1.0
 10
11.9127638729
 20
50.2199958986
 30
0.0
 10
11.8883075574
 20
50.2197565489
 30
0.0
 10
11.8525824237
 20
50.2208017151
 30
0.0
 10
11.8071189041
 20
50.225626507
 30
0.0
 10
11.7776941109
 20
50.2303789602
 30
0.0
 10
11.752844733
 20
50.2360241773
 30
0.0
 10
11.733255141
 20
50.2430452721
 30
0.0
 10
11.7195972455
 20
50.2517178855
 30
0.0
 10
11.7139754224
 20
50.2595554256
 30
0.0
 10
11.7129846314
 20
50.2633109589
 30
0.0
  0
SPLINE
  5
327
100
AcDbEntity
  8
_1
100
AcDbSpline
 62
7
  6
BYLAYER
 70
0
 71
3
 72
11
 73
7
 74
0
 42
0.0000001
 43
0.0000001
 44
0.0000000001
 40
0.0
 40
0.0
 40
0.0
 40
0.0
 40
0.3813986084
 40
0.6845590022
 40
0.8940357592
 40
1.0
 40
1.0
 40
1.0
 40
1.0
 10
9.0625501471
 20
45.7436685213
 30
0.0
 10
9.0625501471
 20
45.7635297217
 30
0.0
 10
9.0626202409
 20
45.7991803965
 30
0.0
 10
9.0624966012
 20
45.8457285113
 30
0.0
 10
9.0622270519
 20
45.8779590082
 30
0.0
 10
9.0635088065
 20
45.894357171
 30
0.0
 10
9.0635088154
 20
45.8998752222
 30
0.0
  0
SPLINE
  5
328
100
AcDbEntity
  8
_1
100
AcDbSpline
 62
7
  6
BYLAYER
 70
0
 71
3
 72
11
 73
7
 74
0
 42
0.0000001
 43
0.0000001
 44
0.0000000001
 40
0.0
 40
0.0
 40
0.0
 40
0.0
 40
0.2134618939
 40
0.4451191484
 40
0.7058178317
 40
1.0
 40
1.0
 40
1.0
 40
1.0
 10
8.8625501471
 20
45.6340251141
 30
0.0
 10
8.8625501471
 20
45.6412555662
 30
0.0
 10
8.8654401267
 20
45.6564286995
 30
0.0
 10
8.8774872878
 20
45.6774740412
 30
0.0
 10
8.8965599006
 20
45.6964212685
 30
0.0
 10
8.9123910481
 20
45.7067645314
 30
0.0
 10
8.9211287909
 20
45.7115547108
 30
0.0
  0
SPLINE
  5
329
100
AcDbEntity
  8
_1
100
AcDbSpline
 62
7
  6
BYLAYER
 70
0
 71
3
 72
9
 73
5
 74
0
 42
0.0000001
 43
0.0000001
 44
0.0000000001
 40
0.0
 40
0.0
 40
0.0
 40
0.0
 40
0.4729977769
 40
1.0
 40
1.0
 40
1.0
 40
1.0
 10
8.9211287909
 20
45.7115547108
 30
0.0
 10
8.9413263926
 20
45.7226273802
 30
0.0
 10
8.9880780659
 20
45.7386492366
 30
0.0
 10
9.03688668
 20
45.7436685213
 30
0.0
 10
9.0625501471
 20
45.7436685213
 30
0.0
  0
SPLINE
  5
32A
100
AcDbEntity
  8
_1
100
AcDbSpline
 62
7
  6
BYLAYER
 70
0
 71
3
 72
9
 73
5
 74
0
 42
0.0000001
 43
0.0000001
 44
0.0000000001
 40
0.0
 40
0.0
 40
0.0
 40
0.0
 40
0.2470841304
 40
1.0
 40
1.0
 40
1.0
 40
1.0
 10
9.2934886387
 20
57.4507362335
 30
0.0
 10
9.294535362
 20
57.5356200895
 30
0.0
 10
9.2982161589
 20
57.8791690724
 30
0.0
 10
9.2997578341
 20
58.2227406904
 30
0.0
 10
9.2997578341
 20
58.4814188219
 30
0.0
  0
SPLINE
  5
32B
100
AcDbEntity
  8
_1
100
AcDbSpline
 62
7
  6
BYLAYER
 70
0
 71
3
 72
11
 73
7
 74
0
 42
0.0000001
 43
0.0000001
 44
0.0000000001
 40
0.0
 40
0.0
 40
0.0
 40
0.0
 40
0.2469097528
 40
0.4956686929
 40
0.7469455025
 40
1.0
 40
1.0
 40
1.0
 40
1.0
 10
12.4123213608
 20
50.2540693483
 30
0.0
 10
12.4107409548
 20
50.2107114827
 30
0.0
 10
12.389977599
 20
50.1233719978
 30
0.0
 10
12.3110944035
 20
50.0144722912
 30
0.0
 10
12.1965289685
 20
49.9422410385
 30
0.0
 10
12.1070165528
 20
49.9254557213
 30
0.0
 10
12.0625501471
 20
49.9254557211
 30
0.0
  0
SPLINE
  5
32C
100
AcDbEntity
  8
_1
100
AcDbSpline
 62
7
  6
BYLAYER
 70
0
 71
3
 72
11
 73
7
 74
0
 42
0.0000001
 43
0.0000001
 44
0.0000000001
 40
0.0
 40
0.0
 40
0.0
 40
0.0
 40
0.2530544975
 40
0.5043313071
 40
0.7530902472
 40
1.0
 40
1.0
 40
1.0
 40
1.0
 10
12.0625501471
 20
49.9254557211
 30
0.0
 10
12.0180837415
 20
49.925455721
 30
0.0
 10
11.9285713258
 20
49.9422410387
 30
0.0
 10
11.8140058908
 20
50.0144722912
 30
0.0
 10
11.7351226953
 20
50.1233719979
 30
0.0
 10
11.7143593395
 20
50.2107114827
 30
0.0
 10
11.7127789335
 20
50.2540693483
 30
0.0
  0
SPLINE
  5
32D
100
AcDbEntity
  8
_1
100
AcDbSpline
 62
7
  6
BYLAYER
 70
0
 71
3
 72
9
 73
5
 74
0
 42
0.0000001
 43
0.0000001
 44
0.0000000001
 40
0.0
 40
0.0
 40
0.0
 40
0.0
 40
0.2521003816
 40
1.0
 40
1.0
 40
1.0
 40
1.0
 10
9.7990723289
 20
58.4814188219
 30
0.0
 10
9.7990723289
 20
58.3851822662
 30
0.0
 10
9.7985490558
 20
58.0034434705
 30
0.0
 10
9.7959715119
 20
57.6217070383
 30
0.0
 10
9.7928031673
 20
57.3362221427
 30
0.0
  0
SPLINE
  5
32E
100
AcDbEntity
  8
_1
100
AcDbSpline
 62
7
  6
BYLAYER
 70
0
 71
3
 72
10
 73
6
 74
0
 42
0.0000001
 43
0.0000001
 44
0.0000000001
 40
0.0
 40
0.0
 40
0.0
 40
0.0
 40
0.5088722782
 40
0.7576792891
 40
1.0
 40
1.0
 40
1.0
 40
1.0
 10
64.8577575594
 20
62.4011073262
 30
0.0
 10
64.8769296827
 20
62.1008859564
 30
0.0
 10
64.9628317961
 20
61.6591489003
 30
0.0
 10
65.0784396637
 20
61.079892828
 30
0.0
 10
65.1186949686
 20
60.7917848776
 30
0.0
 10
65.1298535839
 20
60.6489660229
 30
0.0
  0
SPLINE
  5
32F
100
AcDbEntity
  8
_1
100
AcDbSpline
 62
7
  6
BYLAYER
 70
0
 71
3
 72
11
 73
7
 74
0
 42
0.0000001
 43
0.0000001
 44
0.0000000001
 40
0.0
 40
0.0
 40
0.0
 40
0.0
 40
0.2420881666
 40
0.4907967462
 40
0.7441694799
 40
1.0
 40
1.0
 40
1.0
 40
1.0
 10
64.9258134867
 20
64.2021066003
 30
0.0
 10
64.9311534022
 20
64.0566798596
 30
0.0
 10
64.9235869508
 20
63.761211907
 30
0.0
 10
64.884874962
 20
63.3155972348
 30
0.0
 10
64.8488686635
 20
62.8613900097
 30
0.0
 10
64.8479567824
 20
62.5545802952
 30
0.0
 10
64.8577575594
 20
62.4011073262
 30
0.0
  0
SPLINE
  5
330
100
AcDbEntity
  8
_1
100
AcDbSpline
 62
7
  6
BYLAYER
 70
0
 71
3
 72
23
 73
19
 74
0
 42
0.0000001
 43
0.0000001
 44
0.0000000001
 40
0.0
 40
0.0
 40
0.0
 40
0.0
 40
0.2088871829
 40
0.3983171926
 40
0.4855529608
 40
0.5676343288
 40
0.6443323242
 40
0.7152242608
 40
0.7796914968
 40
0.8370221998
 40
0.8864148646
 40
0.9269900001
 40
0.9578980841
 40
0.9786326544
 40
0.9853786755
 40
0.9902282698
 40
0.9944885958
 40
1.0
 40
1.0
 40
1.0
 40
1.0
 10
64.8875708502
 20
66.0059096534
 30
0.0
 10
64.8875945952
 20
66.1034093707
 30
0.0
 10
64.8736055798
 20
66.2896209554
 30
0.0
 10
64.8250192326
 20
66.5116548823
 30
0.0
 10
64.7740380766
 20
66.6712368971
 30
0.0
 10
64.7330103427
 20
66.7785484053
 30
0.0
 10
64.6896820148
 20
66.8766464876
 30
0.0
 10
64.6457192183
 20
66.9653572687
 30
0.0
 10
64.6029140482
 20
67.0444717793
 30
0.0
 10
64.5630338219
 20
67.1137263849
 30
0.0
 10
64.5279004821
 20
67.1728025354
 30
0.0
 10
64.4991959124
 20
67.2214358652
 30
0.0
 10
64.4787945852
 20
67.2592179362
 30
0.0
 10
64.4680796607
 20
67.2846339175
 30
0.0
 10
64.4658838647
 20
67.2995809631
 30
0.0
 10
64.4674089436
 20
67.3072727107
 30
0.0
 10
64.4733762019
 20
67.3116257259
 30
0.0
 10
64.4781374768
 20
67.311597639
 30
0.0
 10
64.4807001785
 20
67.3113734317
 30
0.0
  0
SPLINE
  5
331
100
AcDbEntity
  8
_1
100
AcDbSpline
 62
7
  6
BYLAYER
 70
0
 71
3
 72
21
 73
17
 74
0
 42
0.0000001
 43
0.0000001
 44
0.0000000001
 40
0.0
 40
0.0
 40
0.0
 40
0.0
 40
0.0040648398
 40
0.0102130228
 40
0.018504926
 40
0.0289474628
 40
0.0562354087
 40
0.0919347378
 40
0.1358149087
 40
0.1874378689
 40
0.2463110601
 40
0.3119391648
 40
0.4611713357
 40
0.6296510171
 40
0.811438659
 40
1.0
 40
1.0
 40
1.0
 40
1.0
 10
9.7245746436
 20
46.2383983674
 30
0.0
 10
9.7262015533
 20
46.2362291545
 30
0.0
 10
9.7289992808
 20
46.2299031153
 30
0.0
 10
9.7325299312
 20
46.2181023622
 30
0.0
 10
9.7360855924
 20
46.201861597
 30
0.0
 10
9.7413158998
 20
46.1716137402
 30
0.0
 10
9.7473902255
 20
46.122982686
 30
0.0
 10
9.7541048518
 20
46.0520120186
 30
0.0
 10
9.7605552914
 20
45.9647226884
 30
0.0
 10
9.7667069361
 20
45.861925906
 30
0.0
 10
9.7724765925
 20
45.744579113
 30
0.0
 10
9.7798929174
 20
45.5621299174
 30
0.0
 10
9.78751535
 20
45.3065234109
 30
0.0
 10
9.7941144779
 20
44.9733856442
 30
0.0
 10
9.7981548459
 20
44.6139702535
 30
0.0
 10
9.799072077
 20
44.3669221419
 30
0.0
 10
9.799072077
 20
44.2411392963
 30
0.0
  0
SPLINE
  5
332
100
AcDbEntity
  8
_1
100
AcDbSpline
 62
7
  6
BYLAYER
 70
0
 71
3
 72
14
 73
10
 74
0
 42
0.0000001
 43
0.0000001
 44
0.0000000001
 40
0.0
 40
0.0
 40
0.0
 40
0.0
 40
0.0377382198
 40
0.1046843982
 40
0.1997439347
 40
0.3206602793
 40
0.4647427835
 40
0.628700625
 40
1.0
 40
1.0
 40
1.0
 40
1.0
 10
9.0644674838
 20
49.9023394301
 30
0.0
 10
9.0659763979
 20
49.9053655699
 30
0.0
 10
9.067822659
 20
49.9147241063
 30
0.0
 10
9.0704189361
 20
49.9323366401
 30
0.0
 10
9.0727029735
 20
49.957639699
 30
0.0
 10
9.0749070945
 20
49.9898086264
 30
0.0
 10
9.0768106955
 20
50.0282061731
 30
0.0
 10
9.0790369347
 20
50.0890346231
 30
0.0
 10
9.0799950433
 20
50.1369911909
 30
0.0
 10
9.0804052684
 20
50.1702583267
 30
0.0
  0
SPLINE
  5
333
100
AcDbEntity
  8
_1
100
AcDbSpline
 62
7
  6
BYLAYER
 70
0
 71
3
 72
15
 73
11
 74
0
 42
0.0000001
 43
0.0000001
 44
0.0000000001
 40
0.0
 40
0.0
 40
0.0
 40
0.0
 40
0.3530779385
 40
0.514721792
 40
0.6591390461
 40
0.7818751022
 40
0.8795564019
 40
0.9185925936
 40
0.9512153071
 40
1.0
 40
1.0
 40
1.0
 40
1.0
 10
9.701418209
 20
49.9254557211
 30
0.0
 10
9.6395109292
 20
49.9261790679
 30
0.0
 10
9.5492114753
 20
49.9309097635
 30
0.0
 10
9.4345124622
 20
49.9454638978
 30
0.0
 10
9.3605429715
 20
49.9592780017
 30
0.0
 10
9.2986578099
 20
49.9757584222
 30
0.0
 10
9.2560318118
 20
49.9920765259
 30
0.0
 10
9.2300782818
 20
50.0067969459
 30
0.0
 10
9.2133518694
 20
50.0194581206
 30
0.0
 10
9.2039583396
 20
50.0316246178
 30
0.0
 10
9.2021034416
 20
50.039975388
 30
0.0
  0
SPLINE
  5
334
100
AcDbEntity
  8
_1
100
AcDbSpline
 62
7
  6
BYLAYER
 70
0
 71
3
 72
11
 73
7
 74
0
 42
0.0000001
 43
0.0000001
 44
0.0000000001
 40
0.0
 40
0.0
 40
0.0
 40
0.0
 40
0.2499388493
 40
0.5
 40
0.7500611507
 40
1.0
 40
1.0
 40
1.0
 40
1.0
 10
9.2021034416
 20
50.039975388
 30
0.0
 10
9.2022811263
 20
49.9751045029
 30
0.0
 10
9.2285538439
 20
49.8439873598
 30
0.0
 10
9.3397740235
 20
49.6783312025
 30
0.0
 10
9.5054301807
 20
49.5671110229
 30
0.0
 10
9.6365473239
 20
49.5408383054
 30
0.0
 10
9.701418209
 20
49.5406606206
 30
0.0
  0
SPLINE
  5
335
100
AcDbEntity
  8
_1
100
AcDbSpline
 62
7
  6
BYLAYER
 70
0
 71
3
 72
15
 73
11
 74
0
 42
0.0000001
 43
0.0000001
 44
0.0000000001
 40
0.0
 40
0.0
 40
0.0
 40
0.0
 40
0.0452582411
 40
0.0762496579
 40
0.1142611352
 40
0.2131836609
 40
0.340881385
 40
0.4926992224
 40
0.6596241777
 40
1.0
 40
1.0
 40
1.0
 40
1.0
 10
9.2934873972
 20
57.4507418201
 30
0.0
 10
9.2952083439
 20
57.4429941005
 30
0.0
 10
9.3036443128
 20
57.4314438613
 30
0.0
 10
9.3192469018
 20
57.4190378662
 30
0.0
 10
9.3447368636
 20
57.404009145
 30
0.0
 10
9.3881635793
 20
57.3871391677
 30
0.0
 10
9.4522991617
 20
57.3698218451
 30
0.0
 10
9.5293806638
 20
57.3557113082
 30
0.0
 10
9.644113993
 20
57.3414220483
 30
0.0
 10
9.7331174511
 20
57.3369195314
 30
0.0
 10
9.7928021646
 20
57.3362221532
 30
0.0
  0
SPLINE
  5
336
100
AcDbEntity
  8
_1
100
AcDbSpline
 62
7
  6
BYLAYER
 70
0
 71
3
 72
16
 73
12
 74
0
 42
0.0000001
 43
0.0000001
 44
0.0000000001
 40
0.0
 40
0.0
 40
0.0
 40
0.0
 40
0.0455538224
 40
0.0948857776
 40
0.1476635318
 40
0.2035428967
 40
0.3230012143
 40
0.4504273952
 40
0.5834835347
 40
0.72035027
 40
1.0
 40
1.0
 40
1.0
 40
1.0
 10
52.150099142
 20
46.2383983658
 30
0.0
 10
52.2171885282
 20
46.2339597886
 30
0.0
 10
52.3562878903
 20
46.2142645761
 30
0.0
 10
52.5679745833
 20
46.1614235077
 30
0.0
 10
52.7894646814
 20
46.0879281591
 30
0.0
 10
53.1025002146
 20
45.9636040869
 30
0.0
 10
53.5066935629
 20
45.7720988624
 30
0.0
 10
54.0006870154
 20
45.5064485487
 30
0.0
 10
54.507944702
 20
45.2119525417
 30
0.0
 10
55.2010553124
 20
44.7905117009
 30
0.0
 10
55.7205706803
 20
44.461765841
 30
0.0
 10
56.0694118771
 20
44.2411392963
 30
0.0
  0
SPLINE
  5
337
100
AcDbEntity
  8
_1
100
AcDbSpline
 62
7
  6
BYLAYER
 70
0
 71
3
 72
9
 73
5
 74
0
 42
0.0000001
 43
0.0000001
 44
0.0000000001
 40
0.0
 40
0.0
 40
0.0
 40
0.0
 40
0.5001722806
 40
1.0
 40
1.0
 40
1.0
 40
1.0
 10
9.3512497541
 20
67.3842021577
 30
0.0
 10
9.3345287892
 20
67.3502426846
 30
0.0
 10
9.3087209458
 20
67.27831649
 30
0.0
 10
9.2998601686
 20
67.2024127548
 30
0.0
 10
9.2997565595
 20
67.1645861464
 30
0.0
  0
SPLINE
  5
338
100
AcDbEntity
  8
_1
100
AcDbSpline
 62
7
  6
BYLAYER
 70
0
 71
3
 72
15
 73
11
 74
0
 42
0.0000001
 43
0.0000001
 44
0.0000000001
 40
0.0
 40
0.0
 40
0.0
 40
0.0
 40
0.360970848
 40
0.5251622259
 40
0.6703864984
 40
0.7919723168
 40
0.8867823553
 40
0.923771308
 40
0.954226107
 40
1.0
 40
1.0
 40
1.0
 40
1.0
 10
9.0625501471
 20
50.1702583267
 30
0.0
 10
9.0370114554
 20
50.1702583267
 30
0.0
 10
8.9998128718
 20
50.1718094874
 30
0.0
 10
8.9527032015
 20
50.1774494483
 30
0.0
 10
8.9226729223
 20
50.1829207866
 30
0.0
 10
8.8979475422
 20
50.1895896068
 30
0.0
 10
8.8811999542
 20
50.1962288041
 30
0.0
 10
8.8714178019
 20
50.2023654331
 30
0.0
 10
8.8653975303
 20
50.2075738906
 30
0.0
 10
8.8625501471
 20
50.21282769
 30
0.0
 10
8.8625501471
 20
50.2160661935
 30
0.0
  0
SPLINE
  5
339
100
AcDbEntity
  8
_1
100
AcDbSpline
 62
7
  6
BYLAYER
 70
0
 71
3
 72
14
 73
10
 74
0
 42
0.0000001
 43
0.0000001
 44
0.0000000001
 40
0.0
 40
0.0
 40
0.0
 40
0.0
 40
0.0364668393
 40
0.1029774988
 40
0.1979554533
 40
0.3190231817
 40
0.46340728
 40
0.6277627312
 40
1.0
 40
1.0
 40
1.0
 40
1.0
 10
9.0635088155
 20
49.9023394301
 30
0.0
 10
9.0635088101
 20
49.9055963596
 30
0.0
 10
9.0629072587
 20
49.914781383
 30
0.0
 10
9.0624104586
 20
49.9324542809
 30
0.0
 10
9.0624055193
 20
49.9576927292
 30
0.0
 10
9.0625908766
 20
49.9898820356
 30
0.0
 10
9.0625881793
 20
50.0282694991
 30
0.0
 10
9.0625227821
 20
50.0890887314
 30
0.0
 10
9.0625501471
 20
50.1370130404
 30
0.0
 10
9.0625501471
 20
50.1702583267
 30
0.0
  0
SPLINE
  5
33A
100
AcDbEntity
  8
_1
100
AcDbSpline
 62
7
  6
BYLAYER
 70
0
 71
3
 72
15
 73
11
 74
0
 42
0.0000001
 43
0.0000001
 44
0.0000000001
 40
0.0
 40
0.0
 40
0.0
 40
0.0
 40
0.0279605235
 40
0.0653030031
 40
0.1631689242
 40
0.2828213545
 40
0.4157893564
 40
0.556740246
 40
0.7023799551
 40
1.0
 40
1.0
 40
1.0
 40
1.0
 10
13.3979827177
 20
54.3786839309
 30
0.0
 10
13.3972475253
 20
54.3762452876
 30
0.0
 10
13.3946221832
 20
54.370847402
 30
0.0
 10
13.3865054496
 20
54.3583941346
 30
0.0
 10
13.3716140756
 20
54.340496364
 30
0.0
 10
13.3497489156
 20
54.3172388022
 30
0.0
 10
13.3241270768
 20
54.292142997
 30
0.0
 10
13.2960894303
 20
54.2661665401
 30
0.0
 10
13.2562666066
 20
54.2308576963
 30
0.0
 10
13.2253335306
 20
54.2048900031
 30
0.0
 10
13.2043199999
 20
54.187759022
 30
0.0
  0
SPLINE
  5
33B
100
AcDbEntity
  8
_1
100
AcDbSpline
 62
7
  6
BYLAYER
 70
0
 71
3
 72
15
 73
11
 74
0
 42
0.0000001
 43
0.0000001
 44
0.0000000001
 40
0.0
 40
0.0
 40
0.0
 40
0.0
 40
0.2976200099
 40
0.443259713
 40
0.5842106069
 40
0.7171785548
 40
0.8368310035
 40
0.9346968938
 40
0.9720394111
 40
1.0
 40
1.0
 40
1.0
 40
1.0
 10
10.9207802944
 20
54.187759022
 30
0.0
 10
10.8997667662
 20
54.204890001
 30
0.0
 10
10.868833693
 20
54.2308576917
 30
0.0
 10
10.8290108715
 20
54.2661665329
 30
0.0
 10
10.8009732296
 20
54.2921429869
 30
0.0
 10
10.77535139
 20
54.3172387878
 30
0.0
 10
10.7534862407
 20
54.3404963494
 30
0.0
 10
10.7385948484
 20
54.3583941107
 30
0.0
 10
10.7304781267
 20
54.3708473923
 30
0.0
 10
10.7278527707
 20
54.3762452819
 30
0.0
 10
10.7271175766
 20
54.3786839309
 30
0.0
  0
SPLINE
  5
33C
100
AcDbEntity
  8
_1
100
AcDbSpline
 62
7
  6
BYLAYER
 70
0
 71
3
 72
8
 73
4
 74
0
 42
0.0000001
 43
0.0000001
 44
0.0000000001
 40
0.0
 40
0.0
 40
0.0
 40
0.0
 40
1.0
 40
1.0
 40
1.0
 40
1.0
 10
11.91276376
 20
50.2199958098
 30
0.0
 10
11.9124631294
 20
50.2282552795
 30
0.0
 10
11.912455117
 20
50.2365242044
 30
0.0
 10
11.9124869636
 20
50.2447890821
 30
0.0
  0
ELLIPSE
  5
33D
100
AcDbEntity
  8
_1
100
AcDbEllipse
 62
7
  6
BYLAYER
 10
12.0625501471
 20
46.2011045065
 30
0.0
 11
1.0604722537
 21
0.0
 31
0.0
 40
0.0174550651
 41
3.1414403255
 42
6.2833376352
  0
ELLIPSE
  5
33E
100
AcDbEntity
  8
_1
100
AcDbEllipse
 62
7
  6
BYLAYER
 10
12.0625501471
 20
49.8011147817
 30
0.0
 11
1.4018922209
 21
-0.0
 31
0.0
 40
0.0174550657
 41
-0.0003046793
 42
3.1418973329
  0
ELLIPSE
  5
33F
100
AcDbEntity
  8
_1
100
AcDbEllipse
 62
7
  6
BYLAYER
 10
10.5165269446
 20
50.039975388
 30
0.0
 11
0.0
 21
0.5
 31
0.0
 40
0.0174550649
 41
-4.3339506765
 42
-3.1939525311
  0
ELLIPSE
  5
340
100
AcDbEntity
  8
_1
100
AcDbEllipse
 62
7
  6
BYLAYER
 10
65.264269435
 20
62.4254323866
 30
0.0
 11
-0.2788041293
 21
4.8416396418
 31
0.0
 40
0.0523209914
 41
0.7354351461
 42
1.1920493994
  0
ELLIPSE
  5
341
100
AcDbEntity
  8
_1
100
AcDbEllipse
 62
7
  6
BYLAYER
 10
65.264269435
 20
62.4254323866
 30
0.0
 11
-0.2788041293
 21
4.8416396418
 31
0.0
 40
0.0523209914
 41
-4.3397139553
 42
-3.1400358903
  0
ELLIPSE
  5
342
100
AcDbEntity
  8
_1
100
AcDbEllipse
 62
7
  6
BYLAYER
 10
10.5101849523
 20
44.2411392963
 30
0.0
 11
0.0
 21
2.0
 31
0.0
 40
0.0174550649
 41
0.0523598776
 42
0.3230880438
  0
ELLIPSE
  5
343
100
AcDbEntity
  8
_1
100
AcDbEllipse
 62
7
  6
BYLAYER
 10
13.6085733497
 20
50.039975388
 30
0.0
 11
0.0
 21
0.5
 31
0.0
 40
0.0174550649
 41
-3.089232776
 42
-1.9492346307
  0
ELLIPSE
  5
344
100
AcDbEntity
  8
_1
100
AcDbEllipse
 62
7
  6
BYLAYER
 10
56.0694118771
 20
49.4011073262
 30
0.0
 11
5.0
 21
-0.0
 31
0.0
 40
0.0524077793
 41
2.5799619685
 42
3.089232776
  0
ELLIPSE
  5
345
100
AcDbEntity
  8
_1
100
AcDbEllipse
 62
7
  6
BYLAYER
 10
56.0694118771
 20
36.6511073262
 30
0.0
 11
-0.0
 21
21.25
 31
0.0
 40
0.2352941176
 41
0.2310906672
 42
0.8960807778
  0
ELLIPSE
  5
346
100
AcDbEntity
  8
_1
100
AcDbEllipse
 62
7
  6
BYLAYER
 10
56.0694118771
 20
46.4011073262
 30
0.0
 11
5.0
 21
0.0
 31
0.0
 40
0.0524077793
 41
-3.089232776
 42
-2.471658489
  0
ELLIPSE
  5
347
100
AcDbEntity
  8
_1
100
AcDbEllipse
 62
7
  6
BYLAYER
 10
13.6149153419
 20
44.2411392963
 30
0.0
 11
0.0
 21
2.0
 31
0.0
 40
0.0174550649
 41
-0.3230880438
 42
-0.0523598776
  0
ELLIPSE
  5
348
100
AcDbEntity
  8
_1
100
AcDbEllipse
 62
7
  6
BYLAYER
 10
13.352489224
 20
54.187759022
 30
0.0
 11
0.0487913545
 21
0.1999982886
 31
0.0
 40
0.0169577304
 41
0.2618135956
 42
0.3065367827
  0
ELLIPSE
  5
349
100
AcDbEntity
  8
_1
100
AcDbEllipse
 62
7
  6
BYLAYER
 10
10.7726110703
 20
54.187759022
 30
0.0
 11
-0.0487913545
 21
0.1999982886
 31
0.0
 40
0.0169577304
 41
-0.3065367827
 42
-0.2618135956
  0
ENDSEC
  0
SECTION
  2
OBJECTS
  0
DICTIONARY
  5
C
100
AcDbDictionary
280
0
281
1
  3
ACAD_GROUP
350
D
  3
ACAD_MLINESTYLE
350
17
  3
ACAD_LAYOUT
350
1A
  3
ACAD_PLOTSETTINGS
350
19
  3
ACAD_PLOTSTYLENAME
350
E
  0
DICTIONARY
  5
D
102
{ACAD_REACTORS
330
C
102
}
100
AcDbDictionary
280
0
281
1
  0
ACDBDICTIONARYWDFLT
  5
E
102
{ACAD_REACTORS
330
C
102
}
100
AcDbDictionary
281
1
  3
Normal
350
F
100
AcDbDictionaryWithDefault
340
F
  0
DICTIONARY
  5
17
102
{ACAD_REACTORS
330
C
102
}
100
AcDbDictionary
280
0
281
1
  3
Standard
350
18
  0
DICTIONARY
  5
19
102
{ACAD_REACTORS
330
C
102
}
100
AcDbDictionary
281
1
  0
DICTIONARY
  5
1A
102
{ACAD_REACTORS
330
C
102
}
100
AcDbDictionary
281
1
  3
Model
350
34A
  3
Layout1
350
34B
  0
ACDBPLACEHOLDER
  5
F
102
{ACAD_REACTORS
330
E
102
}
  0
MLINESTYLE
  5
18
102
{ACAD_REACTORS
330
17
102
}
100
AcDbMlineStyle
  2
STANDARD
 70
0
  3

 62
256
 51
90.0
 52
90.0
 71
2
 49
0.5
 62
256
  6
BYLAYER
 49
-0.5
 62
256
  6
BYLAYER
  0
LAYOUT
  5
34A
102
{ACAD_REACTORS
330
1A
102
}
100
AcDbPlotSettings
  1

  2
none_device
  4

  6

 40
0.0
 41
0.0
 42
0.0
 43
0.0
 44
210.0
 45
297.0
 46
0.0
 47
0.0
 48
0.0
 49
0.0
140
0.0
141
0.0
142
1.0
143
1.0
 70
1024
 72
1
 73
0
 74
0
  7

 75
0
147
1.0
148
0.0
149
0.0
100
AcDbLayout
  1
Model
 70
0
 71
0
 10
0.0
 20
0.0
 11
210.0
 21
297.0
 12
0.0
 22
0.0
 32
0.0
 14
0.0
 24
0.0
 34
0.0
 15
0.0
 25
0.0
 35
0.0
146
0.0
 13
0.0
 23
0.0
 33
0.0
 16
1.0
 26
0.0
 36
0.0
 17
0.0
 27
1.0
 37
0.0
 76
0
330
211
345
0
346
0
  0
LAYOUT
  5
34B
102
{ACAD_REACTORS
330
1A
102
}
100
AcDbPlotSettings
  1

  2
none_device
  4

  6

 40
0.0
 41
0.0
 42
0.0
 43
0.0
 44
210.0
 45
297.0
 46
0.0
 47
0.0
 48
0.0
 49
0.0
140
0.0
141
0.0
142
1.0
143
1.0
 70
0
 72
1
 73
0
 74
0
  7

 75
0
147
1.0
148
0.0
149
0.0
100
AcDbLayout
  1
Layout1
 70
0
 71
1
 10
0.0
 20
0.0
 11
210.0
 21
297.0
 12
0.0
 22
0.0
 32
0.0
 14
0.0
 24
0.0
 34
0.0
 15
0.0
 25
0.0
 35
0.0
146
0.0
 13
0.0
 23
0.0
 33
0.0
 16
1.0
 26
0.0
 36
0.0
 17
0.0
 27
1.0
 37
0.0
 76
0
330
212
345
0
346
0
  0
ENDSEC
  0
EOF
