999
DXF file: C:\Users\sesa63760\Dev\_Creo\CAD\MCADID0004760_3D-CAD\drw0001_4.dxf
999
Pro/ENGINEER 2019471 by Parametric Technology Corporation
  0
SECTION
  2
HEADER
  9
$ACADVER
  1
AC1024
  9
$DWGCODEPAGE
  3
ANSI_1252
  9
$EXTMAX
 10
33.6148119112
 20
47.5409482745
 30
0.0
  9
$EXTMIN
 10
0.0
 20
0.0
 30
0.0
  9
$LIMMIN
 10
0.0
 20
0.0
  9
$LIMMAX
 10
33.6148119112
 20
47.5409482745
  9
$VIEWCTR
 10
16.8074059556
 20
23.7704741372
  9
$VIEWSIZE
 40
47.5409482745
  9
$CLAYER
  8
0
  9
$LTSCALE
 40
3.0989655171
  9
$CELTYPE
  6
BYLAYER
  9
$DIMSCALE
 40
1.0
  9
$DIMASZ
 40
0.4001763323
  9
$DIMEXO
 40
1.0
  9
$DIMDLI
 40
2.1411034482
  9
$DIMEXE
 40
1.0
  9
$DIMCEN
 40
0.5071034483
  9
$DIMLFAC
 40
1.0
  9
$DIMBLK
  1
_FILLED
  9
$DIMALT
 70
0
  9
$DIMALTF
 40
0.0393700787
  9
$DIMTXT
 40
0.5602468652
  9
$DIMTOL
 70
1
  9
$DIMLIM
 70
0
  9
$DIMTFAC
 40
1.0
  9
$DIMTP
 40
0.01
  9
$DIMTM
 40
0.01
  9
$DIMGAP
 40
0.625
  9
$DIMDSEP
 70
46
  9
$AUNITS
 70
0
  9
$PDMODE
 70
3
  9
$PDSIZE
 40
0.3125
  9
$HANDSEED
  5
40E
  9
$TILEMODE
 70
1
  9
$MEASUREMENT
 70
1
  9
$INSUNITS
 70
4
  0
ENDSEC
  0
SECTION
  2
CLASSES
  0
CLASS
  1
ACDBDICTIONARYWDFLT
  2
AcDbDictionaryWithDefault
  3
AutoCAD 2000
 90
0
 91
1
280
0
281
0
  0
CLASS
  1
ACDBPLACEHOLDER
  2
AcDbPlaceHolder
  3
AutoCAD 2000
 90
0
 91
1
280
0
281
0
  0
CLASS
  1
LAYOUT
  2
AcDbLayout
  3
AutoCAD 2000
 90
0
 91
0
280
0
281
0
  0
ENDSEC
  0
SECTION
  2
TABLES
  0
TABLE
  2
VPORT
  5
8
100
AcDbSymbolTable
 70
2
  0
VPORT
  5
1F4
100
AcDbSymbolTableRecord
100
AcDbViewportTableRecord
  2
*ACTIVE
 70
0
 10
0.0
 20
0.0
 11
1.0
 21
1.0
 12
16.8074059556
 22
23.7704741372
 13
0.0
 23
0.0
 14
1.0
 24
1.0
 15
0.0
 25
0.0
 16
0.0
 26
0.0
 36
1.0
 17
0.0
 27
0.0
 37
0.0
 40
47.5409482745
 41
0.7070707071
 42
50.0
 43
0.0
 44
0.0
 50
0.0
 51
0.0
 71
0
 72
100
 73
1
 74
1
 75
0
 76
0
 77
0
 78
0
  0
ENDTAB
  0
TABLE
  2
LTYPE
  5
5
100
AcDbSymbolTable
 70
6
  0
LTYPE
  5
14
100
AcDbSymbolTableRecord
100
AcDbLinetypeTableRecord
  2
BYBLOCK
 70
0
  3

 72
65
 73
0
 40
0.0
  0
LTYPE
  5
15
100
AcDbSymbolTableRecord
100
AcDbLinetypeTableRecord
  2
BYLAYER
 70
0
  3

 72
65
 73
0
 40
0.0
  0
LTYPE
  5
16
100
AcDbSymbolTableRecord
100
AcDbLinetypeTableRecord
  2
CONTINUOUS
 70
64
  3
Solid line
 72
65
 73
0
 40
0.0
  0
LTYPE
  5
1F5
100
AcDbSymbolTableRecord
100
AcDbLinetypeTableRecord
  2
CENTER
 70
64
  3
____ _ ____ _ ____ _ ____ _ ____ _ ____ _ ____
 72
65
 73
4
 40
0.6
 49
0.375
 74
0
 49
-0.075
 74
0
 49
0.075
 74
0
 49
-0.075
 74
0
  0
LTYPE
  5
1F6
100
AcDbSymbolTableRecord
100
AcDbLinetypeTableRecord
  2
HIDDEN
 70
64
  3
- - - - - - - - - - - - - - - - - - - -
 72
65
 73
2
 40
0.2
 49
0.1
 74
0
 49
-0.1
 74
0
  0
LTYPE
  5
1F7
100
AcDbSymbolTableRecord
100
AcDbLinetypeTableRecord
  2
PHANTOM
 70
64
  3
_____ _ _ _____ _ _ _____ _ _ _____
 72
65
 73
6
 40
0.8
 49
0.45
 74
0
 49
-0.05
 74
0
 49
0.1
 74
0
 49
-0.05
 74
0
 49
0.1
 74
0
 49
-0.05
 74
0
  0
LTYPE
  5
1F8
100
AcDbSymbolTableRecord
100
AcDbLinetypeTableRecord
  2
DOT
 70
64
  3
. . . . . . . . . . . . . . . . . . . .
 72
65
 73
2
 40
0.2
 49
0.1
 74
0
 49
-0.1
 74
0
  0
LTYPE
  5
1F9
100
AcDbSymbolTableRecord
100
AcDbLinetypeTableRecord
  2
DASHED
 70
64
  3
- - - - - - - - - - - - - - - - - - - -
 72
65
 73
2
 40
0.2
 49
0.1
 74
0
 49
-0.1
 74
0
  0
ENDTAB
  0
TABLE
  2
LAYER
  5
2
100
AcDbSymbolTable
 70
36
  0
LAYER
  5
10
100
AcDbSymbolTableRecord
100
AcDbLayerTableRecord
  2
0
 70
0
 62
7
  6
CONTINUOUS
370
-3
390
F
  0
LAYER
  5
1FA
100
AcDbSymbolTableRecord
100
AcDbLayerTableRecord
  2
DEFAULT_1
 70
0
 62
7
  6
CENTER
370
-3
390
F
  0
LAYER
  5
1FB
100
AcDbSymbolTableRecord
100
AcDbLayerTableRecord
  2
DEFAULT_2
 70
0
 62
7
  6
HIDDEN
370
-3
390
F
  0
LAYER
  5
1FC
100
AcDbSymbolTableRecord
100
AcDbLayerTableRecord
  2
DEFAULT_3
 70
0
 62
7
  6
PHANTOM
370
-3
390
F
  0
LAYER
  5
1FD
100
AcDbSymbolTableRecord
100
AcDbLayerTableRecord
  2
00_COMPONENTS
 70
0
 62
7
  6
CONTINUOUS
370
-3
390
F
  0
LAYER
  5
1FE
100
AcDbSymbolTableRecord
100
AcDbLayerTableRecord
  2
01_1_DEFAULT_DATUMS
 70
0
 62
7
  6
CONTINUOUS
370
-3
390
F
  0
LAYER
  5
1FF
100
AcDbSymbolTableRecord
100
AcDbLayerTableRecord
  2
01_PLANES
 70
0
 62
7
  6
CONTINUOUS
370
-3
390
F
  0
LAYER
  5
200
100
AcDbSymbolTableRecord
100
AcDbLayerTableRecord
  2
02_COORD_SYS
 70
0
 62
7
  6
CONTINUOUS
370
-3
390
F
  0
LAYER
  5
201
100
AcDbSymbolTableRecord
100
AcDbLayerTableRecord
  2
03_AXES
 70
0
 62
7
  6
CONTINUOUS
370
-3
390
F
  0
LAYER
  5
202
100
AcDbSymbolTableRecord
100
AcDbLayerTableRecord
  2
04_POINTS
 70
0
 62
7
  6
CONTINUOUS
370
-3
390
F
  0
LAYER
  5
203
100
AcDbSymbolTableRecord
100
AcDbLayerTableRecord
  2
05_CURVES
 70
0
 62
7
  6
CONTINUOUS
370
-3
390
F
  0
LAYER
  5
204
100
AcDbSymbolTableRecord
100
AcDbLayerTableRecord
  2
06_SURFS
 70
0
 62
7
  6
CONTINUOUS
370
-3
390
F
  0
LAYER
  5
205
100
AcDbSymbolTableRecord
100
AcDbLayerTableRecord
  2
07_COSMETICS
 70
0
 62
7
  6
CONTINUOUS
370
-3
390
F
  0
LAYER
  5
206
100
AcDbSymbolTableRecord
100
AcDbLayerTableRecord
  2
10_NOTES
 70
0
 62
7
  6
CONTINUOUS
370
-3
390
F
  0
LAYER
  5
207
100
AcDbSymbolTableRecord
100
AcDbLayerTableRecord
  2
11_NOTES_PUB
 70
0
 62
7
  6
CONTINUOUS
370
-3
390
F
  0
LAYER
  5
208
100
AcDbSymbolTableRecord
100
AcDbLayerTableRecord
  2
13_REF_GTOL
 70
0
 62
7
  6
CONTINUOUS
370
-3
390
F
  0
LAYER
  5
209
100
AcDbSymbolTableRecord
100
AcDbLayerTableRecord
  2
16_MISC
 70
0
 62
7
  6
CONTINUOUS
370
-3
390
F
  0
LAYER
  5
20A
100
AcDbSymbolTableRecord
100
AcDbLayerTableRecord
  2
17_NO_PRINT
 70
0
 62
7
  6
CONTINUOUS
370
-3
390
F
  0
LAYER
  5
20B
100
AcDbSymbolTableRecord
100
AcDbLayerTableRecord
  2
18_DATUM_CAMS_JOINTS
 70
0
 62
7
  6
CONTINUOUS
370
-3
390
F
  0
LAYER
  5
20C
100
AcDbSymbolTableRecord
100
AcDbLayerTableRecord
  2
19_DATUM_FUNCTIONAL
 70
0
 62
7
  6
CONTINUOUS
370
-3
390
F
  0
LAYER
  5
20D
100
AcDbSymbolTableRecord
100
AcDbLayerTableRecord
  2
20_DATUM_KINEMATIC_SCHEME
 70
0
 62
7
  6
CONTINUOUS
370
-3
390
F
  0
ENDTAB
  0
TABLE
  2
STYLE
  5
3
100
AcDbSymbolTable
 70
1
  0
STYLE
  5
11
100
AcDbSymbolTableRecord
100
AcDbTextStyleTableRecord
  2
STANDARD
 70
0
 40
0.0
 41
1.0
 50
0.0
 71
0
 42
0.2
  3
ARIAL.TTF
  4

  0
STYLE
  5
20E
100
AcDbSymbolTableRecord
100
AcDbTextStyleTableRecord
  2
TEXTSTYLE_1
 70
0
 40
0.0
 41
0.8
 50
0.0
 71
0
 42
0.2
  3
gdt
  4

  0
ENDTAB
  0
TABLE
  2
VIEW
  5
6
100
AcDbSymbolTable
 70
0
  0
ENDTAB
  0
TABLE
  2
UCS
  5
7
100
AcDbSymbolTable
 70
0
  0
ENDTAB
  0
TABLE
  2
APPID
  5
9
100
AcDbSymbolTable
 70
1
  0
APPID
  5
20F
100
AcDbSymbolTableRecord
100
AcDbRegAppTableRecord
  2
ACAD
 70
0
  0
ENDTAB
  0
TABLE
  2
BLOCK_RECORD
  5
1
100
AcDbSymbolTable
 70
0
  0
BLOCK_RECORD
  5
210
100
AcDbSymbolTableRecord
100
AcDbBlockTableRecord
  2
*Model_Space
  0
BLOCK_RECORD
  5
211
100
AcDbSymbolTableRecord
100
AcDbBlockTableRecord
  2
*Paper_Space
  0
BLOCK_RECORD
  5
212
100
AcDbSymbolTableRecord
100
AcDbBlockTableRecord
  2
_FILLED
  0
ENDTAB
  0
TABLE
  2
DIMSTYLE
  5
A
100
AcDbSymbolTable
 70
1
100
AcDbDimStyleTable
 71
0
  0
DIMSTYLE
105
213
100
AcDbSymbolTableRecord
100
AcDbDimStyleTableRecord
  2
STANDARD
 70
0
  3

  4

 40
1.0
 41
0.4001763323
 42
1.0
 43
0.38
 44
1.0
 45
0.0
 46
0.0
 47
0.01
 48
0.01
140
0.5602468652
141
0.09
142
0.0
143
25.4
144
1.0
145
0.0
146
1.0
147
0.625
 71
1
 72
0
 73
0
 74
0
 75
0
 76
0
 77
1
 78
8
 79
2
170
0
171
1
172
0
173
0
174
0
175
0
176
0
177
0
178
0
270
2
179
2
271
2
272
2
273
2
274
2
275
0
280
0
281
0
282
0
283
1
284
8
285
0
286
0
287
3
288
0
340
11
278
46
341
212
342
212
343
212
344
212
  0
ENDTAB
  0
ENDSEC
  0
SECTION
  2
BLOCKS
  0
BLOCK
  5
20
100
AcDbEntity
  8
0
100
AcDbBlockBegin
  2
*Model_Space
 70
0
 10
0.0
 20
0.0
 30
0.0
  3
*Model_Space
  1

  0
ENDBLK
  5
21
100
AcDbEntity
  8
0
100
AcDbBlockEnd
  0
BLOCK
  5
1C
100
AcDbEntity
  8
0
100
AcDbBlockBegin
  2
*Paper_Space
 70
0
 10
0.0
 20
0.0
 30
0.0
  3
*Paper_Space
  1

  0
ENDBLK
  5
1D
100
AcDbEntity
  8
0
100
AcDbBlockEnd
  0
BLOCK
  5
214
100
AcDbEntity
  8
0
100
AcDbBlockBegin
  2
_FILLED
 70
64
 10
0.0
 20
0.0
  3
_FILLED
  1

  0
SOLID
  5
215
100
AcDbEntity
  8
0
  6
BYBLOCK
 62
0
100
AcDbTrace
 10
0.0
 20
0.0
 11
-1.0
 21
0.25
 12
-1.0
 22
-0.25
 13
-1.0
 23
-0.25
  0
ENDBLK
  5
216
100
AcDbEntity
  8
0
  6
BYBLOCK
 62
0
100
AcDbBlockEnd
  0
ENDSEC
  0
SECTION
  2
ENTITIES
  0
LINE
  5
217
100
AcDbEntity
  8
0
100
AcDbLine
 62
7
  6
BYLAYER
 10
5.7562571517
 20
34.6256094004
 11
6.2432189683
 21
35.112571217
  0
LINE
  5
218
100
AcDbEntity
  8
0
100
AcDbLine
 62
7
  6
BYLAYER
 10
6.5493646742
 20
34.7859027671
 11
6.0829256015
 21
34.3194636944
  0
LINE
  5
219
100
AcDbEntity
  8
0
100
AcDbLine
 62
7
  6
BYLAYER
 10
6.7929811435
 20
12.5714348631
 11
6.1902632331
 21
13.1741527734
  0
LINE
  5
21A
100
AcDbEntity
  8
0
100
AcDbLine
 62
7
  6
BYLAYER
 10
7.034573445
 20
34.1981845252
 11
7.0830139002
 21
34.272776285
  0
LINE
  5
21B
100
AcDbEntity
  8
0
100
AcDbLine
 62
7
  6
BYLAYER
 10
7.407406189
 20
34.3594477918
 11
7.6946755952
 21
34.6785651355
  0
LINE
  5
21C
100
AcDbEntity
  8
0
100
AcDbLine
 62
7
  6
BYLAYER
 10
6.9857220612
 20
34.247035909
 11
6.8929195793
 21
34.1542334271
  0
LINE
  5
21D
100
AcDbEntity
  8
0
100
AcDbLine
 62
7
  6
BYLAYER
 10
6.7145949416
 20
33.9759087894
 11
6.6217924597
 21
33.8831063075
  0
LINE
  5
21E
100
AcDbEntity
  8
0
100
AcDbLine
 62
7
  6
BYLAYER
 10
5.152381857
 20
32.1658973857
 11
6.6449404337
 21
33.6584559623
  0
LINE
  5
21F
100
AcDbEntity
  8
0
100
AcDbLine
 62
7
  6
BYLAYER
 10
7.2103724063
 20
34.223887935
 11
8.702930983
 21
35.7164465116
  0
LINE
  5
220
100
AcDbEntity
  8
0
100
AcDbLine
 62
7
  6
BYLAYER
 10
8.967249566
 20
35.9511391063
 11
7.6946755952
 21
34.6785651355
  0
LINE
  5
221
100
AcDbEntity
  8
0
100
AcDbLine
 62
7
  6
BYLAYER
 10
6.1902632331
 20
33.1741527734
 11
4.9176892624
 21
31.9015788027
  0
LINE
  5
222
100
AcDbEntity
  8
0
100
AcDbLine
 62
7
  6
BYLAYER
 10
6.5093805768
 20
33.4614221797
 11
6.729330182
 21
33.6813717849
  0
LINE
  5
223
100
AcDbEntity
  8
0
100
AcDbLine
 62
7
  6
BYLAYER
 10
7.1874565838
 20
34.1394981866
 11
7.407406189
 21
34.3594477918
  0
LINE
  5
224
100
AcDbEntity
  8
0
100
AcDbLine
 62
7
  6
BYLAYER
 10
6.1902632331
 20
33.1741527735
 11
6.5093805768
 21
33.4614221797
  0
LINE
  5
225
100
AcDbEntity
  8
0
100
AcDbLine
 62
7
  6
BYLAYER
 10
6.6706438435
 20
33.8342549237
 11
6.5960520836
 21
33.7858144684
  0
LINE
  5
226
100
AcDbEntity
  8
0
100
AcDbLine
 62
7
  6
BYLAYER
 10
6.6217924597
 20
13.8831063075
 11
6.0829256015
 21
14.3194636944
  0
LINE
  5
227
100
AcDbEntity
  8
0
100
AcDbLine
 62
7
  6
BYLAYER
 10
8.4047311372
 20
12.9305363042
 11
7.865864279
 21
13.3668936911
  0
LINE
  5
228
100
AcDbEntity
  8
0
100
AcDbLine
 62
7
  6
BYLAYER
 10
7.0802505498
 20
12.8905522068
 11
6.5093805768
 21
13.4614221797
  0
LINE
  5
229
100
AcDbEntity
  8
0
100
AcDbLine
 62
7
  6
BYLAYER
 10
5.7562571517
 20
14.6256094004
 11
6.5960520836
 21
13.7858144684
  0
LINE
  5
22A
100
AcDbEntity
  8
0
100
AcDbLine
 62
7
  6
BYLAYER
 10
7.4046428385
 20
12.9772237136
 11
8.2444377704
 21
12.1374287816
  0
LINE
  5
22B
100
AcDbEntity
  8
0
100
AcDbLine
 62
7
  6
BYLAYER
 10
6.6217924597
 20
13.8831063075
 11
6.6706438435
 21
13.8342549237
  0
LINE
  5
22C
100
AcDbEntity
  8
0
100
AcDbLine
 62
7
  6
BYLAYER
 10
7.4530832937
 20
13.0518154734
 11
7.5019346775
 21
13.0029640896
  0
LINE
  5
22D
100
AcDbEntity
  8
0
100
AcDbLine
 62
7
  6
BYLAYER
 10
7.865864279
 20
13.3668936911
 11
7.8170128952
 21
13.4157450749
  0
LINE
  5
22E
100
AcDbEntity
  8
0
100
AcDbLine
 62
7
  6
BYLAYER
 10
7.034573445
 20
14.1981845252
 11
6.9857220612
 21
14.247035909
  0
LINE
  5
22F
100
AcDbEntity
  8
0
100
AcDbLine
 62
7
  6
BYLAYER
 10
7.9382920645
 20
12.4640972315
 11
7.5019346775
 21
13.0029640896
  0
LINE
  5
230
100
AcDbEntity
  8
0
100
AcDbLine
 62
7
  6
BYLAYER
 10
6.9857220612
 20
14.247035909
 11
6.5493646742
 21
14.7859027671
  0
LINE
  5
231
100
AcDbEntity
  8
0
100
AcDbLine
 62
7
  6
BYLAYER
 10
3.7438283694
 20
10.8248933859
 11
3.7438283694
 21
36.4251066127
  0
LINE
  5
232
100
AcDbEntity
  8
0
100
AcDbLine
 62
7
  6
BYLAYER
 10
3.7938283694
 20
10.8749999993
 11
3.7938283694
 21
36.3749999993
  0
LINE
  5
233
100
AcDbEntity
  8
0
100
AcDbLine
 62
7
  6
BYLAYER
 10
4.2938283694
 20
17.6249999993
 11
4.2938283694
 21
29.6249999993
  0
LINE
  5
234
100
AcDbEntity
  8
0
100
AcDbLine
 62
7
  6
BYLAYER
 10
6.6574369994
 20
33.3813400698
 11
6.7509692831
 21
33.6249999993
  0
LINE
  5
235
100
AcDbEntity
  8
0
100
AcDbLine
 62
7
  6
BYLAYER
 10
7.4530832937
 20
33.0518154734
 11
7.4046428385
 21
32.9772237136
  0
LINE
  5
236
100
AcDbEntity
  8
0
100
AcDbLine
 62
7
  6
BYLAYER
 10
6.7929811435
 20
32.5714348631
 11
7.0802505498
 21
32.8905522068
  0
LINE
  5
237
100
AcDbEntity
  8
0
100
AcDbLine
 62
7
  6
BYLAYER
 10
7.0802505498
 20
32.8905522068
 11
7.3002001549
 21
33.110501812
  0
LINE
  5
238
100
AcDbEntity
  8
0
100
AcDbLine
 62
7
  6
BYLAYER
 10
7.7583265567
 20
33.5686282137
 11
7.9782761619
 21
33.7885778189
  0
LINE
  5
239
100
AcDbEntity
  8
0
100
AcDbLine
 62
7
  6
BYLAYER
 10
5.5204071727
 20
31.2988608923
 11
6.7929811435
 21
32.5714348631
  0
LINE
  5
23A
100
AcDbEntity
  8
0
100
AcDbLine
 62
7
  6
BYLAYER
 10
8.2973935056
 20
34.0758472252
 11
9.5699674763
 21
35.3484211959
  0
LINE
  5
23B
100
AcDbEntity
  8
0
100
AcDbLine
 62
7
  6
BYLAYER
 10
9.3352748817
 20
35.0841026129
 11
7.842716305
 21
33.5915440363
  0
LINE
  5
23C
100
AcDbEntity
  8
0
100
AcDbLine
 62
7
  6
BYLAYER
 10
7.2772843324
 20
33.0261120636
 11
5.7847257557
 21
31.533553487
  0
LINE
  5
23D
100
AcDbEntity
  8
0
100
AcDbLine
 62
7
  6
BYLAYER
 10
7.5019346775
 20
33.0029640896
 11
7.5947371594
 21
33.0957665715
  0
LINE
  5
23E
100
AcDbEntity
  8
0
100
AcDbLine
 62
7
  6
BYLAYER
 10
7.7730617971
 20
33.2740912092
 11
7.865864279
 21
33.3668936911
  0
LINE
  5
23F
100
AcDbEntity
  8
0
100
AcDbLine
 62
7
  6
BYLAYER
 10
8.4047311372
 20
32.9305363042
 11
7.9382920645
 21
32.4640972315
  0
LINE
  5
240
100
AcDbEntity
  8
0
100
AcDbLine
 62
7
  6
BYLAYER
 10
7.9782761619
 20
33.7885778189
 11
8.2973935056
 21
34.0758472252
  0
LINE
  5
241
100
AcDbEntity
  8
0
100
AcDbLine
 62
7
  6
BYLAYER
 10
7.8170128952
 20
33.4157450749
 11
7.8916046551
 21
33.4641855302
  0
LINE
  5
242
100
AcDbEntity
  8
0
100
AcDbLine
 62
7
  6
BYLAYER
 10
7.2438283694
 20
34.1178590856
 11
7.4874882988
 21
34.2113913693
  0
LINE
  5
243
100
AcDbEntity
  8
0
100
AcDbLine
 62
7
  6
BYLAYER
 10
30.0439349827
 20
10.1249999993
 11
4.443721756
 21
10.1249999993
  0
LINE
  5
244
100
AcDbEntity
  8
0
100
AcDbLine
 62
7
  6
BYLAYER
 10
4.4938283694
 20
10.1749999993
 11
29.9938283694
 21
10.1749999993
  0
LINE
  5
245
100
AcDbEntity
  8
0
100
AcDbLine
 62
7
  6
BYLAYER
 10
23.2438283694
 20
10.6749999993
 11
11.2438283694
 21
10.6749999993
  0
LINE
  5
246
100
AcDbEntity
  8
0
100
AcDbLine
 62
7
  6
BYLAYER
 10
7.4046428385
 20
12.9772237136
 11
7.2772843324
 21
13.0261120636
  0
LINE
  5
247
100
AcDbEntity
  8
0
100
AcDbLine
 62
7
  6
BYLAYER
 10
7.3002001549
 20
13.110501812
 11
7.2438283694
 21
13.132140913
  0
LINE
  5
248
100
AcDbEntity
  8
0
100
AcDbLine
 62
7
  6
BYLAYER
 10
7.4530832937
 20
13.0518154734
 11
7.4874882988
 21
13.0386086293
  0
LINE
  5
249
100
AcDbEntity
  8
0
100
AcDbLine
 62
7
  6
BYLAYER
 10
8.7313995871
 20
12.6243905982
 11
7.8916046551
 21
13.4641855302
  0
LINE
  5
24A
100
AcDbEntity
  8
0
100
AcDbLine
 62
7
  6
BYLAYER
 10
7.0830139002
 20
14.272776285
 11
6.2432189683
 21
15.112571217
  0
LINE
  5
24B
100
AcDbEntity
  8
0
100
AcDbLine
 62
7
  6
BYLAYER
 10
7.9782761619
 20
13.7885778189
 11
7.407406189
 21
14.3594477918
  0
LINE
  5
24C
100
AcDbEntity
  8
0
100
AcDbLine
 62
7
  6
BYLAYER
 10
8.2973935056
 20
14.0758472252
 11
7.6946755952
 21
14.6785651355
  0
LINE
  5
24D
100
AcDbEntity
  8
0
100
AcDbLine
 62
7
  6
BYLAYER
 10
6.6449404337
 20
13.6584559623
 11
6.5960520836
 21
13.7858144684
  0
LINE
  5
24E
100
AcDbEntity
  8
0
100
AcDbLine
 62
7
  6
BYLAYER
 10
6.7509692831
 20
13.6249999993
 11
6.729330182
 21
13.6813717849
  0
LINE
  5
24F
100
AcDbEntity
  8
0
100
AcDbLine
 62
7
  6
BYLAYER
 10
6.6706438435
 20
13.8342549237
 11
6.6574369994
 21
13.8686599288
  0
LINE
  5
250
100
AcDbEntity
  8
0
100
AcDbLine
 62
7
  6
BYLAYER
 10
7.2103724063
 20
34.223887935
 11
7.1874565838
 21
34.1394981866
  0
LINE
  5
251
100
AcDbEntity
  8
0
100
AcDbLine
 62
7
  6
BYLAYER
 10
7.2772843324
 20
33.0261120636
 11
7.3002001549
 21
33.110501812
  0
LINE
  5
252
100
AcDbEntity
  8
0
100
AcDbLine
 62
7
  6
BYLAYER
 10
7.8302197393
 20
33.8686599288
 11
7.7366874556
 21
33.6249999993
  0
LINE
  5
253
100
AcDbEntity
  8
0
100
AcDbLine
 62
7
  6
BYLAYER
 10
8.7313995871
 20
32.6243905982
 11
8.2444377704
 21
32.1374287816
  0
LINE
  5
254
100
AcDbEntity
  8
0
100
AcDbLine
 62
7
  6
BYLAYER
 10
7.2438283694
 20
33.132140913
 11
7.0001684399
 21
33.0386086293
  0
LINE
  5
255
100
AcDbEntity
  8
0
100
AcDbLine
 62
7
  6
BYLAYER
 10
27.7583265567
 20
13.5686282137
 11
27.842716305
 21
13.5915440363
  0
LINE
  5
256
100
AcDbEntity
  8
0
100
AcDbLine
 62
7
  6
BYLAYER
 10
26.729330182
 20
13.6813717849
 11
26.6449404337
 21
13.6584559623
  0
LINE
  5
257
100
AcDbEntity
  8
0
100
AcDbLine
 62
7
  6
BYLAYER
 10
7.0001684399
 20
14.2113913693
 11
7.034573445
 21
14.1981845252
  0
LINE
  5
258
100
AcDbEntity
  8
0
100
AcDbLine
 62
7
  6
BYLAYER
 10
7.1874565838
 20
14.1394981866
 11
7.2438283694
 21
14.1178590856
  0
LINE
  5
259
100
AcDbEntity
  8
0
100
AcDbLine
 62
7
  6
BYLAYER
 10
7.0830139002
 20
14.272776285
 11
7.2103724063
 21
14.223887935
  0
LINE
  5
25A
100
AcDbEntity
  8
0
100
AcDbLine
 62
7
  6
BYLAYER
 10
7.8170128952
 20
13.4157450749
 11
7.8302197393
 21
13.3813400698
  0
LINE
  5
25B
100
AcDbEntity
  8
0
100
AcDbLine
 62
7
  6
BYLAYER
 10
7.7583265567
 20
13.5686282137
 11
7.7366874556
 21
13.6249999993
  0
LINE
  5
25C
100
AcDbEntity
  8
0
100
AcDbLine
 62
7
  6
BYLAYER
 10
7.842716305
 20
13.5915440363
 11
7.8916046551
 21
13.4641855302
  0
LINE
  5
25D
100
AcDbEntity
  8
0
100
AcDbLine
 62
7
  6
BYLAYER
 10
7.2438283694
 20
33.1365140975
 11
7.2438283694
 21
33.132140913
  0
LINE
  5
25E
100
AcDbEntity
  8
0
100
AcDbLine
 62
7
  6
BYLAYER
 10
7.2438283694
 20
29.8249999993
 11
7.2438283694
 21
29.6249999993
  0
LINE
  5
25F
100
AcDbEntity
  8
0
100
AcDbLine
 62
7
  6
BYLAYER
 10
7.2438283694
 20
17.6249999993
 11
7.2438283694
 21
17.4249999993
  0
LINE
  5
260
100
AcDbEntity
  8
0
100
AcDbLine
 62
7
  6
BYLAYER
 10
7.2438283694
 20
13.1365140975
 11
7.2438283694
 21
13.132140913
  0
LINE
  5
261
100
AcDbEntity
  8
0
100
AcDbLine
 62
7
  6
BYLAYER
 10
7.2438283694
 20
14.1134859011
 11
7.2438283694
 21
14.1178590856
  0
LINE
  5
262
100
AcDbEntity
  8
0
100
AcDbLine
 62
7
  6
BYLAYER
 10
7.2438283694
 20
34.1134859011
 11
7.2438283694
 21
34.1178590856
  0
LINE
  5
263
100
AcDbEntity
  8
0
100
AcDbLine
 62
7
  6
BYLAYER
 10
26.7553424676
 20
13.6249999993
 11
26.7509692831
 21
13.6249999993
  0
LINE
  5
264
100
AcDbEntity
  8
0
100
AcDbLine
 62
7
  6
BYLAYER
 10
6.7553424676
 20
13.6249999993
 11
6.7509692831
 21
13.6249999993
  0
LINE
  5
265
100
AcDbEntity
  8
0
100
AcDbLine
 62
7
  6
BYLAYER
 10
7.7323142711
 20
13.6249999993
 11
7.7366874556
 21
13.6249999993
  0
LINE
  5
266
100
AcDbEntity
  8
0
100
AcDbLine
 62
7
  6
BYLAYER
 10
11.0438283694
 20
13.6249999993
 11
11.2438283694
 21
13.6249999993
  0
LINE
  5
267
100
AcDbEntity
  8
0
100
AcDbLine
 62
7
  6
BYLAYER
 10
23.2438283694
 20
13.6249999993
 11
23.4438283694
 21
13.6249999993
  0
LINE
  5
268
100
AcDbEntity
  8
0
100
AcDbLine
 62
7
  6
BYLAYER
 10
27.7323142711
 20
13.6249999993
 11
27.7366874556
 21
13.6249999993
  0
LINE
  5
269
100
AcDbEntity
  8
0
100
AcDbLine
 62
7
  6
BYLAYER
 10
11.0438283694
 20
37.0749999993
 11
11.0438283694
 21
33.6250039748
  0
LINE
  5
26A
100
AcDbEntity
  8
0
100
AcDbLine
 62
7
  6
BYLAYER
 10
11.0438283694
 20
13.6249960239
 11
11.0438283694
 21
10.1749999993
  0
LINE
  5
26B
100
AcDbEntity
  8
0
100
AcDbLine
 62
7
  6
BYLAYER
 10
7.2103724063
 20
14.223887935
 11
7.1874565838
 21
14.1394981866
  0
LINE
  5
26C
100
AcDbEntity
  8
0
100
AcDbLine
 62
7
  6
BYLAYER
 10
7.2772843324
 20
13.0261120636
 11
7.3002001549
 21
13.110501812
  0
LINE
  5
26D
100
AcDbEntity
  8
0
100
AcDbLine
 62
7
  6
BYLAYER
 10
6.6574369994
 20
13.3813400698
 11
6.7509692831
 21
13.6249999993
  0
LINE
  5
26E
100
AcDbEntity
  8
0
100
AcDbLine
 62
7
  6
BYLAYER
 10
27.2438283694
 20
34.1178590856
 11
27.4874882988
 21
34.2113913693
  0
LINE
  5
26F
100
AcDbEntity
  8
0
100
AcDbLine
 62
7
  6
BYLAYER
 10
7.7583265567
 20
13.5686282137
 11
7.842716305
 21
13.5915440363
  0
LINE
  5
270
100
AcDbEntity
  8
0
100
AcDbLine
 62
7
  6
BYLAYER
 10
6.729330182
 20
13.6813717849
 11
6.6449404337
 21
13.6584559623
  0
LINE
  5
271
100
AcDbEntity
  8
0
100
AcDbLine
 62
7
  6
BYLAYER
 10
18.9188278297
 20
17.1524999993
 11
15.568828909
 21
17.1524999993
  0
LINE
  5
272
100
AcDbEntity
  8
0
100
AcDbLine
 62
7
  6
BYLAYER
 10
3.7938283694
 20
17.4249999993
 11
7.2438243938
 21
17.4249999993
  0
LINE
  5
273
100
AcDbEntity
  8
0
100
AcDbLine
 62
7
  6
BYLAYER
 10
27.2438323448
 20
17.4249999993
 11
30.6938283694
 21
17.4249999993
  0
LINE
  5
274
100
AcDbEntity
  8
0
100
AcDbLine
 62
7
  6
BYLAYER
 10
27.4046428385
 20
12.9772237136
 11
27.2772843324
 21
13.0261120636
  0
LINE
  5
275
100
AcDbEntity
  8
0
100
AcDbLine
 62
7
  6
BYLAYER
 10
27.3002001549
 20
13.110501812
 11
27.2438283694
 21
13.132140913
  0
LINE
  5
276
100
AcDbEntity
  8
0
100
AcDbLine
 62
7
  6
BYLAYER
 10
27.4530832937
 20
13.0518154734
 11
27.4874882988
 21
13.0386086293
  0
LINE
  5
277
100
AcDbEntity
  8
0
100
AcDbLine
 62
7
  6
BYLAYER
 10
6.6449404337
 20
33.6584559623
 11
6.5960520836
 21
33.7858144684
  0
LINE
  5
278
100
AcDbEntity
  8
0
100
AcDbLine
 62
7
  6
BYLAYER
 10
6.7509692831
 20
33.6249999993
 11
6.729330182
 21
33.6813717849
  0
LINE
  5
279
100
AcDbEntity
  8
0
100
AcDbLine
 62
7
  6
BYLAYER
 10
6.6706438435
 20
33.8342549237
 11
6.6574369994
 21
33.8686599288
  0
LINE
  5
27A
100
AcDbEntity
  8
0
100
AcDbLine
 62
7
  6
BYLAYER
 10
11.2438283694
 20
10.1749999993
 11
11.2438283694
 21
13.6249999993
  0
LINE
  5
27B
100
AcDbEntity
  8
0
100
AcDbLine
 62
7
  6
BYLAYER
 10
11.2438283694
 20
33.6249999993
 11
11.2438283694
 21
37.0749999993
  0
LINE
  5
27C
100
AcDbEntity
  8
0
100
AcDbLine
 62
7
  6
BYLAYER
 10
7.8302197393
 20
13.8686599288
 11
7.7366874556
 21
13.6249999993
  0
LINE
  5
27D
100
AcDbEntity
  8
0
100
AcDbLine
 62
7
  6
BYLAYER
 10
15.5688291829
 20
30.0974997253
 11
15.3188286351
 21
29.8474992195
  0
LINE
  5
27E
100
AcDbEntity
  8
0
100
AcDbLine
 62
7
  6
BYLAYER
 10
27.2438283694
 20
33.132140913
 11
27.0001684399
 21
33.0386086293
  0
LINE
  5
27F
100
AcDbEntity
  8
0
100
AcDbLine
 62
7
  6
BYLAYER
 10
3.7938283694
 20
17.6249999993
 11
7.2438283694
 21
17.6249999993
  0
LINE
  5
280
100
AcDbEntity
  8
0
100
AcDbLine
 62
7
  6
BYLAYER
 10
27.2438283694
 20
17.6249999993
 11
30.6938283694
 21
17.6249999993
  0
LINE
  5
281
100
AcDbEntity
  8
0
100
AcDbLine
 62
7
  6
BYLAYER
 10
27.0001684399
 20
14.2113913693
 11
27.034573445
 21
14.1981845252
  0
LINE
  5
282
100
AcDbEntity
  8
0
100
AcDbLine
 62
7
  6
BYLAYER
 10
27.1874565838
 20
14.1394981866
 11
27.2438283694
 21
14.1178590856
  0
LINE
  5
283
100
AcDbEntity
  8
0
100
AcDbLine
 62
7
  6
BYLAYER
 10
27.0830139002
 20
14.272776285
 11
27.2103724063
 21
14.223887935
  0
LINE
  5
284
100
AcDbEntity
  8
0
100
AcDbLine
 62
7
  6
BYLAYER
 10
15.5688291829
 20
17.1525002733
 11
15.3188286351
 21
17.4025007791
  0
LINE
  5
285
100
AcDbEntity
  8
0
100
AcDbLine
 62
7
  6
BYLAYER
 10
7.8170128952
 20
33.4157450749
 11
7.8302197393
 21
33.3813400698
  0
LINE
  5
286
100
AcDbEntity
  8
0
100
AcDbLine
 62
7
  6
BYLAYER
 10
7.7583265567
 20
33.5686282137
 11
7.7366874556
 21
33.6249999993
  0
LINE
  5
287
100
AcDbEntity
  8
0
100
AcDbLine
 62
7
  6
BYLAYER
 10
7.842716305
 20
33.5915440363
 11
7.8916046551
 21
33.4641855302
  0
LINE
  5
288
100
AcDbEntity
  8
0
100
AcDbLine
 62
7
  6
BYLAYER
 10
15.3188283694
 20
26.9749993685
 11
15.2188285513
 21
26.8749995693
  0
LINE
  5
289
100
AcDbEntity
  8
0
100
AcDbLine
 62
7
  6
BYLAYER
 10
15.3188283694
 20
20.2750006301
 11
15.2188285513
 21
20.3750004293
  0
LINE
  5
28A
100
AcDbEntity
  8
0
100
AcDbLine
 62
7
  6
BYLAYER
 10
7.034573445
 20
14.1981845252
 11
7.0830139002
 21
14.272776285
  0
LINE
  5
28B
100
AcDbEntity
  8
0
100
AcDbLine
 62
7
  6
BYLAYER
 10
7.4530832937
 20
13.0518154734
 11
7.4046428385
 21
12.9772237136
  0
LINE
  5
28C
100
AcDbEntity
  8
0
100
AcDbLine
 62
7
  6
BYLAYER
 10
26.6706438435
 20
33.8342549237
 11
26.5960520836
 21
33.7858144684
  0
LINE
  5
28D
100
AcDbEntity
  8
0
100
AcDbLine
 62
7
  6
BYLAYER
 10
27.8170128952
 20
33.4157450749
 11
27.8916046551
 21
33.4641855302
  0
LINE
  5
28E
100
AcDbEntity
  8
0
100
AcDbLine
 62
7
  6
BYLAYER
 10
15.0938283694
 20
15.9193202759
 11
15.0938283694
 21
19.2775869754
  0
LINE
  5
28F
100
AcDbEntity
  8
0
100
AcDbLine
 62
7
  6
BYLAYER
 10
15.0938283694
 20
19.3446261838
 11
15.0938283694
 21
27.9053738148
  0
LINE
  5
290
100
AcDbEntity
  8
0
100
AcDbLine
 62
7
  6
BYLAYER
 10
15.0938283694
 20
27.9724130232
 11
15.0938283694
 21
31.3306797227
  0
LINE
  5
291
100
AcDbEntity
  8
0
100
AcDbLine
 62
7
  6
BYLAYER
 10
15.2188283694
 20
20.3750004293
 11
15.2188283694
 21
26.8749995693
  0
LINE
  5
292
100
AcDbEntity
  8
0
100
AcDbLine
 62
7
  6
BYLAYER
 10
15.3188283694
 20
17.4025007791
 11
15.3188283694
 21
29.8474992195
  0
LINE
  5
293
100
AcDbEntity
  8
0
100
AcDbLine
 62
7
  6
BYLAYER
 10
15.568828909
 20
17.1524999993
 11
15.568828909
 21
30.0974999993
  0
LINE
  5
294
100
AcDbEntity
  8
0
100
AcDbLine
 62
7
  6
BYLAYER
 10
7.407406189
 20
14.3594477918
 11
7.6946755952
 21
14.6785651355
  0
LINE
  5
295
100
AcDbEntity
  8
0
100
AcDbLine
 62
7
  6
BYLAYER
 10
5.7562571517
 20
14.6256094004
 11
6.2432189683
 21
15.112571217
  0
LINE
  5
296
100
AcDbEntity
  8
0
100
AcDbLine
 62
7
  6
BYLAYER
 10
25.7562571517
 20
34.6256094004
 11
26.2432189683
 21
35.112571217
  0
LINE
  5
297
100
AcDbEntity
  8
0
100
AcDbLine
 62
7
  6
BYLAYER
 10
26.5493646742
 20
34.7859027671
 11
26.0829256015
 21
34.3194636944
  0
LINE
  5
298
100
AcDbEntity
  8
0
100
AcDbLine
 62
7
  6
BYLAYER
 10
6.5493646742
 20
14.7859027671
 11
6.0829256015
 21
14.3194636944
  0
LINE
  5
299
100
AcDbEntity
  8
0
100
AcDbLine
 62
7
  6
BYLAYER
 10
26.1902632331
 20
33.1741527735
 11
26.5093805768
 21
33.4614221797
  0
LINE
  5
29A
100
AcDbEntity
  8
0
100
AcDbLine
 62
7
  6
BYLAYER
 10
15.2188283694
 20
21.6249999993
 11
15.0938283694
 21
21.6249999993
  0
LINE
  5
29B
100
AcDbEntity
  8
0
100
AcDbLine
 62
7
  6
BYLAYER
 10
26.6217924597
 20
13.8831063075
 11
26.0829256015
 21
14.3194636944
  0
LINE
  5
29C
100
AcDbEntity
  8
0
100
AcDbLine
 62
7
  6
BYLAYER
 10
28.4047311372
 20
12.9305363042
 11
27.865864279
 21
13.3668936911
  0
LINE
  5
29D
100
AcDbEntity
  8
0
100
AcDbLine
 62
7
  6
BYLAYER
 10
7.9382920645
 20
32.4640972315
 11
7.5019346775
 21
33.0029640896
  0
LINE
  5
29E
100
AcDbEntity
  8
0
100
AcDbLine
 62
7
  6
BYLAYER
 10
6.9857220612
 20
34.247035909
 11
6.5493646742
 21
34.7859027671
  0
LINE
  5
29F
100
AcDbEntity
  8
0
100
AcDbLine
 62
7
  6
BYLAYER
 10
6.7929811435
 20
12.5714348631
 11
7.0802505498
 21
12.8905522068
  0
LINE
  5
2A0
100
AcDbEntity
  8
0
100
AcDbLine
 62
7
  6
BYLAYER
 10
26.9857220612
 20
34.247035909
 11
26.8929195793
 21
34.1542334271
  0
LINE
  5
2A1
100
AcDbEntity
  8
0
100
AcDbLine
 62
7
  6
BYLAYER
 10
26.7145949416
 20
33.9759087894
 11
26.6217924597
 21
33.8831063075
  0
LINE
  5
2A2
100
AcDbEntity
  8
0
100
AcDbLine
 62
7
  6
BYLAYER
 10
6.9857220612
 20
14.247035909
 11
6.8929195793
 21
14.1542334271
  0
LINE
  5
2A3
100
AcDbEntity
  8
0
100
AcDbLine
 62
7
  6
BYLAYER
 10
6.7145949416
 20
13.9759087894
 11
6.6217924597
 21
13.8831063075
  0
LINE
  5
2A4
100
AcDbEntity
  8
0
100
AcDbLine
 62
7
  6
BYLAYER
 10
5.152381857
 20
12.1658973857
 11
6.6449404337
 21
13.6584559623
  0
LINE
  5
2A5
100
AcDbEntity
  8
0
100
AcDbLine
 62
7
  6
BYLAYER
 10
7.2103724063
 20
14.223887935
 11
8.702930983
 21
15.7164465116
  0
LINE
  5
2A6
100
AcDbEntity
  8
0
100
AcDbLine
 62
7
  6
BYLAYER
 10
25.152381857
 20
32.1658973857
 11
26.6449404337
 21
33.6584559623
  0
LINE
  5
2A7
100
AcDbEntity
  8
0
100
AcDbLine
 62
7
  6
BYLAYER
 10
27.2103724063
 20
34.223887935
 11
28.702930983
 21
35.7164465116
  0
LINE
  5
2A8
100
AcDbEntity
  8
0
100
AcDbLine
 62
7
  6
BYLAYER
 10
28.967249566
 20
35.9511391063
 11
27.6946755952
 21
34.6785651355
  0
LINE
  5
2A9
100
AcDbEntity
  8
0
100
AcDbLine
 62
7
  6
BYLAYER
 10
26.1902632331
 20
33.1741527734
 11
24.9176892624
 21
31.9015788027
  0
LINE
  5
2AA
100
AcDbEntity
  8
0
100
AcDbLine
 62
7
  6
BYLAYER
 10
8.967249566
 20
15.9511391063
 11
7.6946755952
 21
14.6785651355
  0
LINE
  5
2AB
100
AcDbEntity
  8
0
100
AcDbLine
 62
7
  6
BYLAYER
 10
6.1902632331
 20
13.1741527734
 11
4.9176892624
 21
11.9015788027
  0
LINE
  5
2AC
100
AcDbEntity
  8
0
100
AcDbLine
 62
7
  6
BYLAYER
 10
6.5093805768
 20
13.4614221797
 11
6.729330182
 21
13.6813717849
  0
LINE
  5
2AD
100
AcDbEntity
  8
0
100
AcDbLine
 62
7
  6
BYLAYER
 10
7.1874565838
 20
14.1394981866
 11
7.407406189
 21
14.3594477918
  0
LINE
  5
2AE
100
AcDbEntity
  8
0
100
AcDbLine
 62
7
  6
BYLAYER
 10
26.5093805768
 20
33.4614221797
 11
26.729330182
 21
33.6813717849
  0
LINE
  5
2AF
100
AcDbEntity
  8
0
100
AcDbLine
 62
7
  6
BYLAYER
 10
27.1874565838
 20
34.1394981866
 11
27.407406189
 21
34.3594477918
  0
LINE
  5
2B0
100
AcDbEntity
  8
0
100
AcDbLine
 62
7
  6
BYLAYER
 10
27.9782761619
 20
33.7885778189
 11
28.2973935056
 21
34.0758472252
  0
LINE
  5
2B1
100
AcDbEntity
  8
0
100
AcDbLine
 62
7
  6
BYLAYER
 10
26.7929811435
 20
12.5714348631
 11
26.1902632331
 21
13.1741527734
  0
LINE
  5
2B2
100
AcDbEntity
  8
0
100
AcDbLine
 62
7
  6
BYLAYER
 10
6.7929811435
 20
32.5714348631
 11
6.1902632331
 21
33.1741527734
  0
LINE
  5
2B3
100
AcDbEntity
  8
0
100
AcDbLine
 62
7
  6
BYLAYER
 10
27.0802505498
 20
12.8905522068
 11
26.5093805768
 21
13.4614221797
  0
LINE
  5
2B4
100
AcDbEntity
  8
0
100
AcDbLine
 62
7
  6
BYLAYER
 10
7.0802505498
 20
32.8905522068
 11
6.5093805768
 21
33.4614221797
  0
LINE
  5
2B5
100
AcDbEntity
  8
0
100
AcDbLine
 62
7
  6
BYLAYER
 10
5.7562571517
 20
34.6256094004
 11
6.5960520836
 21
33.7858144684
  0
LINE
  5
2B6
100
AcDbEntity
  8
0
100
AcDbLine
 62
7
  6
BYLAYER
 10
7.4046428385
 20
32.9772237136
 11
8.2444377704
 21
32.1374287816
  0
LINE
  5
2B7
100
AcDbEntity
  8
0
100
AcDbLine
 62
7
  6
BYLAYER
 10
25.7562571517
 20
14.6256094004
 11
26.5960520836
 21
13.7858144684
  0
LINE
  5
2B8
100
AcDbEntity
  8
0
100
AcDbLine
 62
7
  6
BYLAYER
 10
27.4046428385
 20
12.9772237136
 11
28.2444377704
 21
12.1374287816
  0
LINE
  5
2B9
100
AcDbEntity
  8
0
100
AcDbLine
 62
7
  6
BYLAYER
 10
6.6217924597
 20
33.8831063075
 11
6.6706438435
 21
33.8342549237
  0
LINE
  5
2BA
100
AcDbEntity
  8
0
100
AcDbLine
 62
7
  6
BYLAYER
 10
7.4530832937
 20
33.0518154734
 11
7.5019346775
 21
33.0029640896
  0
LINE
  5
2BB
100
AcDbEntity
  8
0
100
AcDbLine
 62
7
  6
BYLAYER
 10
26.6217924597
 20
13.8831063075
 11
26.6706438435
 21
13.8342549237
  0
LINE
  5
2BC
100
AcDbEntity
  8
0
100
AcDbLine
 62
7
  6
BYLAYER
 10
27.4530832937
 20
13.0518154734
 11
27.5019346775
 21
13.0029640896
  0
LINE
  5
2BD
100
AcDbEntity
  8
0
100
AcDbLine
 62
7
  6
BYLAYER
 10
27.407406189
 20
34.3594477918
 11
27.6946755952
 21
34.6785651355
  0
LINE
  5
2BE
100
AcDbEntity
  8
0
100
AcDbLine
 62
7
  6
BYLAYER
 10
26.7929811435
 20
32.5714348631
 11
27.0802505498
 21
32.8905522068
  0
LINE
  5
2BF
100
AcDbEntity
  8
0
100
AcDbLine
 62
7
  6
BYLAYER
 10
7.0802505498
 20
12.8905522068
 11
7.3002001549
 21
13.110501812
  0
LINE
  5
2C0
100
AcDbEntity
  8
0
100
AcDbLine
 62
7
  6
BYLAYER
 10
7.7583265567
 20
13.5686282137
 11
7.9782761619
 21
13.7885778189
  0
LINE
  5
2C1
100
AcDbEntity
  8
0
100
AcDbLine
 62
7
  6
BYLAYER
 10
27.0802505498
 20
32.8905522068
 11
27.3002001549
 21
33.110501812
  0
LINE
  5
2C2
100
AcDbEntity
  8
0
100
AcDbLine
 62
7
  6
BYLAYER
 10
27.7583265567
 20
33.5686282137
 11
27.9782761619
 21
33.7885778189
  0
LINE
  5
2C3
100
AcDbEntity
  8
0
100
AcDbLine
 62
7
  6
BYLAYER
 10
5.5204071727
 20
11.2988608923
 11
6.7929811435
 21
12.5714348631
  0
LINE
  5
2C4
100
AcDbEntity
  8
0
100
AcDbLine
 62
7
  6
BYLAYER
 10
8.2973935056
 20
14.0758472252
 11
9.5699674763
 21
15.3484211959
  0
LINE
  5
2C5
100
AcDbEntity
  8
0
100
AcDbLine
 62
7
  6
BYLAYER
 10
25.5204071727
 20
31.2988608923
 11
26.7929811435
 21
32.5714348631
  0
LINE
  5
2C6
100
AcDbEntity
  8
0
100
AcDbLine
 62
7
  6
BYLAYER
 10
28.2973935056
 20
34.0758472252
 11
29.5699674763
 21
35.3484211959
  0
LINE
  5
2C7
100
AcDbEntity
  8
0
100
AcDbLine
 62
7
  6
BYLAYER
 10
29.3352748817
 20
35.0841026129
 11
27.842716305
 21
33.5915440363
  0
LINE
  5
2C8
100
AcDbEntity
  8
0
100
AcDbLine
 62
7
  6
BYLAYER
 10
27.2772843324
 20
33.0261120636
 11
25.7847257557
 21
31.533553487
  0
LINE
  5
2C9
100
AcDbEntity
  8
0
100
AcDbLine
 62
7
  6
BYLAYER
 10
9.3352748817
 20
15.0841026129
 11
7.842716305
 21
13.5915440363
  0
LINE
  5
2CA
100
AcDbEntity
  8
0
100
AcDbLine
 62
7
  6
BYLAYER
 10
7.2772843324
 20
13.0261120636
 11
5.7847257557
 21
11.533553487
  0
LINE
  5
2CB
100
AcDbEntity
  8
0
100
AcDbLine
 62
7
  6
BYLAYER
 10
7.5019346775
 20
13.0029640896
 11
7.5947371594
 21
13.0957665715
  0
LINE
  5
2CC
100
AcDbEntity
  8
0
100
AcDbLine
 62
7
  6
BYLAYER
 10
7.7730617971
 20
13.2740912092
 11
7.865864279
 21
13.3668936911
  0
LINE
  5
2CD
100
AcDbEntity
  8
0
100
AcDbLine
 62
7
  6
BYLAYER
 10
27.5019346775
 20
33.0029640896
 11
27.5947371594
 21
33.0957665715
  0
LINE
  5
2CE
100
AcDbEntity
  8
0
100
AcDbLine
 62
7
  6
BYLAYER
 10
27.7730617971
 20
33.2740912092
 11
27.865864279
 21
33.3668936911
  0
LINE
  5
2CF
100
AcDbEntity
  8
0
100
AcDbLine
 62
7
  6
BYLAYER
 10
28.4047311372
 20
32.9305363042
 11
27.9382920645
 21
32.4640972315
  0
LINE
  5
2D0
100
AcDbEntity
  8
0
100
AcDbLine
 62
7
  6
BYLAYER
 10
8.4047311372
 20
12.9305363042
 11
7.9382920645
 21
12.4640972315
  0
LINE
  5
2D1
100
AcDbEntity
  8
0
100
AcDbLine
 62
7
  6
BYLAYER
 10
6.1902632331
 20
13.1741527735
 11
6.5093805768
 21
13.4614221797
  0
LINE
  5
2D2
100
AcDbEntity
  8
0
100
AcDbLine
 62
7
  6
BYLAYER
 10
7.9782761619
 20
13.7885778189
 11
8.2973935056
 21
14.0758472252
  0
LINE
  5
2D3
100
AcDbEntity
  8
0
100
AcDbLine
 62
7
  6
BYLAYER
 10
6.6217924597
 20
33.8831063075
 11
6.0829256015
 21
34.3194636944
  0
LINE
  5
2D4
100
AcDbEntity
  8
0
100
AcDbLine
 62
7
  6
BYLAYER
 10
27.865864279
 20
13.3668936911
 11
27.8170128952
 21
13.4157450749
  0
LINE
  5
2D5
100
AcDbEntity
  8
0
100
AcDbLine
 62
7
  6
BYLAYER
 10
27.034573445
 20
14.1981845252
 11
26.9857220612
 21
14.247035909
  0
LINE
  5
2D6
100
AcDbEntity
  8
0
100
AcDbLine
 62
7
  6
BYLAYER
 10
7.865864279
 20
33.3668936911
 11
7.8170128952
 21
33.4157450749
  0
LINE
  5
2D7
100
AcDbEntity
  8
0
100
AcDbLine
 62
7
  6
BYLAYER
 10
7.034573445
 20
34.1981845252
 11
6.9857220612
 21
34.247035909
  0
LINE
  5
2D8
100
AcDbEntity
  8
0
100
AcDbLine
 62
7
  6
BYLAYER
 10
28.7313995871
 20
12.6243905982
 11
27.8916046551
 21
13.4641855302
  0
LINE
  5
2D9
100
AcDbEntity
  8
0
100
AcDbLine
 62
7
  6
BYLAYER
 10
27.0830139002
 20
14.272776285
 11
26.2432189683
 21
15.112571217
  0
LINE
  5
2DA
100
AcDbEntity
  8
0
100
AcDbLine
 62
7
  6
BYLAYER
 10
8.7313995871
 20
32.6243905982
 11
7.8916046551
 21
33.4641855302
  0
LINE
  5
2DB
100
AcDbEntity
  8
0
100
AcDbLine
 62
7
  6
BYLAYER
 10
7.0830139002
 20
34.272776285
 11
6.2432189683
 21
35.112571217
  0
LINE
  5
2DC
100
AcDbEntity
  8
0
100
AcDbLine
 62
7
  6
BYLAYER
 10
27.9782761619
 20
13.7885778189
 11
27.407406189
 21
14.3594477918
  0
LINE
  5
2DD
100
AcDbEntity
  8
0
100
AcDbLine
 62
7
  6
BYLAYER
 10
7.9782761619
 20
33.7885778189
 11
7.407406189
 21
34.3594477918
  0
LINE
  5
2DE
100
AcDbEntity
  8
0
100
AcDbLine
 62
7
  6
BYLAYER
 10
28.2973935056
 20
14.0758472252
 11
27.6946755952
 21
14.6785651355
  0
LINE
  5
2DF
100
AcDbEntity
  8
0
100
AcDbLine
 62
7
  6
BYLAYER
 10
8.2973935056
 20
34.0758472252
 11
7.6946755952
 21
34.6785651355
  0
LINE
  5
2E0
100
AcDbEntity
  8
0
100
AcDbLine
 62
7
  6
BYLAYER
 10
27.9382920645
 20
12.4640972315
 11
27.5019346775
 21
13.0029640896
  0
LINE
  5
2E1
100
AcDbEntity
  8
0
100
AcDbLine
 62
7
  6
BYLAYER
 10
18.9188278297
 20
30.0974999993
 11
18.9188278297
 21
17.1524999993
  0
LINE
  5
2E2
100
AcDbEntity
  8
0
100
AcDbLine
 62
7
  6
BYLAYER
 10
19.1688283694
 20
29.8474992195
 11
19.1688283694
 21
17.4025007791
  0
LINE
  5
2E3
100
AcDbEntity
  8
0
100
AcDbLine
 62
7
  6
BYLAYER
 10
19.2688283694
 20
26.8749995693
 11
19.2688283694
 21
20.3750004293
  0
LINE
  5
2E4
100
AcDbEntity
  8
0
100
AcDbLine
 62
7
  6
BYLAYER
 10
19.3938283694
 20
27.9053738148
 11
19.3938283694
 21
19.3446261838
  0
LINE
  5
2E5
100
AcDbEntity
  8
0
100
AcDbLine
 62
7
  6
BYLAYER
 10
19.3938283694
 20
15.9193202759
 11
19.3938283694
 21
19.2775869754
  0
LINE
  5
2E6
100
AcDbEntity
  8
0
100
AcDbLine
 62
7
  6
BYLAYER
 10
19.3938283694
 20
27.9724130232
 11
19.3938283694
 21
31.3306797227
  0
LINE
  5
2E7
100
AcDbEntity
  8
0
100
AcDbLine
 62
7
  6
BYLAYER
 10
27.034573445
 20
34.1981845252
 11
27.0830139002
 21
34.272776285
  0
LINE
  5
2E8
100
AcDbEntity
  8
0
100
AcDbLine
 62
7
  6
BYLAYER
 10
28.7313995871
 20
32.6243905982
 11
28.2444377704
 21
32.1374287816
  0
LINE
  5
2E9
100
AcDbEntity
  8
0
100
AcDbLine
 62
7
  6
BYLAYER
 10
8.7313995871
 20
12.6243905982
 11
8.2444377704
 21
12.1374287816
  0
LINE
  5
2EA
100
AcDbEntity
  8
0
100
AcDbLine
 62
7
  6
BYLAYER
 10
6.6706438435
 20
13.8342549237
 11
6.5960520836
 21
13.7858144684
  0
LINE
  5
2EB
100
AcDbEntity
  8
0
100
AcDbLine
 62
7
  6
BYLAYER
 10
15.2188283694
 20
25.6249999993
 11
15.0938283694
 21
25.6249999993
  0
LINE
  5
2EC
100
AcDbEntity
  8
0
100
AcDbLine
 62
7
  6
BYLAYER
 10
8.4047311372
 20
32.9305363042
 11
7.865864279
 21
33.3668936911
  0
LINE
  5
2ED
100
AcDbEntity
  8
0
100
AcDbLine
 62
7
  6
BYLAYER
 10
26.9857220612
 20
14.247035909
 11
26.5493646742
 21
14.7859027671
  0
LINE
  5
2EE
100
AcDbEntity
  8
0
100
AcDbLine
 62
7
  6
BYLAYER
 10
27.4530832937
 20
33.0518154734
 11
27.4046428385
 21
32.9772237136
  0
LINE
  5
2EF
100
AcDbEntity
  8
0
100
AcDbLine
 62
7
  6
BYLAYER
 10
19.2688283694
 20
21.6999993724
 11
19.393828867
 21
21.8249999107
  0
LINE
  5
2F0
100
AcDbEntity
  8
0
100
AcDbLine
 62
7
  6
BYLAYER
 10
19.1688283694
 20
20.2750006301
 11
19.2688281874
 21
20.3750004293
  0
LINE
  5
2F1
100
AcDbEntity
  8
0
100
AcDbLine
 62
7
  6
BYLAYER
 10
7.8170128952
 20
13.4157450749
 11
7.8916046551
 21
13.4641855302
  0
LINE
  5
2F2
100
AcDbEntity
  8
0
100
AcDbLine
 62
7
  6
BYLAYER
 10
19.2688283694
 20
25.5500006262
 11
19.393828867
 21
25.4250000879
  0
LINE
  5
2F3
100
AcDbEntity
  8
0
100
AcDbLine
 62
7
  6
BYLAYER
 10
19.1688283694
 20
26.9749993685
 11
19.2688281874
 21
26.8749995693
  0
LINE
  5
2F4
100
AcDbEntity
  8
0
100
AcDbLine
 62
7
  6
BYLAYER
 10
7.4046428385
 20
32.9772237136
 11
7.2772843324
 21
33.0261120636
  0
LINE
  5
2F5
100
AcDbEntity
  8
0
100
AcDbLine
 62
7
  6
BYLAYER
 10
26.6449404337
 20
13.6584559623
 11
26.5960520836
 21
13.7858144684
  0
LINE
  5
2F6
100
AcDbEntity
  8
0
100
AcDbLine
 62
7
  6
BYLAYER
 10
23.2438283694
 20
10.1749999993
 11
23.2438283694
 21
13.6249999993
  0
LINE
  5
2F7
100
AcDbEntity
  8
0
100
AcDbLine
 62
7
  6
BYLAYER
 10
23.2438283694
 20
33.6249999993
 11
23.2438283694
 21
37.0749999993
  0
LINE
  5
2F8
100
AcDbEntity
  8
0
100
AcDbLine
 62
7
  6
BYLAYER
 10
23.4438283694
 20
10.1749999993
 11
23.4438283694
 21
13.6249960238
  0
LINE
  5
2F9
100
AcDbEntity
  8
0
100
AcDbLine
 62
7
  6
BYLAYER
 10
23.4438283694
 20
33.6250039747
 11
23.4438283694
 21
37.0749999993
  0
LINE
  5
2FA
100
AcDbEntity
  8
0
100
AcDbLine
 62
7
  6
BYLAYER
 10
26.6574369994
 20
33.3813400698
 11
26.7509692831
 21
33.6249999993
  0
LINE
  5
2FB
100
AcDbEntity
  8
0
100
AcDbLine
 62
7
  6
BYLAYER
 10
27.8302197393
 20
33.8686599288
 11
27.7366874556
 21
33.6249999993
  0
LINE
  5
2FC
100
AcDbEntity
  8
0
100
AcDbLine
 62
7
  6
BYLAYER
 10
18.9188275558
 20
17.1525002733
 11
19.1688281036
 21
17.4025007791
  0
LINE
  5
2FD
100
AcDbEntity
  8
0
100
AcDbLine
 62
7
  6
BYLAYER
 10
7.2438283694
 20
14.1178590856
 11
7.4874882988
 21
14.2113913693
  0
LINE
  5
2FE
100
AcDbEntity
  8
0
100
AcDbLine
 62
7
  6
BYLAYER
 10
7.2438283694
 20
13.132140913
 11
7.0001684399
 21
13.0386086293
  0
LINE
  5
2FF
100
AcDbEntity
  8
0
100
AcDbLine
 62
7
  6
BYLAYER
 10
3.7938283694
 20
29.6249999993
 11
7.2438283694
 21
29.6249999993
  0
LINE
  5
300
100
AcDbEntity
  8
0
100
AcDbLine
 62
7
  6
BYLAYER
 10
27.2438283694
 20
29.6249999993
 11
30.6938283694
 21
29.6249999993
  0
LINE
  5
301
100
AcDbEntity
  8
0
100
AcDbLine
 62
7
  6
BYLAYER
 10
30.6938283694
 20
29.8249999993
 11
27.2438323449
 21
29.8249999993
  0
LINE
  5
302
100
AcDbEntity
  8
0
100
AcDbLine
 62
7
  6
BYLAYER
 10
7.2438243939
 20
29.8249999993
 11
3.7938283694
 21
29.8249999993
  0
LINE
  5
303
100
AcDbEntity
  8
0
100
AcDbLine
 62
7
  6
BYLAYER
 10
18.9188278297
 20
30.0974999993
 11
15.568828909
 21
30.0974999993
  0
LINE
  5
304
100
AcDbEntity
  8
0
100
AcDbLine
 62
7
  6
BYLAYER
 10
7.3002001549
 20
33.110501812
 11
7.2438283694
 21
33.132140913
  0
LINE
  5
305
100
AcDbEntity
  8
0
100
AcDbLine
 62
7
  6
BYLAYER
 10
7.4530832937
 20
33.0518154734
 11
7.4874882988
 21
33.0386086293
  0
LINE
  5
306
100
AcDbEntity
  8
0
100
AcDbLine
 62
7
  6
BYLAYER
 10
7.0001684399
 20
34.2113913693
 11
7.034573445
 21
34.1981845252
  0
LINE
  5
307
100
AcDbEntity
  8
0
100
AcDbLine
 62
7
  6
BYLAYER
 10
7.1874565838
 20
34.1394981866
 11
7.2438283694
 21
34.1178590856
  0
LINE
  5
308
100
AcDbEntity
  8
0
100
AcDbLine
 62
7
  6
BYLAYER
 10
7.0830139002
 20
34.272776285
 11
7.2103724063
 21
34.223887935
  0
LINE
  5
309
100
AcDbEntity
  8
0
100
AcDbLine
 62
7
  6
BYLAYER
 10
18.9188275558
 20
30.0974997253
 11
19.1688281036
 21
29.8474992195
  0
LINE
  5
30A
100
AcDbEntity
  8
0
100
AcDbLine
 62
7
  6
BYLAYER
 10
26.7509692831
 20
13.6249999993
 11
26.729330182
 21
13.6813717849
  0
LINE
  5
30B
100
AcDbEntity
  8
0
100
AcDbLine
 62
7
  6
BYLAYER
 10
26.6706438435
 20
13.8342549237
 11
26.6574369994
 21
13.8686599288
  0
LINE
  5
30C
100
AcDbEntity
  8
0
100
AcDbLine
 62
7
  6
BYLAYER
 10
27.7583265567
 20
13.5686282137
 11
27.7366874556
 21
13.6249999993
  0
LINE
  5
30D
100
AcDbEntity
  8
0
100
AcDbLine
 62
7
  6
BYLAYER
 10
27.8170128952
 20
13.4157450749
 11
27.8302197393
 21
13.3813400698
  0
LINE
  5
30E
100
AcDbEntity
  8
0
100
AcDbLine
 62
7
  6
BYLAYER
 10
27.842716305
 20
13.5915440363
 11
27.8916046551
 21
13.4641855302
  0
LINE
  5
30F
100
AcDbEntity
  8
0
100
AcDbLine
 62
7
  6
BYLAYER
 10
27.2103724063
 20
34.223887935
 11
27.1874565838
 21
34.1394981866
  0
LINE
  5
310
100
AcDbEntity
  8
0
100
AcDbLine
 62
7
  6
BYLAYER
 10
27.2772843324
 20
33.0261120636
 11
27.3002001549
 21
33.110501812
  0
LINE
  5
311
100
AcDbEntity
  8
0
100
AcDbLine
 62
7
  6
BYLAYER
 10
27.7583265567
 20
33.5686282137
 11
27.842716305
 21
33.5915440363
  0
LINE
  5
312
100
AcDbEntity
  8
0
100
AcDbLine
 62
7
  6
BYLAYER
 10
26.729330182
 20
33.6813717849
 11
26.6449404337
 21
33.6584559623
  0
LINE
  5
313
100
AcDbEntity
  8
0
100
AcDbLine
 62
7
  6
BYLAYER
 10
27.2438283694
 20
33.1365140975
 11
27.2438283694
 21
33.132140913
  0
LINE
  5
314
100
AcDbEntity
  8
0
100
AcDbLine
 62
7
  6
BYLAYER
 10
27.2438283694
 20
13.1365140975
 11
27.2438283694
 21
13.132140913
  0
LINE
  5
315
100
AcDbEntity
  8
0
100
AcDbLine
 62
7
  6
BYLAYER
 10
27.2438283694
 20
14.1134859011
 11
27.2438283694
 21
14.1178590856
  0
LINE
  5
316
100
AcDbEntity
  8
0
100
AcDbLine
 62
7
  6
BYLAYER
 10
27.2438283694
 20
17.4249999993
 11
27.2438283694
 21
17.6249999993
  0
LINE
  5
317
100
AcDbEntity
  8
0
100
AcDbLine
 62
7
  6
BYLAYER
 10
27.2438283693
 20
29.6249999993
 11
27.2438283693
 21
29.8249999993
  0
LINE
  5
318
100
AcDbEntity
  8
0
100
AcDbLine
 62
7
  6
BYLAYER
 10
27.2438283694
 20
34.1134859011
 11
27.2438283694
 21
34.1178590856
  0
LINE
  5
319
100
AcDbEntity
  8
0
100
AcDbLine
 62
7
  6
BYLAYER
 10
26.7553424676
 20
33.6249999993
 11
26.7509692831
 21
33.6249999993
  0
LINE
  5
31A
100
AcDbEntity
  8
0
100
AcDbLine
 62
7
  6
BYLAYER
 10
23.4438283694
 20
33.6249999993
 11
23.2438283694
 21
33.6249999993
  0
LINE
  5
31B
100
AcDbEntity
  8
0
100
AcDbLine
 62
7
  6
BYLAYER
 10
11.2438283694
 20
33.6249999993
 11
11.0438283694
 21
33.6249999993
  0
LINE
  5
31C
100
AcDbEntity
  8
0
100
AcDbLine
 62
7
  6
BYLAYER
 10
6.7553424676
 20
33.6249999993
 11
6.7509692831
 21
33.6249999993
  0
LINE
  5
31D
100
AcDbEntity
  8
0
100
AcDbLine
 62
7
  6
BYLAYER
 10
7.7323142711
 20
33.6249999993
 11
7.7366874556
 21
33.6249999993
  0
LINE
  5
31E
100
AcDbEntity
  8
0
100
AcDbLine
 62
7
  6
BYLAYER
 10
27.7323142711
 20
33.6249999993
 11
27.7366874556
 21
33.6249999993
  0
LINE
  5
31F
100
AcDbEntity
  8
0
100
AcDbLine
 62
7
  6
BYLAYER
 10
27.2103724063
 20
14.223887935
 11
27.1874565838
 21
14.1394981866
  0
LINE
  5
320
100
AcDbEntity
  8
0
100
AcDbLine
 62
7
  6
BYLAYER
 10
27.2772843324
 20
13.0261120636
 11
27.3002001549
 21
13.110501812
  0
LINE
  5
321
100
AcDbEntity
  8
0
100
AcDbLine
 62
7
  6
BYLAYER
 10
26.6574369994
 20
13.3813400698
 11
26.7509692831
 21
13.6249999993
  0
LINE
  5
322
100
AcDbEntity
  8
0
100
AcDbLine
 62
7
  6
BYLAYER
 10
25.7562571517
 20
14.6256094004
 11
26.2432189683
 21
15.112571217
  0
LINE
  5
323
100
AcDbEntity
  8
0
100
AcDbLine
 62
7
  6
BYLAYER
 10
26.5493646742
 20
14.7859027671
 11
26.0829256015
 21
14.3194636944
  0
LINE
  5
324
100
AcDbEntity
  8
0
100
AcDbLine
 62
7
  6
BYLAYER
 10
27.2438283694
 20
14.1178590856
 11
27.4874882988
 21
14.2113913693
  0
LINE
  5
325
100
AcDbEntity
  8
0
100
AcDbLine
 62
7
  6
BYLAYER
 10
7.7583265567
 20
33.5686282137
 11
7.842716305
 21
33.5915440363
  0
LINE
  5
326
100
AcDbEntity
  8
0
100
AcDbLine
 62
7
  6
BYLAYER
 10
6.729330182
 20
33.6813717849
 11
6.6449404337
 21
33.6584559623
  0
LINE
  5
327
100
AcDbEntity
  8
0
100
AcDbLine
 62
7
  6
BYLAYER
 10
27.4046428385
 20
32.9772237136
 11
27.2772843324
 21
33.0261120636
  0
LINE
  5
328
100
AcDbEntity
  8
0
100
AcDbLine
 62
7
  6
BYLAYER
 10
27.3002001549
 20
33.110501812
 11
27.2438283694
 21
33.132140913
  0
LINE
  5
329
100
AcDbEntity
  8
0
100
AcDbLine
 62
7
  6
BYLAYER
 10
27.4530832937
 20
33.0518154734
 11
27.4874882988
 21
33.0386086293
  0
LINE
  5
32A
100
AcDbEntity
  8
0
100
AcDbLine
 62
7
  6
BYLAYER
 10
26.6449404337
 20
33.6584559623
 11
26.5960520836
 21
33.7858144684
  0
LINE
  5
32B
100
AcDbEntity
  8
0
100
AcDbLine
 62
7
  6
BYLAYER
 10
26.7509692831
 20
33.6249999993
 11
26.729330182
 21
33.6813717849
  0
LINE
  5
32C
100
AcDbEntity
  8
0
100
AcDbLine
 62
7
  6
BYLAYER
 10
26.6706438435
 20
33.8342549237
 11
26.6574369994
 21
33.8686599288
  0
LINE
  5
32D
100
AcDbEntity
  8
0
100
AcDbLine
 62
7
  6
BYLAYER
 10
30.1938283694
 20
29.6249999993
 11
30.1938283694
 21
17.6249999993
  0
LINE
  5
32E
100
AcDbEntity
  8
0
100
AcDbLine
 62
7
  6
BYLAYER
 10
30.6938283694
 20
10.8749999993
 11
30.6938283694
 21
36.3749999993
  0
LINE
  5
32F
100
AcDbEntity
  8
0
100
AcDbLine
 62
7
  6
BYLAYER
 10
30.7438283694
 20
36.4251066127
 11
30.7438283694
 21
10.8248933859
  0
LINE
  5
330
100
AcDbEntity
  8
0
100
AcDbLine
 62
7
  6
BYLAYER
 10
27.8302197393
 20
13.8686599288
 11
27.7366874556
 21
13.6249999993
  0
LINE
  5
331
100
AcDbEntity
  8
0
100
AcDbLine
 62
7
  6
BYLAYER
 10
27.034573445
 20
14.1981845252
 11
27.0830139002
 21
14.272776285
  0
LINE
  5
332
100
AcDbEntity
  8
0
100
AcDbLine
 62
7
  6
BYLAYER
 10
27.407406189
 20
14.3594477918
 11
27.6946755952
 21
14.6785651355
  0
LINE
  5
333
100
AcDbEntity
  8
0
100
AcDbLine
 62
7
  6
BYLAYER
 10
26.9857220612
 20
14.247035909
 11
26.8929195793
 21
14.1542334271
  0
LINE
  5
334
100
AcDbEntity
  8
0
100
AcDbLine
 62
7
  6
BYLAYER
 10
26.7145949416
 20
13.9759087894
 11
26.6217924597
 21
13.8831063075
  0
LINE
  5
335
100
AcDbEntity
  8
0
100
AcDbLine
 62
7
  6
BYLAYER
 10
25.152381857
 20
12.1658973857
 11
26.6449404337
 21
13.6584559623
  0
LINE
  5
336
100
AcDbEntity
  8
0
100
AcDbLine
 62
7
  6
BYLAYER
 10
27.2103724063
 20
14.223887935
 11
28.702930983
 21
15.7164465116
  0
LINE
  5
337
100
AcDbEntity
  8
0
100
AcDbLine
 62
7
  6
BYLAYER
 10
28.967249566
 20
15.9511391063
 11
27.6946755952
 21
14.6785651355
  0
LINE
  5
338
100
AcDbEntity
  8
0
100
AcDbLine
 62
7
  6
BYLAYER
 10
26.1902632331
 20
13.1741527734
 11
24.9176892624
 21
11.9015788027
  0
LINE
  5
339
100
AcDbEntity
  8
0
100
AcDbLine
 62
7
  6
BYLAYER
 10
26.5093805768
 20
13.4614221797
 11
26.729330182
 21
13.6813717849
  0
LINE
  5
33A
100
AcDbEntity
  8
0
100
AcDbLine
 62
7
  6
BYLAYER
 10
27.1874565838
 20
14.1394981866
 11
27.407406189
 21
14.3594477918
  0
LINE
  5
33B
100
AcDbEntity
  8
0
100
AcDbLine
 62
7
  6
BYLAYER
 10
26.1902632331
 20
13.1741527735
 11
26.5093805768
 21
13.4614221797
  0
LINE
  5
33C
100
AcDbEntity
  8
0
100
AcDbLine
 62
7
  6
BYLAYER
 10
26.6706438435
 20
13.8342549237
 11
26.5960520836
 21
13.7858144684
  0
LINE
  5
33D
100
AcDbEntity
  8
0
100
AcDbLine
 62
7
  6
BYLAYER
 10
27.2438283694
 20
13.132140913
 11
27.0001684399
 21
13.0386086293
  0
LINE
  5
33E
100
AcDbEntity
  8
0
100
AcDbLine
 62
7
  6
BYLAYER
 10
11.2438283694
 20
36.5749999993
 11
23.2438283694
 21
36.5749999993
  0
LINE
  5
33F
100
AcDbEntity
  8
0
100
AcDbLine
 62
7
  6
BYLAYER
 10
4.4938283694
 20
37.0749999993
 11
29.9938283694
 21
37.0749999993
  0
LINE
  5
340
100
AcDbEntity
  8
0
100
AcDbLine
 62
7
  6
BYLAYER
 10
4.443721756
 20
37.1249999993
 11
30.0439349827
 21
37.1249999993
  0
LINE
  5
341
100
AcDbEntity
  8
0
100
AcDbLine
 62
7
  6
BYLAYER
 10
27.0001684399
 20
34.2113913693
 11
27.034573445
 21
34.1981845252
  0
LINE
  5
342
100
AcDbEntity
  8
0
100
AcDbLine
 62
7
  6
BYLAYER
 10
27.1874565838
 20
34.1394981866
 11
27.2438283694
 21
34.1178590856
  0
LINE
  5
343
100
AcDbEntity
  8
0
100
AcDbLine
 62
7
  6
BYLAYER
 10
27.0830139002
 20
34.272776285
 11
27.2103724063
 21
34.223887935
  0
LINE
  5
344
100
AcDbEntity
  8
0
100
AcDbLine
 62
7
  6
BYLAYER
 10
26.6217924597
 20
33.8831063075
 11
26.0829256015
 21
34.3194636944
  0
LINE
  5
345
100
AcDbEntity
  8
0
100
AcDbLine
 62
7
  6
BYLAYER
 10
26.7929811435
 20
32.5714348631
 11
26.1902632331
 21
33.1741527734
  0
LINE
  5
346
100
AcDbEntity
  8
0
100
AcDbLine
 62
7
  6
BYLAYER
 10
27.0802505498
 20
32.8905522068
 11
26.5093805768
 21
33.4614221797
  0
LINE
  5
347
100
AcDbEntity
  8
0
100
AcDbLine
 62
7
  6
BYLAYER
 10
25.7562571517
 20
34.6256094004
 11
26.5960520836
 21
33.7858144684
  0
LINE
  5
348
100
AcDbEntity
  8
0
100
AcDbLine
 62
7
  6
BYLAYER
 10
27.4046428385
 20
32.9772237136
 11
28.2444377704
 21
32.1374287816
  0
LINE
  5
349
100
AcDbEntity
  8
0
100
AcDbLine
 62
7
  6
BYLAYER
 10
26.6217924597
 20
33.8831063075
 11
26.6706438435
 21
33.8342549237
  0
LINE
  5
34A
100
AcDbEntity
  8
0
100
AcDbLine
 62
7
  6
BYLAYER
 10
27.4530832937
 20
33.0518154734
 11
27.5019346775
 21
33.0029640896
  0
LINE
  5
34B
100
AcDbEntity
  8
0
100
AcDbLine
 62
7
  6
BYLAYER
 10
27.9382920645
 20
32.4640972315
 11
27.5019346775
 21
33.0029640896
  0
LINE
  5
34C
100
AcDbEntity
  8
0
100
AcDbLine
 62
7
  6
BYLAYER
 10
27.8170128952
 20
33.4157450749
 11
27.8302197393
 21
33.3813400698
  0
LINE
  5
34D
100
AcDbEntity
  8
0
100
AcDbLine
 62
7
  6
BYLAYER
 10
27.7583265567
 20
33.5686282137
 11
27.7366874556
 21
33.6249999993
  0
LINE
  5
34E
100
AcDbEntity
  8
0
100
AcDbLine
 62
7
  6
BYLAYER
 10
27.842716305
 20
33.5915440363
 11
27.8916046551
 21
33.4641855302
  0
LINE
  5
34F
100
AcDbEntity
  8
0
100
AcDbLine
 62
7
  6
BYLAYER
 10
27.4530832937
 20
13.0518154734
 11
27.4046428385
 21
12.9772237136
  0
LINE
  5
350
100
AcDbEntity
  8
0
100
AcDbLine
 62
7
  6
BYLAYER
 10
26.7929811435
 20
12.5714348631
 11
27.0802505498
 21
12.8905522068
  0
LINE
  5
351
100
AcDbEntity
  8
0
100
AcDbLine
 62
7
  6
BYLAYER
 10
27.0802505498
 20
12.8905522068
 11
27.3002001549
 21
13.110501812
  0
LINE
  5
352
100
AcDbEntity
  8
0
100
AcDbLine
 62
7
  6
BYLAYER
 10
27.7583265567
 20
13.5686282137
 11
27.9782761619
 21
13.7885778189
  0
LINE
  5
353
100
AcDbEntity
  8
0
100
AcDbLine
 62
7
  6
BYLAYER
 10
25.5204071727
 20
11.2988608923
 11
26.7929811435
 21
12.5714348631
  0
LINE
  5
354
100
AcDbEntity
  8
0
100
AcDbLine
 62
7
  6
BYLAYER
 10
28.2973935056
 20
14.0758472252
 11
29.5699674763
 21
15.3484211959
  0
LINE
  5
355
100
AcDbEntity
  8
0
100
AcDbLine
 62
7
  6
BYLAYER
 10
29.3352748817
 20
15.0841026129
 11
27.842716305
 21
13.5915440363
  0
LINE
  5
356
100
AcDbEntity
  8
0
100
AcDbLine
 62
7
  6
BYLAYER
 10
27.2772843324
 20
13.0261120636
 11
25.7847257557
 21
11.533553487
  0
LINE
  5
357
100
AcDbEntity
  8
0
100
AcDbLine
 62
7
  6
BYLAYER
 10
27.5019346775
 20
13.0029640896
 11
27.5947371594
 21
13.0957665715
  0
LINE
  5
358
100
AcDbEntity
  8
0
100
AcDbLine
 62
7
  6
BYLAYER
 10
27.7730617971
 20
13.2740912092
 11
27.865864279
 21
13.3668936911
  0
LINE
  5
359
100
AcDbEntity
  8
0
100
AcDbLine
 62
7
  6
BYLAYER
 10
27.9782761619
 20
13.7885778189
 11
28.2973935056
 21
14.0758472252
  0
LINE
  5
35A
100
AcDbEntity
  8
0
100
AcDbLine
 62
7
  6
BYLAYER
 10
27.8170128952
 20
13.4157450749
 11
27.8916046551
 21
13.4641855302
  0
LINE
  5
35B
100
AcDbEntity
  8
0
100
AcDbLine
 62
7
  6
BYLAYER
 10
28.4047311372
 20
32.9305363042
 11
27.865864279
 21
33.3668936911
  0
LINE
  5
35C
100
AcDbEntity
  8
0
100
AcDbLine
 62
7
  6
BYLAYER
 10
27.865864279
 20
33.3668936911
 11
27.8170128952
 21
33.4157450749
  0
LINE
  5
35D
100
AcDbEntity
  8
0
100
AcDbLine
 62
7
  6
BYLAYER
 10
27.034573445
 20
34.1981845252
 11
26.9857220612
 21
34.247035909
  0
LINE
  5
35E
100
AcDbEntity
  8
0
100
AcDbLine
 62
7
  6
BYLAYER
 10
28.7313995871
 20
32.6243905982
 11
27.8916046551
 21
33.4641855302
  0
LINE
  5
35F
100
AcDbEntity
  8
0
100
AcDbLine
 62
7
  6
BYLAYER
 10
27.0830139002
 20
34.272776285
 11
26.2432189683
 21
35.112571217
  0
LINE
  5
360
100
AcDbEntity
  8
0
100
AcDbLine
 62
7
  6
BYLAYER
 10
27.9782761619
 20
33.7885778189
 11
27.407406189
 21
34.3594477918
  0
LINE
  5
361
100
AcDbEntity
  8
0
100
AcDbLine
 62
7
  6
BYLAYER
 10
28.2973935056
 20
34.0758472252
 11
27.6946755952
 21
34.6785651355
  0
LINE
  5
362
100
AcDbEntity
  8
0
100
AcDbLine
 62
7
  6
BYLAYER
 10
26.9857220612
 20
34.247035909
 11
26.5493646742
 21
34.7859027671
  0
LINE
  5
363
100
AcDbEntity
  8
0
100
AcDbLine
 62
7
  6
BYLAYER
 10
28.4047311372
 20
12.9305363042
 11
27.9382920645
 21
12.4640972315
  0
LINE
  5
364
100
AcDbEntity
  8
0
100
AcDbLine
 62
7
  6
BYLAYER
 10
28.7313995871
 20
12.6243905982
 11
28.2444377704
 21
12.1374287816
  0
ARC
  5
365
100
AcDbEntity
  8
0
100
AcDbCircle
 62
7
  6
BYLAYER
 10
-3.9515060666
 20
4.9222348473
 40
30.3542594498
100
AcDbArc
 50
67.8613165602
 51
68.3569826949
  0
ARC
  5
366
100
AcDbEntity
  8
0
100
AcDbCircle
 62
7
  6
BYLAYER
 10
-3.9515060665
 20
-15.0777651526
 40
30.3542594496
100
AcDbArc
 50
67.8613165602
 51
68.3569826949
  0
ARC
  5
367
100
AcDbEntity
  8
0
100
AcDbCircle
 62
7
  6
BYLAYER
 10
16.0484939336
 20
-15.0777651523
 40
30.3542594494
100
AcDbArc
 50
67.8613165602
 51
68.3569826949
  0
ARC
  5
368
100
AcDbEntity
  8
0
100
AcDbCircle
 62
7
  6
BYLAYER
 10
16.048493934
 20
4.9222348488
 40
30.3542594482
100
AcDbArc
 50
67.8613165602
 51
68.356982695
  0
ARC
  5
369
100
AcDbEntity
  8
0
100
AcDbCircle
 62
7
  6
BYLAYER
 10
17.0023609864
 20
-11.5019584458
 40
26.50062807
100
AcDbArc
 50
111.6069779855
 51
112.1747227594
  0
ARC
  5
36A
100
AcDbEntity
  8
0
100
AcDbCircle
 62
7
  6
BYLAYER
 10
17.0023609863
 20
8.4980415544
 40
26.5006280698
100
AcDbArc
 50
111.6069779855
 51
112.1747227594
  0
ARC
  5
36B
100
AcDbEntity
  8
0
100
AcDbCircle
 62
7
  6
BYLAYER
 10
2.1168743473
 20
3.8664691595
 40
26.5006233034
100
AcDbArc
 50
21.6069779344
 51
22.1747228104
  0
ARC
  5
36C
100
AcDbEntity
  8
0
100
AcDbCircle
 62
7
  6
BYLAYER
 10
-17.8831256527
 20
3.8664691595
 40
26.5006233034
100
AcDbArc
 50
21.6069779344
 51
22.1747228104
  0
ARC
  5
36D
100
AcDbEntity
  8
0
100
AcDbCircle
 62
7
  6
BYLAYER
 10
-9.5454629992
 20
23.622916477
 40
22.0324517982
100
AcDbArc
 50
358.6774905355
 51
0.0054182365
  0
ARC
  5
36E
100
AcDbEntity
  8
0
100
AcDbCircle
 62
7
  6
BYLAYER
 10
7.2438283694
 20
13.6249999993
 40
4.0
100
AcDbArc
 50
0.0
 51
90.0
  0
ARC
  5
36F
100
AcDbEntity
  8
0
100
AcDbCircle
 62
7
  6
BYLAYER
 10
7.2438283694
 20
13.6249999993
 40
3.7999996077
100
AcDbArc
 50
359.9999400595
 51
90.0000599427
  0
CIRCLE
  5
370
100
AcDbEntity
  8
0
100
AcDbCircle
 62
7
  6
BYLAYER
 10
7.2438283694
 20
13.6249999993
 40
3.0
  0
ARC
  5
371
100
AcDbEntity
  8
0
100
AcDbCircle
 62
7
  6
BYLAYER
 10
7.2438283694
 20
13.6249999993
 40
2.8950136038
100
AcDbArc
 50
36.5345041033
 51
53.4654958967
  0
ARC
  5
372
100
AcDbEntity
  8
0
100
AcDbCircle
 62
7
  6
BYLAYER
 10
7.2438283694
 20
13.6249999993
 40
2.8950136038
100
AcDbArc
 50
216.5345041033
 51
233.4654958967
  0
ARC
  5
373
100
AcDbEntity
  8
0
100
AcDbCircle
 62
7
  6
BYLAYER
 10
7.2438283694
 20
13.6249999993
 40
2.8489817302
100
AcDbArc
 50
53.8836441583
 51
216.1163558417
  0
ARC
  5
374
100
AcDbEntity
  8
0
100
AcDbCircle
 62
7
  6
BYLAYER
 10
7.2438283694
 20
13.6249999993
 40
2.8489817302
100
AcDbArc
 50
233.8836441583
 51
36.1163558417
  0
ARC
  5
375
100
AcDbEntity
  8
0
100
AcDbCircle
 62
7
  6
BYLAYER
 10
7.2438283694
 20
13.6249999993
 40
2.5501233207
100
AcDbArc
 50
235.0983541384
 51
34.9016458616
  0
ARC
  5
376
100
AcDbEntity
  8
0
100
AcDbCircle
 62
7
  6
BYLAYER
 10
7.2438283694
 20
13.6249999993
 40
2.5501233207
100
AcDbArc
 50
55.0983541384
 51
214.9016458616
  0
ARC
  5
377
100
AcDbEntity
  8
0
100
AcDbCircle
 62
7
  6
BYLAYER
 10
4.4938283694
 20
10.8749999993
 40
0.7
100
AcDbArc
 50
180.0
 51
270.0
  0
ARC
  5
378
100
AcDbEntity
  8
0
100
AcDbCircle
 62
7
  6
BYLAYER
 10
7.2438283694
 20
13.6249999993
 40
0.635
100
AcDbArc
 50
22.564077409
 51
67.435922591
  0
ARC
  5
379
100
AcDbEntity
  8
0
100
AcDbCircle
 62
7
  6
BYLAYER
 10
7.2438283694
 20
13.6249999993
 40
0.635
100
AcDbArc
 50
292.564077409
 51
337.435922591
  0
ARC
  5
37A
100
AcDbEntity
  8
0
100
AcDbCircle
 62
7
  6
BYLAYER
 10
7.2438283694
 20
13.6249999993
 40
0.635
100
AcDbArc
 50
202.564077409
 51
247.435922591
  0
ARC
  5
37B
100
AcDbEntity
  8
0
100
AcDbCircle
 62
7
  6
BYLAYER
 10
7.2438283694
 20
13.6249999993
 40
0.635
100
AcDbArc
 50
112.564077409
 51
157.435922591
  0
ARC
  5
37C
100
AcDbEntity
  8
0
100
AcDbCircle
 62
7
  6
BYLAYER
 10
-1.458897099
 20
44.8203184898
 40
30.3542166828
100
AcDbArc
 50
337.861316211
 51
338.3569830441
  0
ARC
  5
37D
100
AcDbEntity
  8
0
100
AcDbCircle
 62
7
  6
BYLAYER
 10
-21.4588970978
 20
24.8203184894
 40
30.3542166815
100
AcDbArc
 50
337.861316211
 51
338.3569830441
  0
ARC
  5
37E
100
AcDbEntity
  8
0
100
AcDbCircle
 62
7
  6
BYLAYER
 10
-1.4588970975
 20
24.8203184892
 40
30.3542166812
100
AcDbArc
 50
337.861316211
 51
338.3569830441
  0
ARC
  5
37F
100
AcDbEntity
  8
0
100
AcDbCircle
 62
7
  6
BYLAYER
 10
-21.4588970972
 20
44.8203184891
 40
30.3542166808
100
AcDbArc
 50
337.861316211
 51
338.3569830441
  0
ARC
  5
380
100
AcDbEntity
  8
0
100
AcDbCircle
 62
7
  6
BYLAYER
 10
-2.5147042479
 20
58.7519584449
 40
26.5006280706
100
AcDbArc
 50
291.6069779855
 51
292.1747227593
  0
ARC
  5
381
100
AcDbEntity
  8
0
100
AcDbCircle
 62
7
  6
BYLAYER
 10
-2.5147042477
 20
38.7519584444
 40
26.50062807
100
AcDbArc
 50
291.6069779855
 51
292.1747227594
  0
ARC
  5
382
100
AcDbEntity
  8
0
100
AcDbCircle
 62
7
  6
BYLAYER
 10
-17.883125653
 20
23.8664691593
 40
26.5006233037
100
AcDbArc
 50
21.6069779344
 51
22.1747228104
  0
ARC
  5
383
100
AcDbEntity
  8
0
100
AcDbCircle
 62
7
  6
BYLAYER
 10
2.1168743473
 20
23.8664691595
 40
26.5006233034
100
AcDbArc
 50
21.6069779344
 51
22.1747228104
  0
ARC
  5
384
100
AcDbEntity
  8
0
100
AcDbCircle
 62
7
  6
BYLAYER
 10
-9.6823642854
 20
23.6255099378
 40
22.1693529917
100
AcDbArc
 50
359.998682085
 51
1.318409143
  0
ARC
  5
385
100
AcDbEntity
  8
0
100
AcDbCircle
 62
7
  6
BYLAYER
 10
7.2438283694
 20
33.6249999993
 40
4.0
100
AcDbArc
 50
270.0
 51
360.0
  0
ARC
  5
386
100
AcDbEntity
  8
0
100
AcDbCircle
 62
7
  6
BYLAYER
 10
7.2438283694
 20
33.6249999993
 40
3.7999996077
100
AcDbArc
 50
269.9999400595
 51
0.0000599427
  0
CIRCLE
  5
387
100
AcDbEntity
  8
0
100
AcDbCircle
 62
7
  6
BYLAYER
 10
7.2438283694
 20
33.6249999993
 40
3.0
  0
ARC
  5
388
100
AcDbEntity
  8
0
100
AcDbCircle
 62
7
  6
BYLAYER
 10
7.2438283694
 20
33.6249999993
 40
2.8950136038
100
AcDbArc
 50
36.5345041033
 51
53.4654958967
  0
ARC
  5
389
100
AcDbEntity
  8
0
100
AcDbCircle
 62
7
  6
BYLAYER
 10
7.2438283694
 20
33.6249999993
 40
2.8950136038
100
AcDbArc
 50
216.5345041033
 51
233.4654958967
  0
ARC
  5
38A
100
AcDbEntity
  8
0
100
AcDbCircle
 62
7
  6
BYLAYER
 10
7.2438283694
 20
33.6249999993
 40
2.8489817302
100
AcDbArc
 50
53.8836441583
 51
216.1163558417
  0
ARC
  5
38B
100
AcDbEntity
  8
0
100
AcDbCircle
 62
7
  6
BYLAYER
 10
7.2438283694
 20
33.6249999993
 40
2.8489817302
100
AcDbArc
 50
233.8836441583
 51
36.1163558417
  0
ARC
  5
38C
100
AcDbEntity
  8
0
100
AcDbCircle
 62
7
  6
BYLAYER
 10
7.2438283694
 20
33.6249999993
 40
2.5501233207
100
AcDbArc
 50
235.0983541384
 51
34.9016458616
  0
ARC
  5
38D
100
AcDbEntity
  8
0
100
AcDbCircle
 62
7
  6
BYLAYER
 10
7.2438283694
 20
33.6249999993
 40
2.5501233207
100
AcDbArc
 50
55.0983541384
 51
214.9016458616
  0
ARC
  5
38E
100
AcDbEntity
  8
0
100
AcDbCircle
 62
7
  6
BYLAYER
 10
4.4938283694
 20
36.3749999993
 40
0.7
100
AcDbArc
 50
90.0
 51
180.0
  0
ARC
  5
38F
100
AcDbEntity
  8
0
100
AcDbCircle
 62
7
  6
BYLAYER
 10
7.2438283694
 20
33.6249999993
 40
0.635
100
AcDbArc
 50
22.564077409
 51
67.435922591
  0
ARC
  5
390
100
AcDbEntity
  8
0
100
AcDbCircle
 62
7
  6
BYLAYER
 10
7.2438283694
 20
33.6249999993
 40
0.635
100
AcDbArc
 50
292.564077409
 51
337.435922591
  0
ARC
  5
391
100
AcDbEntity
  8
0
100
AcDbCircle
 62
7
  6
BYLAYER
 10
7.2438283694
 20
33.6249999993
 40
0.635
100
AcDbArc
 50
202.564077409
 51
247.435922591
  0
ARC
  5
392
100
AcDbEntity
  8
0
100
AcDbCircle
 62
7
  6
BYLAYER
 10
7.2438283694
 20
33.6249999993
 40
0.635
100
AcDbArc
 50
112.564077409
 51
157.435922591
  0
ARC
  5
393
100
AcDbEntity
  8
0
100
AcDbCircle
 62
7
  6
BYLAYER
 10
55.9465538363
 20
2.4296815093
 40
30.3542166813
100
AcDbArc
 50
157.861316211
 51
158.3569830441
  0
ARC
  5
394
100
AcDbEntity
  8
0
100
AcDbCircle
 62
7
  6
BYLAYER
 10
55.9465538357
 20
22.4296815095
 40
30.3542166807
100
AcDbArc
 50
157.861316211
 51
158.3569830441
  0
ARC
  5
395
100
AcDbEntity
  8
0
100
AcDbCircle
 62
7
  6
BYLAYER
 10
37.0023609867
 20
8.4980415535
 40
26.5006280708
100
AcDbArc
 50
111.6069779855
 51
112.1747227593
  0
ARC
  5
396
100
AcDbEntity
  8
0
100
AcDbCircle
 62
7
  6
BYLAYER
 10
37.0023609864
 20
-11.5019584458
 40
26.50062807
100
AcDbArc
 50
111.6069779855
 51
112.1747227594
  0
ARC
  5
397
100
AcDbEntity
  8
0
100
AcDbCircle
 62
7
  6
BYLAYER
 10
52.3707823914
 20
23.3835308391
 40
26.5006233034
100
AcDbArc
 50
201.6069779344
 51
202.1747228104
  0
ARC
  5
398
100
AcDbEntity
  8
0
100
AcDbCircle
 62
7
  6
BYLAYER
 10
32.3707823913
 20
23.3835308391
 40
26.5006233033
100
AcDbArc
 50
201.6069779344
 51
202.1747228104
  0
ARC
  5
399
100
AcDbEntity
  8
0
100
AcDbCircle
 62
7
  6
BYLAYER
 10
44.0556795517
 20
23.6248941604
 40
22.0333556134
100
AcDbArc
 50
179.9997247753
 51
180.7818997523
  0
ARC
  5
39A
100
AcDbEntity
  8
0
100
AcDbCircle
 62
7
  6
BYLAYER
 10
27.2438283694
 20
13.6249999993
 40
4.0
100
AcDbArc
 50
90.0
 51
180.0
  0
ARC
  5
39B
100
AcDbEntity
  8
0
100
AcDbCircle
 62
7
  6
BYLAYER
 10
27.2438283694
 20
13.6249999993
 40
3.7999996077
100
AcDbArc
 50
89.9999400595
 51
180.0000599427
  0
CIRCLE
  5
39C
100
AcDbEntity
  8
0
100
AcDbCircle
 62
7
  6
BYLAYER
 10
27.2438283694
 20
13.6249999993
 40
3.0
  0
ARC
  5
39D
100
AcDbEntity
  8
0
100
AcDbCircle
 62
7
  6
BYLAYER
 10
27.2438283694
 20
13.6249999993
 40
2.8950136038
100
AcDbArc
 50
36.5345041033
 51
53.4654958967
  0
ARC
  5
39E
100
AcDbEntity
  8
0
100
AcDbCircle
 62
7
  6
BYLAYER
 10
27.2438283694
 20
13.6249999993
 40
2.8950136038
100
AcDbArc
 50
216.5345041033
 51
233.4654958967
  0
ARC
  5
39F
100
AcDbEntity
  8
0
100
AcDbCircle
 62
7
  6
BYLAYER
 10
27.2438283694
 20
13.6249999993
 40
2.8489817302
100
AcDbArc
 50
53.8836441583
 51
216.1163558417
  0
ARC
  5
3A0
100
AcDbEntity
  8
0
100
AcDbCircle
 62
7
  6
BYLAYER
 10
27.2438283694
 20
13.6249999993
 40
2.8489817302
100
AcDbArc
 50
233.8836441583
 51
36.1163558417
  0
ARC
  5
3A1
100
AcDbEntity
  8
0
100
AcDbCircle
 62
7
  6
BYLAYER
 10
27.2438283694
 20
13.6249999993
 40
2.5501233207
100
AcDbArc
 50
235.0983541384
 51
34.9016458616
  0
ARC
  5
3A2
100
AcDbEntity
  8
0
100
AcDbCircle
 62
7
  6
BYLAYER
 10
27.2438283694
 20
13.6249999993
 40
2.5501233207
100
AcDbArc
 50
55.0983541384
 51
214.9016458616
  0
ARC
  5
3A3
100
AcDbEntity
  8
0
100
AcDbCircle
 62
7
  6
BYLAYER
 10
29.9938283694
 20
10.8749999993
 40
0.7
100
AcDbArc
 50
270.0
 51
360.0
  0
ARC
  5
3A4
100
AcDbEntity
  8
0
100
AcDbCircle
 62
7
  6
BYLAYER
 10
27.2438283694
 20
13.6249999993
 40
0.635
100
AcDbArc
 50
22.564077409
 51
67.435922591
  0
ARC
  5
3A5
100
AcDbEntity
  8
0
100
AcDbCircle
 62
7
  6
BYLAYER
 10
27.2438283694
 20
13.6249999993
 40
0.635
100
AcDbArc
 50
292.564077409
 51
337.435922591
  0
ARC
  5
3A6
100
AcDbEntity
  8
0
100
AcDbCircle
 62
7
  6
BYLAYER
 10
27.2438283694
 20
13.6249999993
 40
0.635
100
AcDbArc
 50
202.564077409
 51
247.435922591
  0
ARC
  5
3A7
100
AcDbEntity
  8
0
100
AcDbCircle
 62
7
  6
BYLAYER
 10
27.2438283694
 20
13.6249999993
 40
0.635
100
AcDbArc
 50
112.564077409
 51
157.435922591
  0
ARC
  5
3A8
100
AcDbEntity
  8
0
100
AcDbCircle
 62
7
  6
BYLAYER
 10
17.2438283694
 20
23.6249999993
 40
12.2
100
AcDbArc
 50
240.5408244253
 51
299.4591889311
  0
ARC
  5
3A9
100
AcDbEntity
  8
0
100
AcDbCircle
 62
7
  6
BYLAYER
 10
17.2438283694
 20
23.6249999993
 40
12.2
100
AcDbArc
 50
60.5408168494
 51
119.4591774165
  0
ARC
  5
3AA
100
AcDbEntity
  8
0
100
AcDbCircle
 62
7
  6
BYLAYER
 10
17.2438283694
 20
23.6249999993
 40
12.2
100
AcDbArc
 50
150.5408225715
 51
209.4591835641
  0
ARC
  5
3AB
100
AcDbEntity
  8
0
100
AcDbCircle
 62
7
  6
BYLAYER
 10
17.2438283694
 20
23.6249999993
 40
12.2
100
AcDbArc
 50
330.5408112423
 51
29.459175609
  0
ARC
  5
3AC
100
AcDbEntity
  8
0
100
AcDbCircle
 62
7
  6
BYLAYER
 10
17.2438283694
 20
23.6249999993
 40
12.0
100
AcDbArc
 50
60.0
 51
120.0
  0
ARC
  5
3AD
100
AcDbEntity
  8
0
100
AcDbCircle
 62
7
  6
BYLAYER
 10
17.2438283694
 20
23.6249999993
 40
12.0
100
AcDbArc
 50
240.0
 51
300.0
  0
ARC
  5
3AE
100
AcDbEntity
  8
0
100
AcDbCircle
 62
7
  6
BYLAYER
 10
17.2438283694
 20
23.6249999993
 40
12.0
100
AcDbArc
 50
150.0
 51
210.0
  0
ARC
  5
3AF
100
AcDbEntity
  8
0
100
AcDbCircle
 62
7
  6
BYLAYER
 10
17.2438283694
 20
23.6249999993
 40
12.0
100
AcDbArc
 50
330.0
 51
30.0
  0
ARC
  5
3B0
100
AcDbEntity
  8
0
100
AcDbCircle
 62
7
  6
BYLAYER
 10
17.2438283694
 20
23.6249999993
 40
10.2078945565
100
AcDbArc
 50
228.4450263026
 51
311.5549736974
  0
ARC
  5
3B1
100
AcDbEntity
  8
0
100
AcDbCircle
 62
7
  6
BYLAYER
 10
17.2438283694
 20
23.6249999993
 40
10.2078945565
100
AcDbArc
 50
138.4450263026
 51
221.5549736974
  0
ARC
  5
3B2
100
AcDbEntity
  8
0
100
AcDbCircle
 62
7
  6
BYLAYER
 10
17.2438283694
 20
23.6249999993
 40
10.2078945565
100
AcDbArc
 50
48.4450263026
 51
131.5549736974
  0
ARC
  5
3B3
100
AcDbEntity
  8
0
100
AcDbCircle
 62
7
  6
BYLAYER
 10
17.2438283694
 20
23.6249999993
 40
10.2078945565
100
AcDbArc
 50
318.4450263026
 51
41.5549736974
  0
CIRCLE
  5
3B4
100
AcDbEntity
  8
0
100
AcDbCircle
 62
7
  6
BYLAYER
 10
17.2438283694
 20
23.6249999993
 40
8.7590058171
  0
CIRCLE
  5
3B5
100
AcDbEntity
  8
0
100
AcDbCircle
 62
7
  6
BYLAYER
 10
17.2438283694
 20
23.6249999993
 40
8.0
  0
ARC
  5
3B6
100
AcDbEntity
  8
0
100
AcDbCircle
 62
7
  6
BYLAYER
 10
17.2438283694
 20
23.6249999993
 40
7.8
100
AcDbArc
 50
286.0002391189
 51
73.9997749927
  0
ARC
  5
3B7
100
AcDbEntity
  8
0
100
AcDbCircle
 62
7
  6
BYLAYER
 10
17.2438283694
 20
23.6249999993
 40
7.8
100
AcDbArc
 50
106.0002349206
 51
253.9997744732
  0
ARC
  5
3B8
100
AcDbEntity
  8
0
100
AcDbCircle
 62
7
  6
BYLAYER
 10
17.2438283694
 20
23.6249999993
 40
4.85
100
AcDbArc
 50
15.7038228543
 51
66.5661009186
  0
ARC
  5
3B9
100
AcDbEntity
  8
0
100
AcDbCircle
 62
7
  6
BYLAYER
 10
17.2438283694
 20
23.6249999993
 40
4.85
100
AcDbArc
 50
293.4338990814
 51
3.6597081737
  0
ARC
  5
3BA
100
AcDbEntity
  8
0
100
AcDbCircle
 62
7
  6
BYLAYER
 10
17.2438283694
 20
23.6249999993
 40
4.85
100
AcDbArc
 50
187.2510214598
 51
246.5661009186
  0
ARC
  5
3BB
100
AcDbEntity
  8
0
100
AcDbCircle
 62
7
  6
BYLAYER
 10
17.2438283694
 20
23.6249999993
 40
4.85
100
AcDbArc
 50
153.7346087548
 51
186.1552702121
  0
ARC
  5
3BC
100
AcDbEntity
  8
0
100
AcDbCircle
 62
7
  6
BYLAYER
 10
17.2438283694
 20
23.6249999993
 40
4.85
100
AcDbArc
 50
113.4338990814
 51
153.022477383
  0
ARC
  5
3BD
100
AcDbEntity
  8
0
100
AcDbCircle
 62
7
  6
BYLAYER
 10
17.2438283694
 20
23.6249999993
 40
4.79
100
AcDbArc
 50
113.7467623171
 51
246.2532376829
  0
ARC
  5
3BE
100
AcDbEntity
  8
0
100
AcDbCircle
 62
7
  6
BYLAYER
 10
17.2438283694
 20
23.6249999993
 40
4.79
100
AcDbArc
 50
293.7467623171
 51
356.3998434177
  0
ARC
  5
3BF
100
AcDbEntity
  8
0
100
AcDbCircle
 62
7
  6
BYLAYER
 10
17.2438283694
 20
23.6249999993
 40
4.79
100
AcDbArc
 50
3.6001565823
 51
66.2532376829
  0
ARC
  5
3C0
100
AcDbEntity
  8
0
100
AcDbCircle
 62
7
  6
BYLAYER
 10
17.2438283694
 20
23.6249999993
 40
4.79
100
AcDbArc
 50
357.035564465
 51
2.9642140124
  0
ARC
  5
3C1
100
AcDbEntity
  8
0
100
AcDbCircle
 62
7
  6
BYLAYER
 10
18.4391628053
 20
42.3277651513
 40
30.3542594498
100
AcDbArc
 50
247.8613165602
 51
248.3569826949
  0
ARC
  5
3C2
100
AcDbEntity
  8
0
100
AcDbCircle
 62
7
  6
BYLAYER
 10
17.4852957524
 20
38.7519584442
 40
26.5006280699
100
AcDbArc
 50
291.6069779855
 51
292.1747227594
  0
ARC
  5
3C3
100
AcDbEntity
  8
0
100
AcDbCircle
 62
7
  6
BYLAYER
 10
27.2438283694
 20
33.6249999993
 40
4.0
100
AcDbArc
 50
180.0
 51
270.0
  0
ARC
  5
3C4
100
AcDbEntity
  8
0
100
AcDbCircle
 62
7
  6
BYLAYER
 10
27.2438283694
 20
33.6249999993
 40
3.7999996077
100
AcDbArc
 50
179.9999400595
 51
270.0000599427
  0
CIRCLE
  5
3C5
100
AcDbEntity
  8
0
100
AcDbCircle
 62
7
  6
BYLAYER
 10
27.2438283694
 20
33.6249999993
 40
3.0
  0
ARC
  5
3C6
100
AcDbEntity
  8
0
100
AcDbCircle
 62
7
  6
BYLAYER
 10
27.2438283694
 20
33.6249999993
 40
2.8950136038
100
AcDbArc
 50
36.5345041033
 51
53.4654958967
  0
ARC
  5
3C7
100
AcDbEntity
  8
0
100
AcDbCircle
 62
7
  6
BYLAYER
 10
27.2438283694
 20
33.6249999993
 40
2.8950136038
100
AcDbArc
 50
216.5345041033
 51
233.4654958967
  0
ARC
  5
3C8
100
AcDbEntity
  8
0
100
AcDbCircle
 62
7
  6
BYLAYER
 10
27.2438283694
 20
33.6249999993
 40
2.8489817302
100
AcDbArc
 50
53.8836441583
 51
216.1163558417
  0
ARC
  5
3C9
100
AcDbEntity
  8
0
100
AcDbCircle
 62
7
  6
BYLAYER
 10
27.2438283694
 20
33.6249999993
 40
2.8489817302
100
AcDbArc
 50
233.8836441583
 51
36.1163558417
  0
ARC
  5
3CA
100
AcDbEntity
  8
0
100
AcDbCircle
 62
7
  6
BYLAYER
 10
27.2438283694
 20
33.6249999993
 40
2.5501233207
100
AcDbArc
 50
235.0983541384
 51
34.9016458616
  0
ARC
  5
3CB
100
AcDbEntity
  8
0
100
AcDbCircle
 62
7
  6
BYLAYER
 10
27.2438283694
 20
33.6249999993
 40
2.5501233207
100
AcDbArc
 50
55.0983541384
 51
214.9016458616
  0
ARC
  5
3CC
100
AcDbEntity
  8
0
100
AcDbCircle
 62
7
  6
BYLAYER
 10
29.9938283694
 20
36.3749999993
 40
0.7
100
AcDbArc
 50
0.0
 51
90.0
  0
ARC
  5
3CD
100
AcDbEntity
  8
0
100
AcDbCircle
 62
7
  6
BYLAYER
 10
27.2438283694
 20
33.6249999993
 40
0.635
100
AcDbArc
 50
22.564077409
 51
67.435922591
  0
ARC
  5
3CE
100
AcDbEntity
  8
0
100
AcDbCircle
 62
7
  6
BYLAYER
 10
27.2438283694
 20
33.6249999993
 40
0.635
100
AcDbArc
 50
292.564077409
 51
337.435922591
  0
ARC
  5
3CF
100
AcDbEntity
  8
0
100
AcDbCircle
 62
7
  6
BYLAYER
 10
27.2438283694
 20
33.6249999993
 40
0.635
100
AcDbArc
 50
202.564077409
 51
247.435922591
  0
ARC
  5
3D0
100
AcDbEntity
  8
0
100
AcDbCircle
 62
7
  6
BYLAYER
 10
27.2438283694
 20
33.6249999993
 40
0.635
100
AcDbArc
 50
112.564077409
 51
157.435922591
  0
ARC
  5
3D1
100
AcDbEntity
  8
0
100
AcDbCircle
 62
7
  6
BYLAYER
 10
18.4391628049
 20
62.3277651505
 40
30.3542594489
100
AcDbArc
 50
247.8613165602
 51
248.356982695
  0
ARC
  5
3D2
100
AcDbEntity
  8
0
100
AcDbCircle
 62
7
  6
BYLAYER
 10
17.4852957524
 20
58.7519584442
 40
26.5006280698
100
AcDbArc
 50
291.6069779855
 51
292.1747227594
  0
ARC
  5
3D3
100
AcDbEntity
  8
0
100
AcDbCircle
 62
7
  6
BYLAYER
 10
32.3707823916
 20
43.3835308392
 40
26.5006233036
100
AcDbArc
 50
201.6069779344
 51
202.1747228104
  0
ARC
  5
3D4
100
AcDbEntity
  8
0
100
AcDbCircle
 62
7
  6
BYLAYER
 10
38.4391628052
 20
42.3277651512
 40
30.3542594496
100
AcDbArc
 50
247.8613165602
 51
248.3569826949
  0
ARC
  5
3D5
100
AcDbEntity
  8
0
100
AcDbCircle
 62
7
  6
BYLAYER
 10
44.0078444047
 20
23.6254321249
 40
21.9855204704
100
AcDbArc
 50
179.2172493232
 51
180.0011261491
  0
ARC
  5
3D6
100
AcDbEntity
  8
0
100
AcDbCircle
 62
7
  6
BYLAYER
 10
38.4391628049
 20
62.3277651503
 40
30.3542594487
100
AcDbArc
 50
247.8613165602
 51
248.356982695
  0
ARC
  5
3D7
100
AcDbEntity
  8
0
100
AcDbCircle
 62
7
  6
BYLAYER
 10
52.3707823909
 20
43.3835308389
 40
26.5006233029
100
AcDbArc
 50
201.6069779344
 51
202.1747228104
  0
LINE
  5
3D8
100
AcDbEntity
  8
0
100
AcDbLine
 62
7
  6
BYLAYER
 10
25.5645616584
 20
31.3235308571
 11
25.5204071727
 21
31.2988608923
  0
SPLINE
  5
3D9
100
AcDbEntity
  8
0
100
AcDbSpline
 62
7
  6
BYLAYER
 70
0
 71
3
 72
19
 73
15
 74
0
 42
0.0000001
 43
0.0000001
 44
0.0000000001
 40
0.0
 40
0.0
 40
0.0
 40
0.0
 40
0.0054633989
 40
0.0130500986
 40
0.0345483093
 40
0.064346031
 40
0.1021808114
 40
0.1476762977
 40
0.2004362608
 40
0.3257625976
 40
0.4737361442
 40
0.639174376
 40
0.8166376764
 40
1.0
 40
1.0
 40
1.0
 40
1.0
 10
24.9423592272
 20
31.9457332884
 30
0.0
 10
24.942629815
 20
31.9462171115
 30
0.0
 10
24.9433576311
 20
31.947326003
 30
0.0
 10
24.94543319
 20
31.9501508939
 30
0.0
 10
24.9492146538
 20
31.9547807846
 30
0.0
 10
24.9551167387
 20
31.9616325476
 30
0.0
 10
24.9627616008
 20
31.9701960403
 30
0.0
 10
24.9720723236
 20
31.9803934417
 30
0.0
 10
24.9875098537
 20
31.9970171076
 30
0.0
 10
25.0102604279
 20
32.0210380035
 30
0.0
 10
25.0411375065
 20
32.0531065975
 30
0.0
 10
25.0759124226
 20
32.0887644414
 30
0.0
 10
25.1133985866
 20
32.1267925937
 30
0.0
 10
25.1392261153
 20
32.152741644
 30
0.0
 10
25.152381857
 20
32.1658973857
 30
0.0
  0
SPLINE
  5
3DA
100
AcDbEntity
  8
0
100
AcDbSpline
 62
7
  6
BYLAYER
 70
0
 71
3
 72
19
 73
15
 74
0
 42
0.0000001
 43
0.0000001
 44
0.0000000001
 40
0.0
 40
0.0
 40
0.0
 40
0.0
 40
0.1833619646
 40
0.3608269377
 40
0.5262681272
 40
0.6742438457
 40
0.7995706208
 40
0.8523304657
 40
0.8978246012
 40
0.935657635
 40
0.9654542633
 40
0.9869508074
 40
0.994536859
 40
1.0
 40
1.0
 40
1.0
 40
1.0
 10
28.702930983
 20
35.7164465116
 30
0.0
 10
28.7160866991
 20
35.7296022277
 30
0.0
 10
28.7420358426
 20
35.7554298522
 30
0.0
 10
28.7800643073
 20
35.7929163174
 30
0.0
 10
28.8157226473
 20
35.827691714
 30
0.0
 10
28.8477916536
 20
35.8585691795
 30
0.0
 10
28.8718127528
 20
35.8813199073
 30
0.0
 10
28.8884363507
 20
35.8967573573
 30
0.0
 10
28.8986335257
 20
35.9060678447
 30
0.0
 10
28.9071967237
 20
35.9137123979
 30
0.0
 10
28.9140481185
 20
35.9196142098
 30
0.0
 10
28.9186777541
 20
35.9233954397
 30
0.0
 10
28.9215024555
 20
35.9254708171
 30
0.0
 10
28.92261128
 20
35.9261985664
 30
0.0
 10
28.9230950803
 20
35.9264691415
 30
0.0
  0
LINE
  5
3DB
100
AcDbEntity
  8
0
100
AcDbLine
 62
7
  6
BYLAYER
 10
28.9230950803
 20
35.9264691415
 11
28.967249566
 21
35.9511391063
  0
LINE
  5
3DC
100
AcDbEntity
  8
0
100
AcDbLine
 62
7
  6
BYLAYER
 10
29.5699674763
 20
35.3484211959
 11
29.5452975115
 21
35.3042667102
  0
SPLINE
  5
3DD
100
AcDbEntity
  8
0
100
AcDbSpline
 62
7
  6
BYLAYER
 70
0
 71
3
 72
19
 73
15
 74
0
 42
0.0000001
 43
0.0000001
 44
0.0000000001
 40
0.0
 40
0.0
 40
0.0
 40
0.0
 40
0.0054633989
 40
0.0130500986
 40
0.0345483093
 40
0.064346031
 40
0.1021808114
 40
0.1476762977
 40
0.2004362608
 40
0.3257625976
 40
0.4737361442
 40
0.639174376
 40
0.8166376764
 40
1.0
 40
1.0
 40
1.0
 40
1.0
 10
29.5452975115
 20
35.3042667102
 30
0.0
 10
29.5450269237
 20
35.3037828871
 30
0.0
 10
29.5442991076
 20
35.3026739956
 30
0.0
 10
29.5422235487
 20
35.2998491047
 30
0.0
 10
29.5384420849
 20
35.295219214
 30
0.0
 10
29.53254
 20
35.288367451
 30
0.0
 10
29.5248951379
 20
35.2798039583
 30
0.0
 10
29.5155844151
 20
35.2696065569
 30
0.0
 10
29.500146885
 20
35.252982891
 30
0.0
 10
29.4773963108
 20
35.2289619951
 30
0.0
 10
29.4465192322
 20
35.1968934011
 30
0.0
 10
29.4117443161
 20
35.1612355572
 30
0.0
 10
29.3742581521
 20
35.1232074049
 30
0.0
 10
29.3484306234
 20
35.0972583546
 30
0.0
 10
29.3352748817
 20
35.0841026129
 30
0.0
  0
SPLINE
  5
3DE
100
AcDbEntity
  8
0
100
AcDbSpline
 62
7
  6
BYLAYER
 70
0
 71
3
 72
19
 73
15
 74
0
 42
0.0000001
 43
0.0000001
 44
0.0000000001
 40
0.0
 40
0.0
 40
0.0
 40
0.0
 40
0.1833619646
 40
0.3608269377
 40
0.5262681272
 40
0.6742438457
 40
0.7995706208
 40
0.8523304657
 40
0.8978246012
 40
0.935657635
 40
0.9654542633
 40
0.9869508074
 40
0.994536859
 40
1.0
 40
1.0
 40
1.0
 40
1.0
 10
25.7847257557
 20
31.533553487
 30
0.0
 10
25.7715700396
 20
31.5203977709
 30
0.0
 10
25.7456208961
 20
31.4945701464
 30
0.0
 10
25.7075924314
 20
31.4570836812
 30
0.0
 10
25.6719340914
 20
31.4223082846
 30
0.0
 10
25.6398650851
 20
31.3914308191
 30
0.0
 10
25.6158439859
 20
31.3686800913
 30
0.0
 10
25.599220388
 20
31.3532426413
 30
0.0
 10
25.589023213
 20
31.343932154
 30
0.0
 10
25.580460015
 20
31.3362876007
 30
0.0
 10
25.5736086202
 20
31.3303857888
 30
0.0
 10
25.5689789846
 20
31.3266045589
 30
0.0
 10
25.5661542832
 20
31.3245291815
 30
0.0
 10
25.5650454587
 20
31.3238014322
 30
0.0
 10
25.5645616584
 20
31.3235308571
 30
0.0
  0
LINE
  5
3DF
100
AcDbEntity
  8
0
100
AcDbLine
 62
7
  6
BYLAYER
 10
24.9176892624
 20
31.9015788027
 11
24.9423592272
 21
31.9457332884
  0
LINE
  5
3E0
100
AcDbEntity
  8
0
100
AcDbLine
 62
7
  6
BYLAYER
 10
25.5645616584
 20
11.3235308571
 11
25.5204071727
 21
11.2988608923
  0
SPLINE
  5
3E1
100
AcDbEntity
  8
0
100
AcDbSpline
 62
7
  6
BYLAYER
 70
0
 71
3
 72
19
 73
15
 74
0
 42
0.0000001
 43
0.0000001
 44
0.0000000001
 40
0.0
 40
0.0
 40
0.0
 40
0.0
 40
0.0054633989
 40
0.0130500986
 40
0.0345483093
 40
0.064346031
 40
0.1021808114
 40
0.1476762977
 40
0.2004362608
 40
0.3257625976
 40
0.4737361442
 40
0.639174376
 40
0.8166376764
 40
1.0
 40
1.0
 40
1.0
 40
1.0
 10
24.9423592272
 20
11.9457332884
 30
0.0
 10
24.942629815
 20
11.9462171115
 30
0.0
 10
24.9433576311
 20
11.947326003
 30
0.0
 10
24.94543319
 20
11.9501508939
 30
0.0
 10
24.9492146538
 20
11.9547807846
 30
0.0
 10
24.9551167387
 20
11.9616325476
 30
0.0
 10
24.9627616008
 20
11.9701960403
 30
0.0
 10
24.9720723236
 20
11.9803934417
 30
0.0
 10
24.9875098537
 20
11.9970171076
 30
0.0
 10
25.0102604279
 20
12.0210380035
 30
0.0
 10
25.0411375065
 20
12.0531065975
 30
0.0
 10
25.0759124226
 20
12.0887644414
 30
0.0
 10
25.1133985866
 20
12.1267925937
 30
0.0
 10
25.1392261153
 20
12.152741644
 30
0.0
 10
25.152381857
 20
12.1658973857
 30
0.0
  0
SPLINE
  5
3E2
100
AcDbEntity
  8
0
100
AcDbSpline
 62
7
  6
BYLAYER
 70
0
 71
3
 72
19
 73
15
 74
0
 42
0.0000001
 43
0.0000001
 44
0.0000000001
 40
0.0
 40
0.0
 40
0.0
 40
0.0
 40
0.1833619646
 40
0.3608269377
 40
0.5262681272
 40
0.6742438457
 40
0.7995706208
 40
0.8523304657
 40
0.8978246012
 40
0.935657635
 40
0.9654542633
 40
0.9869508074
 40
0.994536859
 40
1.0
 40
1.0
 40
1.0
 40
1.0
 10
28.702930983
 20
15.7164465116
 30
0.0
 10
28.7160866991
 20
15.7296022277
 30
0.0
 10
28.7420358426
 20
15.7554298522
 30
0.0
 10
28.7800643073
 20
15.7929163174
 30
0.0
 10
28.8157226473
 20
15.827691714
 30
0.0
 10
28.8477916536
 20
15.8585691795
 30
0.0
 10
28.8718127528
 20
15.8813199073
 30
0.0
 10
28.8884363507
 20
15.8967573573
 30
0.0
 10
28.8986335257
 20
15.9060678447
 30
0.0
 10
28.9071967237
 20
15.9137123979
 30
0.0
 10
28.9140481185
 20
15.9196142098
 30
0.0
 10
28.9186777541
 20
15.9233954397
 30
0.0
 10
28.9215024555
 20
15.9254708171
 30
0.0
 10
28.92261128
 20
15.9261985664
 30
0.0
 10
28.9230950803
 20
15.9264691415
 30
0.0
  0
LINE
  5
3E3
100
AcDbEntity
  8
0
100
AcDbLine
 62
7
  6
BYLAYER
 10
28.9230950803
 20
15.9264691415
 11
28.967249566
 21
15.9511391063
  0
LINE
  5
3E4
100
AcDbEntity
  8
0
100
AcDbLine
 62
7
  6
BYLAYER
 10
29.5699674763
 20
15.3484211959
 11
29.5452975115
 21
15.3042667102
  0
SPLINE
  5
3E5
100
AcDbEntity
  8
0
100
AcDbSpline
 62
7
  6
BYLAYER
 70
0
 71
3
 72
19
 73
15
 74
0
 42
0.0000001
 43
0.0000001
 44
0.0000000001
 40
0.0
 40
0.0
 40
0.0
 40
0.0
 40
0.0054633989
 40
0.0130500986
 40
0.0345483093
 40
0.064346031
 40
0.1021808114
 40
0.1476762977
 40
0.2004362608
 40
0.3257625976
 40
0.4737361442
 40
0.639174376
 40
0.8166376764
 40
1.0
 40
1.0
 40
1.0
 40
1.0
 10
29.5452975115
 20
15.3042667102
 30
0.0
 10
29.5450269237
 20
15.3037828871
 30
0.0
 10
29.5442991076
 20
15.3026739956
 30
0.0
 10
29.5422235487
 20
15.2998491047
 30
0.0
 10
29.5384420849
 20
15.295219214
 30
0.0
 10
29.53254
 20
15.288367451
 30
0.0
 10
29.5248951379
 20
15.2798039583
 30
0.0
 10
29.5155844151
 20
15.2696065569
 30
0.0
 10
29.500146885
 20
15.252982891
 30
0.0
 10
29.4773963108
 20
15.2289619951
 30
0.0
 10
29.4465192322
 20
15.1968934011
 30
0.0
 10
29.4117443161
 20
15.1612355572
 30
0.0
 10
29.3742581521
 20
15.1232074049
 30
0.0
 10
29.3484306234
 20
15.0972583546
 30
0.0
 10
29.3352748817
 20
15.0841026129
 30
0.0
  0
SPLINE
  5
3E6
100
AcDbEntity
  8
0
100
AcDbSpline
 62
7
  6
BYLAYER
 70
0
 71
3
 72
19
 73
15
 74
0
 42
0.0000001
 43
0.0000001
 44
0.0000000001
 40
0.0
 40
0.0
 40
0.0
 40
0.0
 40
0.1833619646
 40
0.3608269377
 40
0.5262681272
 40
0.6742438457
 40
0.7995706208
 40
0.8523304657
 40
0.8978246012
 40
0.935657635
 40
0.9654542633
 40
0.9869508074
 40
0.994536859
 40
1.0
 40
1.0
 40
1.0
 40
1.0
 10
25.7847257557
 20
11.533553487
 30
0.0
 10
25.7715700396
 20
11.5203977709
 30
0.0
 10
25.7456208961
 20
11.4945701464
 30
0.0
 10
25.7075924314
 20
11.4570836812
 30
0.0
 10
25.6719340914
 20
11.4223082846
 30
0.0
 10
25.6398650851
 20
11.3914308191
 30
0.0
 10
25.6158439859
 20
11.3686800913
 30
0.0
 10
25.599220388
 20
11.3532426413
 30
0.0
 10
25.589023213
 20
11.343932154
 30
0.0
 10
25.580460015
 20
11.3362876007
 30
0.0
 10
25.5736086202
 20
11.3303857888
 30
0.0
 10
25.5689789846
 20
11.3266045589
 30
0.0
 10
25.5661542832
 20
11.3245291815
 30
0.0
 10
25.5650454587
 20
11.3238014322
 30
0.0
 10
25.5645616584
 20
11.3235308571
 30
0.0
  0
LINE
  5
3E7
100
AcDbEntity
  8
0
100
AcDbLine
 62
7
  6
BYLAYER
 10
24.9176892624
 20
11.9015788027
 11
24.9423592272
 21
11.9457332884
  0
LINE
  5
3E8
100
AcDbEntity
  8
0
100
AcDbLine
 62
7
  6
BYLAYER
 10
5.5645616584
 20
31.3235308571
 11
5.5204071727
 21
31.2988608923
  0
SPLINE
  5
3E9
100
AcDbEntity
  8
0
100
AcDbSpline
 62
7
  6
BYLAYER
 70
0
 71
3
 72
19
 73
15
 74
0
 42
0.0000001
 43
0.0000001
 44
0.0000000001
 40
0.0
 40
0.0
 40
0.0
 40
0.0
 40
0.0054633989
 40
0.0130500986
 40
0.0345483093
 40
0.064346031
 40
0.1021808114
 40
0.1476762977
 40
0.2004362608
 40
0.3257625976
 40
0.4737361442
 40
0.639174376
 40
0.8166376764
 40
1.0
 40
1.0
 40
1.0
 40
1.0
 10
4.9423592272
 20
31.9457332884
 30
0.0
 10
4.942629815
 20
31.9462171115
 30
0.0
 10
4.9433576311
 20
31.947326003
 30
0.0
 10
4.94543319
 20
31.9501508939
 30
0.0
 10
4.9492146538
 20
31.9547807846
 30
0.0
 10
4.9551167387
 20
31.9616325476
 30
0.0
 10
4.9627616008
 20
31.9701960403
 30
0.0
 10
4.9720723236
 20
31.9803934417
 30
0.0
 10
4.9875098537
 20
31.9970171076
 30
0.0
 10
5.0102604279
 20
32.0210380035
 30
0.0
 10
5.0411375065
 20
32.0531065975
 30
0.0
 10
5.0759124226
 20
32.0887644414
 30
0.0
 10
5.1133985866
 20
32.1267925937
 30
0.0
 10
5.1392261153
 20
32.152741644
 30
0.0
 10
5.152381857
 20
32.1658973857
 30
0.0
  0
SPLINE
  5
3EA
100
AcDbEntity
  8
0
100
AcDbSpline
 62
7
  6
BYLAYER
 70
0
 71
3
 72
19
 73
15
 74
0
 42
0.0000001
 43
0.0000001
 44
0.0000000001
 40
0.0
 40
0.0
 40
0.0
 40
0.0
 40
0.1833619646
 40
0.3608269377
 40
0.5262681272
 40
0.6742438457
 40
0.7995706208
 40
0.8523304657
 40
0.8978246012
 40
0.935657635
 40
0.9654542633
 40
0.9869508074
 40
0.994536859
 40
1.0
 40
1.0
 40
1.0
 40
1.0
 10
8.702930983
 20
35.7164465116
 30
0.0
 10
8.7160866991
 20
35.7296022277
 30
0.0
 10
8.7420358426
 20
35.7554298522
 30
0.0
 10
8.7800643073
 20
35.7929163174
 30
0.0
 10
8.8157226473
 20
35.827691714
 30
0.0
 10
8.8477916536
 20
35.8585691795
 30
0.0
 10
8.8718127528
 20
35.8813199073
 30
0.0
 10
8.8884363507
 20
35.8967573573
 30
0.0
 10
8.8986335257
 20
35.9060678447
 30
0.0
 10
8.9071967237
 20
35.9137123979
 30
0.0
 10
8.9140481185
 20
35.9196142098
 30
0.0
 10
8.9186777541
 20
35.9233954397
 30
0.0
 10
8.9215024555
 20
35.9254708171
 30
0.0
 10
8.92261128
 20
35.9261985664
 30
0.0
 10
8.9230950803
 20
35.9264691415
 30
0.0
  0
LINE
  5
3EB
100
AcDbEntity
  8
0
100
AcDbLine
 62
7
  6
BYLAYER
 10
8.9230950803
 20
35.9264691415
 11
8.967249566
 21
35.9511391063
  0
LINE
  5
3EC
100
AcDbEntity
  8
0
100
AcDbLine
 62
7
  6
BYLAYER
 10
9.5699674763
 20
35.3484211959
 11
9.5452975115
 21
35.3042667102
  0
SPLINE
  5
3ED
100
AcDbEntity
  8
0
100
AcDbSpline
 62
7
  6
BYLAYER
 70
0
 71
3
 72
19
 73
15
 74
0
 42
0.0000001
 43
0.0000001
 44
0.0000000001
 40
0.0
 40
0.0
 40
0.0
 40
0.0
 40
0.0054633989
 40
0.0130500986
 40
0.0345483093
 40
0.064346031
 40
0.1021808114
 40
0.1476762977
 40
0.2004362608
 40
0.3257625976
 40
0.4737361442
 40
0.639174376
 40
0.8166376764
 40
1.0
 40
1.0
 40
1.0
 40
1.0
 10
9.5452975115
 20
35.3042667102
 30
0.0
 10
9.5450269237
 20
35.3037828871
 30
0.0
 10
9.5442991076
 20
35.3026739956
 30
0.0
 10
9.5422235487
 20
35.2998491047
 30
0.0
 10
9.5384420849
 20
35.295219214
 30
0.0
 10
9.53254
 20
35.288367451
 30
0.0
 10
9.5248951379
 20
35.2798039583
 30
0.0
 10
9.5155844151
 20
35.2696065569
 30
0.0
 10
9.500146885
 20
35.252982891
 30
0.0
 10
9.4773963108
 20
35.2289619951
 30
0.0
 10
9.4465192322
 20
35.1968934011
 30
0.0
 10
9.4117443161
 20
35.1612355572
 30
0.0
 10
9.3742581521
 20
35.1232074049
 30
0.0
 10
9.3484306234
 20
35.0972583546
 30
0.0
 10
9.3352748817
 20
35.0841026129
 30
0.0
  0
SPLINE
  5
3EE
100
AcDbEntity
  8
0
100
AcDbSpline
 62
7
  6
BYLAYER
 70
0
 71
3
 72
19
 73
15
 74
0
 42
0.0000001
 43
0.0000001
 44
0.0000000001
 40
0.0
 40
0.0
 40
0.0
 40
0.0
 40
0.1833619646
 40
0.3608269377
 40
0.5262681272
 40
0.6742438457
 40
0.7995706208
 40
0.8523304657
 40
0.8978246012
 40
0.935657635
 40
0.9654542633
 40
0.9869508074
 40
0.994536859
 40
1.0
 40
1.0
 40
1.0
 40
1.0
 10
5.7847257557
 20
31.533553487
 30
0.0
 10
5.7715700396
 20
31.5203977709
 30
0.0
 10
5.7456208961
 20
31.4945701464
 30
0.0
 10
5.7075924314
 20
31.4570836812
 30
0.0
 10
5.6719340914
 20
31.4223082846
 30
0.0
 10
5.6398650851
 20
31.3914308191
 30
0.0
 10
5.6158439859
 20
31.3686800913
 30
0.0
 10
5.599220388
 20
31.3532426413
 30
0.0
 10
5.589023213
 20
31.343932154
 30
0.0
 10
5.580460015
 20
31.3362876007
 30
0.0
 10
5.5736086202
 20
31.3303857888
 30
0.0
 10
5.5689789846
 20
31.3266045589
 30
0.0
 10
5.5661542832
 20
31.3245291815
 30
0.0
 10
5.5650454587
 20
31.3238014322
 30
0.0
 10
5.5645616584
 20
31.3235308571
 30
0.0
  0
LINE
  5
3EF
100
AcDbEntity
  8
0
100
AcDbLine
 62
7
  6
BYLAYER
 10
4.9176892624
 20
31.9015788027
 11
4.9423592272
 21
31.9457332884
  0
LINE
  5
3F0
100
AcDbEntity
  8
0
100
AcDbLine
 62
7
  6
BYLAYER
 10
5.5645616584
 20
11.3235308571
 11
5.5204071727
 21
11.2988608923
  0
SPLINE
  5
3F1
100
AcDbEntity
  8
0
100
AcDbSpline
 62
7
  6
BYLAYER
 70
0
 71
3
 72
19
 73
15
 74
0
 42
0.0000001
 43
0.0000001
 44
0.0000000001
 40
0.0
 40
0.0
 40
0.0
 40
0.0
 40
0.0054633989
 40
0.0130500986
 40
0.0345483093
 40
0.064346031
 40
0.1021808114
 40
0.1476762977
 40
0.2004362608
 40
0.3257625976
 40
0.4737361442
 40
0.639174376
 40
0.8166376764
 40
1.0
 40
1.0
 40
1.0
 40
1.0
 10
4.9423592272
 20
11.9457332884
 30
0.0
 10
4.942629815
 20
11.9462171115
 30
0.0
 10
4.9433576311
 20
11.947326003
 30
0.0
 10
4.94543319
 20
11.9501508939
 30
0.0
 10
4.9492146538
 20
11.9547807846
 30
0.0
 10
4.9551167387
 20
11.9616325476
 30
0.0
 10
4.9627616008
 20
11.9701960403
 30
0.0
 10
4.9720723236
 20
11.9803934417
 30
0.0
 10
4.9875098537
 20
11.9970171076
 30
0.0
 10
5.0102604279
 20
12.0210380035
 30
0.0
 10
5.0411375065
 20
12.0531065975
 30
0.0
 10
5.0759124226
 20
12.0887644414
 30
0.0
 10
5.1133985866
 20
12.1267925937
 30
0.0
 10
5.1392261153
 20
12.152741644
 30
0.0
 10
5.152381857
 20
12.1658973857
 30
0.0
  0
SPLINE
  5
3F2
100
AcDbEntity
  8
0
100
AcDbSpline
 62
7
  6
BYLAYER
 70
0
 71
3
 72
19
 73
15
 74
0
 42
0.0000001
 43
0.0000001
 44
0.0000000001
 40
0.0
 40
0.0
 40
0.0
 40
0.0
 40
0.1833619646
 40
0.3608269377
 40
0.5262681272
 40
0.6742438457
 40
0.7995706208
 40
0.8523304657
 40
0.8978246012
 40
0.935657635
 40
0.9654542633
 40
0.9869508074
 40
0.994536859
 40
1.0
 40
1.0
 40
1.0
 40
1.0
 10
8.702930983
 20
15.7164465116
 30
0.0
 10
8.7160866991
 20
15.7296022277
 30
0.0
 10
8.7420358426
 20
15.7554298522
 30
0.0
 10
8.7800643073
 20
15.7929163174
 30
0.0
 10
8.8157226473
 20
15.827691714
 30
0.0
 10
8.8477916536
 20
15.8585691795
 30
0.0
 10
8.8718127528
 20
15.8813199073
 30
0.0
 10
8.8884363507
 20
15.8967573573
 30
0.0
 10
8.8986335257
 20
15.9060678447
 30
0.0
 10
8.9071967237
 20
15.9137123979
 30
0.0
 10
8.9140481185
 20
15.9196142098
 30
0.0
 10
8.9186777541
 20
15.9233954397
 30
0.0
 10
8.9215024555
 20
15.9254708171
 30
0.0
 10
8.92261128
 20
15.9261985664
 30
0.0
 10
8.9230950803
 20
15.9264691415
 30
0.0
  0
LINE
  5
3F3
100
AcDbEntity
  8
0
100
AcDbLine
 62
7
  6
BYLAYER
 10
8.9230950803
 20
15.9264691415
 11
8.967249566
 21
15.9511391063
  0
LINE
  5
3F4
100
AcDbEntity
  8
0
100
AcDbLine
 62
7
  6
BYLAYER
 10
9.5699674763
 20
15.3484211959
 11
9.5452975115
 21
15.3042667102
  0
SPLINE
  5
3F5
100
AcDbEntity
  8
0
100
AcDbSpline
 62
7
  6
BYLAYER
 70
0
 71
3
 72
19
 73
15
 74
0
 42
0.0000001
 43
0.0000001
 44
0.0000000001
 40
0.0
 40
0.0
 40
0.0
 40
0.0
 40
0.0054633989
 40
0.0130500986
 40
0.0345483093
 40
0.064346031
 40
0.1021808114
 40
0.1476762977
 40
0.2004362608
 40
0.3257625976
 40
0.4737361442
 40
0.639174376
 40
0.8166376764
 40
1.0
 40
1.0
 40
1.0
 40
1.0
 10
9.5452975115
 20
15.3042667102
 30
0.0
 10
9.5450269237
 20
15.3037828871
 30
0.0
 10
9.5442991076
 20
15.3026739956
 30
0.0
 10
9.5422235487
 20
15.2998491047
 30
0.0
 10
9.5384420849
 20
15.295219214
 30
0.0
 10
9.53254
 20
15.288367451
 30
0.0
 10
9.5248951379
 20
15.2798039583
 30
0.0
 10
9.5155844151
 20
15.2696065569
 30
0.0
 10
9.500146885
 20
15.252982891
 30
0.0
 10
9.4773963108
 20
15.2289619951
 30
0.0
 10
9.4465192322
 20
15.1968934011
 30
0.0
 10
9.4117443161
 20
15.1612355572
 30
0.0
 10
9.3742581521
 20
15.1232074049
 30
0.0
 10
9.3484306234
 20
15.0972583546
 30
0.0
 10
9.3352748817
 20
15.0841026129
 30
0.0
  0
SPLINE
  5
3F6
100
AcDbEntity
  8
0
100
AcDbSpline
 62
7
  6
BYLAYER
 70
0
 71
3
 72
19
 73
15
 74
0
 42
0.0000001
 43
0.0000001
 44
0.0000000001
 40
0.0
 40
0.0
 40
0.0
 40
0.0
 40
0.1833619646
 40
0.3608269377
 40
0.5262681272
 40
0.6742438457
 40
0.7995706208
 40
0.8523304657
 40
0.8978246012
 40
0.935657635
 40
0.9654542633
 40
0.9869508074
 40
0.994536859
 40
1.0
 40
1.0
 40
1.0
 40
1.0
 10
5.7847257557
 20
11.533553487
 30
0.0
 10
5.7715700396
 20
11.5203977709
 30
0.0
 10
5.7456208961
 20
11.4945701464
 30
0.0
 10
5.7075924314
 20
11.4570836812
 30
0.0
 10
5.6719340914
 20
11.4223082846
 30
0.0
 10
5.6398650851
 20
11.3914308191
 30
0.0
 10
5.6158439859
 20
11.3686800913
 30
0.0
 10
5.599220388
 20
11.3532426413
 30
0.0
 10
5.589023213
 20
11.343932154
 30
0.0
 10
5.580460015
 20
11.3362876007
 30
0.0
 10
5.5736086202
 20
11.3303857888
 30
0.0
 10
5.5689789846
 20
11.3266045589
 30
0.0
 10
5.5661542832
 20
11.3245291815
 30
0.0
 10
5.5650454587
 20
11.3238014322
 30
0.0
 10
5.5645616584
 20
11.3235308571
 30
0.0
  0
LINE
  5
3F7
100
AcDbEntity
  8
0
100
AcDbLine
 62
7
  6
BYLAYER
 10
4.9176892624
 20
11.9015788027
 11
4.9423592272
 21
11.9457332884
  0
ELLIPSE
  5
3F8
100
AcDbEntity
  8
0
100
AcDbEllipse
 62
7
  6
BYLAYER
 10
28.712870639
 20
32.6058616502
 30
0.0
 11
0.3535533906
 21
-0.3535533906
 31
0.0
 40
0.0524077793
 41
1.5707963268
 42
2.6790804018
  0
ELLIPSE
  5
3F9
100
AcDbEntity
  8
0
100
AcDbEllipse
 62
7
  6
BYLAYER
 10
28.2629667185
 20
32.1559577297
 30
0.0
 11
0.3535533906
 21
-0.3535533906
 31
0.0
 40
0.0524077793
 41
-2.6790804018
 42
-1.5707963268
  0
ELLIPSE
  5
3FA
100
AcDbEntity
  8
0
100
AcDbEllipse
 62
7
  6
BYLAYER
 10
25.7747860997
 20
34.6441383484
 30
0.0
 11
0.3535533906
 21
-0.3535533906
 31
0.0
 40
0.0524077793
 41
-1.5707963268
 42
-0.4625122518
  0
ELLIPSE
  5
3FB
100
AcDbEntity
  8
0
100
AcDbEllipse
 62
7
  6
BYLAYER
 10
26.2246900202
 20
35.0940422689
 30
0.0
 11
0.3535533906
 21
-0.3535533906
 31
0.0
 40
0.0524077793
 41
0.4625122518
 42
1.5707963268
  0
ELLIPSE
  5
3FC
100
AcDbEntity
  8
0
100
AcDbEllipse
 62
7
  6
BYLAYER
 10
28.712870639
 20
12.6058616502
 30
0.0
 11
0.3535533906
 21
-0.3535533906
 31
0.0
 40
0.0524077793
 41
1.5707963268
 42
2.6790804018
  0
ELLIPSE
  5
3FD
100
AcDbEntity
  8
0
100
AcDbEllipse
 62
7
  6
BYLAYER
 10
28.2629667185
 20
12.1559577297
 30
0.0
 11
0.3535533906
 21
-0.3535533906
 31
0.0
 40
0.0524077793
 41
-2.6790804018
 42
-1.5707963268
  0
ELLIPSE
  5
3FE
100
AcDbEntity
  8
0
100
AcDbEllipse
 62
7
  6
BYLAYER
 10
25.7747860997
 20
14.6441383484
 30
0.0
 11
0.3535533906
 21
-0.3535533906
 31
0.0
 40
0.0524077793
 41
-1.5707963268
 42
-0.4625122518
  0
ELLIPSE
  5
3FF
100
AcDbEntity
  8
0
100
AcDbEllipse
 62
7
  6
BYLAYER
 10
26.2246900202
 20
15.0940422689
 30
0.0
 11
0.3535533906
 21
-0.3535533906
 31
0.0
 40
0.0524077793
 41
0.4625122518
 42
1.5707963268
  0
ELLIPSE
  5
400
100
AcDbEntity
  8
0
100
AcDbEllipse
 62
7
  6
BYLAYER
 10
8.712870639
 20
32.6058616502
 30
0.0
 11
0.3535533906
 21
-0.3535533906
 31
0.0
 40
0.0524077793
 41
1.5707963268
 42
2.6790804018
  0
ELLIPSE
  5
401
100
AcDbEntity
  8
0
100
AcDbEllipse
 62
7
  6
BYLAYER
 10
8.2629667185
 20
32.1559577297
 30
0.0
 11
0.3535533906
 21
-0.3535533906
 31
0.0
 40
0.0524077793
 41
-2.6790804018
 42
-1.5707963268
  0
ELLIPSE
  5
402
100
AcDbEntity
  8
0
100
AcDbEllipse
 62
7
  6
BYLAYER
 10
5.7747860997
 20
34.6441383484
 30
0.0
 11
0.3535533906
 21
-0.3535533906
 31
0.0
 40
0.0524077793
 41
-1.5707963268
 42
-0.4625122518
  0
ELLIPSE
  5
403
100
AcDbEntity
  8
0
100
AcDbEllipse
 62
7
  6
BYLAYER
 10
6.2246900202
 20
35.0940422689
 30
0.0
 11
0.3535533906
 21
-0.3535533906
 31
0.0
 40
0.0524077793
 41
0.4625122518
 42
1.5707963268
  0
ELLIPSE
  5
404
100
AcDbEntity
  8
0
100
AcDbEllipse
 62
7
  6
BYLAYER
 10
8.712870639
 20
12.6058616502
 30
0.0
 11
0.3535533906
 21
-0.3535533906
 31
0.0
 40
0.0524077793
 41
1.5707963268
 42
2.6790804018
  0
ELLIPSE
  5
405
100
AcDbEntity
  8
0
100
AcDbEllipse
 62
7
  6
BYLAYER
 10
8.2629667185
 20
12.1559577297
 30
0.0
 11
0.3535533906
 21
-0.3535533906
 31
0.0
 40
0.0524077793
 41
-2.6790804018
 42
-1.5707963268
  0
ELLIPSE
  5
406
100
AcDbEntity
  8
0
100
AcDbEllipse
 62
7
  6
BYLAYER
 10
5.7747860997
 20
14.6441383484
 30
0.0
 11
0.3535533906
 21
-0.3535533906
 31
0.0
 40
0.0524077793
 41
-1.5707963268
 42
-0.4625122518
  0
ELLIPSE
  5
407
100
AcDbEntity
  8
0
100
AcDbEllipse
 62
7
  6
BYLAYER
 10
6.2246900202
 20
15.0940422689
 30
0.0
 11
0.3535533906
 21
-0.3535533906
 31
0.0
 40
0.0524077793
 41
0.4625122518
 42
1.5707963268
  0
ELLIPSE
  5
408
100
AcDbEntity
  8
0
100
AcDbEllipse
 62
7
  6
BYLAYER
 10
30.0437217397
 20
10.8251066289
 30
0.0
 11
-0.4951255324
 21
0.4951255324
 31
0.0
 40
0.9996954599
 41
-3.926851128
 42
-2.3563341792
  0
ELLIPSE
  5
409
100
AcDbEntity
  8
0
100
AcDbEllipse
 62
7
  6
BYLAYER
 10
4.443934999
 20
10.8251066289
 30
0.0
 11
0.4951255324
 21
0.4951255324
 31
0.0
 40
0.9996954599
 41
2.356331054
 42
3.9268542532
  0
ELLIPSE
  5
40A
100
AcDbEntity
  8
0
100
AcDbEllipse
 62
7
  6
BYLAYER
 10
4.443934999
 20
36.4248933697
 30
0.0
 11
-0.4951255324
 21
0.4951255324
 31
0.0
 40
0.9996954599
 41
-0.7852615996
 42
0.7852615996
  0
ELLIPSE
  5
40B
100
AcDbEntity
  8
0
100
AcDbEllipse
 62
7
  6
BYLAYER
 10
30.0437217397
 20
36.4248933697
 30
0.0
 11
0.4951255324
 21
0.4951255324
 31
0.0
 40
0.9996954599
 41
-0.7852584744
 42
0.7852584744
  0
ENDSEC
  0
SECTION
  2
OBJECTS
  0
DICTIONARY
  5
C
100
AcDbDictionary
280
0
281
1
  3
ACAD_GROUP
350
D
  3
ACAD_MLINESTYLE
350
17
  3
ACAD_LAYOUT
350
1A
  3
ACAD_PLOTSETTINGS
350
19
  3
ACAD_PLOTSTYLENAME
350
E
  0
DICTIONARY
  5
D
102
{ACAD_REACTORS
330
C
102
}
100
AcDbDictionary
280
0
281
1
  0
ACDBDICTIONARYWDFLT
  5
E
102
{ACAD_REACTORS
330
C
102
}
100
AcDbDictionary
281
1
  3
Normal
350
F
100
AcDbDictionaryWithDefault
340
F
  0
DICTIONARY
  5
17
102
{ACAD_REACTORS
330
C
102
}
100
AcDbDictionary
280
0
281
1
  3
Standard
350
18
  0
DICTIONARY
  5
19
102
{ACAD_REACTORS
330
C
102
}
100
AcDbDictionary
281
1
  0
DICTIONARY
  5
1A
102
{ACAD_REACTORS
330
C
102
}
100
AcDbDictionary
281
1
  3
Model
350
40C
  3
Layout1
350
40D
  0
ACDBPLACEHOLDER
  5
F
102
{ACAD_REACTORS
330
E
102
}
  0
MLINESTYLE
  5
18
102
{ACAD_REACTORS
330
17
102
}
100
AcDbMlineStyle
  2
STANDARD
 70
0
  3

 62
256
 51
90.0
 52
90.0
 71
2
 49
0.5
 62
256
  6
BYLAYER
 49
-0.5
 62
256
  6
BYLAYER
  0
LAYOUT
  5
40C
102
{ACAD_REACTORS
330
1A
102
}
100
AcDbPlotSettings
  1

  2
none_device
  4

  6

 40
0.0
 41
0.0
 42
0.0
 43
0.0
 44
210.0
 45
297.0
 46
0.0
 47
0.0
 48
0.0
 49
0.0
140
0.0
141
0.0
142
1.0
143
1.0
 70
1024
 72
1
 73
0
 74
0
  7

 75
0
147
1.0
148
0.0
149
0.0
100
AcDbLayout
  1
Model
 70
0
 71
0
 10
0.0
 20
0.0
 11
210.0
 21
297.0
 12
0.0
 22
0.0
 32
0.0
 14
0.0
 24
0.0
 34
0.0
 15
0.0
 25
0.0
 35
0.0
146
0.0
 13
0.0
 23
0.0
 33
0.0
 16
1.0
 26
0.0
 36
0.0
 17
0.0
 27
1.0
 37
0.0
 76
0
330
210
345
0
346
0
  0
LAYOUT
  5
40D
102
{ACAD_REACTORS
330
1A
102
}
100
AcDbPlotSettings
  1

  2
none_device
  4

  6

 40
0.0
 41
0.0
 42
0.0
 43
0.0
 44
210.0
 45
297.0
 46
0.0
 47
0.0
 48
0.0
 49
0.0
140
0.0
141
0.0
142
1.0
143
1.0
 70
0
 72
1
 73
0
 74
0
  7

 75
0
147
1.0
148
0.0
149
0.0
100
AcDbLayout
  1
Layout1
 70
0
 71
1
 10
0.0
 20
0.0
 11
210.0
 21
297.0
 12
0.0
 22
0.0
 32
0.0
 14
0.0
 24
0.0
 34
0.0
 15
0.0
 25
0.0
 35
0.0
146
0.0
 13
0.0
 23
0.0
 33
0.0
 16
1.0
 26
0.0
 36
0.0
 17
0.0
 27
1.0
 37
0.0
 76
0
330
211
345
0
346
0
  0
ENDSEC
  0
EOF
