999
DXF file: C:\Users\sesa63760\Dev\_Creo\CAD\MCADID0004755_3D-CAD\drw0001_3.dxf
999
Pro/ENGINEER 2019471 by Parametric Technology Corporation
  0
SECTION
  2
HEADER
  9
$ACADVER
  1
AC1024
  9
$DWGCODEPAGE
  3
ANSI_1252
  9
$EXTMAX
 10
204.8414008797
 20
289.7042669584
 30
0.0
  9
$EXTMIN
 10
0.0
 20
0.0
 30
0.0
  9
$LIMMIN
 10
0.0
 20
0.0
  9
$LIMMAX
 10
204.8414008797
 20
289.7042669584
  9
$VIEWCTR
 10
102.4207004398
 20
144.8521334792
  9
$VIEWSIZE
 40
289.7042669584
  9
$CLAYER
  8
0
  9
$LTSCALE
 40
18.8844262906
  9
$CELTYPE
  6
BYLAYER
  9
$DIMSCALE
 40
1.0
  9
$DIMASZ
 40
2.4385881057
  9
$DIMEXO
 40
1.0
  9
$DIMDLI
 40
13.0474218008
  9
$DIMEXE
 40
1.0
  9
$DIMCEN
 40
3.0901788476
  9
$DIMLFAC
 40
1.0
  9
$DIMBLK
  1
_FILLED
  9
$DIMALT
 70
0
  9
$DIMALTF
 40
0.0393700787
  9
$DIMTXT
 40
3.414023348
  9
$DIMTOL
 70
1
  9
$DIMLIM
 70
0
  9
$DIMTFAC
 40
1.0
  9
$DIMTP
 40
0.01
  9
$DIMTM
 40
0.01
  9
$DIMGAP
 40
0.625
  9
$DIMDSEP
 70
46
  9
$AUNITS
 70
0
  9
$PDMODE
 70
3
  9
$PDSIZE
 40
0.3125
  9
$HANDSEED
  5
330
  9
$TILEMODE
 70
1
  9
$MEASUREMENT
 70
1
  9
$INSUNITS
 70
4
  0
ENDSEC
  0
SECTION
  2
CLASSES
  0
CLASS
  1
ACDBDICTIONARYWDFLT
  2
AcDbDictionaryWithDefault
  3
AutoCAD 2000
 90
0
 91
1
280
0
281
0
  0
CLASS
  1
ACDBPLACEHOLDER
  2
AcDbPlaceHolder
  3
AutoCAD 2000
 90
0
 91
1
280
0
281
0
  0
CLASS
  1
LAYOUT
  2
AcDbLayout
  3
AutoCAD 2000
 90
0
 91
0
280
0
281
0
  0
ENDSEC
  0
SECTION
  2
TABLES
  0
TABLE
  2
VPORT
  5
8
100
AcDbSymbolTable
 70
2
  0
VPORT
  5
1F4
100
AcDbSymbolTableRecord
100
AcDbViewportTableRecord
  2
*ACTIVE
 70
0
 10
0.0
 20
0.0
 11
1.0
 21
1.0
 12
102.4207004398
 22
144.8521334792
 13
0.0
 23
0.0
 14
1.0
 24
1.0
 15
0.0
 25
0.0
 16
0.0
 26
0.0
 36
1.0
 17
0.0
 27
0.0
 37
0.0
 40
289.7042669584
 41
0.7070707071
 42
50.0
 43
0.0
 44
0.0
 50
0.0
 51
0.0
 71
0
 72
100
 73
1
 74
1
 75
0
 76
0
 77
0
 78
0
  0
ENDTAB
  0
TABLE
  2
LTYPE
  5
5
100
AcDbSymbolTable
 70
6
  0
LTYPE
  5
14
100
AcDbSymbolTableRecord
100
AcDbLinetypeTableRecord
  2
BYBLOCK
 70
0
  3

 72
65
 73
0
 40
0.0
  0
LTYPE
  5
15
100
AcDbSymbolTableRecord
100
AcDbLinetypeTableRecord
  2
BYLAYER
 70
0
  3

 72
65
 73
0
 40
0.0
  0
LTYPE
  5
16
100
AcDbSymbolTableRecord
100
AcDbLinetypeTableRecord
  2
CONTINUOUS
 70
64
  3
Solid line
 72
65
 73
0
 40
0.0
  0
LTYPE
  5
1F5
100
AcDbSymbolTableRecord
100
AcDbLinetypeTableRecord
  2
CENTER
 70
64
  3
____ _ ____ _ ____ _ ____ _ ____ _ ____ _ ____
 72
65
 73
4
 40
0.6
 49
0.375
 74
0
 49
-0.075
 74
0
 49
0.075
 74
0
 49
-0.075
 74
0
  0
LTYPE
  5
1F6
100
AcDbSymbolTableRecord
100
AcDbLinetypeTableRecord
  2
HIDDEN
 70
64
  3
- - - - - - - - - - - - - - - - - - - -
 72
65
 73
2
 40
0.2
 49
0.1
 74
0
 49
-0.1
 74
0
  0
LTYPE
  5
1F7
100
AcDbSymbolTableRecord
100
AcDbLinetypeTableRecord
  2
PHANTOM
 70
64
  3
_____ _ _ _____ _ _ _____ _ _ _____
 72
65
 73
6
 40
0.8
 49
0.45
 74
0
 49
-0.05
 74
0
 49
0.1
 74
0
 49
-0.05
 74
0
 49
0.1
 74
0
 49
-0.05
 74
0
  0
LTYPE
  5
1F8
100
AcDbSymbolTableRecord
100
AcDbLinetypeTableRecord
  2
DOT
 70
64
  3
. . . . . . . . . . . . . . . . . . . .
 72
65
 73
2
 40
0.2
 49
0.1
 74
0
 49
-0.1
 74
0
  0
LTYPE
  5
1F9
100
AcDbSymbolTableRecord
100
AcDbLinetypeTableRecord
  2
DASHED
 70
64
  3
- - - - - - - - - - - - - - - - - - - -
 72
65
 73
2
 40
0.2
 49
0.1
 74
0
 49
-0.1
 74
0
  0
ENDTAB
  0
TABLE
  2
LAYER
  5
2
100
AcDbSymbolTable
 70
36
  0
LAYER
  5
10
100
AcDbSymbolTableRecord
100
AcDbLayerTableRecord
  2
0
 70
0
 62
7
  6
CONTINUOUS
370
-3
390
F
  0
LAYER
  5
1FA
100
AcDbSymbolTableRecord
100
AcDbLayerTableRecord
  2
DEFAULT_1
 70
0
 62
7
  6
CENTER
370
-3
390
F
  0
LAYER
  5
1FB
100
AcDbSymbolTableRecord
100
AcDbLayerTableRecord
  2
DEFAULT_2
 70
0
 62
7
  6
HIDDEN
370
-3
390
F
  0
LAYER
  5
1FC
100
AcDbSymbolTableRecord
100
AcDbLayerTableRecord
  2
DEFAULT_3
 70
0
 62
7
  6
PHANTOM
370
-3
390
F
  0
LAYER
  5
1FD
100
AcDbSymbolTableRecord
100
AcDbLayerTableRecord
  2
00_COMPONENTS
 70
0
 62
7
  6
CONTINUOUS
370
-3
390
F
  0
LAYER
  5
1FE
100
AcDbSymbolTableRecord
100
AcDbLayerTableRecord
  2
01_1_DEFAULT_DATUMS
 70
0
 62
7
  6
CONTINUOUS
370
-3
390
F
  0
LAYER
  5
1FF
100
AcDbSymbolTableRecord
100
AcDbLayerTableRecord
  2
01_PLANES
 70
0
 62
7
  6
CONTINUOUS
370
-3
390
F
  0
LAYER
  5
200
100
AcDbSymbolTableRecord
100
AcDbLayerTableRecord
  2
02_COORD_SYS
 70
0
 62
7
  6
CONTINUOUS
370
-3
390
F
  0
LAYER
  5
201
100
AcDbSymbolTableRecord
100
AcDbLayerTableRecord
  2
03_AXES
 70
0
 62
7
  6
CONTINUOUS
370
-3
390
F
  0
LAYER
  5
202
100
AcDbSymbolTableRecord
100
AcDbLayerTableRecord
  2
04_POINTS
 70
0
 62
7
  6
CONTINUOUS
370
-3
390
F
  0
LAYER
  5
203
100
AcDbSymbolTableRecord
100
AcDbLayerTableRecord
  2
05_CURVES
 70
0
 62
7
  6
CONTINUOUS
370
-3
390
F
  0
LAYER
  5
204
100
AcDbSymbolTableRecord
100
AcDbLayerTableRecord
  2
06_SURFS
 70
0
 62
7
  6
CONTINUOUS
370
-3
390
F
  0
LAYER
  5
205
100
AcDbSymbolTableRecord
100
AcDbLayerTableRecord
  2
07_COSMETICS
 70
0
 62
7
  6
CONTINUOUS
370
-3
390
F
  0
LAYER
  5
206
100
AcDbSymbolTableRecord
100
AcDbLayerTableRecord
  2
10_NOTES
 70
0
 62
7
  6
CONTINUOUS
370
-3
390
F
  0
LAYER
  5
207
100
AcDbSymbolTableRecord
100
AcDbLayerTableRecord
  2
11_NOTES_PUB
 70
0
 62
7
  6
CONTINUOUS
370
-3
390
F
  0
LAYER
  5
208
100
AcDbSymbolTableRecord
100
AcDbLayerTableRecord
  2
13_REF_GTOL
 70
0
 62
7
  6
CONTINUOUS
370
-3
390
F
  0
LAYER
  5
209
100
AcDbSymbolTableRecord
100
AcDbLayerTableRecord
  2
16_MISC
 70
0
 62
7
  6
CONTINUOUS
370
-3
390
F
  0
LAYER
  5
20A
100
AcDbSymbolTableRecord
100
AcDbLayerTableRecord
  2
17_NO_PRINT
 70
0
 62
7
  6
CONTINUOUS
370
-3
390
F
  0
LAYER
  5
20B
100
AcDbSymbolTableRecord
100
AcDbLayerTableRecord
  2
18_DATUM_CAMS_JOINTS
 70
0
 62
7
  6
CONTINUOUS
370
-3
390
F
  0
LAYER
  5
20C
100
AcDbSymbolTableRecord
100
AcDbLayerTableRecord
  2
19_DATUM_FUNCTIONAL
 70
0
 62
7
  6
CONTINUOUS
370
-3
390
F
  0
LAYER
  5
20D
100
AcDbSymbolTableRecord
100
AcDbLayerTableRecord
  2
20_DATUM_KINEMATIC_SCHEME
 70
0
 62
7
  6
CONTINUOUS
370
-3
390
F
  0
ENDTAB
  0
TABLE
  2
STYLE
  5
3
100
AcDbSymbolTable
 70
1
  0
STYLE
  5
11
100
AcDbSymbolTableRecord
100
AcDbTextStyleTableRecord
  2
STANDARD
 70
0
 40
0.0
 41
1.0
 50
0.0
 71
0
 42
0.2
  3
ARIAL.TTF
  4

  0
STYLE
  5
20E
100
AcDbSymbolTableRecord
100
AcDbTextStyleTableRecord
  2
TEXTSTYLE_1
 70
0
 40
0.0
 41
0.8
 50
0.0
 71
0
 42
0.2
  3
gdt
  4

  0
ENDTAB
  0
TABLE
  2
VIEW
  5
6
100
AcDbSymbolTable
 70
0
  0
ENDTAB
  0
TABLE
  2
UCS
  5
7
100
AcDbSymbolTable
 70
0
  0
ENDTAB
  0
TABLE
  2
APPID
  5
9
100
AcDbSymbolTable
 70
1
  0
APPID
  5
20F
100
AcDbSymbolTableRecord
100
AcDbRegAppTableRecord
  2
ACAD
 70
0
  0
ENDTAB
  0
TABLE
  2
BLOCK_RECORD
  5
1
100
AcDbSymbolTable
 70
0
  0
BLOCK_RECORD
  5
210
100
AcDbSymbolTableRecord
100
AcDbBlockTableRecord
  2
*Model_Space
  0
BLOCK_RECORD
  5
211
100
AcDbSymbolTableRecord
100
AcDbBlockTableRecord
  2
*Paper_Space
  0
BLOCK_RECORD
  5
212
100
AcDbSymbolTableRecord
100
AcDbBlockTableRecord
  2
_FILLED
  0
ENDTAB
  0
TABLE
  2
DIMSTYLE
  5
A
100
AcDbSymbolTable
 70
1
100
AcDbDimStyleTable
 71
0
  0
DIMSTYLE
105
213
100
AcDbSymbolTableRecord
100
AcDbDimStyleTableRecord
  2
STANDARD
 70
0
  3

  4

 40
1.0
 41
2.4385881057
 42
1.0
 43
0.38
 44
1.0
 45
0.0
 46
0.0
 47
0.01
 48
0.01
140
3.414023348
141
0.09
142
0.0
143
25.4
144
1.0
145
0.0
146
1.0
147
0.625
 71
1
 72
0
 73
0
 74
0
 75
0
 76
0
 77
1
 78
8
 79
2
170
0
171
1
172
0
173
0
174
0
175
0
176
0
177
0
178
0
270
2
179
2
271
2
272
2
273
2
274
2
275
0
280
0
281
0
282
0
283
1
284
8
285
0
286
0
287
3
288
0
340
11
278
46
341
212
342
212
343
212
344
212
  0
ENDTAB
  0
ENDSEC
  0
SECTION
  2
BLOCKS
  0
BLOCK
  5
20
100
AcDbEntity
  8
0
100
AcDbBlockBegin
  2
*Model_Space
 70
0
 10
0.0
 20
0.0
 30
0.0
  3
*Model_Space
  1

  0
ENDBLK
  5
21
100
AcDbEntity
  8
0
100
AcDbBlockEnd
  0
BLOCK
  5
1C
100
AcDbEntity
  8
0
100
AcDbBlockBegin
  2
*Paper_Space
 70
0
 10
0.0
 20
0.0
 30
0.0
  3
*Paper_Space
  1

  0
ENDBLK
  5
1D
100
AcDbEntity
  8
0
100
AcDbBlockEnd
  0
BLOCK
  5
214
100
AcDbEntity
  8
0
100
AcDbBlockBegin
  2
_FILLED
 70
64
 10
0.0
 20
0.0
  3
_FILLED
  1

  0
SOLID
  5
215
100
AcDbEntity
  8
0
  6
BYBLOCK
 62
0
100
AcDbTrace
 10
0.0
 20
0.0
 11
-1.0
 21
0.25
 12
-1.0
 22
-0.25
 13
-1.0
 23
-0.25
  0
ENDBLK
  5
216
100
AcDbEntity
  8
0
  6
BYBLOCK
 62
0
100
AcDbBlockEnd
  0
ENDSEC
  0
SECTION
  2
ENTITIES
  0
LINE
  5
217
100
AcDbEntity
  8
0
100
AcDbLine
 62
7
  6
BYLAYER
 10
28.7324619278
 20
149.0613238512
 11
28.7324619278
 21
142.0613238512
  0
LINE
  5
218
100
AcDbEntity
  8
0
100
AcDbLine
 62
7
  6
BYLAYER
 10
54.8824619278
 20
153.5613238512
 11
54.8824619278
 21
137.5613238512
  0
LINE
  5
219
100
AcDbEntity
  8
0
100
AcDbLine
 62
7
  6
BYLAYER
 10
55.7824619278
 20
138.0613279934
 11
55.7824619278
 21
153.061319709
  0
LINE
  5
21A
100
AcDbEntity
  8
0
100
AcDbLine
 62
7
  6
BYLAYER
 10
56.2824619278
 20
153.0613238512
 11
56.2824619278
 21
138.0613238512
  0
LINE
  5
21B
100
AcDbEntity
  8
0
100
AcDbLine
 62
7
  6
BYLAYER
 10
56.4824619278
 20
138.2613282028
 11
56.4824619278
 21
152.8613177452
  0
LINE
  5
21C
100
AcDbEntity
  8
0
100
AcDbLine
 62
7
  6
BYLAYER
 10
57.6824619278
 20
138.2613279382
 11
57.6824619278
 21
152.8613197642
  0
LINE
  5
21D
100
AcDbEntity
  8
0
100
AcDbLine
 62
7
  6
BYLAYER
 10
57.8824619278
 20
138.0613238512
 11
57.8824619278
 21
153.0613238512
  0
LINE
  5
21E
100
AcDbEntity
  8
0
100
AcDbLine
 62
7
  6
BYLAYER
 10
60.0824619278
 20
153.0613238512
 11
60.0824619278
 21
138.0613238512
  0
LINE
  5
21F
100
AcDbEntity
  8
0
100
AcDbLine
 62
7
  6
BYLAYER
 10
61.1824619278
 20
151.9612417985
 11
61.1824619278
 21
139.1614059039
  0
LINE
  5
220
100
AcDbEntity
  8
0
100
AcDbLine
 62
7
  6
BYLAYER
 10
62.7018366648
 20
150.3113238687
 11
62.7018366648
 21
140.8113238337
  0
LWPOLYLINE
  5
221
100
AcDbEntity
  8
0
100
AcDbPolyline
 62
7
  6
BYLAYER
 90
7
 70
0
 10
71.2948617923
 20
144.6283045582
 10
71.353727482
 20
144.020466536
 10
71.4133849914
 20
143.5249102501
 10
71.4752485711
 20
143.1675110442
 10
71.567400833
 20
142.8840700424
 10
71.8389871189
 20
142.5902121962
 10
72.1390349462
 20
142.5114094173
  0
LINE
  5
222
100
AcDbEntity
  8
0
100
AcDbLine
 62
7
  6
BYLAYER
 10
71.237945827
 20
145.2818288059
 11
71.2948617923
 21
144.6283045582
  0
LINE
  5
223
100
AcDbEntity
  8
0
100
AcDbLine
 62
7
  6
BYLAYER
 10
70.2824619278
 20
148.9214904567
 11
70.2824619278
 21
142.2011572457
  0
LINE
  5
224
100
AcDbEntity
  8
0
100
AcDbLine
 62
7
  6
BYLAYER
 10
70.3624619304
 20
142.6213238531
 11
70.3624619304
 21
148.5013238493
  0
LINE
  5
225
100
AcDbEntity
  8
0
100
AcDbLine
 62
7
  6
BYLAYER
 10
71.2824619278
 20
144.7706830999
 11
71.2824619278
 21
143.3113282261
  0
LWPOLYLINE
  5
226
100
AcDbEntity
  8
0
100
AcDbPolyline
 62
7
  6
BYLAYER
 90
11
 70
0
 10
72.652164877
 20
143.3835611948
 10
72.649395647
 20
143.3949019193
 10
72.6181722008
 20
143.5530076421
 10
72.5771003457
 20
143.8439305053
 10
72.5324197678
 20
144.2460023538
 10
72.4852150686
 20
144.7416007201
 10
72.4355523244
 20
145.3105198762
 10
72.383433619
 20
145.9250623515
 10
72.3290013318
 20
146.5462086913
 10
72.272133851
 20
147.1276184823
 10
72.2133178722
 20
147.6105226028
  0
LINE
  5
227
100
AcDbEntity
  8
0
100
AcDbLine
 62
7
  6
BYLAYER
 10
72.2777950113
 20
147.7344850406
 11
72.3091276575
 21
147.5785848272
  0
LWPOLYLINE
  5
228
100
AcDbEntity
  8
0
100
AcDbPolyline
 62
7
  6
BYLAYER
 90
5
 70
0
 10
72.2133178722
 20
147.6105226028
 10
72.1519809776
 20
147.9612859392
 10
72.060877061
 20
148.2394787308
 10
71.782838433
 20
148.5360261151
 10
71.4897903814
 20
148.6109953652
  0
LWPOLYLINE
  5
229
100
AcDbEntity
  8
0
100
AcDbPolyline
 62
7
  6
BYLAYER
 90
5
 70
0
 10
72.7100293415
 20
143.5498416218
 10
72.7716447367
 20
143.1822897525
 10
72.8609836058
 20
142.8972974934
 10
73.1309774986
 20
142.5965824606
 10
73.4387129747
 20
142.5136432966
  0
LWPOLYLINE
  5
22A
100
AcDbEntity
  8
0
100
AcDbPolyline
 62
7
  6
BYLAYER
 90
9
 70
0
 10
72.3091276575
 20
147.5785848272
 10
72.3497231543
 20
147.2924783811
 10
72.3939355825
 20
146.897240144
 10
72.4404807837
 20
146.4127622901
 10
72.4892340191
 20
145.857110841
 10
72.5401746406
 20
145.2556491542
 10
72.5936779594
 20
144.6404144743
 10
72.6505144386
 20
144.0515167981
 10
72.7100293415
 20
143.5498416218
  0
LWPOLYLINE
  5
22B
100
AcDbEntity
  8
0
100
AcDbPolyline
 62
7
  6
BYLAYER
 90
3
 70
0
 10
73.8699938336
 20
144.9075411276
 10
73.9283832248
 20
144.2711959623
 10
73.9864457969
 20
143.7321688939
  0
LWPOLYLINE
  5
22C
100
AcDbEntity
  8
0
100
AcDbPolyline
 62
7
  6
BYLAYER
 90
3
 70
0
 10
75.1714145328
 20
144.8922196853
 10
75.2228991091
 20
144.327712307
 10
75.27931739
 20
143.790613363
  0
LWPOLYLINE
  5
22D
100
AcDbEntity
  8
0
100
AcDbPolyline
 62
7
  6
BYLAYER
 90
3
 70
0
 10
77.5638750358
 20
146.1534573326
 10
77.5063634148
 20
146.7889594823
 10
77.4473679065
 20
147.3463433598
  0
LWPOLYLINE
  5
22E
100
AcDbEntity
  8
0
100
AcDbPolyline
 62
7
  6
BYLAYER
 90
4
 70
0
 10
73.753896655
 20
145.0963875377
 10
73.669500098
 20
146.0884689203
 10
73.6084784374
 20
146.765440771
 10
73.5464825828
 20
147.3551391487
  0
LWPOLYLINE
  5
22F
100
AcDbEntity
  8
0
100
AcDbPolyline
 62
7
  6
BYLAYER
 90
4
 70
0
 10
75.0524927437
 20
145.111917959
 10
74.9690529024
 20
146.0940160685
 10
74.910443019
 20
146.7456719124
 10
74.8505392323
 20
147.3193134722
  0
LWPOLYLINE
  5
230
100
AcDbEntity
  8
0
100
AcDbPolyline
 62
7
  6
BYLAYER
 90
5
 70
0
 10
77.6749676029
 20
146.0223916744
 10
77.7467307915
 20
145.1787425561
 10
77.7973254176
 20
144.6010295324
 10
77.8511495791
 20
144.0448708642
 10
77.9095174128
 20
143.5528587627
  0
LINE
  5
231
100
AcDbEntity
  8
0
100
AcDbLine
 62
7
  6
BYLAYER
 10
75.0356669352
 20
145.3065304487
 11
75.0925384882
 21
145.8134712138
  0
LINE
  5
232
100
AcDbEntity
  8
0
100
AcDbLine
 62
7
  6
BYLAYER
 10
75.0350742871
 20
145.3161493949
 11
75.0932528673
 21
145.8076272223
  0
LINE
  5
233
100
AcDbEntity
  8
0
100
AcDbLine
 62
7
  6
BYLAYER
 10
75.4722280593
 20
142.8754823637
 11
75.4680056273
 21
142.8839641841
  0
LWPOLYLINE
  5
234
100
AcDbEntity
  8
0
100
AcDbPolyline
 62
7
  6
BYLAYER
 90
8
 70
0
 10
73.5783990165
 20
147.7340232553
 10
73.5769179599
 20
147.7380063586
 10
73.5939983311
 20
147.6627384535
 10
73.6339223506
 20
147.4124908369
 10
73.6802432454
 20
147.0271066101
 10
73.7305988378
 20
146.5213561902
 10
73.7845654492
 20
145.9116247939
 10
73.8699938336
 20
144.9075411276
  0
LWPOLYLINE
  5
235
100
AcDbEntity
  8
0
100
AcDbPolyline
 62
7
  6
BYLAYER
 90
8
 70
0
 10
77.851129665
 20
143.3872117673
 10
77.8524285006
 20
143.3836897181
 10
77.8338125981
 20
143.464616619
 10
77.7936320523
 20
143.7162090848
 10
77.7476801447
 20
144.1011209174
 10
77.6984476826
 20
144.5971186095
 10
77.6463517639
 20
145.1834278625
 10
77.5638750358
 20
146.1534573326
  0
LWPOLYLINE
  5
236
100
AcDbEntity
  8
0
100
AcDbPolyline
 62
7
  6
BYLAYER
 90
7
 70
0
 10
73.9514710357
 20
143.3841401063
 10
73.9527772172
 20
143.3805377293
 10
73.9359211652
 20
143.4541184197
 10
73.8980745821
 20
143.6859661096
 10
73.8535684213
 20
144.0467190322
 10
73.805309933
 20
144.5225865415
 10
73.753896655
 20
145.0963875377
  0
LWPOLYLINE
  5
237
100
AcDbEntity
  8
0
100
AcDbPolyline
 62
7
  6
BYLAYER
 90
7
 70
0
 10
75.2512828443
 20
143.3861377641
 10
75.2522541399
 20
143.3834101518
 10
75.2332133687
 20
143.4667433732
 10
75.1951558349
 20
143.7059672853
 10
75.1512275323
 20
144.06889322
 10
75.1037665987
 20
144.5395991248
 10
75.0524927437
 20
145.111917959
  0
LWPOLYLINE
  5
238
100
AcDbEntity
  8
0
100
AcDbPolyline
 62
7
  6
BYLAYER
 90
11
 70
0
 10
76.553183603
 20
143.3814676114
 10
76.5442669935
 20
143.4159894269
 10
76.5113472731
 20
143.5944336298
 10
76.4709913597
 20
143.8943124292
 10
76.4273235504
 20
144.2971953314
 10
76.3814230162
 20
144.783680802
 10
76.33323566
 20
145.3371816662
 10
76.282494815
 20
145.9361189827
 10
76.2291901133
 20
146.5447642633
 10
76.1732702007
 20
147.1165948721
 10
76.1143858251
 20
147.6025316447
  0
LWPOLYLINE
  5
239
100
AcDbEntity
  8
0
100
AcDbPolyline
 62
7
  6
BYLAYER
 90
5
 70
0
 10
73.4846794648
 20
147.7953888385
 10
73.4139796892
 20
148.1031268809
 10
73.2497249006
 20
148.4039766281
 10
72.8496234359
 20
148.6070696497
 10
72.7884214409
 20
148.61025112
  0
LWPOLYLINE
  5
23A
100
AcDbEntity
  8
0
100
AcDbPolyline
 62
7
  6
BYLAYER
 90
5
 70
0
 10
74.0445175915
 20
143.3226659228
 10
74.1129516519
 20
143.0238423206
 10
74.267375621
 20
142.7326049212
 10
74.6632987856
 20
142.5190268337
 10
74.7397852477
 20
142.5140657351
  0
LWPOLYLINE
  5
23B
100
AcDbEntity
  8
0
100
AcDbPolyline
 62
7
  6
BYLAYER
 90
3
 70
0
 10
75.341470823
 20
143.3417948571
 10
75.4134808941
 20
143.0227987709
 10
75.4680252561
 20
142.883960441
  0
LWPOLYLINE
  5
23C
100
AcDbEntity
  8
0
100
AcDbPolyline
 62
7
  6
BYLAYER
 90
5
 70
0
 10
77.3877812705
 20
147.7766095099
 10
77.3186458119
 20
148.0907341363
 10
77.1546602084
 20
148.3988540283
 10
76.751939521
 20
148.6056067876
 10
76.689849771
 20
148.6088839118
  0
LWPOLYLINE
  5
23D
100
AcDbEntity
  8
0
100
AcDbPolyline
 62
7
  6
BYLAYER
 90
5
 70
0
 10
74.7901706429
 20
147.7634283745
 10
74.7202613641
 20
148.0844065748
 10
74.5588789065
 20
148.392826034
 10
74.1546828866
 20
148.6046691222
 10
74.0890789106
 20
148.6083211674
  0
LWPOLYLINE
  5
23E
100
AcDbEntity
  8
0
100
AcDbPolyline
 62
7
  6
BYLAYER
 90
7
 70
0
 10
77.476872795
 20
147.7379291835
 10
77.4780132108
 20
147.7322281191
 10
77.5059197805
 20
147.5959587742
 10
77.5438664271
 20
147.3385896854
 10
77.5856549765
 20
146.9778758824
 10
77.6294493102
 20
146.532865157
 10
77.6749676029
 20
146.0223916744
  0
LWPOLYLINE
  5
23F
100
AcDbEntity
  8
0
100
AcDbPolyline
 62
7
  6
BYLAYER
 90
10
 70
0
 10
76.1774625357
 20
147.7374904287
 10
76.20790327
 20
147.584653452
 10
76.247359841
 20
147.3098954099
 10
76.2911263992
 20
146.9254748748
 10
76.3381409986
 20
146.4393728565
 10
76.3881753837
 20
145.8687394142
 10
76.4412013765
 20
145.2427237061
 10
76.4973595941
 20
144.6008469871
 10
76.5557234939
 20
144.0027724024
 10
76.614440753
 20
143.5161129341
  0
LWPOLYLINE
  5
240
100
AcDbEntity
  8
0
100
AcDbPolyline
 62
7
  6
BYLAYER
 90
8
 70
0
 10
74.8771061639
 20
147.738369183
 10
74.8782611954
 20
147.7324219125
 10
74.906674937
 20
147.5915514504
 10
74.9450957018
 20
147.3279783618
 10
74.9870068921
 20
146.9651677503
 10
75.0308803148
 20
146.5181570401
 10
75.0762661585
 20
146.0074617879
 10
75.1714145328
 20
144.8922196853
  0
LWPOLYLINE
  5
241
100
AcDbEntity
  8
0
100
AcDbPolyline
 62
7
  6
BYLAYER
 90
5
 70
0
 10
76.614440753
 20
143.5161129341
 10
76.6757934877
 20
143.1647643959
 10
76.7654464931
 20
142.8898737788
 10
77.0341785057
 20
142.5945367419
 10
77.3401365603
 20
142.5125465125
  0
LWPOLYLINE
  5
242
100
AcDbEntity
  8
0
100
AcDbPolyline
 62
7
  6
BYLAYER
 90
5
 70
0
 10
76.1143858251
 20
147.6025316447
 10
76.0520034104
 20
147.9622416655
 10
75.9554212881
 20
148.2506361798
 10
75.6728482991
 20
148.5401420387
 10
75.3900517015
 20
148.6096451301
  0
LWPOLYLINE
  5
243
100
AcDbEntity
  8
0
100
AcDbPolyline
 62
7
  6
BYLAYER
 90
5
 70
0
 10
77.9095174128
 20
143.5528587627
 10
77.9718717578
 20
143.1828100985
 10
78.0610233137
 20
142.8972697966
 10
78.3291666623
 20
142.5957979419
 10
78.6388757286
 20
142.5115617416
  0
LINE
  5
244
100
AcDbEntity
  8
0
100
AcDbLine
 62
7
  6
BYLAYER
 10
73.9864457969
 20
143.7321688939
 11
74.0445175915
 21
143.3226659228
  0
LINE
  5
245
100
AcDbEntity
  8
0
100
AcDbLine
 62
7
  6
BYLAYER
 10
73.5464825828
 20
147.3551391487
 11
73.4846794648
 21
147.7953888385
  0
LINE
  5
246
100
AcDbEntity
  8
0
100
AcDbLine
 62
7
  6
BYLAYER
 10
75.27931739
 20
143.790613363
 11
75.341470823
 21
143.3417948571
  0
LINE
  5
247
100
AcDbEntity
  8
0
100
AcDbLine
 62
7
  6
BYLAYER
 10
77.4473679065
 20
147.3463433598
 11
77.3877812705
 21
147.7766095099
  0
LINE
  5
248
100
AcDbEntity
  8
0
100
AcDbLine
 62
7
  6
BYLAYER
 10
74.8505392323
 20
147.3193134722
 11
74.7901706429
 21
147.7634283745
  0
LWPOLYLINE
  5
249
100
AcDbEntity
  8
0
100
AcDbPolyline
 62
7
  6
BYLAYER
 90
3
 70
0
 10
82.9850796485
 20
144.737230253
 10
83.050144004
 20
144.0555513805
 10
83.1119094187
 20
143.5342114122
  0
LWPOLYLINE
  5
24A
100
AcDbEntity
  8
0
100
AcDbPolyline
 62
7
  6
BYLAYER
 90
3
 70
0
 10
80.3848822917
 20
144.7384355642
 10
80.4482705195
 20
144.0726766266
 10
80.5089549904
 20
143.5578530531
  0
LWPOLYLINE
  5
24B
100
AcDbEntity
  8
0
100
AcDbPolyline
 62
7
  6
BYLAYER
 90
3
 70
0
 10
81.4471419709
 20
146.3454141171
 10
81.3834319049
 20
147.0183725826
 10
81.3216694923
 20
147.5502475884
  0
LWPOLYLINE
  5
24C
100
AcDbEntity
  8
0
100
AcDbPolyline
 62
7
  6
BYLAYER
 90
3
 70
0
 10
81.6812850818
 20
144.7789101763
 10
81.7463888107
 20
144.0920943475
 10
81.8084933016
 20
143.5601375114
  0
LWPOLYLINE
  5
24D
100
AcDbEntity
  8
0
100
AcDbPolyline
 62
7
  6
BYLAYER
 90
3
 70
0
 10
82.7551417459
 20
146.2543181897
 10
82.6969401819
 20
146.8843796108
 10
82.6392622765
 20
147.4137896228
  0
LWPOLYLINE
  5
24E
100
AcDbEntity
  8
0
100
AcDbPolyline
 62
7
  6
BYLAYER
 90
5
 70
0
 10
78.9498148572
 20
145.1440635797
 10
78.8755710215
 20
146.0170957523
 10
78.8232031568
 20
146.6092858546
 10
78.768336315
 20
147.1628552254
 10
78.7105255675
 20
147.6301303885
  0
LWPOLYLINE
  5
24F
100
AcDbEntity
  8
0
100
AcDbPolyline
 62
7
  6
BYLAYER
 90
4
 70
0
 10
84.1470939643
 20
145.1748948589
 10
84.0650412346
 20
146.1398621634
 10
84.0075589427
 20
146.7765545973
 10
83.9481150872
 20
147.3401792029
  0
LINE
  5
250
100
AcDbEntity
  8
0
100
AcDbLine
 62
7
  6
BYLAYER
 10
80.2891245131
 20
144.6974499482
 11
80.2332688377
 21
145.3376436285
  0
LWPOLYLINE
  5
251
100
AcDbEntity
  8
0
100
AcDbPolyline
 62
7
  6
BYLAYER
 90
5
 70
0
 10
80.2332688377
 20
145.3376436285
 10
80.1820098156
 20
145.9427477224
 10
80.1248386791
 20
146.5912355131
 10
80.0670115977
 20
147.1739193066
 10
80.0094630029
 20
147.639036613
  0
LINE
  5
252
100
AcDbEntity
  8
0
100
AcDbLine
 62
7
  6
BYLAYER
 10
81.5631327193
 20
144.9895309231
 11
81.4471419709
 21
146.3454141171
  0
LWPOLYLINE
  5
253
100
AcDbEntity
  8
0
100
AcDbPolyline
 62
7
  6
BYLAYER
 90
11
 70
0
 10
78.778545086
 20
147.7325668517
 10
78.7787283842
 20
147.7295842467
 10
78.8091334468
 20
147.5787272708
 10
78.8501988015
 20
147.2884964012
 10
78.8950813496
 20
146.8859858596
 10
78.9424898297
 20
146.390784281
 10
78.9921574997
 20
145.8229036337
 10
79.0440592593
 20
145.2098422786
 10
79.0986637732
 20
144.5853585092
 10
79.1562671679
 20
143.9975679029
 10
79.2147604803
 20
143.5158203247
  0
LWPOLYLINE
  5
254
100
AcDbEntity
  8
0
100
AcDbPolyline
 62
7
  6
BYLAYER
 90
7
 70
0
 10
82.6782898058
 20
147.735380161
 10
82.6783850353
 20
147.7322945618
 10
82.7111881012
 20
147.5646660815
 10
82.7563575186
 20
147.2372698795
 10
82.8069649284
 20
146.7690996729
 10
82.8615805044
 20
146.1766983005
 10
82.9850796485
 20
144.737230253
  0
LINE
  5
255
100
AcDbEntity
  8
0
100
AcDbLine
 62
7
  6
BYLAYER
 10
82.8358552838
 20
145.3080660511
 11
82.8925850581
 21
145.8139163482
  0
LINE
  5
256
100
AcDbEntity
  8
0
100
AcDbLine
 62
7
  6
BYLAYER
 10
82.8351587509
 20
145.3149813451
 11
82.8933323471
 21
145.8050921989
  0
LWPOLYLINE
  5
257
100
AcDbEntity
  8
0
100
AcDbPolyline
 62
7
  6
BYLAYER
 90
8
 70
0
 10
70.9781072331
 20
147.7349768949
 10
70.976990625
 20
147.7361880656
 10
71.0043311629
 20
147.604986044
 10
71.0433643263
 20
147.3422573488
 10
71.087273983
 20
146.9626008709
 10
71.1343715626
 20
146.479683049
 10
71.1844815006
 20
145.9117705891
 10
71.237945827
 20
145.2818288059
  0
LINE
  5
258
100
AcDbEntity
  8
0
100
AcDbLine
 62
7
  6
BYLAYER
 10
76.0074619415
 20
142.5493493638
 11
76.0393264872
 21
142.5140762213
  0
LWPOLYLINE
  5
259
100
AcDbEntity
  8
0
100
AcDbPolyline
 62
7
  6
BYLAYER
 90
4
 70
0
 10
75.4722280593
 20
142.8754823637
 10
75.6058524347
 20
142.6913224493
 10
75.7744831721
 20
142.5746546633
 10
76.0393515588
 20
142.5140761637
  0
LWPOLYLINE
  5
25A
100
AcDbEntity
  8
0
100
AcDbPolyline
 62
7
  6
BYLAYER
 90
7
 70
0
 10
81.7484437338
 20
143.3918248695
 10
81.7514256569
 20
143.3859366192
 10
81.7257725568
 20
143.5087848035
 10
81.6899580664
 20
143.7453235657
 10
81.6498803454
 20
144.0799859267
 10
81.6072841158
 20
144.5015671487
 10
81.5631327193
 20
144.9895309231
  0
LWPOLYLINE
  5
25B
100
AcDbEntity
  8
0
100
AcDbPolyline
 62
7
  6
BYLAYER
 90
8
 70
0
 10
83.0505867112
 20
143.3876189082
 10
83.0518802525
 20
143.3840854237
 10
83.03353917
 20
143.4651024365
 10
82.9929783244
 20
143.7222793666
 10
82.9461806037
 20
144.1153885068
 10
82.8953254381
 20
144.6297980096
 10
82.840883582
 20
145.2473997685
 10
82.7551417459
 20
146.2543181897
  0
LWPOLYLINE
  5
25C
100
AcDbEntity
  8
0
100
AcDbPolyline
 62
7
  6
BYLAYER
 90
5
 70
0
 10
82.5814063933
 20
147.8150599558
 10
82.5122052358
 20
148.1094982391
 10
82.3514315096
 20
148.4011166778
 10
81.9492755898
 20
148.6054009929
 10
81.8888352813
 20
148.6085015808
  0
LWPOLYLINE
  5
25D
100
AcDbEntity
  8
0
100
AcDbPolyline
 62
7
  6
BYLAYER
 90
6
 70
0
 10
80.4514115223
 20
143.3843565801
 10
80.4490790678
 20
143.3943778968
 10
80.4196818622
 20
143.5437423331
 10
80.3807075336
 20
143.8166864546
 10
80.3369944799
 20
144.2014795315
 10
80.2891245131
 20
144.6974499482
  0
LWPOLYLINE
  5
25E
100
AcDbEntity
  8
0
100
AcDbPolyline
 62
7
  6
BYLAYER
 90
5
 70
0
 10
81.29114382
 20
147.757252952
 10
81.2222596872
 20
148.0780553107
 10
81.0567694544
 20
148.3954130717
 10
80.654940587
 20
148.6046787038
 10
80.5892399607
 20
148.6083433407
  0
LINE
  5
25F
100
AcDbEntity
  8
0
100
AcDbLine
 62
7
  6
BYLAYER
 10
81.3786297099
 20
147.7330363252
 11
81.4127055669
 21
147.5568097051
  0
LWPOLYLINE
  5
260
100
AcDbEntity
  8
0
100
AcDbPolyline
 62
7
  6
BYLAYER
 90
5
 70
0
 10
80.0094630029
 20
147.639036613
 10
79.9484178443
 20
147.9768937556
 10
79.8554302981
 20
148.248273713
 10
79.5767903223
 20
148.537573672
 10
79.2883980322
 20
148.6099467363
  0
LWPOLYLINE
  5
261
100
AcDbEntity
  8
0
100
AcDbPolyline
 62
7
  6
BYLAYER
 90
5
 70
0
 10
78.7105255675
 20
147.6301303885
 10
78.6492401196
 20
147.9731869612
 10
78.5551865034
 20
148.2507344969
 10
78.2752496022
 20
148.5401212355
 10
77.9896557839
 20
148.611171289
  0
LWPOLYLINE
  5
262
100
AcDbEntity
  8
0
100
AcDbPolyline
 62
7
  6
BYLAYER
 90
7
 70
0
 10
79.1514516836
 20
143.3852224587
 10
79.1505627423
 20
143.3902811217
 10
79.1220062366
 20
143.5304160566
 10
79.0833849478
 20
143.7942935693
 10
79.0409711694
 20
144.163089607
 10
78.9964150234
 20
144.6188390204
 10
78.9498148572
 20
145.1440635797
  0
LWPOLYLINE
  5
263
100
AcDbEntity
  8
0
100
AcDbPolyline
 62
7
  6
BYLAYER
 90
5
 70
0
 10
79.2147604803
 20
143.5158203247
 10
79.2753843553
 20
143.1649680866
 10
79.3649192076
 20
142.8892662274
 10
79.6358979795
 20
142.5940745323
 10
79.9388023902
 20
142.5138757675
  0
LWPOLYLINE
  5
264
100
AcDbEntity
  8
0
100
AcDbPolyline
 62
7
  6
BYLAYER
 90
5
 70
0
 10
83.1119094187
 20
143.5342114122
 10
83.1733769546
 20
143.1757819313
 10
83.2663911657
 20
142.8877560226
 10
83.5409981942
 20
142.5904296573
 10
83.8400985926
 20
142.5122470075
  0
LWPOLYLINE
  5
265
100
AcDbEntity
  8
0
100
AcDbPolyline
 62
7
  6
BYLAYER
 90
5
 70
0
 10
80.5089549904
 20
143.5578530531
 10
80.5697855795
 20
143.1915148692
 10
80.6612892287
 20
142.8963087299
 10
80.9363498995
 20
142.592981973
 10
81.2385977059
 20
142.5131022817
  0
LWPOLYLINE
  5
266
100
AcDbEntity
  8
0
100
AcDbPolyline
 62
7
  6
BYLAYER
 90
5
 70
0
 10
81.8084933016
 20
143.5601375114
 10
81.8703441547
 20
143.1878520457
 10
81.9641231872
 20
142.8923755776
 10
82.2394587924
 20
142.5929026576
 10
82.5395540657
 20
142.5142923358
  0
LINE
  5
267
100
AcDbEntity
  8
0
100
AcDbLine
 62
7
  6
BYLAYER
 10
81.3216694923
 20
147.5502475884
 11
81.29114382
 21
147.757252952
  0
LINE
  5
268
100
AcDbEntity
  8
0
100
AcDbLine
 62
7
  6
BYLAYER
 10
82.6392622765
 20
147.4137896228
 11
82.5814063933
 21
147.8150599558
  0
LWPOLYLINE
  5
269
100
AcDbEntity
  8
0
100
AcDbPolyline
 62
7
  6
BYLAYER
 90
5
 70
0
 10
81.4127055669
 20
147.5568097051
 10
81.4573827171
 20
147.2285026177
 10
81.5069529754
 20
146.7681081419
 10
81.5600083768
 20
146.195211197
 10
81.6812850818
 20
144.7789101763
  0
LWPOLYLINE
  5
26A
100
AcDbEntity
  8
0
100
AcDbPolyline
 62
7
  6
BYLAYER
 90
8
 70
0
 10
80.0791866608
 20
147.7322508862
 10
80.0798219928
 20
147.7270966821
 10
80.1107939371
 20
147.5680399139
 10
80.151584697
 20
147.2758961736
 10
80.1961178811
 20
146.8761870674
 10
80.2437541181
 20
146.3778513888
 10
80.2944185494
 20
145.7963873702
 10
80.3848822917
 20
144.7384355642
  0
LWPOLYLINE
  5
26B
100
AcDbEntity
  8
0
100
AcDbPolyline
 62
7
  6
BYLAYER
 90
3
 70
0
 10
89.2411363804
 20
146.4127061528
 10
89.1765912757
 20
147.0839357566
 10
89.1157564639
 20
147.5939182706
  0
LWPOLYLINE
  5
26C
100
AcDbEntity
  8
0
100
AcDbPolyline
 62
7
  6
BYLAYER
 90
3
 70
0
 10
87.9422770387
 20
146.3988661362
 10
87.8774284001
 20
147.076581175
 10
87.8160804945
 20
147.5924968204
  0
LWPOLYLINE
  5
26D
100
AcDbEntity
  8
0
100
AcDbPolyline
 62
7
  6
BYLAYER
 90
3
 70
0
 10
86.6426806864
 20
146.394456101
 10
86.578645412
 20
147.0660489567
 10
86.5081490296
 20
147.6460749219
  0
LWPOLYLINE
  5
26E
100
AcDbEntity
  8
0
100
AcDbPolyline
 62
7
  6
BYLAYER
 90
4
 70
0
 10
84.1761571069
 20
146.0086947055
 10
84.2600659809
 20
145.02326709
 10
84.3203622654
 20
144.3532586714
 10
84.3807428202
 20
143.7788109359
  0
LWPOLYLINE
  5
26F
100
AcDbEntity
  8
0
100
AcDbPolyline
 62
7
  6
BYLAYER
 90
4
 70
0
 10
85.453738007
 20
145.0986218921
 10
85.368259999
 20
146.1021571884
 10
85.306877451
 20
146.782844335
 10
85.2450692683
 20
147.3672737246
  0
LWPOLYLINE
  5
270
100
AcDbEntity
  8
0
100
AcDbPolyline
 62
7
  6
BYLAYER
 90
4
 70
0
 10
88.0743344119
 20
146.0307594995
 10
88.1676699406
 20
144.9342199975
 10
88.2353113191
 20
144.2011175544
 10
88.3022508319
 20
143.6067370527
  0
LWPOLYLINE
  5
271
100
AcDbEntity
  8
0
100
AcDbPolyline
 62
7
  6
BYLAYER
 90
4
 70
0
 10
86.7681222088
 20
146.1019061703
 10
86.8518123739
 20
145.1190568201
 10
86.9124760985
 20
144.4359827394
 10
86.9746175454
 20
143.8322386735
  0
LINE
  5
272
100
AcDbEntity
  8
0
100
AcDbLine
 62
7
  6
BYLAYER
 10
88.0359256099
 20
145.3082982799
 11
88.0932183604
 21
145.8191151257
  0
LINE
  5
273
100
AcDbEntity
  8
0
100
AcDbLine
 62
7
  6
BYLAYER
 10
89.3360364309
 20
145.3097429202
 11
89.3928726506
 21
145.8164458774
  0
LINE
  5
274
100
AcDbEntity
  8
0
100
AcDbLine
 62
7
  6
BYLAYER
 10
88.0359604409
 20
145.3087548761
 11
88.0933903029
 21
145.8073598314
  0
LWPOLYLINE
  5
275
100
AcDbEntity
  8
0
100
AcDbPolyline
 62
7
  6
BYLAYER
 90
3
 70
0
 10
89.3354362131
 20
145.3143335054
 10
89.3496525357
 20
145.430762908
 10
89.3934741597
 20
145.8060015517
  0
LINE
  5
276
100
AcDbEntity
  8
0
100
AcDbLine
 62
7
  6
BYLAYER
 10
71.2824619278
 20
143.3113238512
 11
70.3624619304
 21
142.6213238531
  0
LINE
  5
277
100
AcDbEntity
  8
0
100
AcDbLine
 62
7
  6
BYLAYER
 10
71.2824619278
 20
147.8113238512
 11
70.3624619304
 21
148.5013238493
  0
LINE
  5
278
100
AcDbEntity
  8
0
100
AcDbLine
 62
7
  6
BYLAYER
 10
85.7886068268
 20
148.609846767
 11
85.8574619142
 21
148.4452640318
  0
LWPOLYLINE
  5
279
100
AcDbEntity
  8
0
100
AcDbPolyline
 62
7
  6
BYLAYER
 90
3
 70
0
 10
85.2777573721
 20
147.7349340897
 10
85.2762988765
 20
147.7386936159
 10
85.2773813076
 20
147.7349636505
  0
LWPOLYLINE
  5
27A
100
AcDbEntity
  8
0
100
AcDbPolyline
 62
7
  6
BYLAYER
 90
7
 70
0
 10
86.5777684302
 20
147.7345797314
 10
86.5763002286
 20
147.7384836349
 10
86.5910414803
 20
147.6760400476
 10
86.6270326842
 20
147.4629158795
 10
86.6700969611
 20
147.1198253472
 10
86.7172520026
 20
146.6617574319
 10
86.7681222088
 20
146.1019061703
  0
LWPOLYLINE
  5
27B
100
AcDbEntity
  8
0
100
AcDbPolyline
 62
7
  6
BYLAYER
 90
7
 70
0
 10
83.977054696
 20
147.7372469445
 10
83.9756241089
 20
147.7410779163
 10
83.9928779293
 20
147.6663221187
 10
84.0320992566
 20
147.4263624682
 10
84.0772346287
 20
147.0562109978
 10
84.1253389037
 20
146.5768183725
 10
84.1761571069
 20
146.0086947055
  0
LWPOLYLINE
  5
27C
100
AcDbEntity
  8
0
100
AcDbPolyline
 62
7
  6
BYLAYER
 90
7
 70
0
 10
85.6518817349
 20
143.3838850315
 10
85.6532325743
 20
143.3802162909
 10
85.6369021236
 20
143.4502597566
 10
85.5991708564
 20
143.677591758
 10
85.5543413374
 20
144.0389068852
 10
85.5056914284
 20
144.5192582796
 10
85.453738007
 20
145.0986218921
  0
LWPOLYLINE
  5
27D
100
AcDbEntity
  8
0
100
AcDbPolyline
 62
7
  6
BYLAYER
 90
7
 70
0
 10
84.3519558639
 20
143.3850025542
 10
84.3529193337
 20
143.3823077648
 10
84.3327220406
 20
143.470404466
 10
84.2925949491
 20
143.7237927609
 10
84.2470457877
 20
144.1068932548
 10
84.1984890402
 20
144.5967499281
 10
84.1470939643
 20
145.1748948589
  0
LINE
  5
27E
100
AcDbEntity
  8
0
100
AcDbLine
 62
7
  6
BYLAYER
 10
85.2773662375
 20
147.7349545494
 11
85.277659994
 21
147.7339086269
  0
LWPOLYLINE
  5
27F
100
AcDbEntity
  8
0
100
AcDbPolyline
 62
7
  6
BYLAYER
 90
6
 70
0
 10
86.4417141701
 20
148.0051635908
 10
86.429870553
 20
148.0502334193
 10
86.3232143446
 20
148.3058424228
 10
86.2091725358
 20
148.4445732429
 10
85.8254046229
 20
148.6086894481
 10
85.7885103506
 20
148.6098469791
  0
LWPOLYLINE
  5
280
100
AcDbEntity
  8
0
100
AcDbPolyline
 62
7
  6
BYLAYER
 90
7
 70
0
 10
88.2524016527
 20
143.3816183758
 10
88.2476172436
 20
143.4005806371
 10
88.2129142732
 20
143.585862425
 10
88.1678108104
 20
143.9220660099
 10
88.1179783066
 20
144.3904255952
 10
88.0646906893
 20
144.9721314684
 10
87.9422770387
 20
146.3988661362
  0
LINE
  5
281
100
AcDbEntity
  8
0
100
AcDbLine
 62
7
  6
BYLAYER
 10
86.441699796
 20
148.0051505797
 11
86.4413400311
 21
148.0065919848
  0
LWPOLYLINE
  5
282
100
AcDbEntity
  8
0
100
AcDbPolyline
 62
7
  6
BYLAYER
 90
7
 70
0
 10
89.5504016749
 20
143.3883272296
 10
89.5479701195
 20
143.3989445967
 10
89.5137851883
 20
143.5788861335
 10
89.4681718797
 20
143.919490214
 10
89.417940033
 20
144.3917865883
 10
89.364210165
 20
144.9769396209
 10
89.2411363804
 20
146.4127061528
  0
LWPOLYLINE
  5
283
100
AcDbEntity
  8
0
100
AcDbPolyline
 62
7
  6
BYLAYER
 90
5
 70
0
 10
85.184190286
 20
147.7969689618
 10
85.1148746107
 20
148.101207431
 10
84.9526840158
 20
148.4023534535
 10
84.5522025725
 20
148.6079346193
 10
84.4894437767
 20
148.6112880747
  0
LWPOLYLINE
  5
284
100
AcDbEntity
  8
0
100
AcDbPolyline
 62
7
  6
BYLAYER
 90
5
 70
0
 10
83.8881110034
 20
147.7744445855
 10
83.8195637606
 20
148.0877113337
 10
83.662714654
 20
148.3899260728
 10
83.2556807798
 20
148.6054608407
 10
83.1899357525
 20
148.6091347755
  0
LWPOLYLINE
  5
285
100
AcDbEntity
  8
0
100
AcDbPolyline
 62
7
  6
BYLAYER
 90
5
 70
0
 10
84.4402665195
 20
143.3498744936
 10
84.5060839065
 20
143.0458526828
 10
84.6584484563
 20
142.7404020275
 10
85.0566216429
 20
142.5175000187
 10
85.1387442341
 20
142.5117733132
  0
LWPOLYLINE
  5
286
100
AcDbEntity
  8
0
100
AcDbPolyline
 62
7
  6
BYLAYER
 90
6
 70
0
 10
87.8784139893
 20
147.7338100698
 10
87.8804709336
 20
147.7243063271
 10
87.9162276627
 20
147.5343633272
 10
87.964261443
 20
147.1699624372
 10
88.017381235
 20
146.6612218549
 10
88.0743344119
 20
146.0307594995
  0
LWPOLYLINE
  5
287
100
AcDbEntity
  8
0
100
AcDbPolyline
 62
7
  6
BYLAYER
 90
5
 70
0
 10
87.0365187464
 20
143.3720864621
 10
87.1053228555
 20
143.0472909485
 10
87.2604943056
 20
142.7389652432
 10
87.6587748359
 20
142.5188489974
 10
87.7386521369
 20
142.5134376411
  0
LWPOLYLINE
  5
288
100
AcDbEntity
  8
0
100
AcDbPolyline
 62
7
  6
BYLAYER
 90
8
 70
0
 10
85.277659994
 20
147.7339086269
 10
85.3154398341
 20
147.5381114879
 10
85.3849870061
 20
146.9843417894
 10
85.4588903153
 20
146.2067885989
 10
85.5312834618
 20
145.360253454
 10
85.5985823047
 20
144.5873864713
 10
85.6608228157
 20
143.9543356457
 10
85.7200380633
 20
143.4785345157
  0
LINE
  5
289
100
AcDbEntity
  8
0
100
AcDbLine
 62
7
  6
BYLAYER
 10
86.5081490296
 20
147.6460749219
 11
86.4413400311
 21
148.0065919848
  0
LWPOLYLINE
  5
28A
100
AcDbEntity
  8
0
100
AcDbPolyline
 62
7
  6
BYLAYER
 90
5
 70
0
 10
85.7200380633
 20
143.4785345157
 10
85.7808324039
 20
143.1431083938
 10
85.8760847188
 20
142.8669099812
 10
86.1488085678
 20
142.5849131106
 10
86.4391921983
 20
142.5113409376
  0
LWPOLYLINE
  5
28B
100
AcDbEntity
  8
0
100
AcDbPolyline
 62
7
  6
BYLAYER
 90
5
 70
0
 10
89.6142716213
 20
143.5175012481
 10
89.6756350477
 20
143.1657884008
 10
89.7626335197
 20
142.8954560782
 10
90.02877359
 20
142.5970537564
 10
90.3400488222
 20
142.5119735086
  0
LWPOLYLINE
  5
28C
100
AcDbEntity
  8
0
100
AcDbPolyline
 62
7
  6
BYLAYER
 90
5
 70
0
 10
87.8160804945
 20
147.5924968204
 10
87.7548509081
 20
147.9483238072
 10
87.6612792663
 20
148.236778301
 10
87.380617069
 20
148.536071126
 10
87.0884642324
 20
148.6104815378
  0
LWPOLYLINE
  5
28D
100
AcDbEntity
  8
0
100
AcDbPolyline
 62
7
  6
BYLAYER
 90
5
 70
0
 10
89.1157564639
 20
147.5939182706
 10
89.0546532522
 20
147.9511008173
 10
88.9581777573
 20
148.2429908581
 10
88.6746588077
 20
148.5374851119
 10
88.3889660936
 20
148.6083802554
  0
LWPOLYLINE
  5
28E
100
AcDbEntity
  8
0
100
AcDbPolyline
 62
7
  6
BYLAYER
 90
5
 70
0
 10
88.3022508319
 20
143.6067370527
 10
88.3673018876
 20
143.2023712412
 10
88.4598550246
 20
142.9016022295
 10
88.7298104941
 20
142.5983162258
 10
89.039700302
 20
142.5141850331
  0
LINE
  5
28F
100
AcDbEntity
  8
0
100
AcDbLine
 62
7
  6
BYLAYER
 10
85.2450692683
 20
147.3672737246
 11
85.184190286
 21
147.7969689618
  0
LINE
  5
290
100
AcDbEntity
  8
0
100
AcDbLine
 62
7
  6
BYLAYER
 10
84.3807428202
 20
143.7788109359
 11
84.4402665195
 21
143.3498744936
  0
LINE
  5
291
100
AcDbEntity
  8
0
100
AcDbLine
 62
7
  6
BYLAYER
 10
83.9481150872
 20
147.3401792029
 11
83.8881110034
 21
147.7744445855
  0
LINE
  5
292
100
AcDbEntity
  8
0
100
AcDbLine
 62
7
  6
BYLAYER
 10
86.9746175454
 20
143.8322386735
 11
87.0365187464
 21
143.3720864621
  0
LWPOLYLINE
  5
293
100
AcDbEntity
  8
0
100
AcDbPolyline
 62
7
  6
BYLAYER
 90
3
 70
0
 10
90.541811629
 20
146.40478828
 10
90.4778244099
 20
147.073514654
 10
90.4173362695
 20
147.5814315424
  0
LINE
  5
294
100
AcDbEntity
  8
0
100
AcDbLine
 62
7
  6
BYLAYER
 10
92.88242024
 20
145.56105087
 11
92.882416582
 21
145.5609997187
  0
LWPOLYLINE
  5
295
100
AcDbEntity
  8
0
100
AcDbPolyline
 62
7
  6
BYLAYER
 90
5
 70
0
 10
92.8819987494
 20
145.5610615917
 10
92.9886337913
 20
146.1570291106
 10
93.3063219775
 20
146.7625358675
 10
93.4992973419
 20
146.9749699273
 10
93.9489536095
 20
147.2444550394
  0
LWPOLYLINE
  5
296
100
AcDbEntity
  8
0
100
AcDbPolyline
 62
7
  6
BYLAYER
 90
8
 70
0
 10
90.5006325056
 20
147.716686282
 10
90.4995292161
 20
147.7195216142
 10
90.5214221949
 20
147.6323591231
 10
90.5661434529
 20
147.3829689788
 10
90.6177933554
 20
147.013619766
 10
90.6731005504
 20
146.5495428627
 10
90.7316393145
 20
146.009603109
 10
90.8261269312
 20
145.1137131695
  0
LWPOLYLINE
  5
297
100
AcDbEntity
  8
0
100
AcDbPolyline
 62
7
  6
BYLAYER
 90
13
 70
0
 10
92.2747072804
 20
143.441751466
 10
92.2561380031
 20
143.5032806841
 10
92.1979924316
 20
143.785253577
 10
92.1300299829
 20
144.2391843059
 10
92.056955599
 20
144.8379243146
 10
91.9793565377
 20
145.5548997243
 10
91.9004420549
 20
146.307272276
 10
91.8233658162
 20
146.9933185238
 10
91.7500722143
 20
147.540178869
 10
91.6777007683
 20
147.9324194788
 10
91.5763301216
 20
148.2334858999
 10
91.2940883801
 20
148.5330633681
 10
90.9987972604
 20
148.6086196134
  0
LWPOLYLINE
  5
298
100
AcDbEntity
  8
0
100
AcDbPolyline
 62
7
  6
BYLAYER
 90
7
 70
0
 10
90.8514870479
 20
143.386217809
 10
90.8484014031
 20
143.3988843995
 10
90.8139416971
 20
143.5778782032
 10
90.7683226597
 20
143.9169372343
 10
90.7181388957
 20
144.3901982366
 10
90.6644875484
 20
144.9745117634
 10
90.541811629
 20
146.40478828
  0
LWPOLYLINE
  5
299
100
AcDbEntity
  8
0
100
AcDbPolyline
 62
7
  6
BYLAYER
 90
11
 70
0
 10
89.1765900935
 20
147.7398104987
 10
89.1789262363
 20
147.730010624
 10
89.2081509818
 20
147.5829078314
 10
89.2474147035
 20
147.3096998207
 10
89.2908957503
 20
146.9279731434
 10
89.3374919975
 20
146.4463029189
 10
89.3871071765
 20
145.8811260717
 10
89.4399920622
 20
145.2571332759
 10
89.4964905027
 20
144.6105371259
 10
89.5553316579
 20
144.0061387697
 10
89.6142716213
 20
143.5175012481
  0
LWPOLYLINE
  5
29A
100
AcDbEntity
  8
0
100
AcDbPolyline
 62
7
  6
BYLAYER
 90
5
 70
0
 10
90.4173362695
 20
147.5814315424
 10
90.3570550291
 20
147.9393693119
 10
90.2638195349
 20
148.2335532004
 10
89.9812954768
 20
148.5354886284
 10
89.690016027
 20
148.6094132
  0
LWPOLYLINE
  5
29B
100
AcDbEntity
  8
0
100
AcDbPolyline
 62
7
  6
BYLAYER
 90
8
 70
0
 10
90.8261269312
 20
145.1137131695
 10
90.8945319899
 20
144.5053826828
 10
90.9678925684
 20
143.9357499567
 10
91.0463220546
 20
143.4554247825
 10
91.1391540975
 20
143.0802533759
 10
91.3225028306
 20
142.7366802656
 10
91.7412887656
 20
142.516282577
 10
91.80757884
 20
142.5126352221
  0
LINE
  5
29C
100
AcDbEntity
  8
0
100
AcDbLine
 62
7
  6
BYLAYER
 10
95.2824534991
 20
148.6113208605
 11
95.2824619172
 21
148.6002807763
  0
LWPOLYLINE
  5
29D
100
AcDbEntity
  8
0
100
AcDbPolyline
 62
7
  6
BYLAYER
 90
8
 70
0
 10
86.9501265181
 20
143.3889651278
 10
86.9508503686
 20
143.3894453986
 10
86.9216331892
 20
143.5323669892
 10
86.880628905
 20
143.8156267483
 10
86.8343528807
 20
144.2271797673
 10
86.8097558673
 20
144.4767093208
 10
86.7578749473
 20
145.0507542688
 10
86.6426806864
 20
146.394456101
  0
LWPOLYLINE
  5
29E
100
AcDbEntity
  8
0
100
AcDbPolyline
 62
7
  6
BYLAYER
 90
4
 70
0
 10
93.526820318
 20
148.3678805027
 10
93.4087441903
 20
148.3205285228
 10
92.440298194
 20
147.5986195725
 10
91.8715671537
 20
146.5642842671
  0
LINE
  5
29F
100
AcDbEntity
  8
0
100
AcDbLine
 62
7
  6
BYLAYER
 10
93.9498802126
 20
147.2448039139
 11
93.9489536095
 21
147.2444550394
  0
LINE
  5
2A0
100
AcDbEntity
  8
0
100
AcDbLine
 62
7
  6
BYLAYER
 10
93.526820318
 20
148.3678805027
 11
93.5246175342
 21
148.3670534163
  0
LWPOLYLINE
  5
2A1
100
AcDbEntity
  8
0
100
AcDbPolyline
 62
7
  6
BYLAYER
 90
4
 70
0
 10
93.9498887543
 20
147.24480713
 10
94.2402275997
 20
147.3285053539
 10
94.6074270386
 20
147.3840212641
 10
95.2824741019
 20
147.411693534
  0
LINE
  5
2A2
100
AcDbEntity
  8
0
100
AcDbLine
 62
7
  6
BYLAYER
 10
32.2324619278
 20
137.5613238512
 11
54.8824619278
 21
137.5613238512
  0
LINE
  5
2A3
100
AcDbEntity
  8
0
100
AcDbLine
 62
7
  6
BYLAYER
 10
55.7824619278
 20
138.0613238512
 11
56.2824619278
 21
138.0613238512
  0
LINE
  5
2A4
100
AcDbEntity
  8
0
100
AcDbLine
 62
7
  6
BYLAYER
 10
57.8824619278
 20
138.0613238512
 11
60.0824619278
 21
138.0613238512
  0
LWPOLYLINE
  5
2A5
100
AcDbEntity
  8
0
100
AcDbPolyline
 62
7
  6
BYLAYER
 90
8
 70
0
 10
91.8074284639
 20
142.5126711149
 10
92.1129108735
 20
142.5922969817
 10
92.4035904551
 20
142.9033197874
 10
92.5211058447
 20
143.2315970733
 10
92.6151364339
 20
143.6717108566
 10
92.7090416678
 20
144.2602646631
 10
92.8069959899
 20
144.9798018674
 10
92.882416582
 20
145.5609997187
  0
LWPOLYLINE
  5
2A6
100
AcDbEntity
  8
0
100
AcDbPolyline
 62
7
  6
BYLAYER
 90
5
 70
0
 10
90.3399589838
 20
142.5119733721
 10
90.6283858774
 20
142.5844666742
 10
90.9098191091
 20
142.8807866493
 10
91.0017458068
 20
143.1600370509
 10
91.0505922751
 20
143.4381671139
  0
LWPOLYLINE
  5
2A7
100
AcDbEntity
  8
0
100
AcDbPolyline
 62
7
  6
BYLAYER
 90
5
 70
0
 10
85.1385801896
 20
142.5117732249
 10
85.2042668721
 20
142.5154385665
 10
85.6088822447
 20
142.728380515
 10
85.764436353
 20
143.0208213552
 10
85.7879133879
 20
143.1225760156
  0
LWPOLYLINE
  5
2A8
100
AcDbEntity
  8
0
100
AcDbPolyline
 62
7
  6
BYLAYER
 90
4
 70
0
 10
74.7396957594
 20
142.5140656716
 10
74.8039592169
 20
142.5175754258
 10
75.2062475971
 20
142.7259914166
 10
75.3723111526
 20
143.0441672624
  0
LWPOLYLINE
  5
2A9
100
AcDbEntity
  8
0
100
AcDbPolyline
 62
7
  6
BYLAYER
 90
5
 70
0
 10
73.4385492767
 20
142.5136431921
 10
73.4993638617
 20
142.5167811074
 10
73.9011119132
 20
142.7210508178
 10
74.0621643399
 20
143.0135403626
 10
74.0890931955
 20
143.128022459
  0
LINE
  5
2AA
100
AcDbEntity
  8
0
100
AcDbLine
 62
7
  6
BYLAYER
 10
90.3399589838
 20
142.5119733721
 11
90.3400826129
 21
142.5119735087
  0
LINE
  5
2AB
100
AcDbEntity
  8
0
100
AcDbLine
 62
7
  6
BYLAYER
 10
89.0395872614
 20
142.5141848918
 11
89.0397149873
 21
142.5141850329
  0
LINE
  5
2AC
100
AcDbEntity
  8
0
100
AcDbLine
 62
7
  6
BYLAYER
 10
87.7384967276
 20
142.5134375336
 11
87.7386189193
 21
142.5134376428
  0
LINE
  5
2AD
100
AcDbEntity
  8
0
100
AcDbLine
 62
7
  6
BYLAYER
 10
77.3400524799
 20
142.5125464044
 11
77.3401684463
 21
142.5125465127
  0
LINE
  5
2AE
100
AcDbEntity
  8
0
100
AcDbLine
 62
7
  6
BYLAYER
 10
73.4385492767
 20
142.5136431921
 11
73.4386730155
 21
142.5136432989
  0
LINE
  5
2AF
100
AcDbEntity
  8
0
100
AcDbLine
 62
7
  6
BYLAYER
 10
85.1385801896
 20
142.5117732249
 11
85.1387119759
 21
142.5117733149
  0
LINE
  5
2B0
100
AcDbEntity
  8
0
100
AcDbLine
 62
7
  6
BYLAYER
 10
81.2384542253
 20
142.5131021994
 11
81.2385695249
 21
142.513102283
  0
LINE
  5
2B1
100
AcDbEntity
  8
0
100
AcDbLine
 62
7
  6
BYLAYER
 10
83.8400272907
 20
142.5122469415
 11
83.8401381031
 21
142.5122470081
  0
LINE
  5
2B2
100
AcDbEntity
  8
0
100
AcDbLine
 62
7
  6
BYLAYER
 10
82.5394401002
 20
142.5142922751
 11
82.5395591589
 21
142.5142923357
  0
LINE
  5
2B3
100
AcDbEntity
  8
0
100
AcDbLine
 62
7
  6
BYLAYER
 10
79.9386520601
 20
142.5138757081
 11
79.9387738837
 21
142.5138757688
  0
LINE
  5
2B4
100
AcDbEntity
  8
0
100
AcDbLine
 62
7
  6
BYLAYER
 10
78.6387266761
 20
142.511561658
 11
78.6388585262
 21
142.5115617423
  0
LINE
  5
2B5
100
AcDbEntity
  8
0
100
AcDbLine
 62
7
  6
BYLAYER
 10
74.7396957594
 20
142.5140656716
 11
74.7398160258
 21
142.5140657353
  0
LINE
  5
2B6
100
AcDbEntity
  8
0
100
AcDbLine
 62
7
  6
BYLAYER
 10
86.4390824885
 20
142.5113408994
 11
86.439185424
 21
142.5113409378
  0
LINE
  5
2B7
100
AcDbEntity
  8
0
100
AcDbLine
 62
7
  6
BYLAYER
 10
72.1389152454
 20
142.5114093886
 11
72.1390345197
 21
142.5114094173
  0
LINE
  5
2B8
100
AcDbEntity
  8
0
100
AcDbLine
 62
7
  6
BYLAYER
 10
28.7324619278
 20
142.0613238512
 11
32.2324619278
 21
142.0613238512
  0
LINE
  5
2B9
100
AcDbEntity
  8
0
100
AcDbLine
 62
7
  6
BYLAYER
 10
91.8074284639
 20
142.5126711149
 11
91.8076310637
 21
142.5126711012
  0
LINE
  5
2BA
100
AcDbEntity
  8
0
100
AcDbLine
 62
7
  6
BYLAYER
 10
76.0393264872
 20
142.5140762213
 11
76.0394081945
 21
142.5140761663
  0
LINE
  5
2BB
100
AcDbEntity
  8
0
100
AcDbLine
 62
7
  6
BYLAYER
 10
92.882416582
 20
145.5609997187
 11
92.7920957951
 21
145.5650566919
  0
LWPOLYLINE
  5
2BC
100
AcDbEntity
  8
0
100
AcDbPolyline
 62
7
  6
BYLAYER
 90
4
 70
0
 10
72.1389152454
 20
142.5114093886
 10
72.435986266
 20
142.5885599262
 10
72.7126370535
 20
142.8878576095
 10
72.7892464159
 20
143.1261401463
  0
LWPOLYLINE
  5
2BD
100
AcDbEntity
  8
0
100
AcDbPolyline
 62
7
  6
BYLAYER
 90
4
 70
0
 10
78.6387266761
 20
142.511561658
 10
78.9354693634
 20
142.588503309
 10
79.2133816792
 20
142.8896674943
 10
79.2883327466
 20
143.1250965118
  0
LWPOLYLINE
  5
2BE
100
AcDbEntity
  8
0
100
AcDbPolyline
 62
7
  6
BYLAYER
 90
4
 70
0
 10
79.9386520601
 20
142.5138757081
 10
80.2303750596
 20
142.5879548853
 10
80.5102182157
 20
142.8840850733
 10
80.589723394
 20
143.1271921312
  0
LWPOLYLINE
  5
2BF
100
AcDbEntity
  8
0
100
AcDbPolyline
 62
7
  6
BYLAYER
 90
4
 70
0
 10
82.5394401002
 20
142.5142922751
 10
82.8289917388
 20
142.5872204334
 10
83.1134913001
 20
142.8896995785
 10
83.188743001
 20
143.1281997456
  0
LWPOLYLINE
  5
2C0
100
AcDbEntity
  8
0
100
AcDbPolyline
 62
7
  6
BYLAYER
 90
4
 70
0
 10
83.8400272907
 20
142.5122469415
 10
84.1288606518
 20
142.5849374245
 10
84.4104662071
 20
142.8820123374
 10
84.4892339253
 20
143.1236856388
  0
LWPOLYLINE
  5
2C1
100
AcDbEntity
  8
0
100
AcDbPolyline
 62
7
  6
BYLAYER
 90
4
 70
0
 10
76.0393264872
 20
142.5140762213
 10
76.3285255366
 20
142.5868531885
 10
76.6131680526
 20
142.8891483023
 10
76.6883632051
 20
143.1262236087
  0
LWPOLYLINE
  5
2C2
100
AcDbEntity
  8
0
100
AcDbPolyline
 62
7
  6
BYLAYER
 90
4
 70
0
 10
86.4390824885
 20
142.5113408994
 10
86.7265656883
 20
142.5833701374
 10
87.0055840726
 20
142.8733255033
 10
87.0896667866
 20
143.1211967228
  0
LWPOLYLINE
  5
2C3
100
AcDbEntity
  8
0
100
AcDbPolyline
 62
7
  6
BYLAYER
 90
4
 70
0
 10
89.0395872614
 20
142.5141848918
 10
89.3274652416
 20
142.5862456949
 10
89.6079320732
 20
142.8781463685
 10
89.6895408328
 20
143.1225786397
  0
LWPOLYLINE
  5
2C4
100
AcDbEntity
  8
0
100
AcDbPolyline
 62
7
  6
BYLAYER
 90
4
 70
0
 10
87.7384967276
 20
142.5134375336
 10
88.0257641051
 20
142.5851862355
 10
88.3053091399
 20
142.8743310355
 10
88.390977138
 20
143.1254340149
  0
LWPOLYLINE
  5
2C5
100
AcDbEntity
  8
0
100
AcDbPolyline
 62
7
  6
BYLAYER
 90
4
 70
0
 10
77.3400524799
 20
142.5125464044
 10
77.6266091814
 20
142.5840193868
 10
77.908230743
 20
142.8774667808
 10
77.9902676019
 20
143.1238907132
  0
LWPOLYLINE
  5
2C6
100
AcDbEntity
  8
0
100
AcDbPolyline
 62
7
  6
BYLAYER
 90
4
 70
0
 10
81.2384542253
 20
142.5131021994
 10
81.5232711219
 20
142.583595399
 10
81.807635471
 20
142.8788562458
 10
81.8896312803
 20
143.127082686
  0
LWPOLYLINE
  5
2C7
100
AcDbEntity
  8
0
100
AcDbPolyline
 62
7
  6
BYLAYER
 90
4
 70
0
 10
87.0886182282
 20
148.6104814219
 10
87.0059891234
 20
148.6046865598
 10
86.6054948756
 20
148.3785523017
 10
86.4537676617
 20
148.0691925856
  0
LWPOLYLINE
  5
2C8
100
AcDbEntity
  8
0
100
AcDbPolyline
 62
7
  6
BYLAYER
 90
5
 70
0
 10
85.7886653708
 20
148.6098467715
 10
85.7064562342
 20
148.6041141878
 10
85.305889173
 20
148.3785984907
 10
85.1546382332
 20
148.0727534285
 10
85.1386243981
 20
147.9969655127
  0
LWPOLYLINE
  5
2C9
100
AcDbEntity
  8
0
100
AcDbPolyline
 62
7
  6
BYLAYER
 90
5
 70
0
 10
88.3891104171
 20
148.6083801364
 10
88.3091952201
 20
148.6029669911
 10
87.9101212917
 20
148.3820825617
 10
87.7585754486
 20
148.0859750625
 10
87.7390675966
 20
147.9969792228
  0
LWPOLYLINE
  5
2CA
100
AcDbEntity
  8
0
100
AcDbPolyline
 62
7
  6
BYLAYER
 90
5
 70
0
 10
89.6900930068
 20
148.6094131294
 10
89.6112120175
 20
148.604134328
 10
89.2178059669
 20
148.3908591744
 10
89.058026156
 20
148.0822244787
 10
89.0394138006
 20
147.9972083201
  0
LWPOLYLINE
  5
2CB
100
AcDbEntity
  8
0
100
AcDbPolyline
 62
7
  6
BYLAYER
 90
5
 70
0
 10
77.989738733
 20
148.6111712212
 10
77.9137386695
 20
148.6062617943
 10
77.5211142299
 20
148.396338204
 10
77.363033808
 20
148.0985714872
 10
77.3396021044
 20
147.9955168963
  0
LWPOLYLINE
  5
2CC
100
AcDbEntity
  8
0
100
AcDbPolyline
 62
7
  6
BYLAYER
 90
5
 70
0
 10
90.9989227618
 20
148.6086264788
 10
90.9403028201
 20
148.6057211329
 10
90.5434448448
 20
148.410596726
 10
90.3701345152
 20
148.1055801953
 10
90.3394914818
 20
147.9947871833
  0
LWPOLYLINE
  5
2CD
100
AcDbEntity
  8
0
100
AcDbPolyline
 62
7
  6
BYLAYER
 90
4
 70
0
 10
95.2824523979
 20
148.6109542357
 10
94.4190670121
 20
148.5702385781
 10
93.9275671002
 20
148.4879386361
 10
93.5246118301
 20
148.3670512687
  0
LINE
  5
2CE
100
AcDbEntity
  8
0
100
AcDbLine
 62
7
  6
BYLAYER
 10
90.9987972604
 20
148.6086196134
 11
90.9989132593
 21
148.6086196492
  0
LINE
  5
2CF
100
AcDbEntity
  8
0
100
AcDbLine
 62
7
  6
BYLAYER
 10
95.2824760284
 20
147.4113238512
 11
186.2824619278
 21
147.4113238512
  0
LINE
  5
2D0
100
AcDbEntity
  8
0
100
AcDbLine
 62
7
  6
BYLAYER
 10
95.2824534414
 20
148.6113238512
 11
186.2824619278
 21
148.6113238512
  0
LINE
  5
2D1
100
AcDbEntity
  8
0
100
AcDbLine
 62
7
  6
BYLAYER
 10
32.2324619278
 20
149.0613238512
 11
28.7324619278
 21
149.0613238512
  0
LINE
  5
2D2
100
AcDbEntity
  8
0
100
AcDbLine
 62
7
  6
BYLAYER
 10
71.4897903814
 20
148.6109953652
 11
71.4899018457
 21
148.610995332
  0
LINE
  5
2D3
100
AcDbEntity
  8
0
100
AcDbLine
 62
7
  6
BYLAYER
 10
83.1899357525
 20
148.6091347755
 11
83.1900594796
 21
148.6091347383
  0
LINE
  5
2D4
100
AcDbEntity
  8
0
100
AcDbLine
 62
7
  6
BYLAYER
 10
80.5892399607
 20
148.6083433407
 11
80.5893649306
 21
148.6083432758
  0
LINE
  5
2D5
100
AcDbEntity
  8
0
100
AcDbLine
 62
7
  6
BYLAYER
 10
79.2883980322
 20
148.6099467363
 11
79.2885118757
 21
148.6099466734
  0
LINE
  5
2D6
100
AcDbEntity
  8
0
100
AcDbLine
 62
7
  6
BYLAYER
 10
84.4894437767
 20
148.6112880747
 11
84.4895563637
 21
148.6112880173
  0
LINE
  5
2D7
100
AcDbEntity
  8
0
100
AcDbLine
 62
7
  6
BYLAYER
 10
72.7884214409
 20
148.61025112
 11
72.7885380028
 21
148.6102510346
  0
LINE
  5
2D8
100
AcDbEntity
  8
0
100
AcDbLine
 62
7
  6
BYLAYER
 10
81.8888352813
 20
148.6085015808
 11
81.8889531271
 21
148.6085015002
  0
LINE
  5
2D9
100
AcDbEntity
  8
0
100
AcDbLine
 62
7
  6
BYLAYER
 10
77.9896557839
 20
148.611171289
 11
77.9897614402
 21
148.6111712212
  0
LINE
  5
2DA
100
AcDbEntity
  8
0
100
AcDbLine
 62
7
  6
BYLAYER
 10
89.690016027
 20
148.6094132
 11
89.6901353894
 21
148.6094131287
  0
LINE
  5
2DB
100
AcDbEntity
  8
0
100
AcDbLine
 62
7
  6
BYLAYER
 10
74.0890789106
 20
148.6083211674
 11
74.0892173048
 21
148.6083210516
  0
LINE
  5
2DC
100
AcDbEntity
  8
0
100
AcDbLine
 62
7
  6
BYLAYER
 10
75.3900517015
 20
148.6096451301
 11
75.3901614994
 21
148.6096450362
  0
LINE
  5
2DD
100
AcDbEntity
  8
0
100
AcDbLine
 62
7
  6
BYLAYER
 10
76.689849771
 20
148.6088839118
 11
76.6899729529
 21
148.6088838106
  0
LINE
  5
2DE
100
AcDbEntity
  8
0
100
AcDbLine
 62
7
  6
BYLAYER
 10
87.0884642324
 20
148.6104815378
 11
87.0885958111
 21
148.6104814209
  0
LINE
  5
2DF
100
AcDbEntity
  8
0
100
AcDbLine
 62
7
  6
BYLAYER
 10
88.3889660936
 20
148.6083802554
 11
88.3890902716
 21
148.6083801355
  0
LINE
  5
2E0
100
AcDbEntity
  8
0
100
AcDbLine
 62
7
  6
BYLAYER
 10
85.7885103506
 20
148.6098469791
 11
85.7886068268
 21
148.609846767
  0
LWPOLYLINE
  5
2E1
100
AcDbEntity
  8
0
100
AcDbPolyline
 62
7
  6
BYLAYER
 90
4
 70
0
 10
74.0892230752
 20
148.6083210518
 10
73.7765583172
 20
148.522589575
 10
73.5094418407
 20
148.2209373756
 10
73.4387520088
 20
147.9952993089
  0
LWPOLYLINE
  5
2E2
100
AcDbEntity
  8
0
100
AcDbPolyline
 62
7
  6
BYLAYER
 90
4
 70
0
 10
76.689949514
 20
148.6088838106
 10
76.3836147852
 20
148.5267569226
 10
76.1127426262
 20
148.2269333938
 10
76.0402434931
 20
147.9973568147
  0
LWPOLYLINE
  5
2E3
100
AcDbEntity
  8
0
100
AcDbPolyline
 62
7
  6
BYLAYER
 90
4
 70
0
 10
72.7885734154
 20
148.6102510365
 10
72.4844222662
 20
148.5292550574
 10
72.2120522189
 20
148.2280668693
 10
72.1398925949
 20
147.9981987421
  0
LWPOLYLINE
  5
2E4
100
AcDbEntity
  8
0
100
AcDbPolyline
 62
7
  6
BYLAYER
 90
4
 70
0
 10
81.8889727386
 20
148.608501501
 10
81.5859780336
 20
148.5282692838
 10
81.3144906288
 20
148.2320993902
 10
81.239387884
 20
147.9982870723
  0
LWPOLYLINE
  5
2E5
100
AcDbEntity
  8
0
100
AcDbPolyline
 62
7
  6
BYLAYER
 90
4
 70
0
 10
80.5893565543
 20
148.6083432757
 10
80.286688902
 20
148.528306696
 10
80.0117297547
 20
148.2255968297
 10
79.941297601
 20
147.9976738646
  0
LWPOLYLINE
  5
2E6
100
AcDbEntity
  8
0
100
AcDbPolyline
 62
7
  6
BYLAYER
 90
4
 70
0
 10
84.4895491661
 20
148.6112880172
 10
84.1887154296
 20
148.5320571298
 10
83.9182789686
 20
148.2397866111
 10
83.8389033331
 20
147.9993278372
  0
LWPOLYLINE
  5
2E7
100
AcDbEntity
  8
0
100
AcDbPolyline
 62
7
  6
BYLAYER
 90
4
 70
0
 10
83.1900274024
 20
148.6091347386
 10
82.8887715358
 20
148.5298402293
 10
82.6178917945
 20
148.2375844148
 10
82.5385391753
 20
147.9974521375
  0
LWPOLYLINE
  5
2E8
100
AcDbEntity
  8
0
100
AcDbPolyline
 62
7
  6
BYLAYER
 90
4
 70
0
 10
79.2885554382
 20
148.609946676
 10
78.9876855416
 20
148.5308042303
 10
78.714937161
 20
148.2341447271
 10
78.6398080682
 20
148.001020475
  0
LWPOLYLINE
  5
2E9
100
AcDbEntity
  8
0
100
AcDbPolyline
 62
7
  6
BYLAYER
 90
4
 70
0
 10
75.3901230473
 20
148.6096450367
 10
75.0889984683
 20
148.5303939441
 10
74.8146329954
 20
148.2309147681
 10
74.739758159
 20
147.9948899006
  0
LWPOLYLINE
  5
2EA
100
AcDbEntity
  8
0
100
AcDbPolyline
 62
7
  6
BYLAYER
 90
4
 70
0
 10
71.4898812994
 20
148.6109953319
 10
71.1924855061
 20
148.5336988961
 10
70.9210861222
 20
148.2449804194
 10
70.8771179616
 20
148.1153318259
  0
LINE
  5
2EB
100
AcDbEntity
  8
0
100
AcDbLine
 62
7
  6
BYLAYER
 10
55.7824619278
 20
153.0613238512
 11
56.2824619278
 21
153.0613238512
  0
LINE
  5
2EC
100
AcDbEntity
  8
0
100
AcDbLine
 62
7
  6
BYLAYER
 10
57.8824619278
 20
153.0613238512
 11
60.0824619278
 21
153.0613238512
  0
LINE
  5
2ED
100
AcDbEntity
  8
0
100
AcDbLine
 62
7
  6
BYLAYER
 10
54.8824619278
 20
153.5613238512
 11
32.2324619278
 21
153.5613238512
  0
LINE
  5
2EE
100
AcDbEntity
  8
0
100
AcDbLine
 62
7
  6
BYLAYER
 10
186.2824619278
 20
148.6113073486
 11
186.2824619278
 21
147.4113403538
  0
CIRCLE
  5
2EF
100
AcDbEntity
  8
0
100
AcDbCircle
 62
7
  6
BYLAYER
 10
32.2324619278
 20
145.5613238512
 40
8.0
  0
CIRCLE
  5
2F0
100
AcDbEntity
  8
0
100
AcDbCircle
 62
7
  6
BYLAYER
 10
32.2324619278
 20
145.5613238512
 40
6.7
  0
CIRCLE
  5
2F1
100
AcDbEntity
  8
0
100
AcDbCircle
 62
7
  6
BYLAYER
 10
32.2324619278
 20
145.5613238512
 40
6.35
  0
CIRCLE
  5
2F2
100
AcDbEntity
  8
0
100
AcDbCircle
 62
7
  6
BYLAYER
 10
32.2324619278
 20
145.5613238512
 40
5.75
  0
ARC
  5
2F3
100
AcDbEntity
  8
0
100
AcDbCircle
 62
7
  6
BYLAYER
 10
32.2324619278
 20
145.5613238512
 40
4.5
100
AcDbArc
 50
141.057558731
 51
218.942441269
  0
ARC
  5
2F4
100
AcDbEntity
  8
0
100
AcDbCircle
 62
7
  6
BYLAYER
 10
32.2324619278
 20
145.5613238512
 40
4.5
100
AcDbArc
 50
231.057558731
 51
128.942441269
  0
ARC
  5
2F5
100
AcDbEntity
  8
0
100
AcDbCircle
 62
7
  6
BYLAYER
 10
66.2987102988
 20
142.5613238512
 40
4.0
100
AcDbArc
 50
205.9444797724
 51
354.8339373421
  0
ARC
  5
2F6
100
AcDbEntity
  8
0
100
AcDbCircle
 62
7
  6
BYLAYER
 10
66.2987102988
 20
148.5613238512
 40
4.0
100
AcDbArc
 50
5.1660626579
 51
154.0555202276
  0
ARC
  5
2F7
100
AcDbEntity
  8
0
100
AcDbCircle
 62
7
  6
BYLAYER
 10
32.2324619278
 20
145.5613238512
 40
3.5
100
AcDbArc
 50
270.0
 51
90.0
  0
ARC
  5
2F8
100
AcDbEntity
  8
0
100
AcDbCircle
 62
7
  6
BYLAYER
 10
94.1422553308
 20
145.561531488
 40
1.3502499559
100
AcDbArc
 50
179.0962224468
 51
179.8498724881
  0
ARC
  5
2F9
100
AcDbEntity
  8
0
100
AcDbCircle
 62
7
  6
BYLAYER
 10
71.1061693348
 20
145.6940651805
 40
1.3053498656
100
AcDbArc
 50
278.4516454257
 51
279.9884459403
  0
ARC
  5
2FA
100
AcDbEntity
  8
0
100
AcDbCircle
 62
7
  6
BYLAYER
 10
60.0824619278
 20
139.1613238512
 40
1.1
100
AcDbArc
 50
270.0
 51
360.0
  0
ARC
  5
2FB
100
AcDbEntity
  8
0
100
AcDbCircle
 62
7
  6
BYLAYER
 10
60.0824619278
 20
151.9613238512
 40
1.1
100
AcDbArc
 50
0.0
 51
90.0
  0
ARC
  5
2FC
100
AcDbEntity
  8
0
100
AcDbCircle
 62
7
  6
BYLAYER
 10
61.9824619278
 20
150.6613238512
 40
0.8
100
AcDbArc
 50
180.0
 51
334.0555202276
  0
ARC
  5
2FD
100
AcDbEntity
  8
0
100
AcDbCircle
 62
7
  6
BYLAYER
 10
61.9824619278
 20
140.4613238512
 40
0.8
100
AcDbArc
 50
25.9444797724
 51
180.0
  0
ARC
  5
2FE
100
AcDbEntity
  8
0
100
AcDbCircle
 62
7
  6
BYLAYER
 10
57.0824619278
 20
152.5613238512
 40
0.6
100
AcDbArc
 50
180.0
 51
360.0
  0
ARC
  5
2FF
100
AcDbEntity
  8
0
100
AcDbCircle
 62
7
  6
BYLAYER
 10
57.0824619278
 20
138.5613238512
 40
0.6
100
AcDbArc
 50
0.0
 51
180.0
  0
ARC
  5
300
100
AcDbEntity
  8
0
100
AcDbCircle
 62
7
  6
BYLAYER
 10
76.00745772
 20
143.1268174354
 40
0.5774677067
100
AcDbArc
 50
270.0004188452
 51
271.5308809512
  0
ARC
  5
301
100
AcDbEntity
  8
0
100
AcDbCircle
 62
7
  6
BYLAYER
 10
56.2824619278
 20
152.8613238512
 40
0.2
100
AcDbArc
 50
0.0
 51
90.0
  0
ARC
  5
302
100
AcDbEntity
  8
0
100
AcDbCircle
 62
7
  6
BYLAYER
 10
56.2824619278
 20
138.2613238512
 40
0.2
100
AcDbArc
 50
270.0
 51
360.0
  0
ARC
  5
303
100
AcDbEntity
  8
0
100
AcDbCircle
 62
7
  6
BYLAYER
 10
57.8824619278
 20
138.2613238512
 40
0.2
100
AcDbArc
 50
180.0
 51
270.0
  0
ARC
  5
304
100
AcDbEntity
  8
0
100
AcDbCircle
 62
7
  6
BYLAYER
 10
57.8824619278
 20
152.8613238512
 40
0.2
100
AcDbArc
 50
90.0
 51
180.0
  0
ARC
  5
305
100
AcDbEntity
  8
0
100
AcDbCircle
 62
7
  6
BYLAYER
 10
70.4824619278
 20
142.4613238512
 40
0.2
100
AcDbArc
 50
126.8698976458
 51
179.9999983275
  0
ARC
  5
306
100
AcDbEntity
  8
0
100
AcDbCircle
 62
7
  6
BYLAYER
 10
70.4824619278
 20
148.6613238512
 40
0.2
100
AcDbArc
 50
180.0000016725
 51
233.1301023542
  0
SPLINE
  5
307
100
AcDbEntity
  8
0
100
AcDbSpline
 62
7
  6
BYLAYER
 70
0
 71
3
 72
21
 73
17
 74
0
 42
0.0000001
 43
0.0000001
 44
0.0000000001
 40
0.0
 40
0.0
 40
0.0
 40
0.0
 40
0.1947289863
 40
0.3824537287
 40
0.5552990566
 40
0.7067963577
 40
0.772733677
 40
0.8312726887
 40
0.8817806739
 40
0.9237715893
 40
0.9568981182
 40
0.9808181265
 40
0.9892193845
 40
0.9952134336
 40
0.9988049309
 40
1.0
 40
1.0
 40
1.0
 40
1.0
 10
95.282462393
 20
148.0113238512
 30
0.0
 10
95.2821631927
 20
147.9723826143
 30
0.0
 10
95.2817011931
 20
147.8958996641
 30
0.0
 10
95.2817646652
 20
147.7848482549
 30
0.0
 10
95.2825885155
 20
147.6824472143
 30
0.0
 10
95.2828163802
 20
147.6043968028
 30
0.0
 10
95.2826271772
 20
147.5492086012
 30
0.0
 10
95.2824656555
 20
147.5142116299
 30
0.0
 10
95.2823546727
 20
147.4840175828
 30
0.0
 10
95.2823741665
 20
147.4588642324
 30
0.0
 10
95.282348104
 20
147.439138054
 30
0.0
 10
95.282540211
 20
147.4258826853
 30
0.0
 10
95.2823799926
 20
147.4184461512
 30
0.0
 10
95.2827032416
 20
147.4144778964
 30
0.0
 10
95.2821563554
 20
147.4129764465
 30
0.0
 10
95.2827262211
 20
147.4113423973
 30
0.0
 10
95.2824903776
 20
147.4113810679
 30
0.0
  0
SPLINE
  5
308
100
AcDbEntity
  8
0
100
AcDbSpline
 62
7
  6
BYLAYER
 70
0
 71
3
 72
31
 73
27
 74
0
 42
0.0000001
 43
0.0000001
 44
0.0000000001
 40
0.0
 40
0.0
 40
0.0
 40
0.0
 40
0.0041287583
 40
0.0076147714
 40
0.0121818129
 40
0.0246140578
 40
0.0413973999
 40
0.0623966045
 40
0.0874490273
 40
0.1490129057
 40
0.2242954675
 40
0.3101340901
 40
0.4030420522
 40
0.4995268942
 40
0.5960716597
 40
0.6891025595
 40
0.7750390526
 40
0.8503136125
 40
0.9120058663
 40
0.9371972311
 40
0.9583489882
 40
0.9752712726
 40
0.987801732
 40
0.9923944408
 40
0.9958869695
 40
1.0
 40
1.0
 40
1.0
 40
1.0
 10
84.4895491802
 20
148.6112880172
 30
0.0
 10
84.4980276053
 20
148.6112482551
 30
0.0
 10
84.5104892012
 20
148.5968817573
 30
0.0
 10
84.5211269053
 20
148.5753734501
 30
0.0
 10
84.5361799111
 20
148.5355061368
 30
0.0
 10
84.5531633252
 20
148.4684519029
 30
0.0
 10
84.5729302711
 20
148.367091318
 30
0.0
 10
84.5927040171
 20
148.2396058982
 30
0.0
 10
84.6213641871
 20
148.0204477447
 30
0.0
 10
84.6557241528
 20
147.6897308732
 30
0.0
 10
84.6949634102
 20
147.2341172231
 30
0.0
 10
84.7345122667
 20
146.7139575258
 30
0.0
 10
84.774265301
 20
146.1501609475
 30
0.0
 10
84.8140943452
 20
145.5643325963
 30
0.0
 10
84.8539094466
 20
144.9782502527
 30
0.0
 10
84.8936499232
 20
144.4138749596
 30
0.0
 10
84.9331635134
 20
143.8932741572
 30
0.0
 10
84.9724754925
 20
143.437216605
 30
0.0
 10
85.0068583759
 20
143.1059678859
 30
0.0
 10
85.0354754477
 20
142.8859360705
 30
0.0
 10
85.0552400305
 20
142.7575533797
 30
0.0
 10
85.0750030431
 20
142.6553820554
 30
0.0
 10
85.0919563544
 20
142.587754857
 30
0.0
 10
85.1070263775
 20
142.5476185968
 30
0.0
 10
85.1176120586
 20
142.5260175352
 30
0.0
 10
85.1301661921
 20
142.511808066
 30
0.0
 10
85.1386123411
 20
142.5117732245
 30
0.0
  0
SPLINE
  5
309
100
AcDbEntity
  8
0
100
AcDbSpline
 62
7
  6
BYLAYER
 70
0
 71
3
 72
10
 73
6
 74
0
 42
0.0000001
 43
0.0000001
 44
0.0000000001
 40
0.0
 40
0.0
 40
0.0
 40
0.0
 40
0.3522616757
 40
0.6559976921
 40
1.0
 40
1.0
 40
1.0
 40
1.0
 10
95.2824619172
 20
148.6002807763
 30
0.0
 10
95.2821676682
 20
148.531125445
 30
0.0
 10
95.2832709324
 20
148.4023384833
 30
0.0
 10
95.281457818
 20
148.206022634
 30
0.0
 10
95.2819947747
 20
148.0788567117
 30
0.0
 10
95.2824623955
 20
148.0113238512
 30
0.0
  0
LINE
  5
30A
100
AcDbEntity
  8
0
100
AcDbLine
 62
7
  6
BYLAYER
 10
84.1355779647
 20
145.3060577039
 11
84.1926609964
 21
145.8140570739
  0
SPLINE
  5
30B
100
AcDbEntity
  8
0
100
AcDbSpline
 62
7
  6
BYLAYER
 70
0
 71
3
 72
29
 73
25
 74
0
 42
0.0000001
 43
0.0000001
 44
0.0000000001
 40
0.0
 40
0.0
 40
0.0
 40
0.0
 40
0.0040767726
 40
0.007466792
 40
0.0119035252
 40
0.024013468
 40
0.040458033
 40
0.0860804965
 40
0.147824738
 40
0.2231304637
 40
0.3088046939
 40
0.4016395195
 40
0.4983371264
 40
0.5952321346
 40
0.6885603429
 40
0.7745601463
 40
0.8498200258
 40
0.9119334949
 40
0.9587020239
 40
0.9756740129
 40
0.9880660053
 40
0.9925445817
 40
0.9959383278
 40
1.0
 40
1.0
 40
1.0
 40
1.0
 10
72.7885734296
 20
148.6102510365
 30
0.0
 10
72.7969425139
 20
148.6102100751
 30
0.0
 10
72.8094567244
 20
148.5966033506
 30
0.0
 10
72.8202017034
 20
148.5756713632
 30
0.0
 10
72.8352931615
 20
148.5370945662
 30
0.0
 10
72.8523529276
 20
148.471708934
 30
0.0
 10
72.8820573324
 20
148.3221630717
 30
0.0
 10
72.9160787372
 20
148.0702128122
 30
0.0
 10
72.9549920716
 20
147.6971991585
 30
0.0
 10
72.9942243121
 20
147.2416427107
 30
0.0
 10
73.0339289658
 20
146.722098852
 30
0.0
 10
73.0737711459
 20
146.1585334656
 30
0.0
 10
73.1136217974
 20
145.5718800196
 30
0.0
 10
73.1534641111
 20
144.9842109041
 30
0.0
 10
73.1932086532
 20
144.4185471651
 30
0.0
 10
73.2328292277
 20
143.8974047986
 30
0.0
 10
73.2722612424
 20
143.4405268978
 30
0.0
 10
73.3114819663
 20
143.0645158712
 30
0.0
 10
73.3452530609
 20
142.8083144652
 30
0.0
 10
73.3747535179
 20
142.6546473691
 30
0.0
 10
73.3917383554
 20
142.5874270904
 30
0.0
 10
73.4069252654
 20
142.5481653215
 30
0.0
 10
73.4176561999
 20
142.527129612
 30
0.0
 10
73.430251184
 20
142.5136722394
 30
0.0
 10
73.4385893184
 20
142.5136431913
 30
0.0
  0
SPLINE
  5
30C
100
AcDbEntity
  8
0
100
AcDbSpline
 62
7
  6
BYLAYER
 70
0
 71
3
 72
29
 73
25
 74
0
 42
0.0000001
 43
0.0000001
 44
0.0000000001
 40
0.0
 40
0.0
 40
0.0
 40
0.0
 40
0.0040665952
 40
0.0074684966
 40
0.0119597696
 40
0.0243861995
 40
0.0413781007
 40
0.0881485094
 40
0.1502456302
 40
0.2255106418
 40
0.311530638
 40
0.4048536248
 40
0.5017279156
 40
0.5983996182
 40
0.6912256957
 40
0.7769035174
 40
0.8522002112
 40
0.9139007185
 40
0.9595108222
 40
0.9759650002
 40
0.988087195
 40
0.9925291548
 40
0.9959228019
 40
1.0
 40
1.0
 40
1.0
 40
1.0
 10
83.1900274165
 20
148.6091347386
 30
0.0
 10
83.1983759046
 20
148.6090958668
 30
0.0
 10
83.2109648178
 20
148.5955817722
 30
0.0
 10
83.2216906693
 20
148.5744898451
 30
0.0
 10
83.2368734304
 20
148.5350998834
 30
0.0
 10
83.2538389106
 20
148.4677338579
 30
0.0
 10
83.2833419764
 20
148.313943791
 30
0.0
 10
83.3171201233
 20
148.0577241141
 30
0.0
 10
83.356349268
 20
147.6817196465
 30
0.0
 10
83.3957730833
 20
147.2248067612
 30
0.0
 10
83.4353799431
 20
146.7036039142
 30
0.0
 10
83.4751256674
 20
146.1379325569
 30
0.0
 10
83.514965525
 20
145.5503496286
 30
0.0
 10
83.5548184098
 20
144.9637899889
 30
0.0
 10
83.5946558442
 20
144.4002687279
 30
0.0
 10
83.6343530252
 20
143.8807354966
 30
0.0
 10
83.6735685405
 20
143.425263293
 30
0.0
 10
83.7124991823
 20
143.0523719018
 30
0.0
 10
83.7465272745
 20
142.8005119631
 30
0.0
 10
83.7762183989
 20
142.6509370676
 30
0.0
 10
83.7932727578
 20
142.5854930094
 30
0.0
 10
83.8083628286
 20
142.546864067
 30
0.0
 10
83.8190984498
 20
142.5259131869
 30
0.0
 10
83.8316173858
 20
142.5122751587
 30
0.0
 10
83.8399876844
 20
142.5122469395
 30
0.0
  0
SPLINE
  5
30D
100
AcDbEntity
  8
0
100
AcDbSpline
 62
7
  6
BYLAYER
 70
0
 71
3
 72
29
 73
25
 74
0
 42
0.0000001
 43
0.0000001
 44
0.0000000001
 40
0.0
 40
0.0
 40
0.0
 40
0.0
 40
0.0040625102
 40
0.0074527991
 40
0.0119239673
 40
0.0242904209
 40
0.0412486977
 40
0.0880274168
 40
0.1501696601
 40
0.225438238
 40
0.3114257686
 40
0.4047626569
 40
0.5016787762
 40
0.5984004447
 40
0.6912409615
 40
0.7769037689
 40
0.8522059229
 40
0.9139780797
 40
0.9596014482
 40
0.9760295655
 40
0.9881196592
 40
0.9925471538
 40
0.9959295385
 40
1.0
 40
1.0
 40
1.0
 40
1.0
 10
76.6899495278
 20
148.6088838106
 30
0.0
 10
76.6982890478
 20
148.6088409799
 30
0.0
 10
76.7108736652
 20
148.5954018066
 30
0.0
 10
76.721614713
 20
148.5743892615
 30
0.0
 10
76.7367996936
 20
148.5352116699
 30
0.0
 10
76.7538077
 20
148.4680959247
 30
0.0
 10
76.7833053549
 20
148.3144941666
 30
0.0
 10
76.8170707423
 20
148.0582478769
 30
0.0
 10
76.8562834795
 20
147.6821504444
 30
0.0
 10
76.8957217411
 20
147.2252364029
 30
0.0
 10
76.9353571774
 20
146.7041019521
 30
0.0
 10
76.9751007901
 20
146.1384208377
 30
0.0
 10
77.014945686
 20
145.5506605879
 30
0.0
 10
77.054794454
 20
144.963921819
 30
0.0
 10
77.0946401399
 20
144.4003376164
 30
0.0
 10
77.1343524027
 20
143.8808308097
 30
0.0
 10
77.1735998046
 20
143.4252639248
 30
0.0
 10
77.2125001816
 20
143.052210446
 30
0.0
 10
77.2465095895
 20
142.8002391157
 30
0.0
 10
77.276229842
 20
142.650776819
 30
0.0
 10
77.2932921944
 20
142.5854876555
 30
0.0
 10
77.3083890968
 20
142.546998347
 30
0.0
 10
77.3191365107
 20
142.5261147169
 30
0.0
 10
77.3316645812
 20
142.5125731476
 30
0.0
 10
77.340020491
 20
142.512546403
 30
0.0
  0
SPLINE
  5
30E
100
AcDbEntity
  8
0
100
AcDbSpline
 62
7
  6
BYLAYER
 70
0
 71
3
 72
29
 73
25
 74
0
 42
0.0000001
 43
0.0000001
 44
0.0000000001
 40
0.0
 40
0.0
 40
0.0
 40
0.0
 40
0.0040500446
 40
0.0073993013
 40
0.0117908686
 40
0.0238402963
 40
0.040333729
 40
0.0865552006
 40
0.1487085426
 40
0.2240307132
 40
0.3097141537
 40
0.4028366375
 40
0.4998185716
 40
0.5968226736
 40
0.6900110535
 40
0.7757232526
 40
0.8510338303
 40
0.9132193191
 40
0.9595903123
 40
0.9761414215
 40
0.9882119999
 40
0.9926053788
 40
0.9959533136
 40
1.0
 40
1.0
 40
1.0
 40
1.0
 10
81.8889727529
 20
148.608501501
 30
0.0
 10
81.8972844727
 20
148.6084618279
 30
0.0
 10
81.9098443426
 20
148.595243092
 30
0.0
 10
81.920634793
 20
148.5745387788
 30
0.0
 10
81.935772347
 20
148.5363409239
 30
0.0
 10
81.9528724042
 20
148.4710820589
 30
0.0
 10
81.9827048121
 20
148.3203872101
 30
0.0
 10
82.0163456909
 20
148.0662608854
 30
0.0
 10
82.0554083099
 20
147.6912759745
 30
0.0
 10
82.0947648699
 20
147.2349683243
 30
0.0
 10
82.1345689729
 20
146.7149454917
 30
0.0
 10
82.1743560743
 20
146.1503501823
 30
0.0
 10
82.2142078929
 20
145.5624732351
 30
0.0
 10
82.2540639405
 20
144.9744610582
 30
0.0
 10
82.2938302303
 20
144.4096239249
 30
0.0
 10
82.3336330629
 20
143.8894300206
 30
0.0
 10
82.3730043448
 20
143.4330218201
 30
0.0
 10
82.4121230746
 20
143.0576921521
 30
0.0
 10
82.4457146797
 20
142.8030660474
 30
0.0
 10
82.4755192594
 20
142.6518882255
 30
0.0
 10
82.4926225881
 20
142.5864576534
 30
0.0
 10
82.5077700627
 20
142.548215997
 30
0.0
 10
82.5185576468
 20
142.5275143024
 30
0.0
 10
82.5311303501
 20
142.5143223163
 30
0.0
 10
82.5394352184
 20
142.514292275
 30
0.0
  0
SPLINE
  5
30F
100
AcDbEntity
  8
0
100
AcDbSpline
 62
7
  6
BYLAYER
 70
0
 71
3
 72
9
 73
5
 74
0
 42
0.0000001
 43
0.0000001
 44
0.0000000001
 40
0.0
 40
0.0
 40
0.0
 40
0.0
 40
0.229438422
 40
1.0
 40
1.0
 40
1.0
 40
1.0
 10
92.0914859322
 20
144.4992543662
 30
0.0
 10
92.10785973
 20
144.5801448794
 30
0.0
 10
92.1756470646
 20
144.9334272174
 30
0.0
 10
92.2354452705
 20
145.2881580247
 30
0.0
 10
92.2824571771
 20
145.5613200355
 30
0.0
  0
LINE
  5
310
100
AcDbEntity
  8
0
100
AcDbLine
 62
7
  6
BYLAYER
 10
81.5350351666
 20
145.3004318413
 11
81.5391556207
 21
145.3369319539
  0
LINE
  5
311
100
AcDbEntity
  8
0
100
AcDbLine
 62
7
  6
BYLAYER
 10
77.6353247282
 20
145.3038224307
 11
77.692696953
 21
145.8144802837
  0
SPLINE
  5
312
100
AcDbEntity
  8
0
100
AcDbSpline
 62
7
  6
BYLAYER
 70
0
 71
3
 72
17
 73
13
 74
0
 42
0.0000001
 43
0.0000001
 44
0.0000000001
 40
0.0
 40
0.0
 40
0.0
 40
0.0
 40
0.0099616145
 40
0.025424716
 40
0.0481548463
 40
0.078668633
 40
0.1636941326
 40
0.280231449
 40
0.4254324159
 40
0.596018893
 40
0.7886596797
 40
1.0
 40
1.0
 40
1.0
 40
1.0
 10
90.9989231419
 20
148.6086196495
 30
0.0
 10
91.0047925155
 20
148.6086017232
 30
0.0
 10
91.0189347301
 20
148.6000017476
 30
0.0
 10
91.0336588746
 20
148.575675925
 30
0.0
 10
91.0495144109
 20
148.5382797338
 30
0.0
 10
91.0731020729
 20
148.4602287201
 30
0.0
 10
91.1010238924
 20
148.3261871951
 30
0.0
 10
91.1328957084
 20
148.1243742088
 30
0.0
 10
91.1655930783
 20
147.8717204068
 30
0.0
 10
91.1989575255
 20
147.574013619
 30
0.0
 10
91.2328555328
 20
147.2371723389
 30
0.0
 10
91.2548767232
 20
147.0001654734
 30
0.0
 10
91.2660868468
 20
146.876149004
 30
0.0
  0
SPLINE
  5
313
100
AcDbEntity
  8
0
100
AcDbSpline
 62
7
  6
BYLAYER
 70
0
 71
3
 72
18
 73
14
 74
0
 42
0.0000001
 43
0.0000001
 44
0.0000000001
 40
0.0
 40
0.0
 40
0.0
 40
0.0
 40
0.1655002343
 40
0.3394958651
 40
0.5107226482
 40
0.6684275051
 40
0.803393983
 40
0.9067842276
 40
0.9443339762
 40
0.9720705229
 40
0.9822902621
 40
0.9901677493
 40
1.0
 40
1.0
 40
1.0
 40
1.0
 10
91.2660868468
 20
146.876149004
 30
0.0
 10
91.2880449513
 20
146.6332287046
 30
0.0
 10
91.3307390014
 20
146.1347084512
 30
0.0
 10
91.3932400269
 20
145.3846156765
 30
0.0
 10
91.4569268101
 20
144.6461554653
 30
0.0
 10
91.5214468386
 20
143.9654909173
 30
0.0
 10
91.5866886919
 20
143.3854392116
 30
0.0
 10
91.6436220289
 20
142.9826316801
 30
0.0
 10
91.6948599724
 20
142.7391160925
 30
0.0
 10
91.7247341294
 20
142.6320435029
 30
0.0
 10
91.7512357322
 20
142.5691484331
 30
0.0
 10
91.7705842715
 20
142.5342290557
 30
0.0
 10
91.7928855933
 20
142.5127256758
 30
0.0
 10
91.8073760511
 20
142.5126711108
 30
0.0
  0
SPLINE
  5
314
100
AcDbEntity
  8
0
100
AcDbSpline
 62
7
  6
BYLAYER
 70
0
 71
3
 72
9
 73
5
 74
0
 42
0.0000001
 43
0.0000001
 44
0.0000000001
 40
0.0
 40
0.0
 40
0.0
 40
0.0
 40
0.2433814519
 40
1.0
 40
1.0
 40
1.0
 40
1.0
 10
90.5016126337
 20
146.5995237813
 30
0.0
 10
90.5143278785
 20
146.595901897
 30
0.0
 10
90.5669017549
 20
146.5821932748
 30
0.0
 10
90.6206193713
 20
146.5729587747
 30
0.0
 10
90.661456734
 20
146.5683091074
 30
0.0
  0
SPLINE
  5
315
100
AcDbEntity
  8
0
100
AcDbSpline
 62
7
  6
BYLAYER
 70
0
 71
3
 72
28
 73
24
 74
0
 42
0.0000001
 43
0.0000001
 44
0.0000000001
 40
0.0
 40
0.0
 40
0.0
 40
0.0
 40
0.0041262443
 40
0.0076203144
 40
0.0122026693
 40
0.0246823483
 40
0.0415264208
 40
0.062588662
 40
0.0876954842
 40
0.149298683
 40
0.2664065949
 40
0.403393874
 40
0.5483579575
 40
0.6893609754
 40
0.7546373198
 40
0.8144375437
 40
0.867293329
 40
0.9121558483
 40
0.948352121
 40
0.9752502371
 40
0.9923193538
 40
0.9971632883
 40
1.0
 40
1.0
 40
1.0
 40
1.0
 10
77.9897387471
 20
148.6111712212
 30
0.0
 10
77.998212425
 20
148.6111327477
 30
0.0
 10
78.0107034613
 20
148.5967762788
 30
0.0
 10
78.0213143286
 20
148.5752028183
 30
0.0
 10
78.0363720127
 20
148.5351806035
 30
0.0
 10
78.053342279
 20
148.4678574368
 30
0.0
 10
78.0731069069
 20
148.3661340998
 30
0.0
 10
78.0928754057
 20
148.2382712399
 30
0.0
 10
78.121517843
 20
148.0187756333
 30
0.0
 10
78.1647217794
 20
147.6024047739
 30
0.0
 10
78.2172762422
 20
146.9561746602
 30
0.0
 10
78.2753331649
 20
146.1387158467
 30
0.0
 10
78.3337258603
 20
145.2720894992
 30
0.0
 10
78.383412975
 20
144.5524782313
 30
0.0
 10
78.4244803573
 20
144.0075896754
 30
0.0
 10
78.4543635658
 20
143.6434115399
 30
0.0
 10
78.4841989886
 20
143.3212705629
 30
0.0
 10
78.5138741407
 20
143.047927671
 30
0.0
 10
78.5432790125
 20
142.8279348891
 30
0.0
 10
78.5715446436
 20
142.6661975289
 30
0.0
 10
78.5973255897
 20
142.568132352
 30
0.0
 10
78.6188470632
 20
142.5226366283
 30
0.0
 10
78.632918314
 20
142.5115861307
 30
0.0
 10
78.6387438092
 20
142.511561658
 30
0.0
  0
SPLINE
  5
316
100
AcDbEntity
  8
0
100
AcDbSpline
 62
7
  6
BYLAYER
 70
0
 71
3
 72
14
 73
10
 74
0
 42
0.0000001
 43
0.0000001
 44
0.0000000001
 40
0.0
 40
0.0
 40
0.0
 40
0.0
 40
0.0249843472
 40
0.0832615167
 40
0.1750674571
 40
0.2979791989
 40
0.4485654181
 40
0.6205072357
 40
1.0
 40
1.0
 40
1.0
 40
1.0
 10
81.532454477
 20
145.3468244842
 30
0.0
 10
81.5328815085
 20
145.3417871439
 30
0.0
 10
81.5127770832
 20
145.3320523967
 30
0.0
 10
81.4822833538
 20
145.3251667134
 30
0.0
 10
81.4255994817
 20
145.3157815582
 30
0.0
 10
81.3529155416
 20
145.3085177577
 30
0.0
 10
81.2626778866
 20
145.3021449504
 30
0.0
 10
81.1208999354
 20
145.2957256787
 30
0.0
 10
81.0092496547
 20
145.2938326462
 30
0.0
 10
80.9324619415
 20
145.2938327441
 30
0.0
  0
SPLINE
  5
317
100
AcDbEntity
  8
0
100
AcDbSpline
 62
7
  6
BYLAYER
 70
0
 71
3
 72
10
 73
6
 74
0
 42
0.0000001
 43
0.0000001
 44
0.0000000001
 40
0.0
 40
0.0
 40
0.0
 40
0.0
 40
0.2879375135
 40
0.5517271101
 40
1.0
 40
1.0
 40
1.0
 40
1.0
 10
95.2824619172
 20
148.6002807702
 30
0.0
 10
95.1117707767
 20
148.6002384394
 30
0.0
 10
94.7844656666
 20
148.594541163
 30
0.0
 10
94.193718766
 20
148.5484862429
 30
0.0
 10
93.775559183
 20
148.4613591521
 30
0.0
 10
93.5267824979
 20
148.3679388557
 30
0.0
  0
LINE
  5
318
100
AcDbEntity
  8
0
100
AcDbLine
 62
7
  6
BYLAYER
 10
78.9351128657
 20
145.3014903144
 11
78.9933514731
 21
145.8198632312
  0
SPLINE
  5
319
100
AcDbEntity
  8
0
100
AcDbSpline
 62
7
  6
BYLAYER
 70
0
 71
3
 72
24
 73
20
 74
0
 42
0.0000001
 43
0.0000001
 44
0.0000000001
 40
0.0
 40
0.0
 40
0.0
 40
0.0
 40
0.0369268926
 40
0.0871408398
 40
0.1494226772
 40
0.2222617725
 40
0.3896122452
 40
0.4788001665
 40
0.5681152229
 40
0.6549459974
 40
0.7367095309
 40
0.8108260567
 40
0.8747381696
 40
0.926521724
 40
0.9650891208
 40
0.9791219971
 40
0.9895319592
 40
0.9963266565
 40
1.0
 40
1.0
 40
1.0
 40
1.0
 10
85.857452802
 20
148.4452675028
 30
0.0
 10
85.8724132712
 20
148.3732327221
 30
0.0
 10
85.8989491227
 20
148.2015012131
 30
0.0
 10
85.9339669018
 20
147.905878367
 30
0.0
 10
85.9692857139
 20
147.5382794061
 30
0.0
 10
86.0188747334
 20
146.9376876926
 30
0.0
 10
86.0651494346
 20
146.283062743
 30
0.0
 10
86.1119514577
 20
145.5955901406
 30
0.0
 10
86.1477644808
 20
145.0681615024
 30
0.0
 10
86.1835500387
 20
144.5555600784
 30
0.0
 10
86.2192352361
 20
144.0733022181
 30
0.0
 10
86.2547072072
 20
143.6368448564
 30
0.0
 10
86.2899844556
 20
143.2602545861
 30
0.0
 10
86.3249527307
 20
142.9549997917
 30
0.0
 10
86.3559429481
 20
142.748989686
 30
0.0
 10
86.3816857066
 20
142.6264092214
 30
0.0
 10
86.3998559678
 20
142.566110971
 30
0.0
 10
86.4145787531
 20
142.5286041566
 30
0.0
 10
86.4317704599
 20
142.5113662526
 30
0.0
 10
86.4390890627
 20
142.5113408994
 30
0.0
  0
SPLINE
  5
31A
100
AcDbEntity
  8
0
100
AcDbSpline
 62
7
  6
BYLAYER
 70
0
 71
3
 72
29
 73
25
 74
0
 42
0.0000001
 43
0.0000001
 44
0.0000000001
 40
0.0
 40
0.0
 40
0.0
 40
0.0
 40
0.0040727159
 40
0.0074887158
 40
0.0120033968
 40
0.0244844554
 40
0.041498599
 40
0.0882447472
 40
0.1502912864
 40
0.2255590771
 40
0.3116011053
 40
0.4049001825
 40
0.501726933
 40
0.5983505237
 40
0.6911704706
 40
0.7768652203
 40
0.8521540791
 40
0.9137862852
 40
0.9594058853
 40
0.9758933185
 40
0.9880522618
 40
0.9925101097
 40
0.9959158721
 40
1.0
 40
1.0
 40
1.0
 40
1.0
 10
89.690093021
 20
148.6094131294
 30
0.0
 10
89.6984546107
 20
148.6093728138
 30
0.0
 10
89.711043309
 20
148.5957644667
 30
0.0
 10
89.7217538327
 20
148.5745771584
 30
0.0
 10
89.7369208213
 20
148.5349685321
 30
0.0
 10
89.7538584406
 20
148.4673864742
 30
0.0
 10
89.7833675839
 20
148.3134752036
 30
0.0
 10
89.8171585912
 20
148.0573516754
 30
0.0
 10
89.8564021306
 20
147.6814714757
 30
0.0
 10
89.8958009228
 20
147.2245798578
 30
0.0
 10
89.9353851227
 20
146.7033393851
 30
0.0
 10
89.9751313159
 20
146.1377329298
 30
0.0
 10
90.0149659615
 20
145.5503573569
 30
0.0
 10
90.0548220813
 20
144.9639691451
 30
0.0
 10
90.0946466325
 20
144.4004870668
 30
0.0
 10
90.1343288165
 20
143.8809126034
 30
0.0
 10
90.1735114491
 20
143.4255301114
 30
0.0
 10
90.2124835036
 20
143.0527541242
 30
0.0
 10
90.246516175
 20
142.8009356452
 30
0.0
 10
90.2761785507
 20
142.6511758907
 30
0.0
 10
90.2932241274
 20
142.5855492548
 30
0.0
 10
90.3083075295
 20
142.5467649764
 30
0.0
 10
90.319029799
 20
142.5257418893
 30
0.0
 10
90.3315400851
 20
142.5120015176
 30
0.0
 10
90.3399251547
 20
142.5119733706
 30
0.0
  0
SPLINE
  5
31B
100
AcDbEntity
  8
0
100
AcDbSpline
 62
7
  6
BYLAYER
 70
0
 71
3
 72
29
 73
25
 74
0
 42
0.0000001
 43
0.0000001
 44
0.0000000001
 40
0.0
 40
0.0
 40
0.0
 40
0.0
 40
0.0040701759
 40
0.0074494983
 40
0.0118726958
 40
0.0239535056
 40
0.0403764825
 40
0.0860258114
 40
0.1478430269
 40
0.2231543431
 40
0.30881598
 40
0.4016709248
 40
0.4984194719
 40
0.5953536674
 40
0.6886907851
 40
0.774653674
 40
0.8499188345
 40
0.9120726451
 40
0.9588389625
 40
0.9757701931
 40
0.9881002274
 40
0.992559646
 40
0.9959423403
 40
1.0
 40
1.0
 40
1.0
 40
1.0
 10
79.2885554522
 20
148.609946676
 30
0.0
 10
79.2969104572
 20
148.6099083086
 30
0.0
 10
79.3094344365
 20
148.5963940948
 30
0.0
 10
79.320190268
 20
148.5755260094
 30
0.0
 10
79.3352888742
 20
148.5370786204
 30
0.0
 10
79.3523563328
 20
148.4718302438
 30
0.0
 10
79.3820903607
 20
148.3223525749
 30
0.0
 10
79.4160851106
 20
148.0702494553
 30
0.0
 10
79.4549764497
 20
147.6970429514
 30
0.0
 10
79.494239399
 20
147.241382888
 30
0.0
 10
79.5339599474
 20
146.7218476908
 30
0.0
 10
79.5738079871
 20
146.1581995383
 30
0.0
 10
79.6136550812
 20
145.5713577459
 30
0.0
 10
79.6535025467
 20
144.9835240125
 30
0.0
 10
79.6932450201
 20
144.4178743926
 30
0.0
 10
79.7328967184
 20
143.896815635
 30
0.0
 10
79.7723382986
 20
143.4399508379
 30
0.0
 10
79.8115433102
 20
143.0638742752
 30
0.0
 10
79.8452988791
 20
142.8076919137
 30
0.0
 10
79.8747998172
 20
142.6542544833
 30
0.0
 10
79.8918295638
 20
142.5873030805
 30
0.0
 10
79.9070146076
 20
142.5482528169
 30
0.0
 10
79.9177596963
 20
142.5272933369
 30
0.0
 10
79.9303512792
 20
142.5139070673
 30
0.0
 10
79.9386806207
 20
142.5138757079
 30
0.0
  0
SPLINE
  5
31C
100
AcDbEntity
  8
0
100
AcDbSpline
 62
7
  6
BYLAYER
 70
0
 71
3
 72
27
 73
23
 74
0
 42
0.0000001
 43
0.0000001
 44
0.0000000001
 40
0.0
 40
0.0
 40
0.0
 40
0.0
 40
0.0040497958
 40
0.0073996335
 40
0.01179419
 40
0.023862943
 40
0.0404036472
 40
0.0867492136
 40
0.1489332132
 40
0.2659738106
 40
0.4031261654
 40
0.5488562029
 40
0.6902364743
 40
0.755360003
 40
0.8150441105
 40
0.8681094109
 40
0.9133822905
 40
0.949702279
 40
0.9761276678
 40
0.9925472766
 40
0.9971944602
 40
1.0
 40
1.0
 40
1.0
 40
1.0
 10
88.3891104311
 20
148.6083801364
 30
0.0
 10
88.3974219347
 20
148.6083363493
 30
0.0
 10
88.4099839004
 20
148.5951234936
 30
0.0
 10
88.4207749719
 20
148.5744085226
 30
0.0
 10
88.4359185102
 20
148.536161089
 30
0.0
 10
88.4530223596
 20
148.4707519317
 30
0.0
 10
88.4828333613
 20
148.3196481322
 30
0.0
 10
88.516442885
 20
148.065091218
 30
0.0
 10
88.564355531
 20
147.604606301
 30
0.0
 10
88.6172205825
 20
146.9573945415
 30
0.0
 10
88.6754879731
 20
146.1386859784
 30
0.0
 10
88.7337888382
 20
145.26990014
 30
0.0
 10
88.7835342673
 20
144.548702686
 30
0.0
 10
88.8248276112
 20
144.0039472485
 30
0.0
 10
88.8548722893
 20
143.6401318024
 30
0.0
 10
88.8847645334
 20
143.3171604249
 30
0.0
 10
88.9143848029
 20
143.0424475257
 30
0.0
 10
88.9435498025
 20
142.8224398258
 30
0.0
 10
88.9720038504
 20
142.6628680277
 30
0.0
 10
88.9977912914
 20
142.5677509229
 30
0.0
 10
89.019891595
 20
142.5243182545
 30
0.0
 10
89.0338147521
 20
142.5142040612
 30
0.0
 10
89.039572684
 20
142.5141848914
 30
0.0
  0
SPLINE
  5
31D
100
AcDbEntity
  8
0
100
AcDbSpline
 62
7
  6
BYLAYER
 70
0
 71
3
 72
29
 73
25
 74
0
 42
0.0000001
 43
0.0000001
 44
0.0000000001
 40
0.0
 40
0.0
 40
0.0
 40
0.0
 40
0.0040833138
 40
0.0074833003
 40
0.0119327176
 40
0.0240710406
 40
0.0405399096
 40
0.0861617203
 40
0.1478520731
 40
0.2231534826
 40
0.3088398936
 40
0.4016650809
 40
0.4983223601
 40
0.5951809646
 40
0.6884933227
 40
0.7745139392
 40
0.8497711864
 40
0.9118462282
 40
0.9586025901
 40
0.9755973502
 40
0.9880353634
 40
0.9925307398
 40
0.9959344016
 40
1.0
 40
1.0
 40
1.0
 40
1.0
 10
87.088618242
 20
148.6104814219
 30
0.0
 10
87.0970011508
 20
148.6104343071
 30
0.0
 10
87.1095042661
 20
148.5967426985
 30
0.0
 10
87.120240666
 20
148.5757501124
 30
0.0
 10
87.1353257026
 20
148.5370508569
 30
0.0
 10
87.1523791836
 20
148.471526266
 30
0.0
 10
87.1820597288
 20
148.3218568449
 30
0.0
 10
87.2160909998
 20
148.0699609756
 30
0.0
 10
87.2550312696
 20
147.6970506568
 30
0.0
 10
87.2942373921
 20
147.2415636551
 30
0.0
 10
87.333929652
 20
146.7219957233
 30
0.0
 10
87.3737631342
 20
146.1584785899
 30
0.0
 10
87.4136162072
 20
145.5719729126
 30
0.0
 10
87.4534537429
 20
144.9844637973
 30
0.0
 10
87.493198863
 20
144.418835798
 30
0.0
 10
87.532797856
 20
143.8976602027
 30
0.0
 10
87.572214683
 20
143.4407992315
 30
0.0
 10
87.6114473181
 20
143.0648791745
 30
0.0
 10
87.6452271546
 20
142.808724581
 30
0.0
 10
87.6747327473
 20
142.6549312704
 30
0.0
 10
87.6916870663
 20
142.5875237066
 30
0.0
 10
87.7068682821
 20
142.5480920448
 30
0.0
 10
87.7175872467
 20
142.5269887446
 30
0.0
 10
87.7301834523
 20
142.5134659807
 30
0.0
 10
87.7385300754
 20
142.5134375332
 30
0.0
  0
LINE
  5
31E
100
AcDbEntity
  8
0
100
AcDbLine
 62
7
  6
BYLAYER
 10
80.2465511233
 20
145.4027437361
 11
80.2930258513
 21
145.8175464521
  0
SPLINE
  5
31F
100
AcDbEntity
  8
0
100
AcDbSpline
 62
7
  6
BYLAYER
 70
0
 71
3
 72
19
 73
15
 74
0
 42
0.0000001
 43
0.0000001
 44
0.0000000001
 40
0.0
 40
0.0
 40
0.0
 40
0.0
 40
0.008008096
 40
0.014792091
 40
0.0237502102
 40
0.0484839369
 40
0.0825220772
 40
0.1256943308
 40
0.1773668792
 40
0.3034316722
 40
0.4550805484
 40
0.6265574466
 40
0.8109024423
 40
1.0
 40
1.0
 40
1.0
 40
1.0
 10
80.5893565685
 20
148.6083432757
 30
0.0
 10
80.5982889069
 20
148.6082999128
 30
0.0
 10
80.6115343299
 20
148.5932805532
 30
0.0
 10
80.6227803951
 20
148.5704598933
 30
0.0
 10
80.6387984766
 20
148.5276317163
 30
0.0
 10
80.6568015088
 20
148.4544674628
 30
0.0
 10
80.677652323
 20
148.3425174529
 30
0.0
 10
80.6984395072
 20
148.2002943253
 30
0.0
 10
80.7285761334
 20
147.9557021448
 30
0.0
 10
80.7646751321
 20
147.5900461247
 30
0.0
 10
80.8063887181
 20
147.0907375444
 30
0.0
 10
80.8482075325
 20
146.5262327315
 30
0.0
 10
80.8901141848
 20
145.9198609183
 30
0.0
 10
80.918148451
 20
145.5042575572
 30
0.0
 10
80.9324710677
 20
145.2938199455
 30
0.0
  0
SPLINE
  5
320
100
AcDbEntity
  8
0
100
AcDbSpline
 62
7
  6
BYLAYER
 70
0
 71
3
 72
27
 73
23
 74
0
 42
0.0000001
 43
0.0000001
 44
0.0000000001
 40
0.0
 40
0.0
 40
0.0
 40
0.0
 40
0.0040501687
 40
0.0074016068
 40
0.0118002345
 40
0.0238893163
 40
0.0404745329
 40
0.0869119424
 40
0.1491138128
 40
0.2661539649
 40
0.4033628665
 40
0.5490940583
 40
0.6904159278
 40
0.7555234709
 40
0.815209249
 40
0.8682726522
 40
0.9135189147
 40
0.9497671579
 40
0.9761354448
 40
0.9925444904
 40
0.9971935302
 40
1.0
 40
1.0
 40
1.0
 40
1.0
 10
74.0892230893
 20
148.6083210518
 30
0.0
 10
74.0975353948
 20
148.6082741979
 30
0.0
 10
74.1100986827
 20
148.5950579766
 30
0.0
 10
74.1208887305
 20
148.5743278631
 30
0.0
 10
74.1360367462
 20
148.5360241092
 30
0.0
 10
74.1531428798
 20
148.4704686163
 30
0.0
 10
74.1829241928
 20
148.3190301742
 30
0.0
 10
74.2165182516
 20
148.0641526168
 30
0.0
 10
74.2644624247
 20
147.6034420485
 30
0.0
 10
74.3173413921
 20
146.9560749988
 30
0.0
 10
74.3755764913
 20
146.1372409697
 30
0.0
 10
74.4338769146
 20
145.268451018
 30
0.0
 10
74.4836383996
 20
144.5474006692
 30
0.0
 10
74.5249316135
 20
144.0027914111
 30
0.0
 10
74.5549693195
 20
143.6390064717
 30
0.0
 10
74.5848558398
 20
143.3160877067
 30
0.0
 10
74.6144584136
 20
143.0415782244
 30
0.0
 10
74.6436380631
 20
142.8218916548
 30
0.0
 10
74.6721187666
 20
142.6626151911
 30
0.0
 10
74.6979010405
 20
142.5676345518
 30
0.0
 10
74.7199854348
 20
142.5242192785
 30
0.0
 10
74.7339052653
 20
142.5140866641
 30
0.0
 10
74.7396651364
 20
142.5140656702
 30
0.0
  0
SPLINE
  5
321
100
AcDbEntity
  8
0
100
AcDbSpline
 62
7
  6
BYLAYER
 70
0
 71
3
 72
13
 73
9
 74
0
 42
0.0000001
 43
0.0000001
 44
0.0000000001
 40
0.0
 40
0.0
 40
0.0
 40
0.0
 40
0.2478343395
 40
0.3727334742
 40
0.4980168594
 40
0.6233534641
 40
0.7491428921
 40
1.0
 40
1.0
 40
1.0
 40
1.0
 10
76.5542579773
 20
143.3841744522
 30
0.0
 10
76.5939357682
 20
143.2966492418
 30
0.0
 10
76.6221955216
 20
143.1467845937
 30
0.0
 10
76.5826545627
 20
142.956193524
 30
0.0
 10
76.5199263851
 20
142.8232228117
 30
0.0
 10
76.4263720062
 20
142.7090139234
 30
0.0
 10
76.2678001105
 20
142.5937253267
 30
0.0
 10
76.1201214727
 20
142.5521525177
 30
0.0
 10
76.0228851937
 20
142.5495558435
 30
0.0
  0
SPLINE
  5
322
100
AcDbEntity
  8
0
100
AcDbSpline
 62
7
  6
BYLAYER
 70
0
 71
3
 72
13
 73
9
 74
0
 42
0.0000001
 43
0.0000001
 44
0.0000000001
 40
0.0
 40
0.0
 40
0.0
 40
0.0
 40
0.2564514568
 40
0.5078296396
 40
0.6321409527
 40
0.7553263301
 40
0.8775823427
 40
1.0
 40
1.0
 40
1.0
 40
1.0
 10
85.8574619414
 20
148.4452619135
 30
0.0
 10
85.7672293829
 20
148.4452604689
 30
0.0
 10
85.5865947743
 20
148.4052757861
 30
0.0
 10
85.4028001836
 20
148.2661893318
 30
0.0
 10
85.3083276676
 20
148.1164893038
 30
0.0
 10
85.2649438216
 20
147.9926027327
 30
0.0
 10
85.2521808907
 20
147.8624953384
 30
0.0
 10
85.2657757752
 20
147.7764430459
 30
0.0
 10
85.2773813997
 20
147.7349633213
 30
0.0
  0
SPLINE
  5
323
100
AcDbEntity
  8
0
100
AcDbSpline
 62
7
  6
BYLAYER
 70
0
 71
3
 72
28
 73
24
 74
0
 42
0.0000001
 43
0.0000001
 44
0.0000000001
 40
0.0
 40
0.0
 40
0.0
 40
0.0
 40
0.0041182383
 40
0.0076130031
 40
0.0122037156
 40
0.0247191637
 40
0.0416159438
 40
0.0627371691
 40
0.0878985191
 40
0.1495545112
 40
0.2666739199
 40
0.4037376681
 40
0.5487280966
 40
0.6896708901
 40
0.7549165756
 40
0.8147056155
 40
0.8675701132
 40
0.9123855562
 40
0.9484955616
 40
0.9753048895
 40
0.9923193654
 40
0.9971592903
 40
1.0
 40
1.0
 40
1.0
 40
1.0
 10
71.4898813138
 20
148.6109953319
 30
0.0
 10
71.4983385525
 20
148.6109582838
 30
0.0
 10
71.5108713453
 20
148.5966880366
 30
0.0
 10
71.5214620803
 20
148.57508625
 30
0.0
 10
71.5365280555
 20
148.5349749428
 30
0.0
 10
71.5534866174
 20
148.467438803
 30
0.0
 10
71.5732504688
 20
148.3654096142
 30
0.0
 10
71.5930159653
 20
148.2372001181
 30
0.0
 10
71.6216429188
 20
148.0173588768
 30
0.0
 10
71.6648580111
 20
147.6007444663
 30
0.0
 10
71.7174492359
 20
146.9542274675
 30
0.0
 10
71.7754736506
 20
146.1365313298
 30
0.0
 10
71.8338641977
 20
145.2698176068
 30
0.0
 10
71.8835723771
 20
144.5503410719
 30
0.0
 10
71.9246456801
 20
144.0056632094
 30
0.0
 10
71.9545360791
 20
143.6415547043
 30
0.0
 10
71.9843440577
 20
143.319511957
 30
0.0
 10
72.0140206841
 20
143.0464308271
 30
0.0
 10
72.0434305735
 20
142.8268873053
 30
0.0
 10
72.0717140732
 20
142.6656575595
 30
0.0
 10
72.0975044054
 20
142.5678597883
 30
0.0
 10
72.119047527
 20
142.5225502075
 30
0.0
 10
72.1330818166
 20
142.5114337217
 30
0.0
 10
72.1389155202
 20
142.5114093886
 30
0.0
  0
SPLINE
  5
324
100
AcDbEntity
  8
0
100
AcDbSpline
 62
7
  6
BYLAYER
 70
0
 71
3
 72
9
 73
5
 74
0
 42
0.0000001
 43
0.0000001
 44
0.0000000001
 40
0.0
 40
0.0
 40
0.0
 40
0.0
 40
0.5184989633
 40
1.0
 40
1.0
 40
1.0
 40
1.0
 10
92.2824614967
 20
145.5613192921
 30
0.0
 10
92.2290845807
 20
145.5514280522
 30
0.0
 10
92.1231890546
 20
145.5540443885
 30
0.0
 10
92.0190064644
 20
145.5594326306
 30
0.0
 10
91.9686177334
 20
145.5609658565
 30
0.0
  0
SPLINE
  5
325
100
AcDbEntity
  8
0
100
AcDbSpline
 62
7
  6
BYLAYER
 70
0
 71
3
 72
15
 73
11
 74
0
 42
0.0000001
 43
0.0000001
 44
0.0000000001
 40
0.0
 40
0.0
 40
0.0
 40
0.0
 40
0.3763307127
 40
0.547161216
 40
0.6971996168
 40
0.8202197915
 40
0.9128018391
 40
0.9725517981
 40
0.989864529
 40
1.0
 40
1.0
 40
1.0
 40
1.0
 10
80.9324619414
 20
145.2938127449
 30
0.0
 10
80.8563293842
 20
145.2938128579
 30
0.0
 10
80.7456259948
 20
145.2956531347
 30
0.0
 10
80.6047043379
 20
145.3020249615
 30
0.0
 10
80.5151348633
 20
145.3081602766
 30
0.0
 10
80.4414412064
 20
145.3157062946
 30
0.0
 10
80.3865546986
 20
145.3240584288
 30
0.0
 10
80.352728996
 20
145.3322509541
 30
0.0
 10
80.3369017493
 20
145.3394219612
 30
0.0
 10
80.3326607132
 20
145.3440237522
 30
0.0
 10
80.3324873038
 20
145.346066835
 30
0.0
  0
SPLINE
  5
326
100
AcDbEntity
  8
0
100
AcDbSpline
 62
7
  6
BYLAYER
 70
0
 71
3
 72
14
 73
10
 74
0
 42
0.0000001
 43
0.0000001
 44
0.0000000001
 40
0.0
 40
0.0
 40
0.0
 40
0.0
 40
0.2090960025
 40
0.3172372403
 40
0.4340559775
 40
0.5634133535
 40
0.7032280672
 40
0.8500194693
 40
1.0
 40
1.0
 40
1.0
 40
1.0
 10
93.9489706722
 20
147.2444582374
 30
0.0
 10
93.8092887727
 20
147.1918443438
 30
0.0
 10
93.6049947003
 20
147.0866968009
 30
0.0
 10
93.3651355595
 20
146.889079711
 30
0.0
 10
93.1959435902
 20
146.6996958872
 30
0.0
 10
93.0441047997
 20
146.4687146304
 30
0.0
 10
92.9153229833
 20
146.2000914237
 30
0.0
 10
92.8220983092
 20
145.9015907254
 30
0.0
 10
92.7938600359
 20
145.6898790368
 30
0.0
 10
92.7921733532
 20
145.5828293045
 30
0.0
  0
SPLINE
  5
327
100
AcDbEntity
  8
0
100
AcDbSpline
 62
7
  6
BYLAYER
 70
0
 71
3
 72
18
 73
14
 74
0
 42
0.0000001
 43
0.0000001
 44
0.0000000001
 40
0.0
 40
0.0
 40
0.0
 40
0.0
 40
0.1975927433
 40
0.3852940187
 40
0.556394503
 40
0.704969891
 40
0.8269249714
 40
0.91848618
 40
0.9517520039
 40
0.9761608025
 40
0.9850181731
 40
0.9917602359
 40
1.0
 40
1.0
 40
1.0
 40
1.0
 10
80.932452802
 20
145.2938300177
 30
0.0
 10
80.945031732
 20
145.109112783
 30
0.0
 10
80.969746256
 20
144.7489379016
 30
0.0
 10
81.0072246485
 20
144.2289406611
 30
0.0
 10
81.0445911514
 20
143.7549937728
 30
0.0
 10
81.0817638748
 20
143.3428369209
 30
0.0
 10
81.1187340671
 20
143.0055598426
 30
0.0
 10
81.1506054968
 20
142.7764503786
 30
0.0
 10
81.1784135314
 20
142.6392639547
 30
0.0
 10
81.1944099775
 20
142.579099486
 30
0.0
 10
81.208674998
 20
142.5439908432
 30
0.0
 10
81.2188952651
 20
142.5249332156
 30
0.0
 10
81.2307617832
 20
142.5131281226
 30
0.0
 10
81.2384824254
 20
142.5131021991
 30
0.0
  0
SPLINE
  5
328
100
AcDbEntity
  8
0
100
AcDbSpline
 62
7
  6
BYLAYER
 70
0
 71
3
 72
27
 73
23
 74
0
 42
0.0000001
 43
0.0000001
 44
0.0000000001
 40
0.0
 40
0.0
 40
0.0
 40
0.0
 40
0.0038404147
 40
0.0069983906
 40
0.0111527985
 40
0.0225949078
 40
0.0381634545
 40
0.0809685888
 40
0.1379606267
 40
0.2074041474
 40
0.2873433896
 40
0.3748673087
 40
0.4667676613
 40
0.5598334644
 40
0.6508890189
 40
0.7369784254
 40
0.8152311281
 40
0.8827834014
 40
0.9369458401
 40
0.9762647566
 40
0.9901109489
 40
1.0
 40
1.0
 40
1.0
 40
1.0
 10
75.3901230611
 20
148.6096450367
 30
0.0
 10
75.3979430924
 20
148.6096078638
 30
0.0
 10
75.4099083433
 20
148.5974977883
 30
0.0
 10
75.4201919633
 20
148.5780872328
 30
0.0
 10
75.4345704064
 20
148.542251166
 30
0.0
 10
75.4506946652
 20
148.480975825
 30
0.0
 10
75.4787459533
 20
148.3414550111
 30
0.0
 10
75.5109009688
 20
148.1086753027
 30
0.0
 10
75.5482002736
 20
147.7660611428
 30
0.0
 10
75.5856823856
 20
147.3474819483
 30
0.0
 10
75.6233391737
 20
146.8665443237
 30
0.0
 10
75.6611330348
 20
146.3397618881
 30
0.0
 10
75.6990366841
 20
145.7861947721
 30
0.0
 10
75.7369630686
 20
145.225420907
 30
0.0
 10
75.7749068554
 20
144.67650946
 30
0.0
 10
75.8127423275
 20
144.1578229566
 30
0.0
 10
75.8504204717
 20
143.6871353095
 30
0.0
 10
75.8875534332
 20
143.2815940583
 30
0.0
 10
75.9246658306
 20
142.955840702
 30
0.0
 10
75.9569793537
 20
142.7394385968
 30
0.0
 10
75.985153583
 20
142.6141914477
 30
0.0
 10
75.999453413
 20
142.567819508
 30
0.0
 10
76.0074710677
 20
142.5493477217
 30
0.0
  0
SPLINE
  5
329
100
AcDbEntity
  8
0
100
AcDbSpline
 62
7
  6
BYLAYER
 70
0
 71
3
 72
11
 73
7
 74
0
 42
0.0000001
 43
0.0000001
 44
0.0000000001
 40
0.0
 40
0.0
 40
0.0
 40
0.0
 40
0.2442310402
 40
0.4919837767
 40
0.7447645229
 40
1.0
 40
1.0
 40
1.0
 40
1.0
 10
86.4413541757
 20
148.006605894
 30
0.0
 10
86.4258363385
 20
148.0684209462
 30
0.0
 10
86.3726428819
 20
148.1885094846
 30
0.0
 10
86.2359851889
 20
148.3319562688
 30
0.0
 10
86.057363394
 20
148.4230403802
 30
0.0
 10
85.9240666613
 20
148.445269265
 30
0.0
 10
85.8574619415
 20
148.4452683498
 30
0.0
  0
LINE
  5
32A
100
AcDbEntity
  8
0
100
AcDbLine
 62
7
  6
BYLAYER
 10
72.4349734286
 20
145.3003645612
 11
72.4935323696
 21
145.8214600475
  0
SPLINE
  5
32B
100
AcDbEntity
  8
0
100
AcDbSpline
 62
7
  6
BYLAYER
 70
0
 71
3
 72
9
 73
5
 74
0
 42
0.0000001
 43
0.0000001
 44
0.0000000001
 40
0.0
 40
0.0
 40
0.0
 40
0.0
 40
0.2142574511
 40
1.0
 40
1.0
 40
1.0
 40
1.0
 10
92.7920957951
 20
145.5650566919
 30
0.0
 10
92.7820009755
 20
145.5631693235
 30
0.0
 10
92.7346076848
 20
145.5558925251
 30
0.0
 10
92.6863383061
 20
145.5545915225
 30
0.0
 10
92.6487283276
 20
145.5565709574
 30
0.0
  0
SPLINE
  5
32C
100
AcDbEntity
  8
0
100
AcDbSpline
 62
7
  6
BYLAYER
 70
0
 71
3
 72
9
 73
5
 74
0
 42
0.0000001
 43
0.0000001
 44
0.0000000001
 40
0.0
 40
0.0
 40
0.0
 40
0.0
 40
0.4718254943
 40
1.0
 40
1.0
 40
1.0
 40
1.0
 10
92.6487283276
 20
145.5565709574
 30
0.0
 10
92.5910718379
 20
145.5596054518
 30
0.0
 10
92.469617107
 20
145.5781011059
 30
0.0
 10
92.3466177894
 20
145.5691432752
 30
0.0
 10
92.282461497
 20
145.5613193677
 30
0.0
  0
SPLINE
  5
32D
100
AcDbEntity
  8
0
100
AcDbSpline
 62
7
  6
BYLAYER
 70
0
 71
3
 72
10
 73
6
 74
0
 42
0.0000001
 43
0.0000001
 44
0.0000000001
 40
0.0
 40
0.0
 40
0.0
 40
0.0
 40
0.4993737806
 40
0.7500062199
 40
1.0
 40
1.0
 40
1.0
 40
1.0
 10
76.0074619414
 20
142.5493465927
 30
0.0
 10
75.898547449
 20
142.5493484137
 30
0.0
 10
75.7311467151
 20
142.5972182647
 30
0.0
 10
75.5599905254
 20
142.7354864972
 30
0.0
 10
75.4969263792
 20
142.8268596387
 30
0.0
 10
75.4722473539
 20
142.8754788928
 30
0.0
  0
ENDSEC
  0
SECTION
  2
OBJECTS
  0
DICTIONARY
  5
C
100
AcDbDictionary
280
0
281
1
  3
ACAD_GROUP
350
D
  3
ACAD_MLINESTYLE
350
17
  3
ACAD_LAYOUT
350
1A
  3
ACAD_PLOTSETTINGS
350
19
  3
ACAD_PLOTSTYLENAME
350
E
  0
DICTIONARY
  5
D
102
{ACAD_REACTORS
330
C
102
}
100
AcDbDictionary
280
0
281
1
  0
ACDBDICTIONARYWDFLT
  5
E
102
{ACAD_REACTORS
330
C
102
}
100
AcDbDictionary
281
1
  3
Normal
350
F
100
AcDbDictionaryWithDefault
340
F
  0
DICTIONARY
  5
17
102
{ACAD_REACTORS
330
C
102
}
100
AcDbDictionary
280
0
281
1
  3
Standard
350
18
  0
DICTIONARY
  5
19
102
{ACAD_REACTORS
330
C
102
}
100
AcDbDictionary
281
1
  0
DICTIONARY
  5
1A
102
{ACAD_REACTORS
330
C
102
}
100
AcDbDictionary
281
1
  3
Model
350
32E
  3
Layout1
350
32F
  0
ACDBPLACEHOLDER
  5
F
102
{ACAD_REACTORS
330
E
102
}
  0
MLINESTYLE
  5
18
102
{ACAD_REACTORS
330
17
102
}
100
AcDbMlineStyle
  2
STANDARD
 70
0
  3

 62
256
 51
90.0
 52
90.0
 71
2
 49
0.5
 62
256
  6
BYLAYER
 49
-0.5
 62
256
  6
BYLAYER
  0
LAYOUT
  5
32E
102
{ACAD_REACTORS
330
1A
102
}
100
AcDbPlotSettings
  1

  2
none_device
  4

  6

 40
0.0
 41
0.0
 42
0.0
 43
0.0
 44
210.0
 45
297.0
 46
0.0
 47
0.0
 48
0.0
 49
0.0
140
0.0
141
0.0
142
1.0
143
1.0
 70
1024
 72
1
 73
0
 74
0
  7

 75
0
147
1.0
148
0.0
149
0.0
100
AcDbLayout
  1
Model
 70
0
 71
0
 10
0.0
 20
0.0
 11
210.0
 21
297.0
 12
0.0
 22
0.0
 32
0.0
 14
0.0
 24
0.0
 34
0.0
 15
0.0
 25
0.0
 35
0.0
146
0.0
 13
0.0
 23
0.0
 33
0.0
 16
1.0
 26
0.0
 36
0.0
 17
0.0
 27
1.0
 37
0.0
 76
0
330
210
345
0
346
0
  0
LAYOUT
  5
32F
102
{ACAD_REACTORS
330
1A
102
}
100
AcDbPlotSettings
  1

  2
none_device
  4

  6

 40
0.0
 41
0.0
 42
0.0
 43
0.0
 44
210.0
 45
297.0
 46
0.0
 47
0.0
 48
0.0
 49
0.0
140
0.0
141
0.0
142
1.0
143
1.0
 70
0
 72
1
 73
0
 74
0
  7

 75
0
147
1.0
148
0.0
149
0.0
100
AcDbLayout
  1
Layout1
 70
0
 71
1
 10
0.0
 20
0.0
 11
210.0
 21
297.0
 12
0.0
 22
0.0
 32
0.0
 14
0.0
 24
0.0
 34
0.0
 15
0.0
 25
0.0
 35
0.0
146
0.0
 13
0.0
 23
0.0
 33
0.0
 16
1.0
 26
0.0
 36
0.0
 17
0.0
 27
1.0
 37
0.0
 76
0
330
211
345
0
346
0
  0
ENDSEC
  0
EOF
