999
DXF file: C:\Users\sesa63760\Dev\_Creo\CAD\MCADID0004809_3D-CAD\drw0001_1.dxf
999
Pro/ENGINEER 2019471 by Parametric Technology Corporation
  0
SECTION
  2
HEADER
  9
$ACADVER
  1
AC1024
  9
$DWGCODEPAGE
  3
ANSI_1252
  9
$EXTMAX
 10
62.5424791745
 20
88.4529348325
 30
0.0
  9
$EXTMIN
 10
0.0
 20
0.0
 30
0.0
  9
$LIMMIN
 10
0.0
 20
0.0
  9
$LIMMAX
 10
62.5424791745
 20
88.4529348325
  9
$VIEWCTR
 10
31.2712395872
 20
44.2264674162
  9
$VIEWSIZE
 40
88.4529348325
  9
$CLAYER
  8
0
  9
$LTSCALE
 40
5.7658209372
  9
$CELTYPE
  6
BYLAYER
  9
$DIMSCALE
 40
1.0
  9
$DIMASZ
 40
0.7445533235
  9
$DIMEXO
 40
1.0
  9
$DIMDLI
 40
3.9836581021
  9
$DIMEXE
 40
1.0
  9
$DIMCEN
 40
0.9434979715
  9
$DIMLFAC
 40
1.0
  9
$DIMBLK
  1
_FILLED
  9
$DIMALT
 70
0
  9
$DIMALTF
 40
0.0393700787
  9
$DIMTXT
 40
1.0423746529
  9
$DIMTOL
 70
1
  9
$DIMLIM
 70
0
  9
$DIMTFAC
 40
1.0
  9
$DIMTP
 40
0.01
  9
$DIMTM
 40
0.01
  9
$DIMGAP
 40
0.625
  9
$DIMDSEP
 70
46
  9
$AUNITS
 70
0
  9
$PDMODE
 70
3
  9
$PDSIZE
 40
0.3125
  9
$HANDSEED
  5
29D
  9
$TILEMODE
 70
1
  9
$MEASUREMENT
 70
1
  9
$INSUNITS
 70
4
  0
ENDSEC
  0
SECTION
  2
CLASSES
  0
CLASS
  1
ACDBDICTIONARYWDFLT
  2
AcDbDictionaryWithDefault
  3
AutoCAD 2000
 90
0
 91
1
280
0
281
0
  0
CLASS
  1
ACDBPLACEHOLDER
  2
AcDbPlaceHolder
  3
AutoCAD 2000
 90
0
 91
1
280
0
281
0
  0
CLASS
  1
LAYOUT
  2
AcDbLayout
  3
AutoCAD 2000
 90
0
 91
0
280
0
281
0
  0
ENDSEC
  0
SECTION
  2
TABLES
  0
TABLE
  2
VPORT
  5
8
100
AcDbSymbolTable
 70
2
  0
VPORT
  5
1F4
100
AcDbSymbolTableRecord
100
AcDbViewportTableRecord
  2
*ACTIVE
 70
0
 10
0.0
 20
0.0
 11
1.0
 21
1.0
 12
31.2712395872
 22
44.2264674162
 13
0.0
 23
0.0
 14
1.0
 24
1.0
 15
0.0
 25
0.0
 16
0.0
 26
0.0
 36
1.0
 17
0.0
 27
0.0
 37
0.0
 40
88.4529348325
 41
0.7070707071
 42
50.0
 43
0.0
 44
0.0
 50
0.0
 51
0.0
 71
0
 72
100
 73
1
 74
1
 75
0
 76
0
 77
0
 78
0
  0
ENDTAB
  0
TABLE
  2
LTYPE
  5
5
100
AcDbSymbolTable
 70
6
  0
LTYPE
  5
14
100
AcDbSymbolTableRecord
100
AcDbLinetypeTableRecord
  2
BYBLOCK
 70
0
  3

 72
65
 73
0
 40
0.0
  0
LTYPE
  5
15
100
AcDbSymbolTableRecord
100
AcDbLinetypeTableRecord
  2
BYLAYER
 70
0
  3

 72
65
 73
0
 40
0.0
  0
LTYPE
  5
16
100
AcDbSymbolTableRecord
100
AcDbLinetypeTableRecord
  2
CONTINUOUS
 70
64
  3
Solid line
 72
65
 73
0
 40
0.0
  0
LTYPE
  5
1F5
100
AcDbSymbolTableRecord
100
AcDbLinetypeTableRecord
  2
CENTER
 70
64
  3
____ _ ____ _ ____ _ ____ _ ____ _ ____ _ ____
 72
65
 73
4
 40
0.6
 49
0.375
 74
0
 49
-0.075
 74
0
 49
0.075
 74
0
 49
-0.075
 74
0
  0
LTYPE
  5
1F6
100
AcDbSymbolTableRecord
100
AcDbLinetypeTableRecord
  2
HIDDEN
 70
64
  3
- - - - - - - - - - - - - - - - - - - -
 72
65
 73
2
 40
0.2
 49
0.1
 74
0
 49
-0.1
 74
0
  0
LTYPE
  5
1F7
100
AcDbSymbolTableRecord
100
AcDbLinetypeTableRecord
  2
PHANTOM
 70
64
  3
_____ _ _ _____ _ _ _____ _ _ _____
 72
65
 73
6
 40
0.8
 49
0.45
 74
0
 49
-0.05
 74
0
 49
0.1
 74
0
 49
-0.05
 74
0
 49
0.1
 74
0
 49
-0.05
 74
0
  0
LTYPE
  5
1F8
100
AcDbSymbolTableRecord
100
AcDbLinetypeTableRecord
  2
DOT
 70
64
  3
. . . . . . . . . . . . . . . . . . . .
 72
65
 73
2
 40
0.2
 49
0.1
 74
0
 49
-0.1
 74
0
  0
LTYPE
  5
1F9
100
AcDbSymbolTableRecord
100
AcDbLinetypeTableRecord
  2
DASHED
 70
64
  3
- - - - - - - - - - - - - - - - - - - -
 72
65
 73
2
 40
0.2
 49
0.1
 74
0
 49
-0.1
 74
0
  0
ENDTAB
  0
TABLE
  2
LAYER
  5
2
100
AcDbSymbolTable
 70
36
  0
LAYER
  5
10
100
AcDbSymbolTableRecord
100
AcDbLayerTableRecord
  2
0
 70
0
 62
7
  6
CONTINUOUS
370
-3
390
F
  0
LAYER
  5
1FA
100
AcDbSymbolTableRecord
100
AcDbLayerTableRecord
  2
DEFAULT_1
 70
0
 62
7
  6
CENTER
370
-3
390
F
  0
LAYER
  5
1FB
100
AcDbSymbolTableRecord
100
AcDbLayerTableRecord
  2
DEFAULT_2
 70
0
 62
7
  6
HIDDEN
370
-3
390
F
  0
LAYER
  5
1FC
100
AcDbSymbolTableRecord
100
AcDbLayerTableRecord
  2
DEFAULT_3
 70
0
 62
7
  6
PHANTOM
370
-3
390
F
  0
LAYER
  5
1FD
100
AcDbSymbolTableRecord
100
AcDbLayerTableRecord
  2
00_COMPONENTS
 70
0
 62
7
  6
CONTINUOUS
370
-3
390
F
  0
LAYER
  5
1FE
100
AcDbSymbolTableRecord
100
AcDbLayerTableRecord
  2
01_1_DEFAULT_DATUMS
 70
0
 62
7
  6
CONTINUOUS
370
-3
390
F
  0
LAYER
  5
1FF
100
AcDbSymbolTableRecord
100
AcDbLayerTableRecord
  2
01_PLANES
 70
0
 62
7
  6
CONTINUOUS
370
-3
390
F
  0
LAYER
  5
200
100
AcDbSymbolTableRecord
100
AcDbLayerTableRecord
  2
02_COORD_SYS
 70
0
 62
7
  6
CONTINUOUS
370
-3
390
F
  0
LAYER
  5
201
100
AcDbSymbolTableRecord
100
AcDbLayerTableRecord
  2
03_AXES
 70
0
 62
7
  6
CONTINUOUS
370
-3
390
F
  0
LAYER
  5
202
100
AcDbSymbolTableRecord
100
AcDbLayerTableRecord
  2
04_POINTS
 70
0
 62
7
  6
CONTINUOUS
370
-3
390
F
  0
LAYER
  5
203
100
AcDbSymbolTableRecord
100
AcDbLayerTableRecord
  2
05_CURVES
 70
0
 62
7
  6
CONTINUOUS
370
-3
390
F
  0
LAYER
  5
204
100
AcDbSymbolTableRecord
100
AcDbLayerTableRecord
  2
06_SURFS
 70
0
 62
7
  6
CONTINUOUS
370
-3
390
F
  0
LAYER
  5
205
100
AcDbSymbolTableRecord
100
AcDbLayerTableRecord
  2
07_COSMETICS
 70
0
 62
7
  6
CONTINUOUS
370
-3
390
F
  0
LAYER
  5
206
100
AcDbSymbolTableRecord
100
AcDbLayerTableRecord
  2
10_NOTES
 70
0
 62
7
  6
CONTINUOUS
370
-3
390
F
  0
LAYER
  5
207
100
AcDbSymbolTableRecord
100
AcDbLayerTableRecord
  2
11_NOTES_PUB
 70
0
 62
7
  6
CONTINUOUS
370
-3
390
F
  0
LAYER
  5
208
100
AcDbSymbolTableRecord
100
AcDbLayerTableRecord
  2
13_REF_GTOL
 70
0
 62
7
  6
CONTINUOUS
370
-3
390
F
  0
LAYER
  5
209
100
AcDbSymbolTableRecord
100
AcDbLayerTableRecord
  2
16_MISC
 70
0
 62
7
  6
CONTINUOUS
370
-3
390
F
  0
LAYER
  5
20A
100
AcDbSymbolTableRecord
100
AcDbLayerTableRecord
  2
17_NO_PRINT
 70
0
 62
7
  6
CONTINUOUS
370
-3
390
F
  0
LAYER
  5
20B
100
AcDbSymbolTableRecord
100
AcDbLayerTableRecord
  2
18_DATUM_CAMS_JOINTS
 70
0
 62
7
  6
CONTINUOUS
370
-3
390
F
  0
LAYER
  5
20C
100
AcDbSymbolTableRecord
100
AcDbLayerTableRecord
  2
19_DATUM_FUNCTIONAL
 70
0
 62
7
  6
CONTINUOUS
370
-3
390
F
  0
LAYER
  5
20D
100
AcDbSymbolTableRecord
100
AcDbLayerTableRecord
  2
20_DATUM_KINEMATIC_SCHEME
 70
0
 62
7
  6
CONTINUOUS
370
-3
390
F
  0
ENDTAB
  0
TABLE
  2
STYLE
  5
3
100
AcDbSymbolTable
 70
1
  0
STYLE
  5
11
100
AcDbSymbolTableRecord
100
AcDbTextStyleTableRecord
  2
STANDARD
 70
0
 40
0.0
 41
1.0
 50
0.0
 71
0
 42
0.2
  3
ARIAL.TTF
  4

  0
STYLE
  5
20E
100
AcDbSymbolTableRecord
100
AcDbTextStyleTableRecord
  2
TEXTSTYLE_1
 70
0
 40
0.0
 41
0.8
 50
0.0
 71
0
 42
0.2
  3
gdt
  4

  0
ENDTAB
  0
TABLE
  2
VIEW
  5
6
100
AcDbSymbolTable
 70
0
  0
ENDTAB
  0
TABLE
  2
UCS
  5
7
100
AcDbSymbolTable
 70
0
  0
ENDTAB
  0
TABLE
  2
APPID
  5
9
100
AcDbSymbolTable
 70
1
  0
APPID
  5
20F
100
AcDbSymbolTableRecord
100
AcDbRegAppTableRecord
  2
ACAD
 70
0
  0
ENDTAB
  0
TABLE
  2
BLOCK_RECORD
  5
1
100
AcDbSymbolTable
 70
0
  0
BLOCK_RECORD
  5
210
100
AcDbSymbolTableRecord
100
AcDbBlockTableRecord
  2
*Model_Space
  0
BLOCK_RECORD
  5
211
100
AcDbSymbolTableRecord
100
AcDbBlockTableRecord
  2
*Paper_Space
  0
BLOCK_RECORD
  5
212
100
AcDbSymbolTableRecord
100
AcDbBlockTableRecord
  2
_FILLED
  0
ENDTAB
  0
TABLE
  2
DIMSTYLE
  5
A
100
AcDbSymbolTable
 70
1
100
AcDbDimStyleTable
 71
0
  0
DIMSTYLE
105
213
100
AcDbSymbolTableRecord
100
AcDbDimStyleTableRecord
  2
STANDARD
 70
0
  3

  4

 40
1.0
 41
0.7445533235
 42
1.0
 43
0.38
 44
1.0
 45
0.0
 46
0.0
 47
0.01
 48
0.01
140
1.0423746529
141
0.09
142
0.0
143
25.4
144
1.0
145
0.0
146
1.0
147
0.625
 71
1
 72
0
 73
0
 74
0
 75
0
 76
0
 77
1
 78
8
 79
2
170
0
171
1
172
0
173
0
174
0
175
0
176
0
177
0
178
0
270
2
179
2
271
2
272
2
273
2
274
2
275
0
280
0
281
0
282
0
283
1
284
8
285
0
286
0
287
3
288
0
340
11
278
46
341
212
342
212
343
212
344
212
  0
ENDTAB
  0
ENDSEC
  0
SECTION
  2
BLOCKS
  0
BLOCK
  5
20
100
AcDbEntity
  8
0
100
AcDbBlockBegin
  2
*Model_Space
 70
0
 10
0.0
 20
0.0
 30
0.0
  3
*Model_Space
  1

  0
ENDBLK
  5
21
100
AcDbEntity
  8
0
100
AcDbBlockEnd
  0
BLOCK
  5
1C
100
AcDbEntity
  8
0
100
AcDbBlockBegin
  2
*Paper_Space
 70
0
 10
0.0
 20
0.0
 30
0.0
  3
*Paper_Space
  1

  0
ENDBLK
  5
1D
100
AcDbEntity
  8
0
100
AcDbBlockEnd
  0
BLOCK
  5
214
100
AcDbEntity
  8
0
100
AcDbBlockBegin
  2
_FILLED
 70
64
 10
0.0
 20
0.0
  3
_FILLED
  1

  0
SOLID
  5
215
100
AcDbEntity
  8
0
  6
BYBLOCK
 62
0
100
AcDbTrace
 10
0.0
 20
0.0
 11
-1.0
 21
0.25
 12
-1.0
 22
-0.25
 13
-1.0
 23
-0.25
  0
ENDBLK
  5
216
100
AcDbEntity
  8
0
  6
BYBLOCK
 62
0
100
AcDbBlockEnd
  0
ENDSEC
  0
SECTION
  2
ENTITIES
  0
LINE
  5
217
100
AcDbEntity
  8
0
100
AcDbLine
 62
7
  6
BYLAYER
 10
42.9800668902
 20
68.5536753118
 11
39.4445477041
 21
66.5124545424
  0
LINE
  5
218
100
AcDbEntity
  8
0
100
AcDbLine
 62
7
  6
BYLAYER
 10
13.0693979381
 20
51.2844223409
 11
9.533878752
 21
49.2432015715
  0
LINE
  5
219
100
AcDbEntity
  8
0
100
AcDbLine
 62
7
  6
BYLAYER
 10
16.9610323483
 20
42.7276228366
 11
19.2064072942
 21
36.94052104
  0
LINE
  5
21A
100
AcDbEntity
  8
0
100
AcDbLine
 62
7
  6
BYLAYER
 10
25.1883785469
 20
33.3797550642
 11
31.9030036751
 21
28.3935623254
  0
LINE
  5
21B
100
AcDbEntity
  8
0
100
AcDbLine
 62
7
  6
BYLAYER
 10
12.4702824565
 20
45.3202998413
 11
11.4643213729
 21
44.7395114056
  0
LINE
  5
21C
100
AcDbEntity
  8
0
100
AcDbLine
 62
7
  6
BYLAYER
 10
37.563005259
 20
59.0753085058
 11
41.6642075148
 21
61.4431245982
  0
LINE
  5
21D
100
AcDbEntity
  8
0
100
AcDbLine
 62
7
  6
BYLAYER
 10
31.2584337939
 20
30.9342645303
 11
25.9364079797
 21
34.886331245
  0
LINE
  5
21E
100
AcDbEntity
  8
0
100
AcDbLine
 62
7
  6
BYLAYER
 10
26.208701761
 20
35.8507922078
 11
31.1399732436
 21
32.1888945455
  0
LINE
  5
21F
100
AcDbEntity
  8
0
100
AcDbLine
 62
7
  6
BYLAYER
 10
21.3874237633
 20
48.4667729635
 11
22.3671055866
 21
49.0323891516
  0
LINE
  5
220
100
AcDbEntity
  8
0
100
AcDbLine
 62
7
  6
BYLAYER
 10
37.6487908692
 20
55.6607401096
 11
39.5498528348
 21
56.7583121955
  0
LINE
  5
221
100
AcDbEntity
  8
0
100
AcDbLine
 62
7
  6
BYLAYER
 10
16.9610323483
 20
42.7276228366
 11
12.4702824565
 21
45.3202998413
  0
LINE
  5
222
100
AcDbEntity
  8
0
100
AcDbLine
 62
7
  6
BYLAYER
 10
19.2064072942
 20
36.94052104
 11
16.9610323483
 21
33.7460962482
  0
LINE
  5
223
100
AcDbEntity
  8
0
100
AcDbLine
 62
7
  6
BYLAYER
 10
37.5630063879
 20
59.0753065492
 11
36.7231816153
 21
58.1122654603
  0
LINE
  5
224
100
AcDbEntity
  8
0
100
AcDbLine
 62
7
  6
BYLAYER
 10
16.9610323483
 20
42.7276228366
 11
15.9550712646
 21
42.146834401
  0
LINE
  5
225
100
AcDbEntity
  8
0
100
AcDbLine
 62
7
  6
BYLAYER
 10
17.6446631137
 20
34.7186763821
 11
18.500828783
 21
34.9051929435
  0
LINE
  5
226
100
AcDbEntity
  8
0
100
AcDbLine
 62
7
  6
BYLAYER
 10
25.2778075584
 20
42.2727081464
 11
33.7015146623
 21
38.8014037098
  0
LINE
  5
227
100
AcDbEntity
  8
0
100
AcDbLine
 62
7
  6
BYLAYER
 10
41.6249474383
 20
61.4204579178
 11
42.5109709663
 21
62.3945190748
  0
LINE
  5
228
100
AcDbEntity
  8
0
100
AcDbLine
 62
7
  6
BYLAYER
 10
34.5031912669
 20
40.5330958459
 11
24.0647830702
 21
44.8346334276
  0
LINE
  5
229
100
AcDbEntity
  8
0
100
AcDbLine
 62
7
  6
BYLAYER
 10
40.148779677
 20
51.3306066289
 11
42.0931411709
 21
52.4531775599
  0
LINE
  5
22A
100
AcDbEntity
  8
0
100
AcDbLine
 62
7
  6
BYLAYER
 10
44.4457140998
 20
52.8889720555
 11
47.9812332858
 21
54.9301928249
  0
LINE
  5
22B
100
AcDbEntity
  8
0
100
AcDbLine
 62
7
  6
BYLAYER
 10
19.2064072942
 20
36.94052104
 11
18.2004462105
 21
36.3597326044
  0
LINE
  5
22C
100
AcDbEntity
  8
0
100
AcDbLine
 62
7
  6
BYLAYER
 10
44.7879647543
 20
35.5210126046
 11
36.4037042106
 21
40.3615581787
  0
LINE
  5
22D
100
AcDbEntity
  8
0
100
AcDbLine
 62
7
  6
BYLAYER
 10
44.6614748897
 20
36.6146417963
 11
37.2875840071
 21
40.871863371
  0
LINE
  5
22E
100
AcDbEntity
  8
0
100
AcDbLine
 62
7
  6
BYLAYER
 10
33.7015146623
 20
38.8014037098
 11
33.7015146623
 21
37.258286629
  0
LINE
  5
22F
100
AcDbEntity
  8
0
100
AcDbLine
 62
7
  6
BYLAYER
 10
36.7231816153
 20
58.1122654603
 11
36.4238894592
 21
56.5574858268
  0
LINE
  5
230
100
AcDbEntity
  8
0
100
AcDbLine
 62
7
  6
BYLAYER
 10
43.0629806361
 20
49.5490148482
 11
43.345822171
 21
49.7123125097
  0
LINE
  5
231
100
AcDbEntity
  8
0
100
AcDbLine
 62
7
  6
BYLAYER
 10
16.9610323483
 20
33.7460962482
 11
15.9550712646
 21
33.1653078125
  0
LWPOLYLINE
  5
232
100
AcDbEntity
  8
0
100
AcDbPolyline
 62
7
  6
BYLAYER
 90
3
 70
0
 10
21.7137997789
 20
49.440173951
 10
23.2013776574
 20
48.9226087353
 10
23.7947935462
 20
48.4440567836
  0
LINE
  5
233
100
AcDbEntity
  8
0
100
AcDbLine
 62
7
  6
BYLAYER
 10
22.3671055866
 20
49.0323891516
 11
34.9458065811
 21
43.8488636526
  0
LINE
  5
234
100
AcDbEntity
  8
0
100
AcDbLine
 62
7
  6
BYLAYER
 10
36.541834986
 20
55.8052045966
 11
34.5031912669
 21
40.5330958459
  0
LINE
  5
235
100
AcDbEntity
  8
0
100
AcDbLine
 62
7
  6
BYLAYER
 10
48.3027059716
 20
52.1507455181
 11
48.4114977351
 21
52.1744459144
  0
LINE
  5
236
100
AcDbEntity
  8
0
100
AcDbLine
 62
7
  6
BYLAYER
 10
37.1310139042
 20
54.1080328013
 11
37.1310109603
 21
54.5162752555
  0
LINE
  5
237
100
AcDbEntity
  8
0
100
AcDbLine
 62
7
  6
BYLAYER
 10
36.4037042106
 20
40.3615581787
 11
37.8963228342
 21
51.5432245625
  0
LINE
  5
238
100
AcDbEntity
  8
0
100
AcDbLine
 62
7
  6
BYLAYER
 10
38.6537127661
 20
51.1059551738
 11
37.2875840071
 21
40.871863371
  0
LINE
  5
239
100
AcDbEntity
  8
0
100
AcDbLine
 62
7
  6
BYLAYER
 10
37.2875840071
 20
40.871863371
 11
36.4037042106
 21
40.3615581787
  0
LINE
  5
23A
100
AcDbEntity
  8
0
100
AcDbLine
 62
7
  6
BYLAYER
 10
53.9800176445
 20
49.5010879966
 11
50.4444984585
 21
47.4598672273
  0
LINE
  5
23B
100
AcDbEntity
  8
0
100
AcDbLine
 62
7
  6
BYLAYER
 10
24.0693486924
 20
32.2318350257
 11
20.5338295063
 21
30.1906142564
  0
LINE
  5
23C
100
AcDbEntity
  8
0
100
AcDbLine
 62
7
  6
BYLAYER
 10
33.1399273014
 20
36.9340559504
 11
35.7208563072
 21
38.4241471121
  0
LINE
  5
23D
100
AcDbEntity
  8
0
100
AcDbLine
 62
7
  6
BYLAYER
 10
20.5626572992
 20
49.2169358026
 11
21.7137997789
 21
49.440173951
  0
LINE
  5
23E
100
AcDbEntity
  8
0
100
AcDbLine
 62
7
  6
BYLAYER
 10
37.8963228342
 20
51.5432245625
 11
38.8899002481
 21
50.9695953523
  0
LINE
  5
23F
100
AcDbEntity
  8
0
100
AcDbLine
 62
7
  6
BYLAYER
 10
41.7389827183
 20
49.3247140334
 11
43.2953461307
 21
48.4261675262
  0
LINE
  5
240
100
AcDbEntity
  8
0
100
AcDbLine
 62
7
  6
BYLAYER
 10
38.54519714
 20
51.6585673666
 11
38.898740005
 21
51.454443462
  0
LWPOLYLINE
  5
241
100
AcDbEntity
  8
0
100
AcDbPolyline
 62
7
  6
BYLAYER
 90
5
 70
0
 10
50.0334890721
 20
37.1864246296
 10
50.7081665288
 20
36.2879594244
 10
52.0989471556
 20
33.4256473633
 10
52.8399348934
 20
30.5147777206
 10
52.9348538492
 20
29.1435194529
  0
LINE
  5
242
100
AcDbEntity
  8
0
100
AcDbLine
 62
7
  6
BYLAYER
 10
43.2953461307
 20
48.4261675262
 11
44.7879647543
 21
35.5210126046
  0
LINE
  5
243
100
AcDbEntity
  8
0
100
AcDbLine
 62
7
  6
BYLAYER
 10
47.4206210768
 20
27.1679775502
 11
44.4457140998
 21
52.8889720555
  0
LINE
  5
244
100
AcDbEntity
  8
0
100
AcDbLine
 62
7
  6
BYLAYER
 10
47.9812332858
 20
54.9301928249
 11
50.9561402629
 21
29.2091983196
  0
LINE
  5
245
100
AcDbEntity
  8
0
100
AcDbLine
 62
7
  6
BYLAYER
 10
50.9561402629
 20
29.2091983196
 11
47.4206210768
 21
27.1679775502
  0
LINE
  5
246
100
AcDbEntity
  8
0
100
AcDbLine
 62
7
  6
BYLAYER
 10
42.8898836518
 20
20.0465353756
 11
50.9155122042
 21
24.6801065221
  0
ARC
  5
247
100
AcDbEntity
  8
0
100
AcDbCircle
 62
7
  6
BYLAYER
 10
23.6352552322
 20
44.644975404
 40
15.1079998671
100
AcDbArc
 50
215.5519523841
 51
216.1759510301
  0
ARC
  5
248
100
AcDbEntity
  8
0
100
AcDbCircle
 62
7
  6
BYLAYER
 10
18.5309557428
 20
43.8027304399
 40
8.4468792098
100
AcDbArc
 50
180.0231294698
 51
184.1657926836
  0
ARC
  5
249
100
AcDbEntity
  8
0
100
AcDbCircle
 62
7
  6
BYLAYER
 10
48.3825847967
 20
61.0711604231
 40
8.3878390223
100
AcDbArc
 50
180.0176705954
 51
183.6337800586
  0
SPLINE
  5
24A
100
AcDbEntity
  8
0
100
AcDbSpline
 62
7
  6
BYLAYER
 70
0
 71
3
 72
15
 73
11
 74
0
 42
0.0000001
 43
0.0000001
 44
0.0000000001
 40
0.0
 40
0.0
 40
0.0
 40
0.0
 40
0.1614803655
 40
0.3153293344
 40
0.4594798462
 40
0.5920239714
 40
0.7117996785
 40
0.8188353924
 40
0.9142935168
 40
1.0
 40
1.0
 40
1.0
 40
1.0
 10
11.4643213729
 20
44.7395114056
 30
0.0
 10
11.3231516289
 20
44.5823526225
 30
0.0
 10
11.0498542245
 20
44.2733143332
 30
0.0
 10
10.661266008
 20
43.814626111
 30
0.0
 10
10.3094607171
 20
43.3746339262
 30
0.0
 10
10.0007379487
 20
42.9576571917
 30
0.0
 10
9.7389138074
 20
42.566945817
 30
0.0
 10
9.524119012
 20
42.2038637018
 30
0.0
 10
9.3528858961
 20
41.8676726307
 30
0.0
 10
9.2595036542
 20
41.6496178887
 30
0.0
 10
9.218946427
 20
41.5450866138
 30
0.0
  0
SPLINE
  5
24B
100
AcDbEntity
  8
0
100
AcDbSpline
 62
7
  6
BYLAYER
 70
0
 71
3
 72
15
 73
11
 74
0
 42
0.0000001
 43
0.0000001
 44
0.0000000001
 40
0.0
 40
0.0
 40
0.0
 40
0.0
 40
0.1090833975
 40
0.2220146645
 40
0.3395965666
 40
0.4623792217
 40
0.5904258245
 40
0.7232657324
 40
0.8600859496
 40
1.0
 40
1.0
 40
1.0
 40
1.0
 10
11.4643213729
 20
35.7579848172
 30
0.0
 10
11.596117886
 20
35.6201343415
 30
0.0
 10
11.8726604977
 20
35.3473331594
 30
0.0
 10
12.3227903016
 20
34.9594056862
 30
0.0
 10
12.8199227704
 20
34.5917720749
 30
0.0
 10
13.3663116848
 20
34.2494999385
 30
0.0
 10
13.959901711
 20
33.9358988143
 30
0.0
 10
14.5948418242
 20
33.6514485801
 30
0.0
 10
15.2633575855
 20
33.394069873
 30
0.0
 10
15.721999679
 20
33.23958283
 30
0.0
 10
15.9550712646
 20
33.1653078125
 30
0.0
  0
SPLINE
  5
24C
100
AcDbEntity
  8
0
100
AcDbSpline
 62
7
  6
BYLAYER
 70
0
 71
3
 72
15
 73
11
 74
0
 42
0.0000001
 43
0.0000001
 44
0.0000000001
 40
0.0
 40
0.0
 40
0.0
 40
0.0
 40
0.1282720855
 40
0.2561731279
 40
0.3834129206
 40
0.5096371135
 40
0.6345146857
 40
0.7578501535
 40
0.8796328486
 40
1.0
 40
1.0
 40
1.0
 40
1.0
 10
9.218946427
 20
41.5450866138
 30
0.0
 10
9.2574812149
 20
41.279711211
 30
0.0
 10
9.3446124237
 20
40.7511144672
 30
0.0
 10
9.5126941449
 20
39.9670251138
 30
0.0
 10
9.7245760183
 20
39.1978986726
 30
0.0
 10
9.9846640702
 20
38.450280463
 30
0.0
 10
10.2934020142
 20
37.7302532719
 30
0.0
 10
10.6467479915
 20
37.0415413524
 30
0.0
 10
11.0376564849
 20
36.3845579999
 30
0.0
 10
11.3196172378
 20
35.96384853
 30
0.0
 10
11.4643213729
 20
35.7579848172
 30
0.0
  0
SPLINE
  5
24D
100
AcDbEntity
  8
0
100
AcDbSpline
 62
7
  6
BYLAYER
 70
0
 71
3
 72
15
 73
11
 74
0
 42
0.0000001
 43
0.0000001
 44
0.0000000001
 40
0.0
 40
0.0
 40
0.0
 40
0.0
 40
0.1399150356
 40
0.2767361133
 40
0.4095765503
 40
0.537623436
 40
0.6604055436
 40
0.7779868712
 40
0.8909171589
 40
1.0
 40
1.0
 40
1.0
 40
1.0
 10
15.9550712646
 20
42.146834401
 30
0.0
 10
15.7219980406
 20
42.2211099406
 30
0.0
 10
15.2633522211
 20
42.3755960923
 30
0.0
 10
14.5948335654
 20
42.6329788859
 30
0.0
 10
13.959890692
 20
42.917430012
 30
0.0
 10
13.3663008933
 20
43.2310326782
 30
0.0
 10
12.8199142112
 20
43.5733054606
 30
0.0
 10
12.3227843539
 20
43.940936526
 30
0.0
 10
11.8726596737
 20
44.3288641879
 30
0.0
 10
11.5961172124
 20
44.6016616345
 30
0.0
 10
11.4643213729
 20
44.7395114056
 30
0.0
  0
SPLINE
  5
24E
100
AcDbEntity
  8
0
100
AcDbSpline
 62
7
  6
BYLAYER
 70
0
 71
3
 72
15
 73
11
 74
0
 42
0.0000001
 43
0.0000001
 44
0.0000000001
 40
0.0
 40
0.0
 40
0.0
 40
0.0
 40
0.1203678598
 40
0.2421514948
 40
0.3654875216
 40
0.4903655441
 40
0.6165893545
 40
0.7438285999
 40
0.8717287331
 40
1.0
 40
1.0
 40
1.0
 40
1.0
 10
18.2004462105
 20
36.3597326044
 30
0.0
 10
18.0557412234
 20
36.5655975293
 30
0.0
 10
17.7737763164
 20
36.9863084095
 30
0.0
 10
17.3828685649
 20
37.6432976303
 30
0.0
 10
17.0295203297
 20
38.332012913
 30
0.0
 10
16.7207835511
 20
39.0520421112
 30
0.0
 10
16.4606975378
 20
39.7996598962
 30
0.0
 10
16.2488162661
 20
40.5687825638
 30
0.0
 10
16.0807389047
 20
41.3528679512
 30
0.0
 10
15.9936058067
 20
41.8814606912
 30
0.0
 10
15.9550712646
 20
42.146834401
 30
0.0
  0
SPLINE
  5
24F
100
AcDbEntity
  8
0
100
AcDbSpline
 62
7
  6
BYLAYER
 70
0
 71
3
 72
15
 73
11
 74
0
 42
0.0000001
 43
0.0000001
 44
0.0000000001
 40
0.0
 40
0.0
 40
0.0
 40
0.0
 40
0.0857066897
 40
0.1811659107
 40
0.2882022423
 40
0.4079786951
 40
0.5405227202
 40
0.6846727296
 40
0.8385209073
 40
1.0
 40
1.0
 40
1.0
 40
1.0
 10
15.9550712646
 20
33.1653078125
 30
0.0
 10
15.9956285902
 20
33.2698393408
 30
0.0
 10
16.089010079
 20
33.4878962833
 30
0.0
 10
16.2602462561
 20
33.8240886739
 30
0.0
 10
16.4750423371
 20
34.1871737205
 30
0.0
 10
16.7368682199
 20
34.577885969
 30
0.0
 10
17.0455915873
 20
34.9948624717
 30
0.0
 10
17.3973956612
 20
35.4348533176
 30
0.0
 10
17.7859826144
 20
35.8935382137
 30
0.0
 10
18.0592775773
 20
36.2025750578
 30
0.0
 10
18.2004462105
 20
36.3597326044
 30
0.0
  0
SPLINE
  5
250
100
AcDbEntity
  8
0
100
AcDbSpline
 62
7
  6
BYLAYER
 70
0
 71
3
 72
23
 73
19
 74
0
 42
0.0000001
 43
0.0000001
 44
0.0000000001
 40
0.0
 40
0.0
 40
0.0
 40
0.0
 40
0.0573062593
 40
0.1175196042
 40
0.1802746906
 40
0.2451682334
 40
0.3117125299
 40
0.3793803407
 40
0.4476148829
 40
0.5158439274
 40
0.5834955979
 40
0.6500129074
 40
0.7148690572
 40
0.777582621
 40
0.8377344142
 40
0.8949879034
 40
0.9491108407
 40
1.0
 40
1.0
 40
1.0
 40
1.0
 10
17.0850898946
 20
36.5322734868
 30
0.0
 10
17.0850898946
 20
36.7003139202
 30
0.0
 10
17.067911316
 20
37.045074247
 30
0.0
 10
16.995725895
 20
37.5693164363
 30
0.0
 10
16.8773047195
 20
38.1078715257
 30
0.0
 10
16.714207035
 20
38.6539544385
 30
0.0
 10
16.5084213418
 20
39.2008112477
 30
0.0
 10
16.2625389673
 20
39.7416055265
 30
0.0
 10
15.9796359728
 20
40.2695870891
 30
0.0
 10
15.6632438649
 20
40.778151968
 30
0.0
 10
15.3173132869
 20
41.2609358027
 30
0.0
 10
14.9461728569
 20
41.7119104796
 30
0.0
 10
14.5544542379
 20
42.1254495948
 30
0.0
 10
14.1470257885
 20
42.4963977609
 30
0.0
 10
13.7289355029
 20
42.8201246292
 30
0.0
 10
13.3053044095
 20
43.092613068
 30
0.0
 10
12.8814008616
 20
43.3104244179
 30
0.0
 10
12.5930149273
 20
43.4207530186
 30
0.0
 10
12.450515854
 20
43.4650434826
 30
0.0
  0
SPLINE
  5
251
100
AcDbEntity
  8
0
100
AcDbSpline
 62
7
  6
BYLAYER
 70
0
 71
3
 72
23
 73
19
 74
0
 42
0.0000001
 43
0.0000001
 44
0.0000000001
 40
0.0
 40
0.0
 40
0.0
 40
0.0
 40
0.0673982247
 40
0.1316336506
 40
0.1929968125
 40
0.2519091346
 40
0.3089188776
 40
0.3646854516
 40
0.4199497531
 40
0.4754862135
 40
0.5320498828
 40
0.5903297782
 40
0.6509102873
 40
0.7142508884
 40
0.7806753485
 40
0.8503998448
 40
0.9235328539
 40
1.0
 40
1.0
 40
1.0
 40
1.0
 10
12.450515854
 20
43.4650434826
 30
0.0
 10
12.349792425
 20
43.4963495627
 30
0.0
 10
12.150131656
 20
43.5486031514
 30
0.0
 10
11.8510972224
 20
43.5948858444
 30
0.0
 10
11.5619077147
 20
43.6066770983
 30
0.0
 10
11.2846480847
 20
43.5837643622
 30
0.0
 10
11.0213445987
 20
43.5261551021
 30
0.0
 10
10.7740320304
 20
43.4341207822
 30
0.0
 10
10.5446543659
 20
43.3083323688
 30
0.0
 10
10.3350702457
 20
43.1497205779
 30
0.0
 10
10.1468389532
 20
42.9596489705
 30
0.0
 10
9.9813489137
 20
42.7396154761
 30
0.0
 10
9.8396592156
 20
42.491369245
 30
0.0
 10
9.7226778731
 20
42.2167539004
 30
0.0
 10
9.6310831746
 20
41.9177497561
 30
0.0
 10
9.5654257191
 20
41.5964105939
 30
0.0
 10
9.5261473349
 20
41.255048411
 30
0.0
 10
9.5178095614
 20
41.0208150515
 30
0.0
 10
9.5178095614
 20
40.9011459871
 30
0.0
  0
SPLINE
  5
252
100
AcDbEntity
  8
0
100
AcDbSpline
 62
7
  6
BYLAYER
 70
0
 71
3
 72
35
 73
31
 74
0
 42
0.0000001
 43
0.0000001
 44
0.0000000001
 40
0.0
 40
0.0
 40
0.0
 40
0.0
 40
0.0323884032
 40
0.066149079
 40
0.1011420024
 40
0.1372324041
 40
0.2119976397
 40
0.2889605653
 40
0.3664525139
 40
0.442767696
 40
0.5162810328
 40
0.5515485679
 40
0.5856063928
 40
0.6183309889
 40
0.6496305579
 40
0.6794496318
 40
0.7077785982
 40
0.7346584356
 40
0.7601894451
 40
0.7845373337
 40
0.8079337449
 40
0.8306735339
 40
0.8530994671
 40
0.875579145
 40
0.898475652
 40
0.9221200994
 40
0.9467903084
 40
0.9595851045
 40
0.9727096521
 40
1.0
 40
1.0
 40
1.0
 40
1.0
 10
9.5178095614
 20
40.9011459871
 30
0.0
 10
9.5178095614
 20
40.7655170482
 30
0.0
 10
9.5289770004
 20
40.4884233179
 30
0.0
 10
9.5764685447
 20
40.0672385752
 30
0.0
 10
9.6547452758
 20
39.6349049596
 30
0.0
 10
9.8009534037
 20
39.0415778189
 30
0.0
 10
10.0569943028
 20
38.2959556059
 30
0.0
 10
10.4656919611
 20
37.4255345371
 30
0.0
 10
10.9663340333
 20
36.596859543
 30
0.0
 10
11.5425912713
 20
35.8369711373
 30
0.0
 10
12.0777812471
 20
35.2735887667
 30
0.0
 10
12.5285711394
 20
34.8798966476
 30
0.0
 10
12.8684785164
 20
34.6203311081
 30
0.0
 10
13.2120224673
 20
34.3945515098
 30
0.0
 10
13.5564177684
 20
34.2044028661
 30
0.0
 10
13.89889581
 20
34.0515016659
 30
0.0
 10
14.236686528
 20
33.9371105036
 30
0.0
 10
14.5670959675
 20
33.8622749809
 30
0.0
 10
14.8874621696
 20
33.827748118
 30
0.0
 10
15.1951602873
 20
33.8339761725
 30
0.0
 10
15.4875683771
 20
33.8811907927
 30
0.0
 10
15.7620620025
 20
33.9691568409
 30
0.0
 10
16.0160502654
 20
34.0972482543
 30
0.0
 10
16.2470838184
 20
34.2643047392
 30
0.0
 10
16.4530674292
 20
34.4686433834
 30
0.0
 10
16.6322088614
 20
34.7082766782
 30
0.0
 10
16.7565253686
 20
34.9328325606
 30
0.0
 10
16.8417156362
 20
35.126908552
 30
0.0
 10
16.919153558
 20
35.3359482459
 30
0.0
 10
16.9643485888
 20
35.4994830865
 30
0.0
 10
16.9893625184
 20
35.6109923778
 30
0.0
  0
SPLINE
  5
253
100
AcDbEntity
  8
0
100
AcDbSpline
 62
7
  6
BYLAYER
 70
0
 71
3
 72
9
 73
5
 74
0
 42
0.0000001
 43
0.0000001
 44
0.0000000001
 40
0.0
 40
0.0
 40
0.0
 40
0.0
 40
0.4846402899
 40
1.0
 40
1.0
 40
1.0
 40
1.0
 10
16.9893625184
 20
35.6109923778
 30
0.0
 10
17.0221636267
 20
35.7572160373
 30
0.0
 10
17.0704829204
 20
36.0634611838
 30
0.0
 10
17.0850898946
 20
36.3729171125
 30
0.0
 10
17.0850898946
 20
36.5322734868
 30
0.0
  0
SPLINE
  5
254
100
AcDbEntity
  8
0
100
AcDbSpline
 62
7
  6
BYLAYER
 70
0
 71
3
 72
15
 73
11
 74
0
 42
0.0000001
 43
0.0000001
 44
0.0000000001
 40
0.0
 40
0.0
 40
0.0
 40
0.0
 40
0.1080120437
 40
0.2180613192
 40
0.3320032662
 40
0.4513603399
 40
0.5772651893
 40
0.7104948808
 40
0.8514586687
 40
1.0
 40
1.0
 40
1.0
 40
1.0
 10
37.6487932046
 20
55.6607360644
 30
0.0
 10
37.6078024965
 20
55.637075064
 30
0.0
 10
37.5289997575
 20
55.5820788383
 30
0.0
 10
37.4248634578
 20
55.4796055596
 30
0.0
 10
37.3353197718
 20
55.3579669861
 30
0.0
 10
37.2611616548
 20
55.2185653839
 30
0.0
 10
37.2029949106
 20
55.0627946561
 30
0.0
 10
37.1612383834
 20
54.8921493548
 30
0.0
 10
37.136277075
 20
54.708307713
 30
0.0
 10
37.1310109603
 20
54.5813641654
 30
0.0
 10
37.1310109603
 20
54.5162752555
 30
0.0
  0
SPLINE
  5
255
100
AcDbEntity
  8
0
100
AcDbSpline
 62
7
  6
BYLAYER
 70
0
 71
3
 72
14
 73
10
 74
0
 42
0.0000001
 43
0.0000001
 44
0.0000000001
 40
0.0
 40
0.0
 40
0.0
 40
0.0
 40
0.2892707578
 40
0.4225382071
 40
0.5484970853
 40
0.6678942786
 40
0.7818682184
 40
0.8919523671
 40
1.0
 40
1.0
 40
1.0
 40
1.0
 10
38.8987400052
 20
51.4544497192
 30
0.0
 10
39.0084784195
 20
51.3910904093
 30
0.0
 10
39.176960229
 20
51.3109045098
 30
0.0
 10
39.408014523
 20
51.2435132531
 30
0.0
 10
39.5720229554
 20
51.2160099105
 30
0.0
 10
39.7298305241
 20
51.2105071004
 30
0.0
 10
39.8799433238
 20
51.2272581157
 30
0.0
 10
40.0207613588
 20
51.266188015
 30
0.0
 10
40.1077856898
 20
51.306949129
 30
0.0
 10
40.1487773417
 20
51.3306106741
 30
0.0
  0
SPLINE
  5
256
100
AcDbEntity
  8
0
100
AcDbSpline
 62
7
  6
BYLAYER
 70
0
 71
3
 72
16
 73
12
 74
0
 42
0.0000001
 43
0.0000001
 44
0.0000000001
 40
0.0
 40
0.0
 40
0.0
 40
0.0
 40
0.0558368025
 40
0.1142302174
 40
0.2373916745
 40
0.367030124
 40
0.5000405382
 40
0.633054504
 40
0.7626941427
 40
0.8858554321
 40
1.0
 40
1.0
 40
1.0
 40
1.0
 10
37.1310139042
 20
54.1080328013
 30
0.0
 10
37.1310139042
 20
54.0533481444
 30
0.0
 10
37.1358888353
 20
53.9414318326
 30
0.0
 10
37.1638440594
 20
53.7104474508
 30
0.0
 10
37.2331310468
 20
53.4126181361
 30
0.0
 10
37.3638686234
 20
53.057211429
 30
0.0
 10
37.5388821612
 20
52.7105453755
 30
0.0
 10
37.7515787565
 20
52.3856633925
 30
0.0
 10
37.994052335
 20
52.0946771976
 30
0.0
 10
38.2571640575
 20
51.8485134348
 30
0.0
 10
38.4483854978
 20
51.7144664048
 30
0.0
 10
38.5451971405
 20
51.6585705077
 30
0.0
  0
SPLINE
  5
257
100
AcDbEntity
  8
0
100
AcDbSpline
 62
7
  6
BYLAYER
 70
0
 71
3
 72
15
 73
11
 74
0
 42
0.0000001
 43
0.0000001
 44
0.0000000001
 40
0.0
 40
0.0
 40
0.0
 40
0.0
 40
0.1080120437
 40
0.2180613192
 40
0.3320032662
 40
0.4513603399
 40
0.5772651893
 40
0.7104948808
 40
0.8514586687
 40
1.0
 40
1.0
 40
1.0
 40
1.0
 10
40.1487773417
 20
51.3306106741
 30
0.0
 10
40.1897680497
 20
51.3542716745
 30
0.0
 10
40.2685707888
 20
51.4092679002
 30
0.0
 10
40.3727070885
 20
51.5117411789
 30
0.0
 10
40.4622507744
 20
51.6333797524
 30
0.0
 10
40.5364088915
 20
51.7727813545
 30
0.0
 10
40.5945756357
 20
51.9285520824
 30
0.0
 10
40.6363321628
 20
52.0991973837
 30
0.0
 10
40.6612934713
 20
52.2830390255
 30
0.0
 10
40.666559586
 20
52.4099825731
 30
0.0
 10
40.666559586
 20
52.4750714829
 30
0.0
  0
SPLINE
  5
258
100
AcDbEntity
  8
0
100
AcDbSpline
 62
7
  6
BYLAYER
 70
0
 71
3
 72
25
 73
21
 74
0
 42
0.0000001
 43
0.0000001
 44
0.0000000001
 40
0.0
 40
0.0
 40
0.0
 40
0.0
 40
0.062376794
 40
0.1287264445
 40
0.198313771
 40
0.2702914703
 40
0.3436683467
 40
0.4173998436
 40
0.4904238879
 40
0.5617100834
 40
0.6303074708
 40
0.695395416
 40
0.7563429837
 40
0.8127802256
 40
0.8646811581
 40
0.9124567696
 40
0.9351014158
 40
0.9571072298
 40
0.9786676775
 40
1.0
 40
1.0
 40
1.0
 40
1.0
 10
40.666559586
 20
52.4750714829
 30
0.0
 10
40.666559586
 20
52.5787761609
 30
0.0
 10
40.6524976852
 20
52.7929323051
 30
0.0
 10
40.5946976419
 20
53.1180918102
 30
0.0
 10
40.5006775199
 20
53.4512803976
 30
0.0
 10
40.3725183792
 20
53.785358309
 30
0.0
 10
40.2128997704
 20
54.1132578998
 30
0.0
 10
40.0252416092
 20
54.4279746529
 30
0.0
 10
39.8135472113
 20
54.7227998671
 30
0.0
 10
39.5823275577
 20
54.9914517978
 30
0.0
 10
39.3364886873
 20
55.2282206868
 30
0.0
 10
39.0811992065
 20
55.4280842707
 30
0.0
 10
38.8217667834
 20
55.5868029698
 30
0.0
 10
38.5634360443
 20
55.7009601368
 30
0.0
 10
38.3114453337
 20
55.7679345576
 30
0.0
 10
38.1070641753
 20
55.7829518822
 30
0.0
 10
37.9537782622
 20
55.7685503547
 30
0.0
 10
37.8458507668
 20
55.7455485128
 30
0.0
 10
37.743626939
 20
55.7101970573
 30
0.0
 10
37.6795093694
 20
55.6784663066
 30
0.0
 10
37.6487932046
 20
55.6607360644
 30
0.0
  0
SPLINE
  5
259
100
AcDbEntity
  8
0
100
AcDbSpline
 62
7
  6
BYLAYER
 70
0
 71
3
 72
33
 73
29
 74
0
 42
0.0000001
 43
0.0000001
 44
0.0000000001
 40
0.0
 40
0.0
 40
0.0
 40
0.0
 40
0.0325402394
 40
0.0665704271
 40
0.1383458094
 40
0.2138958205
 40
0.2914108614
 40
0.3689278406
 40
0.4444781598
 40
0.516252839
 40
0.5502666334
 40
0.582822482
 40
0.6138188086
 40
0.6432079777
 40
0.6709957679
 40
0.6972615184
 40
0.7221575712
 40
0.7459240461
 40
0.7688789326
 40
0.7914092477
 40
0.813939116
 40
0.8368938483
 40
0.8606614722
 40
0.8855569998
 40
0.9118195759
 40
0.939612742
 40
0.9690190437
 40
1.0
 40
1.0
 40
1.0
 40
1.0
 10
39.9594528048
 20
52.4750697833
 30
0.0
 10
39.9594528048
 20
52.5297553646
 30
0.0
 10
39.9545777126
 20
52.6416736005
 30
0.0
 10
39.9266215323
 20
52.8726620381
 30
0.0
 10
39.8573325093
 20
53.1704962676
 30
0.0
 10
39.7265898592
 20
53.5259096391
 30
0.0
 10
39.551574851
 20
53.8725766693
 30
0.0
 10
39.3388582781
 20
54.197475853
 30
0.0
 10
39.0964286036
 20
54.4884131003
 30
0.0
 10
38.8731600963
 20
54.6973036174
 30
0.0
 10
38.6870991734
 20
54.8370300805
 30
0.0
 10
38.5486432252
 20
54.9252016384
 30
0.0
 10
38.4100780178
 20
54.9977263203
 30
0.0
 10
38.2727200807
 20
55.0539582716
 30
0.0
 10
38.1378142825
 20
55.0932675035
 30
0.0
 10
38.0066302638
 20
55.115295175
 30
0.0
 10
37.8803825536
 20
55.1196647288
 30
0.0
 10
37.7603003664
 20
55.1062953106
 30
0.0
 10
37.6476342703
 20
55.0751091666
 30
0.0
 10
37.5436038234
 20
55.0264277703
 30
0.0
 10
37.4494272664
 20
54.9606783788
 30
0.0
 10
37.3660875258
 20
54.8786965853
 30
0.0
 10
37.294472547
 20
54.7813831652
 30
0.0
 10
37.2351308686
 20
54.6698711212
 30
0.0
 10
37.1886036833
 20
54.5452501855
 30
0.0
 10
37.155194596
 20
54.4087268214
 30
0.0
 10
37.1352313717
 20
54.2616504135
 30
0.0
 10
37.1310139042
 20
54.1600979257
 30
0.0
 10
37.1310139042
 20
54.1080328013
 30
0.0
  0
SPLINE
  5
25A
100
AcDbEntity
  8
0
100
AcDbSpline
 62
7
  6
BYLAYER
 70
0
 71
3
 72
23
 73
19
 74
0
 42
0.0000001
 43
0.0000001
 44
0.0000000001
 40
0.0
 40
0.0
 40
0.0
 40
0.0
 40
0.0743007975
 40
0.1447491047
 40
0.2113587362
 40
0.2743198403
 40
0.3339975598
 40
0.3909674557
 40
0.4459917581
 40
0.499998178
 40
0.5540033898
 40
0.6090269253
 40
0.6659989518
 40
0.7256746128
 40
0.7886271825
 40
0.855248702
 40
0.9257370534
 40
1.0
 40
1.0
 40
1.0
 40
1.0
 10
38.5451971405
 20
51.6585705077
 30
0.0
 10
38.5903102318
 20
51.6325236745
 30
0.0
 10
38.680360701
 20
51.585388887
 30
0.0
 10
38.817713415
 20
51.5291561512
 30
0.0
 10
38.9526240941
 20
51.489841412
 30
0.0
 10
39.0838107071
 20
51.4678099983
 30
0.0
 10
39.2100617017
 20
51.4634369272
 30
0.0
 10
39.3301470518
 20
51.4768034827
 30
0.0
 10
39.4428163163
 20
51.5079873621
 30
0.0
 10
39.5468498175
 20
51.5566671442
 30
0.0
 10
39.6410292486
 20
51.6224155804
 30
0.0
 10
39.724371601
 20
51.7043970625
 30
0.0
 10
39.7959888642
 20
51.8017107813
 30
0.0
 10
39.8553324552
 20
51.9132236806
 30
0.0
 10
39.9018611519
 20
52.0378459741
 30
0.0
 10
39.935271329
 20
52.1743711429
 30
0.0
 10
39.9552352043
 20
52.321449743
 30
0.0
 10
39.9594528048
 20
52.4230038209
 30
0.0
 10
39.9594528048
 20
52.4750697833
 30
0.0
  0
SPLINE
  5
25B
100
AcDbEntity
  8
0
100
AcDbSpline
 62
7
  6
BYLAYER
 70
0
 71
3
 72
32
 73
28
 74
0
 42
0.0000001
 43
0.0000001
 44
0.0000000001
 40
0.0
 40
0.0
 40
0.0
 40
0.0
 40
0.030662469
 40
0.0623963891
 40
0.0951150491
 40
0.1287402172
 40
0.1983158333
 40
0.2702739334
 40
0.3436326956
 40
0.4173456606
 40
0.4903514812
 40
0.5616200002
 40
0.6302001827
 40
0.663230685
 40
0.6952959343
 40
0.7263236056
 40
0.7562580624
 40
0.7850615247
 40
0.8127187396
 40
0.8392375231
 40
0.8646545066
 40
0.8890351864
 40
0.9124789986
 40
0.9351180475
 40
0.9571180094
 40
0.9786731899
 40
1.0
 40
1.0
 40
1.0
 40
1.0
 10
7.2556471526
 20
44.2075562137
 30
0.0
 10
7.2556471526
 20
43.9831968309
 30
0.0
 10
7.2704721105
 20
43.5265353798
 30
0.0
 10
7.3341764695
 20
42.8331378319
 30
0.0
 10
7.4395227182
 20
42.1229007123
 30
0.0
 10
7.6368769815
 20
41.1477652157
 30
0.0
 10
7.9854953247
 20
39.9122007112
 30
0.0
 10
8.5494370605
 20
38.4423034549
 30
0.0
 10
9.2517587774
 20
36.9995360414
 30
0.0
 10
10.0774427018
 20
35.6147837936
 30
0.0
 10
11.0089072761
 20
34.3175256663
 30
0.0
 10
12.0262197848
 20
33.1355193285
 30
0.0
 10
12.9389557674
 20
32.2564448962
 30
0.0
 10
13.6944710688
 20
31.6345999857
 30
0.0
 10
14.261363751
 20
31.2176380847
 30
0.0
 10
14.8324888887
 20
30.8465551986
 30
0.0
 10
15.4047965736
 20
30.5233286213
 30
0.0
 10
15.9752556698
 20
30.2497502612
 30
0.0
 10
16.5408089953
 20
30.0272632044
 30
0.0
 10
17.0984892127
 20
29.857177854
 30
0.0
 10
17.6453145039
 20
29.7403949387
 30
0.0
 10
18.1784012149
 20
29.6777352748
 30
0.0
 10
18.6948767517
 20
29.6695779514
 30
0.0
 10
19.1919171392
 20
29.7162117585
 30
0.0
 10
19.6667612489
 20
29.8174835112
 30
0.0
 10
20.1165632365
 20
29.9729796301
 30
0.0
 10
20.3986845126
 20
30.1125927851
 30
0.0
 10
20.5338251712
 20
30.1906217547
 30
0.0
  0
SPLINE
  5
25C
100
AcDbEntity
  8
0
100
AcDbSpline
 62
7
  6
BYLAYER
 70
0
 71
3
 72
14
 73
10
 74
0
 42
0.0000001
 43
0.0000001
 44
0.0000000001
 40
0.0
 40
0.0
 40
0.0
 40
0.0
 40
0.1421425412
 40
0.2792903978
 40
0.5380241771
 40
0.6600278013
 40
0.7774070153
 40
0.890552935
 40
1.0
 40
1.0
 40
1.0
 40
1.0
 10
21.3978416555
 20
36.0427411233
 30
0.0
 10
21.3978416555
 20
35.8780867295
 30
0.0
 10
21.3884054349
 20
35.5544279468
 30
0.0
 10
21.3308288483
 20
34.933632281
 30
0.0
 10
21.2153320579
 20
34.3422401378
 30
0.0
 10
21.0364327247
 20
33.7930647685
 30
0.0
 10
20.8766452365
 20
33.4166369587
 30
0.0
 10
20.6893107853
 20
33.0695768384
 30
0.0
 10
20.5444059297
 20
32.8556343142
 30
0.0
 10
20.4677334871
 20
32.7546655123
 30
0.0
  0
SPLINE
  5
25D
100
AcDbEntity
  8
0
100
AcDbSpline
 62
7
  6
BYLAYER
 70
0
 71
3
 72
15
 73
11
 74
0
 42
0.0000001
 43
0.0000001
 44
0.0000000001
 40
0.0
 40
0.0
 40
0.0
 40
0.0
 40
0.1485891546
 40
0.2895060541
 40
0.4227210478
 40
0.5486419933
 40
0.6680001606
 40
0.7819373391
 40
0.8919870145
 40
1.0
 40
1.0
 40
1.0
 40
1.0
 10
26.3475802919
 20
37.2674803836
 30
0.0
 10
26.3475802919
 20
36.9809963954
 30
0.0
 10
26.3244847817
 20
36.4224358142
 30
0.0
 10
26.2145349643
 20
35.6135731889
 30
0.0
 10
26.0308555823
 20
34.8628139353
 30
0.0
 10
25.7749258075
 20
34.1774153623
 30
0.0
 10
25.4486548837
 20
33.5640018828
 30
0.0
 10
25.0546094576
 20
33.0288409707
 30
0.0
 10
24.5964568317
 20
32.5779157292
 30
0.0
 10
24.2496928284
 20
32.3359738355
 30
0.0
 10
24.0693444961
 20
32.2318422804
 30
0.0
  0
SPLINE
  5
25E
100
AcDbEntity
  8
0
100
AcDbSpline
 62
7
  6
BYLAYER
 70
0
 71
3
 72
25
 73
21
 74
0
 42
0.0000001
 43
0.0000001
 44
0.0000000001
 40
0.0
 40
0.0
 40
0.0
 40
0.0
 40
0.0220192802
 40
0.0447545754
 40
0.0683080173
 40
0.092756584
 40
0.1445041317
 40
0.2002272504
 40
0.2598266042
 40
0.3229748978
 40
0.3891683261
 40
0.4577702381
 40
0.5280485968
 40
0.599209066
 40
0.6704259275
 40
0.7408710031
 40
0.8097446312
 40
0.8763029987
 40
0.9398981997
 40
1.0
 40
1.0
 40
1.0
 40
1.0
 10
11.7213584164
 20
47.9039211473
 30
0.0
 10
11.8429645217
 20
47.9193076725
 30
0.0
 10
12.0919254883
 20
47.937643561
 30
0.0
 10
12.4725968795
 20
47.9285993925
 30
0.0
 10
12.8643061058
 20
47.8834820813
 30
0.0
 10
13.409166588
 20
47.7735887246
 30
0.0
 10
14.1093875342
 20
47.5428629668
 30
0.0
 10
14.9480504864
 20
47.1356551893
 30
0.0
 10
15.7872939734
 20
46.6002501242
 30
0.0
 10
16.6129057992
 20
45.9459954097
 30
0.0
 10
17.4109637533
 20
45.1841292729
 30
0.0
 10
18.1678009094
 20
44.3277648918
 30
0.0
 10
18.8703983211
 20
43.3916661183
 30
0.0
 10
19.5066253342
 20
42.3920038638
 30
0.0
 10
20.0654765763
 20
41.3460658148
 30
0.0
 10
20.5372954834
 20
40.2719367787
 30
0.0
 10
20.9139091008
 20
39.188187441
 30
0.0
 10
21.1888435329
 20
38.1134259723
 30
0.0
 10
21.3572847969
 20
37.0662982952
 30
0.0
 10
21.3978416555
 20
36.3773123344
 30
0.0
 10
21.3978416555
 20
36.0427411233
 30
0.0
  0
SPLINE
  5
25F
100
AcDbEntity
  8
0
100
AcDbSpline
 62
7
  6
BYLAYER
 70
0
 71
3
 72
18
 73
14
 74
0
 42
0.0000001
 43
0.0000001
 44
0.0000000001
 40
0.0
 40
0.0
 40
0.0
 40
0.0
 40
0.0503540992
 40
0.1011289945
 40
0.1527277153
 40
0.2055219019
 40
0.259838076
 40
0.3159535099
 40
0.4343146561
 40
0.5618566596
 40
0.698932605
 40
0.8452495195
 40
1.0
 40
1.0
 40
1.0
 40
1.0
 10
13.0694021344
 20
51.2844150862
 30
0.0
 10
13.1885768114
 20
51.3532255059
 30
0.0
 10
13.4359571691
 20
51.4780019616
 30
0.0
 10
13.8280544272
 20
51.6234425301
 30
0.0
 10
14.2401374644
 20
51.7269545985
 30
0.0
 10
14.6703031946
 20
51.788087755
 30
0.0
 10
15.1167046961
 20
51.8067222979
 30
0.0
 10
15.7419088044
 20
51.774279881
 30
0.0
 10
16.5572341307
 20
51.621804435
 30
0.0
 10
17.5487114855
 20
51.2766418766
 30
0.0
 10
18.555482418
 20
50.7727941159
 30
0.0
 10
19.5612027117
 20
50.1190330097
 30
0.0
 10
20.2041985399
 20
49.6033704524
 30
0.0
 10
20.5221866242
 20
49.3245426957
 30
0.0
  0
SPLINE
  5
260
100
AcDbEntity
  8
0
100
AcDbSpline
 62
7
  6
BYLAYER
 70
0
 71
3
 72
17
 73
13
 74
0
 42
0.0000001
 43
0.0000001
 44
0.0000000001
 40
0.0
 40
0.0
 40
0.0
 40
0.0
 40
0.1230071519
 40
0.251059108
 40
0.3819864219
 40
0.5134575022
 40
0.6431104441
 40
0.7686858734
 40
0.8293198056
 40
0.8882042495
 40
0.9451607106
 40
1.0
 40
1.0
 40
1.0
 40
1.0
 10
20.5221866242
 20
49.3245426957
 30
0.0
 10
20.9460708067
 20
48.9528599768
 30
0.0
 10
21.7673782867
 20
48.1431332218
 30
0.0
 10
22.8826735296
 20
46.7901655682
 30
0.0
 10
23.8835632116
 20
45.3034308651
 30
0.0
 10
24.7432651373
 20
43.7225452182
 30
0.0
 10
25.4389703799
 20
42.089580562
 30
0.0
 10
25.8718021061
 20
40.7051151627
 30
0.0
 10
26.1178230874
 20
39.6085658703
 30
0.0
 10
26.2493080084
 20
38.8100095656
 30
0.0
 10
26.3289569877
 20
38.0313339113
 30
0.0
 10
26.3475802919
 20
37.5188171714
 30
0.0
 10
26.3475802919
 20
37.2674803836
 30
0.0
  0
SPLINE
  5
261
100
AcDbEntity
  8
0
100
AcDbSpline
 62
7
  6
BYLAYER
 70
0
 71
3
 72
16
 73
12
 74
0
 42
0.0000001
 43
0.0000001
 44
0.0000000001
 40
0.0
 40
0.0
 40
0.0
 40
0.0
 40
0.0539202354
 40
0.1080987122
 40
0.2181374411
 40
0.3320634614
 40
0.4514101374
 40
0.5773189985
 40
0.7105213467
 40
0.851425139
 40
1.0
 40
1.0
 40
1.0
 40
1.0
 10
9.5338830872
 20
49.2431940731
 30
0.0
 10
9.443844232
 20
49.1912064687
 30
0.0
 10
9.2676776869
 20
49.0792246881
 30
0.0
 10
8.9327292492
 20
48.8241452681
 30
0.0
 10
8.5485357971
 20
48.4461512466
 30
0.0
 10
8.1545995939
 20
47.911052075
 30
0.0
 10
7.8282970518
 20
47.2976215236
 30
0.0
 10
7.5723748805
 20
46.6122278776
 30
0.0
 10
7.3886923428
 20
45.861465674
 30
0.0
 10
7.2787431747
 20
45.052602031
 30
0.0
 10
7.2556471526
 20
44.4940403006
 30
0.0
 10
7.2556471526
 20
44.2075562137
 30
0.0
  0
SPLINE
  5
262
100
AcDbEntity
  8
0
100
AcDbSpline
 62
7
  6
BYLAYER
 70
0
 71
3
 72
18
 73
14
 74
0
 42
0.0000001
 43
0.0000001
 44
0.0000000001
 40
0.0
 40
0.0
 40
0.0
 40
0.0
 40
0.0554336541
 40
0.1104344253
 40
0.1653556867
 40
0.2205527782
 40
0.2763726852
 40
0.3331417555
 40
0.4505841391
 40
0.5749690873
 40
0.7076109988
 40
0.8492522403
 40
1.0
 40
1.0
 40
1.0
 40
1.0
 10
12.4159764411
 20
47.9416503764
 30
0.0
 10
12.3262167084
 20
47.9132632528
 30
0.0
 10
12.1499633427
 20
47.8481521763
 30
0.0
 10
11.8969628743
 20
47.725291006
 30
0.0
 10
11.6576399549
 20
47.5782581484
 30
0.0
 10
11.4328720746
 20
47.4075305322
 30
0.0
 10
11.2234010828
 20
47.2136964951
 30
0.0
 10
10.9625358575
 20
46.92223933
 30
0.0
 10
10.6778630681
 20
46.499190464
 30
0.0
 10
10.4126141341
 20
45.9185528875
 30
0.0
 10
10.2219298463
 20
45.2667422131
 30
0.0
 10
10.1078103976
 20
44.5523716105
 30
0.0
 10
10.0840772212
 20
44.0553317046
 30
0.0
 10
10.0840772212
 20
43.7993205582
 30
0.0
  0
SPLINE
  5
263
100
AcDbEntity
  8
0
100
AcDbSpline
 62
7
  6
BYLAYER
 70
0
 71
3
 72
30
 73
26
 74
0
 42
0.0000001
 43
0.0000001
 44
0.0000000001
 40
0.0
 40
0.0
 40
0.0
 40
0.0
 40
0.0219601538
 40
0.0436847903
 40
0.0654368955
 40
0.0874779358
 40
0.1100531598
 40
0.1333773241
 40
0.1576295006
 40
0.182945936
 40
0.2094242077
 40
0.2371208088
 40
0.2660596054
 40
0.2962306039
 40
0.3275990157
 40
0.3601038456
 40
0.4281614022
 40
0.4995991191
 40
0.5733861213
 40
0.6483674046
 40
0.7233276875
 40
0.7970514512
 40
0.8683890174
 40
0.936314631
 40
1.0
 40
1.0
 40
1.0
 40
1.0
 10
12.6838706478
 20
45.2121720372
 30
0.0
 10
12.7490599806
 20
45.2762713093
 30
0.0
 10
12.8871646894
 20
45.3955673501
 30
0.0
 10
13.1160567191
 20
45.5447758139
 30
0.0
 10
13.3634550904
 20
45.6616331246
 30
0.0
 10
13.6275812424
 20
45.745440639
 30
0.0
 10
13.9066965806
 20
45.7956394348
 30
0.0
 10
14.1989572087
 20
45.8121262445
 30
0.0
 10
14.5025263108
 20
45.7948195857
 30
0.0
 10
14.8155525084
 20
45.7440376697
 30
0.0
 10
15.1361340689
 20
45.6600826372
 30
0.0
 10
15.4623826226
 20
45.5436155278
 30
0.0
 10
15.7923191848
 20
45.3953003954
 30
0.0
 10
16.1240059836
 20
45.2161375611
 30
0.0
 10
16.4554230687
 20
45.0071569122
 30
0.0
 10
16.9010978726
 20
44.6856353923
 30
0.0
 10
17.4437157588
 20
44.2159249351
 30
0.0
 10
18.0523405323
 20
43.5674888465
 30
0.0
 10
18.6138640914
 20
42.8411291867
 30
0.0
 10
19.1147514775
 20
42.054361743
 30
0.0
 10
19.5429759529
 20
41.2260838067
 30
0.0
 10
19.8882346501
 20
40.3762330323
 30
0.0
 10
20.1422403367
 20
39.5251249797
 30
0.0
 10
20.2988769429
 20
38.6932797881
 30
0.0
 10
20.3371682359
 20
38.1449633459
 30
0.0
 10
20.3371682359
 20
37.8798296176
 30
0.0
  0
SPLINE
  5
264
100
AcDbEntity
  8
0
100
AcDbSpline
 62
7
  6
BYLAYER
 70
0
 71
3
 72
18
 73
14
 74
0
 42
0.0000001
 43
0.0000001
 44
0.0000000001
 40
0.0
 40
0.0
 40
0.0
 40
0.0
 40
0.1496483159
 40
0.2904042548
 40
0.4225241022
 40
0.5467754811
 40
0.6644933588
 40
0.7215339164
 40
0.7776995048
 40
0.833299439
 40
0.8886608848
 40
0.9441172851
 40
1.0
 40
1.0
 40
1.0
 40
1.0
 10
16.2815067362
 20
33.2844105424
 30
0.0
 10
16.4953583071
 20
33.1686382565
 30
0.0
 10
16.9214342047
 20
32.9634812488
 30
0.0
 10
17.5704882709
 20
32.7349531235
 30
0.0
 10
18.2030571464
 20
32.5977782013
 30
0.0
 10
18.8116131398
 20
32.5541547301
 30
0.0
 10
19.2981405637
 20
32.5974863596
 30
0.0
 10
19.6645550009
 20
32.6804787055
 30
0.0
 10
19.9258430381
 20
32.7653093273
 30
0.0
 10
20.1755199037
 20
32.873181622
 30
0.0
 10
20.4128133685
 20
33.0037513139
 30
0.0
 10
20.6369597224
 20
33.1565598544
 30
0.0
 10
20.7763850647
 20
33.2723515195
 30
0.0
 10
20.8435080938
 20
33.3335139104
 30
0.0
  0
SPLINE
  5
265
100
AcDbEntity
  8
0
100
AcDbSpline
 62
7
  6
BYLAYER
 70
0
 71
3
 72
18
 73
14
 74
0
 42
0.0000001
 43
0.0000001
 44
0.0000000001
 40
0.0
 40
0.0
 40
0.0
 40
0.0
 40
0.1513502373
 40
0.2929903671
 40
0.4250823069
 40
0.5485765681
 40
0.6651143117
 40
0.7215724933
 40
0.7772494623
 40
0.832531367
 40
0.887818913
 40
0.9435130061
 40
1.0
 40
1.0
 40
1.0
 40
1.0
 10
20.3371682359
 20
37.8798296176
 30
0.0
 10
20.3371682359
 20
37.6884822003
 30
0.0
 10
20.3184240299
 20
37.317651726
 30
0.0
 10
20.2279392413
 20
36.7865052692
 30
0.0
 10
20.0767029322
 20
36.3057240359
 30
0.0
 10
19.8664511207
 20
35.8824900343
 30
0.0
 10
19.6411178576
 20
35.579851429
 30
0.0
 10
19.4354741196
 20
35.3760356076
 30
0.0
 10
19.2704505228
 20
35.2428770479
 30
0.0
 10
19.0937161704
 20
35.1284151733
 30
0.0
 10
18.9059055642
 20
35.0331447596
 30
0.0
 10
18.7078160472
 20
34.9573793892
 30
0.0
 10
18.5706051256
 20
34.9203964821
 30
0.0
 10
18.5008262196
 20
34.9051987266
 30
0.0
  0
SPLINE
  5
266
100
AcDbEntity
  8
0
100
AcDbSpline
 62
7
  6
BYLAYER
 70
0
 71
3
 72
32
 73
28
 74
0
 42
0.0000001
 43
0.0000001
 44
0.0000000001
 40
0.0
 40
0.0
 40
0.0
 40
0.0
 40
0.030662469
 40
0.0623963891
 40
0.0951150491
 40
0.1287402172
 40
0.1983158333
 40
0.2702739334
 40
0.3436326956
 40
0.4173456606
 40
0.4903514812
 40
0.5616200002
 40
0.6302001827
 40
0.663230685
 40
0.6952959343
 40
0.7263236056
 40
0.7562580624
 40
0.7850615247
 40
0.8127187396
 40
0.8392375231
 40
0.8646545066
 40
0.8890351864
 40
0.9124789986
 40
0.9351180475
 40
0.9571180094
 40
0.9786731899
 40
1.0
 40
1.0
 40
1.0
 40
1.0
 10
22.8120611058
 20
35.2262596142
 30
0.0
 10
22.8120611058
 20
35.450618997
 30
0.0
 10
22.7972361478
 20
35.9072804481
 30
0.0
 10
22.7335317888
 20
36.600677996
 30
0.0
 10
22.6281855402
 20
37.3109151156
 30
0.0
 10
22.4308312768
 20
38.2860506121
 30
0.0
 10
22.0822129336
 20
39.5216151167
 30
0.0
 10
21.5182711979
 20
40.991512373
 30
0.0
 10
20.815949481
 20
42.4342797865
 30
0.0
 10
19.9902655566
 20
43.8190320343
 30
0.0
 10
19.0588009822
 20
45.1162901615
 30
0.0
 10
18.0414884736
 20
46.2982964994
 30
0.0
 10
17.1287524909
 20
47.1773709317
 30
0.0
 10
16.3732371895
 20
47.7992158422
 30
0.0
 10
15.8063445074
 20
48.2161777432
 30
0.0
 10
15.2352193697
 20
48.5872606293
 30
0.0
 10
14.6629116848
 20
48.9104872066
 30
0.0
 10
14.0924525886
 20
49.1840655667
 30
0.0
 10
13.526899263
 20
49.4065526235
 30
0.0
 10
12.9692190456
 20
49.5766379739
 30
0.0
 10
12.4223937544
 20
49.6934208892
 30
0.0
 10
11.8893070435
 20
49.7560805531
 30
0.0
 10
11.3728315066
 20
49.7642378765
 30
0.0
 10
10.8757911192
 20
49.7176040694
 30
0.0
 10
10.4009470094
 20
49.6163323167
 30
0.0
 10
9.9511450218
 20
49.4608361978
 30
0.0
 10
9.6690237457
 20
49.3212230428
 30
0.0
 10
9.5338830872
 20
49.2431940731
 30
0.0
  0
SPLINE
  5
267
100
AcDbEntity
  8
0
100
AcDbSpline
 62
7
  6
BYLAYER
 70
0
 71
3
 72
23
 73
19
 74
0
 42
0.0000001
 43
0.0000001
 44
0.0000000001
 40
0.0
 40
0.0
 40
0.0
 40
0.0
 40
0.049891923
 40
0.0984956692
 40
0.1467501272
 40
0.1956289773
 40
0.2460450034
 40
0.2987727729
 40
0.3544041839
 40
0.413334657
 40
0.4757742174
 40
0.5417695241
 40
0.6112262761
 40
0.683932034
 40
0.7595787927
 40
0.8377801512
 40
0.918086267
 40
1.0
 40
1.0
 40
1.0
 40
1.0
 10
20.4677334871
 20
32.7546655123
 30
0.0
 10
20.3584498195
 20
32.6107514722
 30
0.0
 10
20.1201344905
 20
32.3427732631
 30
0.0
 10
19.702928575
 20
32.0093316217
 30
0.0
 10
19.2368887356
 20
31.7556512353
 30
0.0
 10
18.7277414935
 20
31.5848657229
 30
0.0
 10
18.1815474487
 20
31.4984620435
 30
0.0
 10
17.6044231887
 20
31.496752674
 30
0.0
 10
17.0023859464
 20
31.5791412758
 30
0.0
 10
16.3814280341
 20
31.7442725555
 30
0.0
 10
15.7476061715
 20
31.9901483645
 30
0.0
 10
15.1071083738
 20
32.3141405595
 30
0.0
 10
14.4662287694
 20
32.7129147052
 30
0.0
 10
13.8312966433
 20
33.1824082603
 30
0.0
 10
13.2086404696
 20
33.7178914609
 30
0.0
 10
12.6045027594
 20
34.3139931338
 30
0.0
 10
12.0249713532
 20
34.9646604896
 30
0.0
 10
11.6616475168
 20
35.4269433067
 30
0.0
 10
11.485305959
 20
35.6655344466
 30
0.0
  0
SPLINE
  5
268
100
AcDbEntity
  8
0
100
AcDbSpline
 62
7
  6
BYLAYER
 70
0
 71
3
 72
15
 73
11
 74
0
 42
0.0000001
 43
0.0000001
 44
0.0000000001
 40
0.0
 40
0.0
 40
0.0
 40
0.0
 40
0.1315099632
 40
0.2635199972
 40
0.3947863049
 40
0.5240852803
 40
0.6502550676
 40
0.7722180228
 40
0.8890600086
 40
1.0
 40
1.0
 40
1.0
 40
1.0
 10
11.3435582115
 20
35.8605662414
 30
0.0
 10
11.1368508189
 20
36.1497983491
 30
0.0
 10
10.7428523581
 20
36.7440890221
 30
0.0
 10
10.215093644
 20
37.6725764667
 30
0.0
 10
9.7548575072
 20
38.6297667932
 30
0.0
 10
9.3686212842
 20
39.6021982595
 30
0.0
 10
9.0618108473
 20
40.5762604119
 30
0.0
 10
8.8386629217
 20
41.5384189786
 30
0.0
 10
8.7024105927
 20
42.4751220708
 30
0.0
 10
8.6698666028
 20
43.0911763564
 30
0.0
 10
8.6698666028
 20
43.3910747046
 30
0.0
  0
SPLINE
  5
269
100
AcDbEntity
  8
0
100
AcDbSpline
 62
7
  6
BYLAYER
 70
0
 71
3
 72
20
 73
16
 74
0
 42
0.0000001
 43
0.0000001
 44
0.0000000001
 40
0.0
 40
0.0
 40
0.0
 40
0.0
 40
0.1517002221
 40
0.2930602277
 40
0.4243814068
 40
0.4866646377
 40
0.5469402013
 40
0.6054937127
 40
0.6626630062
 40
0.7188356947
 40
0.7744346716
 40
0.8299070884
 40
0.8857045074
 40
0.9422658872
 40
1.0
 40
1.0
 40
1.0
 40
1.0
 10
8.6698666028
 20
43.3910747046
 30
0.0
 10
8.6698666028
 20
43.6940394478
 30
0.0
 10
8.7011029822
 20
44.2800874863
 30
0.0
 10
8.8525825696
 20
45.1163962653
 30
0.0
 10
9.0674135208
 20
45.7532389033
 30
0.0
 10
9.2902933495
 20
46.2093130528
 30
0.0
 10
9.4782514106
 20
46.5189809218
 30
0.0
 10
9.6891207405
 20
46.8009147631
 30
0.0
 10
9.9221517708
 20
47.0538558743
 30
0.0
 10
10.1763202387
 20
47.276746544
 30
0.0
 10
10.4506249031
 20
47.4685128425
 30
0.0
 10
10.743823194
 20
47.6283624532
 30
0.0
 10
11.0546701003
 20
47.7555528035
 30
0.0
 10
11.3817382424
 20
47.8495781086
 30
0.0
 10
11.6069680252
 20
47.8894476089
 30
0.0
 10
11.7213584164
 20
47.9039211473
 30
0.0
  0
SPLINE
  5
26A
100
AcDbEntity
  8
0
100
AcDbSpline
 62
7
  6
BYLAYER
 70
0
 71
3
 72
16
 73
12
 74
0
 42
0.0000001
 43
0.0000001
 44
0.0000000001
 40
0.0
 40
0.0
 40
0.0
 40
0.0
 40
0.0539202354
 40
0.1080987122
 40
0.2181374411
 40
0.3320634614
 40
0.4514101374
 40
0.5773189985
 40
0.7105213467
 40
0.851425139
 40
1.0
 40
1.0
 40
1.0
 40
1.0
 10
20.5338251712
 20
30.1906217547
 30
0.0
 10
20.6238640263
 20
30.2426093592
 30
0.0
 10
20.8000305714
 20
30.3545911398
 30
0.0
 10
21.1349790091
 20
30.6096705598
 30
0.0
 10
21.5191724613
 20
30.9876645813
 30
0.0
 10
21.9131086645
 20
31.5227637529
 30
0.0
 10
22.2394112065
 20
32.1361943043
 30
0.0
 10
22.4953333778
 20
32.8215879503
 30
0.0
 10
22.6790159155
 20
33.5723501539
 30
0.0
 10
22.7889650836
 20
34.3812137969
 30
0.0
 10
22.8120611058
 20
34.9397755273
 30
0.0
 10
22.8120611058
 20
35.2262596142
 30
0.0
  0
SPLINE
  5
26B
100
AcDbEntity
  8
0
100
AcDbSpline
 62
7
  6
BYLAYER
 70
0
 71
3
 72
9
 73
5
 74
0
 42
0.0000001
 43
0.0000001
 44
0.0000000001
 40
0.0
 40
0.0
 40
0.0
 40
0.0
 40
0.4863613011
 40
1.0
 40
1.0
 40
1.0
 40
1.0
 10
37.1663161047
 20
61.4768091846
 30
0.0
 10
37.1663161047
 20
61.0852973408
 30
0.0
 10
37.2117107149
 20
60.279935579
 30
0.0
 10
37.3348789241
 20
59.4831844562
 30
0.0
 10
37.4155238116
 20
59.0776557291
 30
0.0
  0
SPLINE
  5
26C
100
AcDbEntity
  8
0
100
AcDbSpline
 62
7
  6
BYLAYER
 70
0
 71
3
 72
11
 73
7
 74
0
 42
0.0000001
 43
0.0000001
 44
0.0000000001
 40
0.0
 40
0.0
 40
0.0
 40
0.0
 40
0.2563292043
 40
0.5072997767
 40
0.7545887273
 40
1.0
 40
1.0
 40
1.0
 40
1.0
 10
48.9230359993
 20
46.9715271514
 30
0.0
 10
49.0596704751
 20
46.986559437
 30
0.0
 10
49.328881061
 20
47.0291535309
 30
0.0
 10
49.7208218525
 20
47.1325515549
 30
0.0
 10
50.0943781873
 20
47.2742218625
 30
0.0
 10
50.3305236634
 20
47.3940692334
 30
0.0
 10
50.4444941233
 20
47.4598747256
 30
0.0
  0
SPLINE
  5
26D
100
AcDbEntity
  8
0
100
AcDbSpline
 62
7
  6
BYLAYER
 70
0
 71
3
 72
14
 73
10
 74
0
 42
0.0000001
 43
0.0000001
 44
0.0000000001
 40
0.0
 40
0.0
 40
0.0
 40
0.0
 40
0.1421425412
 40
0.2792903978
 40
0.5380241771
 40
0.6600278013
 40
0.7774070153
 40
0.890552935
 40
1.0
 40
1.0
 40
1.0
 40
1.0
 10
51.3085106076
 20
53.3119940942
 30
0.0
 10
51.3085106076
 20
53.1473397004
 30
0.0
 10
51.299074387
 20
52.8236809177
 30
0.0
 10
51.2414978005
 20
52.2028852519
 30
0.0
 10
51.1260010101
 20
51.6114931087
 30
0.0
 10
50.9471016768
 20
51.0623177394
 30
0.0
 10
50.7873141887
 20
50.6858899296
 30
0.0
 10
50.5999797374
 20
50.3388298093
 30
0.0
 10
50.4550748818
 20
50.1248872851
 30
0.0
 10
50.3784024392
 20
50.0239184832
 30
0.0
  0
SPLINE
  5
26E
100
AcDbEntity
  8
0
100
AcDbSpline
 62
7
  6
BYLAYER
 70
0
 71
3
 72
15
 73
11
 74
0
 42
0.0000001
 43
0.0000001
 44
0.0000000001
 40
0.0
 40
0.0
 40
0.0
 40
0.0
 40
0.1485891546
 40
0.2895060541
 40
0.4227210478
 40
0.5486419933
 40
0.6680001606
 40
0.7819373391
 40
0.8919870145
 40
1.0
 40
1.0
 40
1.0
 40
1.0
 10
56.258249244
 20
54.5367333545
 30
0.0
 10
56.258249244
 20
54.2502493663
 30
0.0
 10
56.2351537339
 20
53.6916887851
 30
0.0
 10
56.1252039164
 20
52.8828261598
 30
0.0
 10
55.9415245345
 20
52.1320669062
 30
0.0
 10
55.6855947597
 20
51.4466683332
 30
0.0
 10
55.3593238358
 20
50.8332548537
 30
0.0
 10
54.9652784097
 20
50.2980939416
 30
0.0
 10
54.5071257839
 20
49.8471687001
 30
0.0
 10
54.1603617806
 20
49.6052268064
 30
0.0
 10
53.9800134482
 20
49.5010952513
 30
0.0
  0
SPLINE
  5
26F
100
AcDbEntity
  8
0
100
AcDbSpline
 62
7
  6
BYLAYER
 70
0
 71
3
 72
25
 73
21
 74
0
 42
0.0000001
 43
0.0000001
 44
0.0000000001
 40
0.0
 40
0.0
 40
0.0
 40
0.0
 40
0.0220192802
 40
0.0447545754
 40
0.0683080173
 40
0.092756584
 40
0.1445041317
 40
0.2002272504
 40
0.2598266042
 40
0.3229748978
 40
0.3891683261
 40
0.4577702381
 40
0.5280485968
 40
0.599209066
 40
0.6704259275
 40
0.7408710031
 40
0.8097446312
 40
0.8763029987
 40
0.9398981997
 40
1.0
 40
1.0
 40
1.0
 40
1.0
 10
41.6320273686
 20
65.1731741182
 30
0.0
 10
41.7536334738
 20
65.1885606434
 30
0.0
 10
42.0025944405
 20
65.2068965319
 30
0.0
 10
42.3832658317
 20
65.1978523634
 30
0.0
 10
42.774975058
 20
65.1527350522
 30
0.0
 10
43.3198355401
 20
65.0428416955
 30
0.0
 10
44.0200564863
 20
64.8121159377
 30
0.0
 10
44.8587194385
 20
64.4049081602
 30
0.0
 10
45.6979629256
 20
63.8695030951
 30
0.0
 10
46.5235747513
 20
63.2152483806
 30
0.0
 10
47.3216327054
 20
62.4533822438
 30
0.0
 10
48.0784698615
 20
61.5970178627
 30
0.0
 10
48.7810672732
 20
60.6609190892
 30
0.0
 10
49.4172942863
 20
59.6612568347
 30
0.0
 10
49.9761455284
 20
58.6153187857
 30
0.0
 10
50.4479644355
 20
57.5411897496
 30
0.0
 10
50.8245780529
 20
56.4574404119
 30
0.0
 10
51.099512485
 20
55.3826789432
 30
0.0
 10
51.267953749
 20
54.3355512661
 30
0.0
 10
51.3085106076
 20
53.6465653053
 30
0.0
 10
51.3085106076
 20
53.3119940942
 30
0.0
  0
SPLINE
  5
270
100
AcDbEntity
  8
0
100
AcDbSpline
 62
7
  6
BYLAYER
 70
0
 71
3
 72
32
 73
28
 74
0
 42
0.0000001
 43
0.0000001
 44
0.0000000001
 40
0.0
 40
0.0
 40
0.0
 40
0.0
 40
0.0213268544
 40
0.0428820773
 40
0.0648820868
 40
0.0875211866
 40
0.1109650665
 40
0.1353458246
 40
0.1607629007
 40
0.1872817746
 40
0.2149390739
 40
0.2437425878
 40
0.2736770647
 40
0.3047047035
 40
0.3367698845
 40
0.369800281
 40
0.4383802153
 40
0.5096484988
 40
0.5826541028
 40
0.656366847
 40
0.7297254647
 40
0.801683598
 40
0.8712593826
 40
0.9048846422
 40
0.9376034498
 40
0.9693374983
 40
1.0
 40
1.0
 40
1.0
 40
1.0
 10
42.9800710865
 20
68.5536680571
 30
0.0
 10
43.1152119963
 20
68.6316972404
 30
0.0
 10
43.3973341463
 20
68.7713100485
 30
0.0
 10
43.8471368791
 20
68.9268069997
 30
0.0
 10
44.3219822101
 20
69.0280780954
 30
0.0
 10
44.8190237974
 20
69.0747120214
 30
0.0
 10
45.3355007797
 20
69.0665537916
 30
0.0
 10
45.8685891805
 20
69.0038935544
 30
0.0
 10
46.4154161327
 20
68.8871092275
 30
0.0
 10
46.9730980743
 20
68.71702281
 30
0.0
 10
47.5386524651
 20
68.4945339304
 30
0.0
 10
48.1091123909
 20
68.2209546582
 30
0.0
 10
48.6814196375
 20
67.897726717
 30
0.0
 10
49.2525440768
 20
67.5266438527
 30
0.0
 10
49.8194348737
 20
67.1096819328
 30
0.0
 10
50.5749474929
 20
66.487838648
 30
0.0
 10
51.4876797799
 20
65.6087666038
 30
0.0
 10
52.5049887962
 20
64.4267640643
 30
0.0
 10
53.4364506809
 20
63.1295100802
 30
0.0
 10
54.2621329801
 20
61.7447618427
 30
0.0
 10
54.9644545482
 20
60.3019970634
 30
0.0
 10
55.5283974047
 20
58.8320997987
 30
0.0
 10
55.8770173598
 20
57.596533496
 30
0.0
 10
56.0743724974
 20
56.6213951333
 30
0.0
 10
56.1797195714
 20
55.9111554099
 30
0.0
 10
56.2434240042
 20
55.2177555979
 30
0.0
 10
56.258249244
 20
54.7610929771
 30
0.0
 10
56.258249244
 20
54.5367333545
 30
0.0
  0
SPLINE
  5
271
100
AcDbEntity
  8
0
100
AcDbSpline
 62
7
  6
BYLAYER
 70
0
 71
3
 72
16
 73
12
 74
0
 42
0.0000001
 43
0.0000001
 44
0.0000000001
 40
0.0
 40
0.0
 40
0.0
 40
0.0
 40
0.0539202354
 40
0.1080987122
 40
0.2181374411
 40
0.3320634614
 40
0.4514101374
 40
0.5773189985
 40
0.7105213467
 40
0.851425139
 40
1.0
 40
1.0
 40
1.0
 40
1.0
 10
39.4445520393
 20
66.512447044
 30
0.0
 10
39.3545131841
 20
66.4604594396
 30
0.0
 10
39.1783466391
 20
66.348477659
 30
0.0
 10
38.8433982014
 20
66.093398239
 30
0.0
 10
38.4592047492
 20
65.7154042175
 30
0.0
 10
38.065268546
 20
65.1803050459
 30
0.0
 10
37.738966004
 20
64.5668744945
 30
0.0
 10
37.4830438327
 20
63.8814808485
 30
0.0
 10
37.2993612949
 20
63.1307186449
 30
0.0
 10
37.1894121268
 20
62.3218550019
 30
0.0
 10
37.1663161047
 20
61.7632932715
 30
0.0
 10
37.1663161047
 20
61.4768091846
 30
0.0
  0
SPLINE
  5
272
100
AcDbEntity
  8
0
100
AcDbSpline
 62
7
  6
BYLAYER
 70
0
 71
3
 72
18
 73
14
 74
0
 42
0.0000001
 43
0.0000001
 44
0.0000000001
 40
0.0
 40
0.0
 40
0.0
 40
0.0
 40
0.0554336541
 40
0.1104344253
 40
0.1653556867
 40
0.2205527782
 40
0.2763726852
 40
0.3331417555
 40
0.4505841391
 40
0.5749690873
 40
0.7076109988
 40
0.8492522403
 40
1.0
 40
1.0
 40
1.0
 40
1.0
 10
42.3266453933
 20
65.2109033473
 30
0.0
 10
42.2368856605
 20
65.1825162237
 30
0.0
 10
42.0606322948
 20
65.1174051472
 30
0.0
 10
41.8076318265
 20
64.9945439769
 30
0.0
 10
41.5683089071
 20
64.8475111193
 30
0.0
 10
41.3435410268
 20
64.6767835031
 30
0.0
 10
41.1340700349
 20
64.482949466
 30
0.0
 10
40.8732048096
 20
64.1914923009
 30
0.0
 10
40.5885320203
 20
63.7684434348
 30
0.0
 10
40.3232830863
 20
63.1878058584
 30
0.0
 10
40.1325987984
 20
62.535995184
 30
0.0
 10
40.0184793498
 20
61.8216245814
 30
0.0
 10
39.9947461734
 20
61.3245846755
 30
0.0
 10
39.9947461734
 20
61.0685735291
 30
0.0
  0
SPLINE
  5
273
100
AcDbEntity
  8
0
100
AcDbSpline
 62
7
  6
BYLAYER
 70
0
 71
3
 72
26
 73
22
 74
0
 42
0.0000001
 43
0.0000001
 44
0.0000000001
 40
0.0
 40
0.0
 40
0.0
 40
0.0
 40
0.0624296727
 40
0.1288276896
 40
0.1984832391
 40
0.2705236704
 40
0.3439599812
 40
0.4177403686
 40
0.4907965645
 40
0.5620934425
 40
0.6306763698
 40
0.69572388
 40
0.7566073809
 40
0.8129620105
 40
0.8394424401
 40
0.8648200741
 40
0.9125118657
 40
0.9351248078
 40
0.9571088435
 40
0.978660884
 40
1.0
 40
1.0
 40
1.0
 40
1.0
 10
48.5154298429
 20
54.5571268657
 30
0.0
 10
48.5154298429
 20
54.7858375408
 30
0.0
 10
48.484367824
 20
55.2581126115
 30
0.0
 10
48.3565943075
 20
55.9751763996
 30
0.0
 10
48.1488620096
 20
56.709899938
 30
0.0
 10
47.8656584851
 20
57.4464985609
 30
0.0
 10
47.5130177532
 20
58.1692922009
 30
0.0
 10
47.0985062993
 20
58.8627903716
 30
0.0
 10
46.6310019804
 20
59.5121296608
 30
0.0
 10
46.120510414
 20
60.1034090311
 30
0.0
 10
45.5779198382
 20
60.6239975184
 30
0.0
 10
45.0146607499
 20
61.0628301383
 30
0.0
 10
44.4426020269
 20
61.4105047907
 30
0.0
 10
43.9583291178
 20
61.622362171
 30
0.0
 10
43.5781577147
 20
61.7364060601
 30
0.0
 10
43.2208359425
 20
61.810790336
 30
0.0
 10
42.8681715688
 20
61.8344585255
 30
0.0
 10
42.5311641276
 20
61.8002919308
 30
0.0
 10
42.2939749672
 20
61.7477059641
 30
0.0
 10
42.0694877287
 20
61.6678746081
 30
0.0
 10
41.9288492067
 20
61.5966655405
 30
0.0
 10
41.8615165409
 20
61.5569446034
 30
0.0
  0
SPLINE
  5
274
100
AcDbEntity
  8
0
100
AcDbSpline
 62
7
  6
BYLAYER
 70
0
 71
3
 72
10
 73
6
 74
0
 42
0.0000001
 43
0.0000001
 44
0.0000000001
 40
0.0
 40
0.0
 40
0.0
 40
0.0
 40
0.4723389907
 40
0.7293290343
 40
1.0
 40
1.0
 40
1.0
 40
1.0
 10
48.2283507398
 20
53.0295548457
 30
0.0
 10
48.3280010897
 20
53.2546547333
 30
0.0
 10
48.435184726
 20
53.6239378861
 30
0.0
 10
48.5041831657
 20
54.1407789071
 30
0.0
 10
48.5154298429
 20
54.4160600931
 30
0.0
 10
48.5154298429
 20
54.5571268657
 30
0.0
  0
SPLINE
  5
275
100
AcDbEntity
  8
0
100
AcDbSpline
 62
7
  6
BYLAYER
 70
0
 71
3
 72
30
 73
26
 74
0
 42
0.0000001
 43
0.0000001
 44
0.0000000001
 40
0.0
 40
0.0
 40
0.0
 40
0.0
 40
0.0222238848
 40
0.044099377
 40
0.0658932543
 40
0.0878780047
 40
0.1103145438
 40
0.1334373123
 40
0.1824207212
 40
0.2086231851
 40
0.2360512872
 40
0.2647396285
 40
0.294687493
 40
0.3258658764
 40
0.3582185175
 40
0.4260912595
 40
0.4975059958
 40
0.5714167673
 40
0.6466411459
 40
0.7219285915
 40
0.7960237319
 40
0.8677368366
 40
0.9360040848
 40
0.9685921982
 40
1.0
 40
1.0
 40
1.0
 40
1.0
 10
42.5109729874
 20
62.3945163409
 30
0.0
 10
42.5738244528
 20
62.4636179944
 30
0.0
 10
42.7075074864
 20
62.5929294563
 30
0.0
 10
42.9313550737
 20
62.7574215601
 30
0.0
 10
43.1748791512
 20
62.8890886835
 30
0.0
 10
43.4362853292
 20
62.9870403933
 30
0.0
 10
43.7138123307
 20
63.0506219506
 30
0.0
 10
44.1101073936
 20
63.0900075374
 30
0.0
 10
44.5258513261
 20
63.0562072744
 30
0.0
 10
44.9464238794
 20
62.9590838605
 30
0.0
 10
45.275621906
 20
62.8509853079
 30
0.0
 10
45.6091208767
 20
62.7099440273
 30
0.0
 10
45.9450091141
 20
62.5369176268
 30
0.0
 10
46.2811712475
 20
62.3329503696
 30
0.0
 10
46.7341958314
 20
62.0164691171
 30
0.0
 10
47.2868255234
 20
61.5500727922
 30
0.0
 10
47.9076212072
 20
60.9018254604
 30
0.0
 10
48.4814178789
 20
60.1719704437
 30
0.0
 10
48.9940198893
 20
59.3785706529
 30
0.0
 10
49.432787907
 20
58.5412030148
 30
0.0
 10
49.7868981844
 20
57.6805146261
 30
0.0
 10
50.0475729774
 20
56.8178126949
 30
0.0
 10
50.1837709452
 20
56.1036654486
 30
0.0
 10
50.2384112269
 20
55.550149413
 30
0.0
 10
50.247837188
 20
55.2810932092
 30
0.0
 10
50.247837188
 20
55.1490825885
 30
0.0
  0
SPLINE
  5
276
100
AcDbEntity
  8
0
100
AcDbSpline
 62
7
  6
BYLAYER
 70
0
 71
3
 72
14
 73
10
 74
0
 42
0.0000001
 43
0.0000001
 44
0.0000000001
 40
0.0
 40
0.0
 40
0.0
 40
0.0
 40
0.2615793977
 40
0.3877316369
 40
0.5115995889
 40
0.6339414446
 40
0.7555670534
 40
0.8773097837
 40
1.0
 40
1.0
 40
1.0
 40
1.0
 10
48.5729054902
 20
49.8410304332
 30
0.0
 10
48.7793862302
 20
49.8344816732
 30
0.0
 10
49.0873371283
 20
49.8495347919
 30
0.0
 10
49.4845975874
 20
49.9257387896
 30
0.0
 10
49.7672191898
 20
50.008798849
 30
0.0
 10
50.0368564237
 20
50.1181962158
 30
0.0
 10
50.2925557403
 20
50.2535822723
 30
0.0
 10
50.5333745999
 20
50.4143893154
 30
0.0
 10
50.6825552482
 20
50.53750522
 30
0.0
 10
50.7541770459
 20
50.6027668813
 30
0.0
  0
SPLINE
  5
277
100
AcDbEntity
  8
0
100
AcDbSpline
 62
7
  6
BYLAYER
 70
0
 71
3
 72
18
 73
14
 74
0
 42
0.0000001
 43
0.0000001
 44
0.0000000001
 40
0.0
 40
0.0
 40
0.0
 40
0.0
 40
0.1513502373
 40
0.2929903671
 40
0.4250823069
 40
0.5485765681
 40
0.6651143117
 40
0.7215724933
 40
0.7772494623
 40
0.832531367
 40
0.887818913
 40
0.9435130061
 40
1.0
 40
1.0
 40
1.0
 40
1.0
 10
50.247837188
 20
55.1490825885
 30
0.0
 10
50.247837188
 20
54.9577351712
 30
0.0
 10
50.229092982
 20
54.5869046969
 30
0.0
 10
50.1386081934
 20
54.0557582401
 30
0.0
 10
49.9873718844
 20
53.5749770068
 30
0.0
 10
49.7771200728
 20
53.1517430052
 30
0.0
 10
49.5517868097
 20
52.8491043999
 30
0.0
 10
49.3461430717
 20
52.6452885785
 30
0.0
 10
49.1811194749
 20
52.5121300188
 30
0.0
 10
49.0043851225
 20
52.3976681442
 30
0.0
 10
48.8165745163
 20
52.3023977305
 30
0.0
 10
48.6184849993
 20
52.2266323601
 30
0.0
 10
48.4812740777
 20
52.189649453
 30
0.0
 10
48.4114951717
 20
52.1744516975
 30
0.0
  0
SPLINE
  5
278
100
AcDbEntity
  8
0
100
AcDbSpline
 62
7
  6
BYLAYER
 70
0
 71
3
 72
32
 73
28
 74
0
 42
0.0000001
 43
0.0000001
 44
0.0000000001
 40
0.0
 40
0.0
 40
0.0
 40
0.0
 40
0.030662469
 40
0.0623963891
 40
0.0951150491
 40
0.1287402172
 40
0.1983158333
 40
0.2702739334
 40
0.3436326956
 40
0.4173456606
 40
0.4903514812
 40
0.5616200002
 40
0.6302001827
 40
0.663230685
 40
0.6952959343
 40
0.7263236056
 40
0.7562580624
 40
0.7850615247
 40
0.8127187396
 40
0.8392375231
 40
0.8646545066
 40
0.8890351864
 40
0.9124789986
 40
0.9351180475
 40
0.9571180094
 40
0.9786731899
 40
1.0
 40
1.0
 40
1.0
 40
1.0
 10
52.7227300579
 20
52.4955125851
 30
0.0
 10
52.7227300579
 20
52.7198719679
 30
0.0
 10
52.7079051
 20
53.176533419
 30
0.0
 10
52.6442007409
 20
53.8699309669
 30
0.0
 10
52.5388544923
 20
54.5801680865
 30
0.0
 10
52.3415002289
 20
55.555303583
 30
0.0
 10
51.9928818858
 20
56.7908680876
 30
0.0
 10
51.42894015
 20
58.2607653439
 30
0.0
 10
50.7266184331
 20
59.7035327574
 30
0.0
 10
49.9009345087
 20
61.0882850052
 30
0.0
 10
48.9694699343
 20
62.3855431324
 30
0.0
 10
47.9521574257
 20
63.5675494703
 30
0.0
 10
47.0394214431
 20
64.4466239026
 30
0.0
 10
46.2839061416
 20
65.0684688131
 30
0.0
 10
45.7170134595
 20
65.4854307141
 30
0.0
 10
45.1458883218
 20
65.8565136002
 30
0.0
 10
44.5735806369
 20
66.1797401775
 30
0.0
 10
44.0031215407
 20
66.4533185376
 30
0.0
 10
43.4375682151
 20
66.6758055944
 30
0.0
 10
42.8798879977
 20
66.8458909448
 30
0.0
 10
42.3330627066
 20
66.9626738601
 30
0.0
 10
41.7999759956
 20
67.025333524
 30
0.0
 10
41.2835004588
 20
67.0334908474
 30
0.0
 10
40.7864600713
 20
66.9868570403
 30
0.0
 10
40.3116159615
 20
66.8855852876
 30
0.0
 10
39.861813974
 20
66.7300891687
 30
0.0
 10
39.5796926979
 20
66.5904760137
 30
0.0
 10
39.4445520393
 20
66.512447044
 30
0.0
  0
SPLINE
  5
279
100
AcDbEntity
  8
0
100
AcDbSpline
 62
7
  6
BYLAYER
 70
0
 71
3
 72
11
 73
7
 74
0
 42
0.0000001
 43
0.0000001
 44
0.0000000001
 40
0.0
 40
0.0
 40
0.0
 40
0.0
 40
0.2552391079
 40
0.5039566794
 40
0.7506485108
 40
1.0
 40
1.0
 40
1.0
 40
1.0
 10
50.3784024392
 20
50.0239184832
 30
0.0
 10
50.2723933783
 20
49.8843167239
 30
0.0
 10
50.0418742058
 20
49.6238828223
 30
0.0
 10
49.6398754164
 20
49.297398349
 30
0.0
 10
49.1918825308
 20
49.0456354463
 30
0.0
 10
48.8692156935
 20
48.9307405032
 30
0.0
 10
48.7038075515
 20
48.8864062729
 30
0.0
  0
SPLINE
  5
27A
100
AcDbEntity
  8
0
100
AcDbSpline
 62
7
  6
BYLAYER
 70
0
 71
3
 72
9
 73
5
 74
0
 42
0.0000001
 43
0.0000001
 44
0.0000000001
 40
0.0
 40
0.0
 40
0.0
 40
0.0
 40
0.255354595
 40
1.0
 40
1.0
 40
1.0
 40
1.0
 10
38.626401497
 20
59.7532478676
 30
0.0
 10
38.6188185294
 20
59.8301999788
 30
0.0
 10
38.5926058372
 20
60.1318807773
 30
0.0
 10
38.580535555
 20
60.4348389708
 30
0.0
 10
38.580535555
 20
60.6603276755
 30
0.0
  0
SPLINE
  5
27B
100
AcDbEntity
  8
0
100
AcDbSpline
 62
7
  6
BYLAYER
 70
0
 71
3
 72
20
 73
16
 74
0
 42
0.0000001
 43
0.0000001
 44
0.0000000001
 40
0.0
 40
0.0
 40
0.0
 40
0.0
 40
0.1517002221
 40
0.2930602277
 40
0.4243814068
 40
0.4866646377
 40
0.5469402013
 40
0.6054937127
 40
0.6626630062
 40
0.7188356947
 40
0.7744346716
 40
0.8299070884
 40
0.8857045074
 40
0.9422658872
 40
1.0
 40
1.0
 40
1.0
 40
1.0
 10
38.580535555
 20
60.6603276755
 30
0.0
 10
38.580535555
 20
60.9632924187
 30
0.0
 10
38.6117719343
 20
61.5493404572
 30
0.0
 10
38.7632515217
 20
62.3856492362
 30
0.0
 10
38.9780824729
 20
63.0224918742
 30
0.0
 10
39.2009623016
 20
63.4785660237
 30
0.0
 10
39.3889203627
 20
63.7882338927
 30
0.0
 10
39.5997896926
 20
64.070167734
 30
0.0
 10
39.8328207229
 20
64.3231088452
 30
0.0
 10
40.0869891909
 20
64.5459995149
 30
0.0
 10
40.3612938552
 20
64.7377658134
 30
0.0
 10
40.6544921461
 20
64.8976154241
 30
0.0
 10
40.9653390524
 20
65.0248057744
 30
0.0
 10
41.2924071945
 20
65.1188310795
 30
0.0
 10
41.5176369774
 20
65.1587005798
 30
0.0
 10
41.6320273686
 20
65.1731741182
 30
0.0
  0
SPLINE
  5
27C
100
AcDbEntity
  8
0
100
AcDbSpline
 62
7
  6
BYLAYER
 70
0
 71
3
 72
16
 73
12
 74
0
 42
0.0000001
 43
0.0000001
 44
0.0000000001
 40
0.0
 40
0.0
 40
0.0
 40
0.0
 40
0.0539202354
 40
0.1080987122
 40
0.2181374411
 40
0.3320634614
 40
0.4514101374
 40
0.5773189985
 40
0.7105213467
 40
0.851425139
 40
1.0
 40
1.0
 40
1.0
 40
1.0
 10
50.4444941233
 20
47.4598747256
 30
0.0
 10
50.5345329785
 20
47.5118623301
 30
0.0
 10
50.7106995236
 20
47.6238441107
 30
0.0
 10
51.0456479612
 20
47.8789235307
 30
0.0
 10
51.4298414134
 20
48.2569175522
 30
0.0
 10
51.8237776166
 20
48.7920167238
 30
0.0
 10
52.1500801587
 20
49.4054472752
 30
0.0
 10
52.4060023299
 20
50.0908409211
 30
0.0
 10
52.5896848677
 20
50.8416031248
 30
0.0
 10
52.6996340358
 20
51.6504667678
 30
0.0
 10
52.7227300579
 20
52.2090284982
 30
0.0
 10
52.7227300579
 20
52.4955125851
 30
0.0
  0
SPLINE
  5
27D
100
AcDbEntity
  8
0
100
AcDbSpline
 62
7
  6
BYLAYER
 70
0
 71
3
 72
15
 73
11
 74
0
 42
0.0000001
 43
0.0000001
 44
0.0000000001
 40
0.0
 40
0.0
 40
0.0
 40
0.0
 40
0.1485639735
 40
0.2895079081
 40
0.4227268722
 40
0.5486379104
 40
0.6680003772
 40
0.7819371438
 40
0.8919854664
 40
1.0
 40
1.0
 40
1.0
 40
1.0
 10
52.9348538492
 20
29.1435194529
 30
0.0
 10
52.9348538492
 20
28.8896338264
 30
0.0
 10
52.9143495158
 20
28.3945458151
 30
0.0
 10
52.8169454403
 20
27.6775850695
 30
0.0
 10
52.654133724
 20
27.0120997818
 30
0.0
 10
52.4272355929
 20
26.4046141122
 30
0.0
 10
52.1381007474
 20
25.8608871834
 30
0.0
 10
51.78880109
 20
25.3865571499
 30
0.0
 10
51.3827223569
 20
24.9868652202
 30
0.0
 10
51.0753567597
 20
24.7724263161
 30
0.0
 10
50.9155033995
 20
24.6801216209
 30
0.0
  0
SPLINE
  5
27E
100
AcDbEntity
  8
0
100
AcDbSpline
 62
7
  6
BYLAYER
 70
0
 71
3
 72
14
 73
10
 74
0
 42
0.0000001
 43
0.0000001
 44
0.0000000001
 40
0.0
 40
0.0
 40
0.0
 40
0.0
 40
0.1087929481
 40
0.2195132364
 40
0.3339172261
 40
0.4534766058
 40
0.5793164613
 40
0.7121765717
 40
1.0
 40
1.0
 40
1.0
 40
1.0
 10
38.8647874726
 20
32.733717408
 30
0.0
 10
38.916341573
 20
32.7634814323
 30
0.0
 10
39.02554217
 20
32.8150274226
 30
0.0
 10
39.2019625871
 20
32.8653101716
 30
0.0
 10
39.3898199805
 20
32.8886843236
 30
0.0
 10
39.5872612899
 20
32.8849830646
 30
0.0
 10
39.7925048489
 20
32.8544119983
 30
0.0
 10
40.0817122221
 20
32.7764052951
 30
0.0
 10
40.2933300047
 20
32.6812686826
 30
0.0
 10
40.4314458768
 20
32.605589331
 30
0.0
  0
SPLINE
  5
27F
100
AcDbEntity
  8
0
100
AcDbSpline
 62
7
  6
BYLAYER
 70
0
 71
3
 72
23
 73
19
 74
0
 42
0.0000001
 43
0.0000001
 44
0.0000000001
 40
0.0
 40
0.0
 40
0.0
 40
0.0
 40
0.0434258694
 40
0.0880166248
 40
0.1347897537
 40
0.1845179464
 40
0.2376999
 40
0.2945708066
 40
0.3551373655
 40
0.4192211449
 40
0.4864911404
 40
0.5564958113
 40
0.6286937262
 40
0.7024741484
 40
0.7771797414
 40
0.852127408
 40
0.9266254446
 40
1.0
 40
1.0
 40
1.0
 40
1.0
 10
34.2399350394
 20
35.0287753659
 30
0.0
 10
34.3884182718
 20
35.1145018313
 30
0.0
 10
34.7082194726
 20
35.2575731272
 30
0.0
 10
35.230636816
 20
35.3744538835
 30
0.0
 10
35.7902235044
 20
35.3942728458
 30
0.0
 10
36.3785797978
 20
35.3178586454
 30
0.0
 10
36.9878636244
 20
35.1471629923
 30
0.0
 10
37.6100872506
 20
34.8850504354
 30
0.0
 10
38.2371473533
 20
34.5354022851
 30
0.0
 10
38.8607319396
 20
34.1030335391
 30
0.0
 10
39.4724841968
 20
33.5938498866
 30
0.0
 10
40.0641752222
 20
33.0148325384
 30
0.0
 10
40.6277455152
 20
32.3738594548
 30
0.0
 10
41.1554856697
 20
31.6796739294
 30
0.0
 10
41.6402105052
 20
30.9418092544
 30
0.0
 10
42.0752736751
 20
30.1703515206
 30
0.0
 10
42.4546649119
 20
29.3759072095
 30
0.0
 10
42.6693600926
 20
28.8323632148
 30
0.0
 10
42.7658633052
 20
28.5592127024
 30
0.0
  0
SPLINE
  5
280
100
AcDbEntity
  8
0
100
AcDbSpline
 62
7
  6
BYLAYER
 70
0
 71
3
 72
11
 73
7
 74
0
 42
0.0000001
 43
0.0000001
 44
0.0000000001
 40
0.0
 40
0.0
 40
0.0
 40
0.0
 40
0.2650701863
 40
0.5213025713
 40
0.7668649844
 40
1.0
 40
1.0
 40
1.0
 40
1.0
 10
42.7658633052
 20
28.5592127024
 30
0.0
 10
42.8606276547
 20
28.2909840093
 30
0.0
 10
43.0281908301
 20
27.7565631553
 30
0.0
 10
43.2134676331
 20
26.9537979015
 30
0.0
 10
43.326545257
 20
26.1722720732
 30
0.0
 10
43.3535839015
 20
25.6582813122
 30
0.0
 10
43.3535839015
 20
25.4080779664
 30
0.0
  0
SPLINE
  5
281
100
AcDbEntity
  8
0
100
AcDbSpline
 62
7
  6
BYLAYER
 70
0
 71
3
 72
22
 73
18
 74
0
 42
0.0000001
 43
0.0000001
 44
0.0000000001
 40
0.0
 40
0.0
 40
0.0
 40
0.0
 40
0.0428181529
 40
0.0874060753
 40
0.1351959745
 40
0.1871110092
 40
0.243565654
 40
0.3045312452
 40
0.3696362332
 40
0.4382536528
 40
0.5095604172
 40
0.5826045303
 40
0.7296227011
 40
0.8016207957
 40
0.8712280909
 40
0.9376183761
 40
1.0
 40
1.0
 40
1.0
 40
1.0
 10
38.9380085211
 20
56.693718779
 30
0.0
 10
39.0058038597
 20
56.7328595158
 30
0.0
 10
39.1552452086
 20
56.7949843358
 30
0.0
 10
39.4019452005
 20
56.8311420939
 30
0.0
 10
39.6668578242
 20
56.8116221104
 30
0.0
 10
39.9441156452
 20
56.7379852278
 30
0.0
 10
40.2282567117
 20
56.6123996586
 30
0.0
 10
40.5136257858
 20
56.4378002041
 30
0.0
 10
40.7944558041
 20
56.2179723717
 30
0.0
 10
41.0648664892
 20
55.9575336804
 30
0.0
 10
41.3192240595
 20
55.66199188
 30
0.0
 10
41.6301965164
 20
55.2288880199
 30
0.0
 10
41.8857988155
 20
54.7565210669
 30
0.0
 10
42.0750713217
 20
54.2633935916
 30
0.0
 10
42.1785067518
 20
53.8968184008
 30
0.0
 10
42.2420452981
 20
53.5391333945
 30
0.0
 10
42.2575446917
 20
53.3035496304
 30
0.0
 10
42.2575446917
 20
53.1894996021
 30
0.0
  0
SPLINE
  5
282
100
AcDbEntity
  8
0
100
AcDbSpline
 62
7
  6
BYLAYER
 70
0
 71
3
 72
25
 73
21
 74
0
 42
0.0000001
 43
0.0000001
 44
0.0000000001
 40
0.0
 40
0.0
 40
0.0
 40
0.0
 40
0.0213322451
 40
0.0428931654
 40
0.0648987179
 40
0.0875442887
 40
0.1353194831
 40
0.1872202642
 40
0.2436582607
 40
0.3046056757
 40
0.3696920876
 40
0.4382882603
 40
0.5095742522
 40
0.5825983122
 40
0.6563285518
 40
0.7297047051
 40
0.8016828597
 40
0.8712695705
 40
0.9376259717
 40
1.0
 40
1.0
 40
1.0
 40
1.0
 10
41.6642103909
 20
61.4431196083
 30
0.0
 10
41.7317830675
 20
61.482130357
 30
0.0
 10
41.8728565189
 20
61.551914543
 30
0.0
 10
42.0977494903
 20
61.6296747459
 30
0.0
 10
42.3351848088
 20
61.6803303142
 30
0.0
 10
42.6724227482
 20
61.7119376004
 30
0.0
 10
43.1220576496
 20
61.678956633
 30
0.0
 10
43.6764440903
 20
61.5316112791
 30
0.0
 10
44.2447624471
 20
61.2804455894
 30
0.0
 10
44.8155009198
 20
60.9312527626
 30
0.0
 10
45.3771365866
 20
60.4915719322
 30
0.0
 10
45.9179877121
 20
59.9707023774
 30
0.0
 10
46.4266611639
 20
59.3796669629
 30
0.0
 10
46.8923734839
 20
58.7310488225
 30
0.0
 10
47.3052243229
 20
58.0386841024
 30
0.0
 10
47.6563959454
 20
57.3173172344
 30
0.0
 10
47.938344231
 20
56.5823498948
 30
0.0
 10
48.1452032473
 20
55.8493145825
 30
0.0
 10
48.2723464893
 20
55.1339495265
 30
0.0
 10
48.3032986917
 20
54.6627934774
 30
0.0
 10
48.3032986917
 20
54.4346536196
 30
0.0
  0
SPLINE
  5
283
100
AcDbEntity
  8
0
100
AcDbSpline
 62
7
  6
BYLAYER
 70
0
 71
3
 72
15
 73
11
 74
0
 42
0.0000001
 43
0.0000001
 44
0.0000000001
 40
0.0
 40
0.0
 40
0.0
 40
0.0
 40
0.1080131067
 40
0.2180602996
 40
0.3319962974
 40
0.4513582379
 40
0.5772689405
 40
0.7104887362
 40
0.8514351018
 40
1.0
 40
1.0
 40
1.0
 40
1.0
 10
33.139936081
 20
36.9340408845
 30
0.0
 10
32.9800847616
 20
36.8417375508
 30
0.0
 10
32.6727225465
 20
36.6273015722
 30
0.0
 10
32.2666469941
 20
36.2276145765
 30
0.0
 10
31.9173487862
 20
35.7532887984
 30
0.0
 10
31.6282117138
 20
35.2095662455
 30
0.0
 10
31.4013121029
 20
34.602081208
 30
0.0
 10
31.2384957175
 20
33.9365918715
 30
0.0
 10
31.1410923389
 20
33.2196237945
 30
0.0
 10
31.1205856564
 20
32.7245302128
 30
0.0
 10
31.1205856564
 20
32.4706430196
 30
0.0
  0
SPLINE
  5
284
100
AcDbEntity
  8
0
100
AcDbSpline
 62
7
  6
BYLAYER
 70
0
 71
3
 72
11
 73
7
 74
0
 42
0.0000001
 43
0.0000001
 44
0.0000000001
 40
0.0
 40
0.0
 40
0.0
 40
0.0
 40
0.2301040998
 40
0.4756645592
 40
0.733516691
 40
1.0
 40
1.0
 40
1.0
 40
1.0
 10
36.4238894592
 20
56.5574858268
 30
0.0
 10
36.4238894592
 20
56.3132200513
 30
0.0
 10
36.459385611
 20
55.8079199246
 30
0.0
 10
36.6043501494
 20
55.0413894135
 30
0.0
 10
36.8394905105
 20
54.2572723731
 30
0.0
 10
37.0501624792
 20
53.7410469247
 30
0.0
 10
37.1688616696
 20
53.4842711075
 30
0.0
  0
SPLINE
  5
285
100
AcDbEntity
  8
0
100
AcDbSpline
 62
7
  6
BYLAYER
 70
0
 71
3
 72
18
 73
14
 74
0
 42
0.0000001
 43
0.0000001
 44
0.0000000001
 40
0.0
 40
0.0
 40
0.0
 40
0.0
 40
0.1567253172
 40
0.3074182627
 40
0.449381617
 40
0.5805851375
 40
0.6999761744
 40
0.7553517516
 40
0.8080305941
 40
0.8583325978
 40
0.9067039522
 40
0.9537070618
 40
1.0
 40
1.0
 40
1.0
 40
1.0
 10
38.0259385053
 20
52.000397297
 30
0.0
 10
38.2088441974
 20
51.7412178804
 30
0.0
 10
38.5938986103
 20
51.2507019755
 30
0.0
 10
39.2312084267
 20
50.5991298953
 30
0.0
 10
39.9020805524
 20
50.0605337423
 30
0.0
 10
40.5863970087
 20
49.6513788863
 30
0.0
 10
41.1663231347
 20
49.4231950821
 30
0.0
 10
41.6163452571
 20
49.3224161815
 30
0.0
 10
41.9357359876
 20
49.2876853014
 30
0.0
 10
42.2428887391
 20
49.2923817917
 30
0.0
 10
42.535403554
 20
49.3365971599
 30
0.0
 10
42.8107134689
 20
49.420273765
 30
0.0
 10
42.9818309278
 20
49.5021718138
 30
0.0
 10
43.062977429
 20
49.5490204045
 30
0.0
  0
SPLINE
  5
286
100
AcDbEntity
  8
0
100
AcDbSpline
 62
7
  6
BYLAYER
 70
0
 71
3
 72
14
 73
10
 74
0
 42
0.0000001
 43
0.0000001
 44
0.0000000001
 40
0.0
 40
0.0
 40
0.0
 40
0.0
 40
0.2892456809
 40
0.4225677902
 40
0.548515718
 40
0.6678917673
 40
0.7818656847
 40
0.8919553443
 40
1.0
 40
1.0
 40
1.0
 40
1.0
 10
42.2575446917
 20
53.1894996021
 30
0.0
 10
42.2575446917
 20
53.0501267925
 30
0.0
 10
42.2412472788
 20
52.8455161562
 30
0.0
 10
42.178375953
 20
52.5883362471
 30
0.0
 10
42.1143714343
 20
52.4169615874
 30
0.0
 10
42.0328029086
 20
52.2636317878
 30
0.0
 10
41.9342774062
 20
52.1298647707
 30
0.0
 10
41.8197708058
 20
52.0171008537
 30
0.0
 10
41.7330639906
 20
51.9566347333
 30
0.0
 10
41.6879773741
 20
51.930604575
 30
0.0
  0
SPLINE
  5
287
100
AcDbEntity
  8
0
100
AcDbSpline
 62
7
  6
BYLAYER
 70
0
 71
3
 72
9
 73
5
 74
0
 42
0.0000001
 43
0.0000001
 44
0.0000000001
 40
0.0
 40
0.0
 40
0.0
 40
0.0
 40
0.514717641
 40
1.0
 40
1.0
 40
1.0
 40
1.0
 10
48.3032986917
 20
54.4346536196
 30
0.0
 10
48.3032986917
 20
54.2753935766
 30
0.0
 10
48.2890268187
 20
53.9657586013
 30
0.0
 10
48.2421919992
 20
53.659137532
 30
0.0
 10
48.2103581616
 20
53.5123984774
 30
0.0
  0
SPLINE
  5
288
100
AcDbEntity
  8
0
100
AcDbSpline
 62
7
  6
BYLAYER
 70
0
 71
3
 72
14
 73
10
 74
0
 42
0.0000001
 43
0.0000001
 44
0.0000000001
 40
0.0
 40
0.0
 40
0.0
 40
0.0
 40
0.28521525
 40
0.4173484702
 40
0.5429417605
 40
0.6627900872
 40
0.7779809162
 40
0.8898552738
 40
1.0
 40
1.0
 40
1.0
 40
1.0
 10
42.7820282177
 20
28.4069600629
 30
0.0
 10
42.7727485301
 20
28.2624450046
 30
0.0
 10
42.7425726724
 20
28.0510635525
 30
0.0
 10
42.6616223756
 20
27.7870939384
 30
0.0
 10
42.5850466285
 20
27.6108395469
 30
0.0
 10
42.4915148437
 20
27.4528311855
 30
0.0
 10
42.381744455
 20
27.3143247833
 30
0.0
 10
42.2565876076
 20
27.1965973118
 30
0.0
 10
42.1631821786
 20
27.1325444256
 30
0.0
 10
42.1147503411
 20
27.1045829952
 30
0.0
  0
SPLINE
  5
289
100
AcDbEntity
  8
0
100
AcDbSpline
 62
7
  6
BYLAYER
 70
0
 71
3
 72
15
 73
11
 74
0
 42
0.0000001
 43
0.0000001
 44
0.0000000001
 40
0.0
 40
0.0
 40
0.0
 40
0.0
 40
0.1485541119
 40
0.2895076663
 40
0.4227309912
 40
0.5486390237
 40
0.6680003354
 40
0.7819387324
 40
0.8919869439
 40
1.0
 40
1.0
 40
1.0
 40
1.0
 10
43.3535839015
 20
25.4080779664
 30
0.0
 10
43.3535839015
 20
25.2114925217
 30
0.0
 10
43.3376944945
 20
24.8281182635
 30
0.0
 10
43.2622880154
 20
24.2729252662
 30
0.0
 10
43.1361996125
 20
23.7575895563
 30
0.0
 10
42.9605095992
 20
23.2871730196
 30
0.0
 10
42.7365954727
 20
22.8661480235
 30
0.0
 10
42.4661250658
 20
22.4988382902
 30
0.0
 10
42.1516793785
 20
22.1893266917
 30
0.0
 10
41.9136626279
 20
22.0232839454
 30
0.0
 10
41.7898759138
 20
21.9518159602
 30
0.0
  0
SPLINE
  5
28A
100
AcDbEntity
  8
0
100
AcDbSpline
 62
7
  6
BYLAYER
 70
0
 71
3
 72
26
 73
22
 74
0
 42
0.0000001
 43
0.0000001
 44
0.0000000001
 40
0.0
 40
0.0
 40
0.0
 40
0.0
 40
0.0623771765
 40
0.1287158565
 40
0.1983024904
 40
0.2702746889
 40
0.3436469124
 40
0.4173749632
 40
0.4903954833
 40
0.5616780994
 40
0.630271294
 40
0.6953547061
 40
0.7562982036
 40
0.8127316938
 40
0.8646288778
 40
0.8890144817
 40
0.9124622053
 40
0.9351058175
 40
0.95710971
 40
0.9786690842
 40
1.0
 40
1.0
 40
1.0
 40
1.0
 10
31.1205856564
 20
32.4706430196
 30
0.0
 10
31.1205856564
 20
32.0661674672
 30
0.0
 10
31.1753972939
 20
31.2309729114
 30
0.0
 10
31.40086327
 20
29.9628530776
 30
0.0
 10
31.7675008992
 20
28.6634365689
 30
0.0
 10
32.2673556041
 20
27.3605278194
 30
0.0
 10
32.8898755311
 20
26.0817255966
 30
0.0
 10
33.6217345928
 20
24.8543115363
 30
0.0
 10
34.4473475616
 20
23.7044732514
 30
0.0
 10
35.3491092292
 20
22.6567212419
 30
0.0
 10
36.3079005834
 20
21.7333318714
 30
0.0
 10
37.3035091455
 20
20.9538811247
 30
0.0
 10
38.3153741419
 20
20.3348774307
 30
0.0
 10
39.3225616945
 20
19.8896644788
 30
0.0
 10
40.1589125395
 20
19.6676013277
 30
0.0
 10
40.8021013455
 20
19.5919145296
 30
0.0
 10
41.2599019276
 20
19.5847490398
 30
0.0
 10
41.7004587583
 20
19.6260216957
 30
0.0
 10
42.121335905
 20
19.7158337763
 30
0.0
 10
42.5200322875
 20
19.8536274488
 30
0.0
 10
42.7700929579
 20
19.9773844812
 30
0.0
 10
42.8898748722
 20
20.0465504415
 30
0.0
  0
SPLINE
  5
28B
100
AcDbEntity
  8
0
100
AcDbSpline
 62
7
  6
BYLAYER
 70
0
 71
3
 72
16
 73
12
 74
0
 42
0.0000001
 43
0.0000001
 44
0.0000000001
 40
0.0
 40
0.0
 40
0.0
 40
0.0
 40
0.0551928138
 40
0.1126886293
 40
0.2336002999
 40
0.3608166354
 40
0.4918670557
 40
0.6240311044
 40
0.7545165128
 40
0.8806311333
 40
1.0
 40
1.0
 40
1.0
 40
1.0
 10
40.5958344824
 20
37.9412853917
 30
0.0
 10
40.805435848
 20
37.8202747244
 30
0.0
 10
41.2237685619
 20
37.5562171491
 30
0.0
 10
42.0497456945
 20
36.9492387163
 30
0.0
 10
43.0481513872
 20
36.0495176638
 30
0.0
 10
44.1493871692
 20
34.7994813024
 30
0.0
 10
45.1400050439
 20
33.399251265
 30
0.0
 10
45.9890850611
 20
31.8926466526
 30
0.0
 10
46.6702135337
 20
30.3263688678
 30
0.0
 10
47.1622105063
 20
28.7494954973
 30
0.0
 10
47.3604802237
 20
27.6879543307
 30
0.0
 10
47.4206210768
 20
27.1679775502
 30
0.0
  0
SPLINE
  5
28C
100
AcDbEntity
  8
0
100
AcDbSpline
 62
7
  6
BYLAYER
 70
0
 71
3
 72
10
 73
6
 74
0
 42
0.0000001
 43
0.0000001
 44
0.0000000001
 40
0.0
 40
0.0
 40
0.0
 40
0.0
 40
0.2406162059
 40
0.4853078514
 40
1.0
 40
1.0
 40
1.0
 40
1.0
 10
41.6879773741
 20
51.930604575
 30
0.0
 10
41.6453450604
 20
51.9059913759
 30
0.0
 10
41.5551529634
 20
51.8632258205
 30
0.0
 10
41.3581223148
 20
51.8058157675
 30
0.0
 10
41.2002467859
 20
51.7975024962
 30
0.0
 10
41.0952046367
 20
51.8048671209
 30
0.0
  0
SPLINE
  5
28D
100
AcDbEntity
  8
0
100
AcDbSpline
 62
7
  6
BYLAYER
 70
0
 71
3
 72
14
 73
10
 74
0
 42
0.0000001
 43
0.0000001
 44
0.0000000001
 40
0.0
 40
0.0
 40
0.0
 40
0.0
 40
0.1080584544
 40
0.218154605
 40
0.3321495454
 40
0.4515541649
 40
0.7103687823
 40
0.8514081634
 40
1.0
 40
1.0
 40
1.0
 40
1.0
 10
43.062977429
 20
49.5490204045
 30
0.0
 10
43.1531509857
 20
49.6010806165
 30
0.0
 10
43.3265014008
 20
49.7220842534
 30
0.0
 10
43.5556210921
 20
49.9474930203
 30
0.0
 10
43.7525969207
 20
50.2151356532
 30
0.0
 10
43.9760290746
 20
50.635048511
 30
0.0
 10
44.1193810969
 20
51.1202952295
 30
0.0
 10
44.190481719
 20
51.6442979935
 30
0.0
 10
44.2020964359
 20
51.9236577745
 30
0.0
 10
44.2020964359
 20
52.0668375271
 30
0.0
  0
SPLINE
  5
28E
100
AcDbEntity
  8
0
100
AcDbSpline
 62
7
  6
BYLAYER
 70
0
 71
3
 72
25
 73
21
 74
0
 42
0.0000001
 43
0.0000001
 44
0.0000000001
 40
0.0
 40
0.0
 40
0.0
 40
0.0
 40
0.0623734683
 40
0.1287285069
 40
0.1983146199
 40
0.2702924125
 40
0.3436686806
 40
0.4173997349
 40
0.4904250045
 40
0.5617123476
 40
0.6303095889
 40
0.6953965811
 40
0.7563441041
 40
0.812781803
 40
0.8646820157
 40
0.9124565551
 40
0.9351018234
 40
0.9571071201
 40
0.9786678749
 40
1.0
 40
1.0
 40
1.0
 40
1.0
 10
44.2020964359
 20
52.0668375271
 30
0.0
 10
44.2020964359
 20
52.2949753406
 30
0.0
 10
44.1711465217
 20
52.7661244762
 30
0.0
 10
44.0440047241
 20
53.4814804617
 30
0.0
 10
43.8371502038
 20
54.2145081175
 30
0.0
 10
43.555206373
 20
54.9494738659
 30
0.0
 10
43.2040364501
 20
55.6708439327
 30
0.0
 10
42.7911826407
 20
56.3632160646
 30
0.0
 10
42.3254637278
 20
57.0118446906
 30
0.0
 10
41.8167822017
 20
57.6028907715
 30
0.0
 10
41.2759219691
 20
58.1237668268
 30
0.0
 10
40.7142798485
 20
58.5634498812
 30
0.0
 10
40.1435386529
 20
58.9126411651
 30
0.0
 10
39.5752212726
 20
59.163802149
 30
0.0
 10
39.0208394571
 20
59.3111434065
 30
0.0
 10
38.5712101061
 20
59.3441211487
 30
0.0
 10
38.23397654
 20
59.3125138048
 30
0.0
 10
37.9965444842
 20
59.2618559235
 30
0.0
 10
37.7716528639
 20
59.1840982804
 30
0.0
 10
37.6305802359
 20
59.1143143935
 30
0.0
 10
37.5630084662
 20
59.0753029495
 30
0.0
  0
SPLINE
  5
28F
100
AcDbEntity
  8
0
100
AcDbSpline
 62
7
  6
BYLAYER
 70
0
 71
3
 72
11
 73
7
 74
0
 42
0.0000001
 43
0.0000001
 44
0.0000000001
 40
0.0
 40
0.0
 40
0.0
 40
0.0
 40
0.2649406866
 40
0.5174868783
 40
0.7611001395
 40
1.0
 40
1.0
 40
1.0
 40
1.0
 10
38.5102634279
 20
56.1947266084
 30
0.0
 10
38.533969298
 20
56.2487341879
 30
0.0
 10
38.5872021902
 20
56.3513990398
 30
0.0
 10
38.6869419854
 20
56.4891866458
 30
0.0
 10
38.8034318845
 20
56.6051531928
 30
0.0
 10
38.8919495388
 20
56.6671272383
 30
0.0
 10
38.9380085211
 20
56.693718779
 30
0.0
  0
SPLINE
  5
290
100
AcDbEntity
  8
0
100
AcDbSpline
 62
7
  6
BYLAYER
 70
0
 71
3
 72
23
 73
19
 74
0
 42
0.0000001
 43
0.0000001
 44
0.0000000001
 40
0.0
 40
0.0
 40
0.0
 40
0.0
 40
0.0428128273
 40
0.0873952026
 40
0.1351788284
 40
0.1870868728
 40
0.2435338911
 40
0.3044911736
 40
0.369587263
 40
0.4381952875
 40
0.5094925447
 40
0.5825271101
 40
0.6562688154
 40
0.7296591921
 40
0.8016473502
 40
0.8712453856
 40
0.9376267841
 40
1.0
 40
1.0
 40
1.0
 40
1.0
 10
42.1147503411
 20
27.1045829952
 30
0.0
 10
42.0346277967
 20
27.0583253872
 30
0.0
 10
41.8580137445
 20
26.9849039916
 30
0.0
 10
41.566456817
 20
26.9421740218
 30
0.0
 10
41.2533773438
 20
26.9652431711
 30
0.0
 10
40.9257092109
 20
27.0522697394
 30
0.0
 10
40.5899073605
 20
27.2006897917
 30
0.0
 10
40.252653407
 20
27.4070346446
 30
0.0
 10
39.9207665649
 20
27.6668290206
 30
0.0
 10
39.6011833931
 20
27.9746269737
 30
0.0
 10
39.3006095188
 20
28.3238755377
 30
0.0
 10
39.0253926421
 20
28.7071274366
 30
0.0
 10
38.7814441688
 20
29.1162602834
 30
0.0
 10
38.5739595367
 20
29.54253359
 30
0.0
 10
38.4073081331
 20
29.976815643
 30
0.0
 10
38.2850719733
 20
30.4100034185
 30
0.0
 10
38.2099791857
 20
30.832731316
 30
0.0
 10
38.1916623001
 20
31.1111464023
 30
0.0
 10
38.1916623001
 20
31.2459326538
 30
0.0
  0
SPLINE
  5
291
100
AcDbEntity
  8
0
100
AcDbSpline
 62
7
  6
BYLAYER
 70
0
 71
3
 72
14
 73
10
 74
0
 42
0.0000001
 43
0.0000001
 44
0.0000000001
 40
0.0
 40
0.0
 40
0.0
 40
0.0
 40
0.2892446857
 40
0.4225666258
 40
0.5485149803
 40
0.6678912806
 40
0.781865087
 40
0.8919548043
 40
1.0
 40
1.0
 40
1.0
 40
1.0
 10
38.1916623001
 20
31.2459326538
 30
0.0
 10
38.1916623001
 20
31.4106454066
 30
0.0
 10
38.2109222234
 20
31.6524573917
 30
0.0
 10
38.2852251564
 20
31.9563967494
 30
0.0
 10
38.3608667095
 20
32.1589307672
 30
0.0
 10
38.4572655013
 20
32.3401392848
 30
0.0
 10
38.5737046748
 20
32.4982277829
 30
0.0
 10
38.7090309322
 20
32.6314943623
 30
0.0
 10
38.8115030011
 20
32.7029543785
 30
0.0
 10
38.8647874726
 20
32.733717408
 30
0.0
  0
SPLINE
  5
292
100
AcDbEntity
  8
0
100
AcDbSpline
 62
7
  6
BYLAYER
 70
0
 71
3
 72
16
 73
12
 74
0
 42
0.0000001
 43
0.0000001
 44
0.0000000001
 40
0.0
 40
0.0
 40
0.0
 40
0.0
 40
0.1080067882
 40
0.2180485488
 40
0.3319793148
 40
0.451333784
 40
0.5134447882
 40
0.5773005851
 40
0.7105085407
 40
0.8514365578
 40
1.0
 40
1.0
 40
1.0
 40
1.0
 10
35.7208598823
 20
38.4241409198
 30
0.0
 10
35.8807132483
 20
38.5164317461
 30
0.0
 10
36.2201162087
 20
38.6753452063
 30
0.0
 10
36.7692762187
 20
38.827214427
 30
0.0
 10
37.3546658615
 20
38.8925322913
 30
0.0
 10
37.8609017155
 20
38.8748817007
 30
0.0
 10
38.2767211047
 20
38.8196683782
 30
0.0
 10
38.7115723726
 20
38.734122068
 30
0.0
 10
39.267394818
 20
38.5721027807
 30
0.0
 10
39.9369450444
 20
38.2980187667
 30
0.0
 10
40.3759551105
 20
38.0682299344
 30
0.0
 10
40.5958344824
 20
37.9412853917
 30
0.0
  0
SPLINE
  5
293
100
AcDbEntity
  8
0
100
AcDbSpline
 62
7
  6
BYLAYER
 70
0
 71
3
 72
23
 73
19
 74
0
 42
0.0000001
 43
0.0000001
 44
0.0000000001
 40
0.0
 40
0.0
 40
0.0
 40
0.0
 40
0.0591362054
 40
0.1215889692
 40
0.1868579833
 40
0.254398763
 40
0.3235531028
 40
0.3936162012
 40
0.4638554705
 40
0.5335285619
 40
0.6019127283
 40
0.6683288506
 40
0.7321653101
 40
0.7929067158
 40
0.8501686128
 40
0.90373325
 40
0.9535927522
 40
1.0
 40
1.0
 40
1.0
 40
1.0
 10
35.151090482
 20
33.0013678982
 30
0.0
 10
35.151090482
 20
32.7347402848
 30
0.0
 10
35.1818117417
 20
32.1862404056
 30
0.0
 10
35.3097374562
 20
31.3524201795
 30
0.0
 10
35.5189803273
 20
30.4961796878
 30
0.0
 10
35.8060900825
 20
29.6310573336
 30
0.0
 10
36.1666619507
 20
28.7704580851
 30
0.0
 10
36.5950126075
 20
27.9278771846
 30
0.0
 10
37.0844169062
 20
27.1165027034
 30
0.0
 10
37.6272443885
 20
26.349082694
 30
0.0
 10
38.2149635073
 20
25.6376340338
 30
0.0
 10
38.8383762164
 20
24.9932744848
 30
0.0
 10
39.4877906914
 20
24.4260791215
 30
0.0
 10
40.1531856624
 20
23.9449115641
 30
0.0
 10
40.8243322357
 20
23.5572598986
 30
0.0
 10
41.491198324
 20
23.269267406
 30
0.0
 10
42.1435769286
 20
23.0857801071
 30
0.0
 10
42.5769372648
 20
23.0339137329
 30
0.0
 10
42.7860965201
 20
23.028228095
 30
0.0
  0
SPLINE
  5
294
100
AcDbEntity
  8
0
100
AcDbSpline
 62
7
  6
BYLAYER
 70
0
 71
3
 72
11
 73
7
 74
0
 42
0.0000001
 43
0.0000001
 44
0.0000000001
 40
0.0
 40
0.0
 40
0.0
 40
0.0
 40
0.2267266644
 40
0.5948748761
 40
0.7929354136
 40
1.0
 40
1.0
 40
1.0
 40
1.0
 10
35.6823778483
 20
35.3755048694
 30
0.0
 10
35.5927550409
 20
35.2129495392
 30
0.0
 10
35.3925892187
 20
34.7666954255
 30
0.0
 10
35.2356976148
 20
34.1320795904
 30
0.0
 10
35.1629763045
 20
33.5027950332
 30
0.0
 10
35.151090482
 20
33.1708948306
 30
0.0
 10
35.151090482
 20
33.0013678982
 30
0.0
  0
SPLINE
  5
295
100
AcDbEntity
  8
0
100
AcDbSpline
 62
7
  6
BYLAYER
 70
0
 71
3
 72
15
 73
11
 74
0
 42
0.0000001
 43
0.0000001
 44
0.0000000001
 40
0.0
 40
0.0
 40
0.0
 40
0.0
 40
0.1485541119
 40
0.2895076663
 40
0.4227309912
 40
0.5486390237
 40
0.6680003354
 40
0.7819387324
 40
0.8919869439
 40
1.0
 40
1.0
 40
1.0
 40
1.0
 10
32.6762270518
 20
31.5725133596
 30
0.0
 10
32.6762270518
 20
31.7690988044
 30
0.0
 10
32.6921164587
 20
32.1524730626
 30
0.0
 10
32.7675229379
 20
32.7076660598
 30
0.0
 10
32.8936113407
 20
33.2230017697
 30
0.0
 10
33.069301354
 20
33.6934183064
 30
0.0
 10
33.2932154805
 20
34.1144433025
 30
0.0
 10
33.5636858874
 20
34.4817530359
 30
0.0
 10
33.8781315747
 20
34.7912646343
 30
0.0
 10
34.1161483254
 20
34.9573073806
 30
0.0
 10
34.2399350394
 20
35.0287753659
 30
0.0
  0
SPLINE
  5
296
100
AcDbEntity
  8
0
100
AcDbSpline
 62
7
  6
BYLAYER
 70
0
 71
3
 72
26
 73
22
 74
0
 42
0.0000001
 43
0.0000001
 44
0.0000000001
 40
0.0
 40
0.0
 40
0.0
 40
0.0
 40
0.0623771765
 40
0.1287158565
 40
0.1983024904
 40
0.2702746889
 40
0.3436469124
 40
0.4173749632
 40
0.4903954833
 40
0.5616780994
 40
0.630271294
 40
0.6953547061
 40
0.7562982036
 40
0.8127316938
 40
0.8646288778
 40
0.8890144817
 40
0.9124622053
 40
0.9351058175
 40
0.95710971
 40
0.9786690842
 40
1.0
 40
1.0
 40
1.0
 40
1.0
 10
44.9092252968
 20
24.5099483064
 30
0.0
 10
44.9092252968
 20
24.9144238589
 30
0.0
 10
44.8544136593
 20
25.7496184146
 30
0.0
 10
44.6289476832
 20
27.0177382484
 30
0.0
 10
44.262310054
 20
28.3171547571
 30
0.0
 10
43.7624553491
 20
29.6200635066
 30
0.0
 10
43.1399354222
 20
30.8988657295
 30
0.0
 10
42.4080763604
 20
32.1262797898
 30
0.0
 10
41.5824633916
 20
33.2761180746
 30
0.0
 10
40.680701724
 20
34.3238700842
 30
0.0
 10
39.7219103699
 20
35.2472594547
 30
0.0
 10
38.7263018077
 20
36.0267102013
 30
0.0
 10
37.7144368114
 20
36.6457138953
 30
0.0
 10
36.7072492588
 20
37.0909268472
 30
0.0
 10
35.8708984138
 20
37.3129899984
 30
0.0
 10
35.2277096077
 20
37.3886767964
 30
0.0
 10
34.7699090256
 20
37.3958422862
 30
0.0
 10
34.3293521949
 20
37.3545696304
 30
0.0
 10
33.9084750482
 20
37.2647575497
 30
0.0
 10
33.5097786657
 20
37.1269638773
 30
0.0
 10
33.2597179953
 20
37.0032068448
 30
0.0
 10
33.139936081
 20
36.9340408845
 30
0.0
  0
SPLINE
  5
297
100
AcDbEntity
  8
0
100
AcDbSpline
 62
7
  6
BYLAYER
 70
0
 71
3
 72
15
 73
11
 74
0
 42
0.0000001
 43
0.0000001
 44
0.0000000001
 40
0.0
 40
0.0
 40
0.0
 40
0.0
 40
0.1080131067
 40
0.2180602996
 40
0.3319962974
 40
0.4513582379
 40
0.5772689405
 40
0.7104887362
 40
0.8514351018
 40
1.0
 40
1.0
 40
1.0
 40
1.0
 10
42.8898748722
 20
20.0465504415
 30
0.0
 10
43.0497261916
 20
20.1388537752
 30
0.0
 10
43.3570884068
 20
20.3532897538
 30
0.0
 10
43.7631639591
 20
20.7529767495
 30
0.0
 10
44.112462167
 20
21.2273025276
 30
0.0
 10
44.4015992394
 20
21.7710250805
 30
0.0
 10
44.6284988503
 20
22.378510118
 30
0.0
 10
44.7913152357
 20
23.0439994545
 30
0.0
 10
44.8887186143
 20
23.7609675315
 30
0.0
 10
44.9092252968
 20
24.2560611132
 30
0.0
 10
44.9092252968
 20
24.5099483064
 30
0.0
  0
SPLINE
  5
298
100
AcDbEntity
  8
0
100
AcDbSpline
 62
7
  6
BYLAYER
 70
0
 71
3
 72
25
 73
21
 74
0
 42
0.0000001
 43
0.0000001
 44
0.0000000001
 40
0.0
 40
0.0
 40
0.0
 40
0.0
 40
0.0213324772
 40
0.0428934591
 40
0.0648992323
 40
0.0875442268
 40
0.1353198806
 40
0.1872212649
 40
0.2436590649
 40
0.3046065789
 40
0.3696935489
 40
0.4382899537
 40
0.5095757635
 40
0.5825997878
 40
0.6563312877
 40
0.7297067508
 40
0.8016837309
 40
0.87127338
 40
0.9376201438
 40
1.0
 40
1.0
 40
1.0
 40
1.0
 10
41.7898759138
 20
21.9518159602
 30
0.0
 10
41.6971172365
 20
21.8982619433
 30
0.0
 10
41.5034921489
 20
21.8023999343
 30
0.0
 10
41.1947479902
 20
21.6957132679
 30
0.0
 10
40.8688183697
 20
21.626182564
 30
0.0
 10
40.405885305
 20
21.5827429865
 30
0.0
 10
39.7886529293
 20
21.6280466411
 30
0.0
 10
39.0276350947
 20
21.8303313766
 30
0.0
 10
38.2474808558
 20
22.1751032886
 30
0.0
 10
37.4640067205
 20
22.654448125
 30
0.0
 10
36.693036693
 20
23.2580231882
 30
0.0
 10
35.9506021322
 20
23.9730470886
 30
0.0
 10
35.2523185988
 20
24.7843666098
 30
0.0
 10
34.6130058657
 20
25.6747396996
 30
0.0
 10
34.0462961153
 20
26.6251861827
 30
0.0
 10
33.5642469607
 20
27.6154294736
 30
0.0
 10
33.1771930724
 20
28.6243411209
 30
0.0
 10
32.8932614683
 20
29.6305659562
 30
0.0
 10
32.7186828393
 20
30.6125563775
 30
0.0
 10
32.6762270518
 20
31.2593099172
 30
0.0
 10
32.6762270518
 20
31.5725133596
 30
0.0
  0
SPLINE
  5
299
100
AcDbEntity
  8
0
100
AcDbSpline
 62
7
  6
BYLAYER
 70
0
 71
3
 72
14
 73
10
 74
0
 42
0.0000001
 43
0.0000001
 44
0.0000000001
 40
0.0
 40
0.0
 40
0.0
 40
0.0
 40
0.148592401
 40
0.2896306378
 40
0.548441755
 40
0.6678459334
 40
0.7818411617
 40
0.8919394676
 40
1.0
 40
1.0
 40
1.0
 40
1.0
 10
44.4849379708
 20
52.2301351887
 30
0.0
 10
44.4849379708
 20
52.0869550181
 30
0.0
 10
44.4733235554
 20
51.8075960422
 30
0.0
 10
44.4022226617
 20
51.2835975928
 30
0.0
 10
44.2588701112
 20
50.7983572096
 30
0.0
 10
44.0354445178
 20
50.3784455072
 30
0.0
 10
43.8384684449
 20
50.1108005499
 30
0.0
 10
43.6093432784
 20
49.8853918284
 30
0.0
 10
43.4359921662
 20
49.7643827122
 30
0.0
 10
43.3458174762
 20
49.7123206414
 30
0.0
  0
SPLINE
  5
29A
100
AcDbEntity
  8
0
100
AcDbSpline
 62
7
  6
BYLAYER
 70
0
 71
3
 72
9
 73
5
 74
0
 42
0.0000001
 43
0.0000001
 44
0.0000000001
 40
0.0
 40
0.0
 40
0.0
 40
0.0
 40
0.256149695
 40
1.0
 40
1.0
 40
1.0
 40
1.0
 10
44.4457140998
 20
52.8889720555
 30
0.0
 10
44.452190762
 20
52.8329749457
 30
0.0
 10
44.474545061
 20
52.6140421354
 30
0.0
 10
44.4849379708
 20
52.3938330174
 30
0.0
 10
44.4849379708
 20
52.2301351887
 30
0.0
  0
ENDSEC
  0
SECTION
  2
OBJECTS
  0
DICTIONARY
  5
C
100
AcDbDictionary
280
0
281
1
  3
ACAD_GROUP
350
D
  3
ACAD_MLINESTYLE
350
17
  3
ACAD_LAYOUT
350
1A
  3
ACAD_PLOTSETTINGS
350
19
  3
ACAD_PLOTSTYLENAME
350
E
  0
DICTIONARY
  5
D
102
{ACAD_REACTORS
330
C
102
}
100
AcDbDictionary
280
0
281
1
  0
ACDBDICTIONARYWDFLT
  5
E
102
{ACAD_REACTORS
330
C
102
}
100
AcDbDictionary
281
1
  3
Normal
350
F
100
AcDbDictionaryWithDefault
340
F
  0
DICTIONARY
  5
17
102
{ACAD_REACTORS
330
C
102
}
100
AcDbDictionary
280
0
281
1
  3
Standard
350
18
  0
DICTIONARY
  5
19
102
{ACAD_REACTORS
330
C
102
}
100
AcDbDictionary
281
1
  0
DICTIONARY
  5
1A
102
{ACAD_REACTORS
330
C
102
}
100
AcDbDictionary
281
1
  3
Model
350
29B
  3
Layout1
350
29C
  0
ACDBPLACEHOLDER
  5
F
102
{ACAD_REACTORS
330
E
102
}
  0
MLINESTYLE
  5
18
102
{ACAD_REACTORS
330
17
102
}
100
AcDbMlineStyle
  2
STANDARD
 70
0
  3

 62
256
 51
90.0
 52
90.0
 71
2
 49
0.5
 62
256
  6
BYLAYER
 49
-0.5
 62
256
  6
BYLAYER
  0
LAYOUT
  5
29B
102
{ACAD_REACTORS
330
1A
102
}
100
AcDbPlotSettings
  1

  2
none_device
  4

  6

 40
0.0
 41
0.0
 42
0.0
 43
0.0
 44
210.0
 45
297.0
 46
0.0
 47
0.0
 48
0.0
 49
0.0
140
0.0
141
0.0
142
1.0
143
1.0
 70
1024
 72
1
 73
0
 74
0
  7

 75
0
147
1.0
148
0.0
149
0.0
100
AcDbLayout
  1
Model
 70
0
 71
0
 10
0.0
 20
0.0
 11
210.0
 21
297.0
 12
0.0
 22
0.0
 32
0.0
 14
0.0
 24
0.0
 34
0.0
 15
0.0
 25
0.0
 35
0.0
146
0.0
 13
0.0
 23
0.0
 33
0.0
 16
1.0
 26
0.0
 36
0.0
 17
0.0
 27
1.0
 37
0.0
 76
0
330
210
345
0
346
0
  0
LAYOUT
  5
29C
102
{ACAD_REACTORS
330
1A
102
}
100
AcDbPlotSettings
  1

  2
none_device
  4

  6

 40
0.0
 41
0.0
 42
0.0
 43
0.0
 44
210.0
 45
297.0
 46
0.0
 47
0.0
 48
0.0
 49
0.0
140
0.0
141
0.0
142
1.0
143
1.0
 70
0
 72
1
 73
0
 74
0
  7

 75
0
147
1.0
148
0.0
149
0.0
100
AcDbLayout
  1
Layout1
 70
0
 71
1
 10
0.0
 20
0.0
 11
210.0
 21
297.0
 12
0.0
 22
0.0
 32
0.0
 14
0.0
 24
0.0
 34
0.0
 15
0.0
 25
0.0
 35
0.0
146
0.0
 13
0.0
 23
0.0
 33
0.0
 16
1.0
 26
0.0
 36
0.0
 17
0.0
 27
1.0
 37
0.0
 76
0
330
211
345
0
346
0
  0
ENDSEC
  0
EOF
