999
DXF file: C:\Users\sesa63760\Dev\_Creo\CAD\MCADID0004768_3D-CAD\drw0001_7.dxf
999
Pro/ENGINEER 2019471 by Parametric Technology Corporation
  0
SECTION
  2
HEADER
  9
$ACADVER
  1
AC1024
  9
$DWGCODEPAGE
  3
ANSI_1252
  9
$EXTMAX
 10
34.129699622
 20
48.2691466083
 30
0.0
  9
$EXTMIN
 10
0.0
 20
0.0
 30
0.0
  9
$LIMMIN
 10
0.0
 20
0.0
  9
$LIMMAX
 10
34.129699622
 20
48.2691466083
  9
$VIEWCTR
 10
17.064849811
 20
24.1345733042
  9
$VIEWSIZE
 40
48.2691466083
  9
$CLAYER
  8
0
  9
$LTSCALE
 40
3.1464332604
  9
$CELTYPE
  6
BYLAYER
  9
$DIMSCALE
 40
1.0
  9
$DIMASZ
 40
0.4063059479
  9
$DIMEXO
 40
1.0
  9
$DIMDLI
 40
2.1738993435
  9
$DIMEXE
 40
1.0
  9
$DIMCEN
 40
0.5148708972
  9
$DIMLFAC
 40
1.0
  9
$DIMBLK
  1
_FILLED
  9
$DIMALT
 70
0
  9
$DIMALTF
 40
0.0393700787
  9
$DIMTXT
 40
0.568828327
  9
$DIMTOL
 70
1
  9
$DIMLIM
 70
0
  9
$DIMTFAC
 40
1.0
  9
$DIMTP
 40
0.01
  9
$DIMTM
 40
0.01
  9
$DIMGAP
 40
0.625
  9
$DIMDSEP
 70
46
  9
$AUNITS
 70
0
  9
$PDMODE
 70
3
  9
$PDSIZE
 40
0.3125
  9
$HANDSEED
  5
3F9
  9
$TILEMODE
 70
1
  9
$MEASUREMENT
 70
1
  9
$INSUNITS
 70
4
  0
ENDSEC
  0
SECTION
  2
CLASSES
  0
CLASS
  1
ACDBDICTIONARYWDFLT
  2
AcDbDictionaryWithDefault
  3
AutoCAD 2000
 90
0
 91
1
280
0
281
0
  0
CLASS
  1
ACDBPLACEHOLDER
  2
AcDbPlaceHolder
  3
AutoCAD 2000
 90
0
 91
1
280
0
281
0
  0
CLASS
  1
LAYOUT
  2
AcDbLayout
  3
AutoCAD 2000
 90
0
 91
0
280
0
281
0
  0
ENDSEC
  0
SECTION
  2
TABLES
  0
TABLE
  2
VPORT
  5
8
100
AcDbSymbolTable
 70
2
  0
VPORT
  5
1F4
100
AcDbSymbolTableRecord
100
AcDbViewportTableRecord
  2
*ACTIVE
 70
0
 10
0.0
 20
0.0
 11
1.0
 21
1.0
 12
17.064849811
 22
24.1345733042
 13
0.0
 23
0.0
 14
1.0
 24
1.0
 15
0.0
 25
0.0
 16
0.0
 26
0.0
 36
1.0
 17
0.0
 27
0.0
 37
0.0
 40
48.2691466083
 41
0.7070707071
 42
50.0
 43
0.0
 44
0.0
 50
0.0
 51
0.0
 71
0
 72
100
 73
1
 74
1
 75
0
 76
0
 77
0
 78
0
  0
ENDTAB
  0
TABLE
  2
LTYPE
  5
5
100
AcDbSymbolTable
 70
6
  0
LTYPE
  5
14
100
AcDbSymbolTableRecord
100
AcDbLinetypeTableRecord
  2
BYBLOCK
 70
0
  3

 72
65
 73
0
 40
0.0
  0
LTYPE
  5
15
100
AcDbSymbolTableRecord
100
AcDbLinetypeTableRecord
  2
BYLAYER
 70
0
  3

 72
65
 73
0
 40
0.0
  0
LTYPE
  5
16
100
AcDbSymbolTableRecord
100
AcDbLinetypeTableRecord
  2
CONTINUOUS
 70
64
  3
Solid line
 72
65
 73
0
 40
0.0
  0
LTYPE
  5
1F5
100
AcDbSymbolTableRecord
100
AcDbLinetypeTableRecord
  2
CENTER
 70
64
  3
____ _ ____ _ ____ _ ____ _ ____ _ ____ _ ____
 72
65
 73
4
 40
0.6
 49
0.375
 74
0
 49
-0.075
 74
0
 49
0.075
 74
0
 49
-0.075
 74
0
  0
LTYPE
  5
1F6
100
AcDbSymbolTableRecord
100
AcDbLinetypeTableRecord
  2
HIDDEN
 70
64
  3
- - - - - - - - - - - - - - - - - - - -
 72
65
 73
2
 40
0.2
 49
0.1
 74
0
 49
-0.1
 74
0
  0
LTYPE
  5
1F7
100
AcDbSymbolTableRecord
100
AcDbLinetypeTableRecord
  2
PHANTOM
 70
64
  3
_____ _ _ _____ _ _ _____ _ _ _____
 72
65
 73
6
 40
0.8
 49
0.45
 74
0
 49
-0.05
 74
0
 49
0.1
 74
0
 49
-0.05
 74
0
 49
0.1
 74
0
 49
-0.05
 74
0
  0
LTYPE
  5
1F8
100
AcDbSymbolTableRecord
100
AcDbLinetypeTableRecord
  2
DOT
 70
64
  3
. . . . . . . . . . . . . . . . . . . .
 72
65
 73
2
 40
0.2
 49
0.1
 74
0
 49
-0.1
 74
0
  0
LTYPE
  5
1F9
100
AcDbSymbolTableRecord
100
AcDbLinetypeTableRecord
  2
DASHED
 70
64
  3
- - - - - - - - - - - - - - - - - - - -
 72
65
 73
2
 40
0.2
 49
0.1
 74
0
 49
-0.1
 74
0
  0
ENDTAB
  0
TABLE
  2
LAYER
  5
2
100
AcDbSymbolTable
 70
36
  0
LAYER
  5
10
100
AcDbSymbolTableRecord
100
AcDbLayerTableRecord
  2
0
 70
0
 62
7
  6
CONTINUOUS
370
-3
390
F
  0
LAYER
  5
1FA
100
AcDbSymbolTableRecord
100
AcDbLayerTableRecord
  2
DEFAULT_1
 70
0
 62
7
  6
CENTER
370
-3
390
F
  0
LAYER
  5
1FB
100
AcDbSymbolTableRecord
100
AcDbLayerTableRecord
  2
DEFAULT_2
 70
0
 62
7
  6
HIDDEN
370
-3
390
F
  0
LAYER
  5
1FC
100
AcDbSymbolTableRecord
100
AcDbLayerTableRecord
  2
DEFAULT_3
 70
0
 62
7
  6
PHANTOM
370
-3
390
F
  0
LAYER
  5
1FD
100
AcDbSymbolTableRecord
100
AcDbLayerTableRecord
  2
00_COMPONENTS
 70
0
 62
7
  6
CONTINUOUS
370
-3
390
F
  0
LAYER
  5
1FE
100
AcDbSymbolTableRecord
100
AcDbLayerTableRecord
  2
01_1_DEFAULT_DATUMS
 70
0
 62
7
  6
CONTINUOUS
370
-3
390
F
  0
LAYER
  5
1FF
100
AcDbSymbolTableRecord
100
AcDbLayerTableRecord
  2
01_PLANES
 70
0
 62
7
  6
CONTINUOUS
370
-3
390
F
  0
LAYER
  5
200
100
AcDbSymbolTableRecord
100
AcDbLayerTableRecord
  2
02_COORD_SYS
 70
0
 62
7
  6
CONTINUOUS
370
-3
390
F
  0
LAYER
  5
201
100
AcDbSymbolTableRecord
100
AcDbLayerTableRecord
  2
03_AXES
 70
0
 62
7
  6
CONTINUOUS
370
-3
390
F
  0
LAYER
  5
202
100
AcDbSymbolTableRecord
100
AcDbLayerTableRecord
  2
04_POINTS
 70
0
 62
7
  6
CONTINUOUS
370
-3
390
F
  0
LAYER
  5
203
100
AcDbSymbolTableRecord
100
AcDbLayerTableRecord
  2
05_CURVES
 70
0
 62
7
  6
CONTINUOUS
370
-3
390
F
  0
LAYER
  5
204
100
AcDbSymbolTableRecord
100
AcDbLayerTableRecord
  2
06_SURFS
 70
0
 62
7
  6
CONTINUOUS
370
-3
390
F
  0
LAYER
  5
205
100
AcDbSymbolTableRecord
100
AcDbLayerTableRecord
  2
07_COSMETICS
 70
0
 62
7
  6
CONTINUOUS
370
-3
390
F
  0
LAYER
  5
206
100
AcDbSymbolTableRecord
100
AcDbLayerTableRecord
  2
10_NOTES
 70
0
 62
7
  6
CONTINUOUS
370
-3
390
F
  0
LAYER
  5
207
100
AcDbSymbolTableRecord
100
AcDbLayerTableRecord
  2
11_NOTES_PUB
 70
0
 62
7
  6
CONTINUOUS
370
-3
390
F
  0
LAYER
  5
208
100
AcDbSymbolTableRecord
100
AcDbLayerTableRecord
  2
13_REF_GTOL
 70
0
 62
7
  6
CONTINUOUS
370
-3
390
F
  0
LAYER
  5
209
100
AcDbSymbolTableRecord
100
AcDbLayerTableRecord
  2
16_MISC
 70
0
 62
7
  6
CONTINUOUS
370
-3
390
F
  0
LAYER
  5
20A
100
AcDbSymbolTableRecord
100
AcDbLayerTableRecord
  2
17_NO_PRINT
 70
0
 62
7
  6
CONTINUOUS
370
-3
390
F
  0
LAYER
  5
20B
100
AcDbSymbolTableRecord
100
AcDbLayerTableRecord
  2
18_DATUM_CAMS_JOINTS
 70
0
 62
7
  6
CONTINUOUS
370
-3
390
F
  0
LAYER
  5
20C
100
AcDbSymbolTableRecord
100
AcDbLayerTableRecord
  2
19_DATUM_FUNCTIONAL
 70
0
 62
7
  6
CONTINUOUS
370
-3
390
F
  0
LAYER
  5
20D
100
AcDbSymbolTableRecord
100
AcDbLayerTableRecord
  2
20_DATUM_KINEMATIC_SCHEME
 70
0
 62
7
  6
CONTINUOUS
370
-3
390
F
  0
ENDTAB
  0
TABLE
  2
STYLE
  5
3
100
AcDbSymbolTable
 70
1
  0
STYLE
  5
11
100
AcDbSymbolTableRecord
100
AcDbTextStyleTableRecord
  2
STANDARD
 70
0
 40
0.0
 41
1.0
 50
0.0
 71
0
 42
0.2
  3
ARIAL.TTF
  4

  0
STYLE
  5
20E
100
AcDbSymbolTableRecord
100
AcDbTextStyleTableRecord
  2
TEXTSTYLE_1
 70
0
 40
0.0
 41
0.8
 50
0.0
 71
0
 42
0.2
  3
gdt
  4

  0
ENDTAB
  0
TABLE
  2
VIEW
  5
6
100
AcDbSymbolTable
 70
0
  0
ENDTAB
  0
TABLE
  2
UCS
  5
7
100
AcDbSymbolTable
 70
0
  0
ENDTAB
  0
TABLE
  2
APPID
  5
9
100
AcDbSymbolTable
 70
1
  0
APPID
  5
20F
100
AcDbSymbolTableRecord
100
AcDbRegAppTableRecord
  2
ACAD
 70
0
  0
ENDTAB
  0
TABLE
  2
BLOCK_RECORD
  5
1
100
AcDbSymbolTable
 70
0
  0
BLOCK_RECORD
  5
210
100
AcDbSymbolTableRecord
100
AcDbBlockTableRecord
  2
*Model_Space
  0
BLOCK_RECORD
  5
211
100
AcDbSymbolTableRecord
100
AcDbBlockTableRecord
  2
*Paper_Space
  0
BLOCK_RECORD
  5
212
100
AcDbSymbolTableRecord
100
AcDbBlockTableRecord
  2
_FILLED
  0
ENDTAB
  0
TABLE
  2
DIMSTYLE
  5
A
100
AcDbSymbolTable
 70
1
100
AcDbDimStyleTable
 71
0
  0
DIMSTYLE
105
213
100
AcDbSymbolTableRecord
100
AcDbDimStyleTableRecord
  2
STANDARD
 70
0
  3

  4

 40
1.0
 41
0.4063059479
 42
1.0
 43
0.38
 44
1.0
 45
0.0
 46
0.0
 47
0.01
 48
0.01
140
0.568828327
141
0.09
142
0.0
143
25.4
144
1.0
145
0.0
146
1.0
147
0.625
 71
1
 72
0
 73
0
 74
0
 75
0
 76
0
 77
1
 78
8
 79
2
170
0
171
1
172
0
173
0
174
0
175
0
176
0
177
0
178
0
270
2
179
2
271
2
272
2
273
2
274
2
275
0
280
0
281
0
282
0
283
1
284
8
285
0
286
0
287
3
288
0
340
11
278
46
341
212
342
212
343
212
344
212
  0
ENDTAB
  0
ENDSEC
  0
SECTION
  2
BLOCKS
  0
BLOCK
  5
20
100
AcDbEntity
  8
0
100
AcDbBlockBegin
  2
*Model_Space
 70
0
 10
0.0
 20
0.0
 30
0.0
  3
*Model_Space
  1

  0
ENDBLK
  5
21
100
AcDbEntity
  8
0
100
AcDbBlockEnd
  0
BLOCK
  5
1C
100
AcDbEntity
  8
0
100
AcDbBlockBegin
  2
*Paper_Space
 70
0
 10
0.0
 20
0.0
 30
0.0
  3
*Paper_Space
  1

  0
ENDBLK
  5
1D
100
AcDbEntity
  8
0
100
AcDbBlockEnd
  0
BLOCK
  5
214
100
AcDbEntity
  8
0
100
AcDbBlockBegin
  2
_FILLED
 70
64
 10
0.0
 20
0.0
  3
_FILLED
  1

  0
SOLID
  5
215
100
AcDbEntity
  8
0
  6
BYBLOCK
 62
0
100
AcDbTrace
 10
0.0
 20
0.0
 11
-1.0
 21
0.25
 12
-1.0
 22
-0.25
 13
-1.0
 23
-0.25
  0
ENDBLK
  5
216
100
AcDbEntity
  8
0
  6
BYBLOCK
 62
0
100
AcDbBlockEnd
  0
ENDSEC
  0
SECTION
  2
ENTITIES
  0
LINE
  5
217
100
AcDbEntity
  8
0
100
AcDbLine
 62
7
  6
BYLAYER
 10
5.6363595561
 20
38.8033446308
 11
6.1233213727
 21
39.2903064475
  0
LINE
  5
218
100
AcDbEntity
  8
0
100
AcDbLine
 62
7
  6
BYLAYER
 10
5.963028006
 20
38.4971989249
 11
6.4294670787
 21
38.9636379976
  0
LINE
  5
219
100
AcDbEntity
  8
0
100
AcDbLine
 62
7
  6
BYLAYER
 10
6.8658244657
 20
38.4247711394
 11
6.7730219838
 21
38.3319686575
  0
LINE
  5
21A
100
AcDbEntity
  8
0
100
AcDbLine
 62
7
  6
BYLAYER
 10
6.5946973461
 20
38.1536440198
 11
6.5018948642
 21
38.0608415379
  0
LINE
  5
21B
100
AcDbEntity
  8
0
100
AcDbLine
 62
7
  6
BYLAYER
 10
6.5507462479
 20
38.0119901541
 11
6.4761544881
 21
37.9635496989
  0
LINE
  5
21C
100
AcDbEntity
  8
0
100
AcDbLine
 62
7
  6
BYLAYER
 10
6.9146758495
 20
38.3759197556
 11
6.9631163047
 21
38.4505115155
  0
LINE
  5
21D
100
AcDbEntity
  8
0
100
AcDbLine
 62
7
  6
BYLAYER
 10
7.5747779997
 20
38.856300366
 11
7.2875085934
 21
38.5371830223
  0
LINE
  5
21E
100
AcDbEntity
  8
0
100
AcDbLine
 62
7
  6
BYLAYER
 10
6.9603529542
 20
37.0682874373
 11
6.673083548
 21
36.7491700935
  0
LINE
  5
21F
100
AcDbEntity
  8
0
100
AcDbLine
 62
7
  6
BYLAYER
 10
5.0324842615
 20
36.3436326161
 11
6.5250428381
 21
37.8361911928
  0
LINE
  5
220
100
AcDbEntity
  8
0
100
AcDbLine
 62
7
  6
BYLAYER
 10
7.0904748108
 20
38.4016231655
 11
8.5830333874
 21
39.8941817421
  0
LINE
  5
221
100
AcDbEntity
  8
0
100
AcDbLine
 62
7
  6
BYLAYER
 10
8.8473519704
 20
40.1288743367
 11
7.5747779997
 21
38.856300366
  0
LINE
  5
222
100
AcDbEntity
  8
0
100
AcDbLine
 62
7
  6
BYLAYER
 10
6.0703656376
 20
37.3518880039
 11
4.7977916668
 21
36.0793140331
  0
LINE
  5
223
100
AcDbEntity
  8
0
100
AcDbLine
 62
7
  6
BYLAYER
 10
7.2875085934
 20
38.5371830223
 11
7.0675589882
 21
38.3172334171
  0
LINE
  5
224
100
AcDbEntity
  8
0
100
AcDbLine
 62
7
  6
BYLAYER
 10
6.6094325865
 20
37.8591070153
 11
6.3894829813
 21
37.6391574102
  0
LINE
  5
225
100
AcDbEntity
  8
0
100
AcDbLine
 62
7
  6
BYLAYER
 10
7.8583785663
 20
37.9663130494
 11
7.6384289612
 21
37.7463634442
  0
LINE
  5
226
100
AcDbEntity
  8
0
100
AcDbLine
 62
7
  6
BYLAYER
 10
7.1803025594
 20
37.2882370424
 11
6.9603529542
 21
37.0682874373
  0
LINE
  5
227
100
AcDbEntity
  8
0
100
AcDbLine
 62
7
  6
BYLAYER
 10
5.4005095772
 20
35.4765961228
 11
6.673083548
 21
36.7491700935
  0
LINE
  5
228
100
AcDbEntity
  8
0
100
AcDbLine
 62
7
  6
BYLAYER
 10
8.17749591
 20
38.2535824556
 11
9.4500698808
 21
39.5261564264
  0
LINE
  5
229
100
AcDbEntity
  8
0
100
AcDbLine
 62
7
  6
BYLAYER
 10
9.2153772862
 20
39.2618378434
 11
7.7228187095
 21
37.7692792667
  0
LINE
  5
22A
100
AcDbEntity
  8
0
100
AcDbLine
 62
7
  6
BYLAYER
 10
7.1573867368
 20
37.2038472941
 11
5.6648281602
 21
35.7112887174
  0
LINE
  5
22B
100
AcDbEntity
  8
0
100
AcDbLine
 62
7
  6
BYLAYER
 10
7.382037082
 20
37.1806993201
 11
7.4748395639
 21
37.273501802
  0
LINE
  5
22C
100
AcDbEntity
  8
0
100
AcDbLine
 62
7
  6
BYLAYER
 10
7.6531642016
 20
37.4518264397
 11
7.7459666835
 21
37.5446289216
  0
LINE
  5
22D
100
AcDbEntity
  8
0
100
AcDbLine
 62
7
  6
BYLAYER
 10
6.3894829813
 20
37.6391574102
 11
6.0703656376
 21
37.3518880039
  0
LINE
  5
22E
100
AcDbEntity
  8
0
100
AcDbLine
 62
7
  6
BYLAYER
 10
8.17749591
 20
38.2535824556
 11
7.8583785663
 21
37.9663130494
  0
LINE
  5
22F
100
AcDbEntity
  8
0
100
AcDbLine
 62
7
  6
BYLAYER
 10
7.6971152997
 20
37.5934803054
 11
7.7717070596
 21
37.6419207606
  0
LINE
  5
230
100
AcDbEntity
  8
0
100
AcDbLine
 62
7
  6
BYLAYER
 10
7.1239307738
 20
38.295594316
 11
7.3675907033
 21
38.3891265997
  0
LINE
  5
231
100
AcDbEntity
  8
0
100
AcDbLine
 62
7
  6
BYLAYER
 10
7.1239307738
 20
37.3098761435
 11
6.8802708443
 21
37.2163438598
  0
LINE
  5
232
100
AcDbEntity
  8
0
100
AcDbLine
 62
7
  6
BYLAYER
 10
19.2237953082
 20
7.2027352298
 11
15.0240662395
 21
7.2027352298
  0
LINE
  5
233
100
AcDbEntity
  8
0
100
AcDbLine
 62
7
  6
BYLAYER
 10
19.6239307738
 20
7.6027521442
 11
14.6239307738
 21
7.6027521442
  0
LINE
  5
234
100
AcDbEntity
  8
0
100
AcDbLine
 62
7
  6
BYLAYER
 10
6.5375394039
 20
37.5590753003
 11
6.6310716876
 21
37.8027352298
  0
LINE
  5
235
100
AcDbEntity
  8
0
100
AcDbLine
 62
7
  6
BYLAYER
 10
7.3331856982
 20
37.2295507039
 11
7.2847452429
 21
37.154958944
  0
LINE
  5
236
100
AcDbEntity
  8
0
100
AcDbLine
 62
7
  6
BYLAYER
 10
7.818394469
 20
36.6418324619
 11
8.2848335417
 21
37.1082715346
  0
LINE
  5
237
100
AcDbEntity
  8
0
100
AcDbLine
 62
7
  6
BYLAYER
 10
8.6115019915
 20
36.8021258287
 11
8.1245401749
 21
36.3151640121
  0
LINE
  5
238
100
AcDbEntity
  8
0
100
AcDbLine
 62
7
  6
BYLAYER
 10
3.6239318294
 20
40.6028199783
 11
3.6239318245
 21
15.0026533402
  0
LINE
  5
239
100
AcDbEntity
  8
0
100
AcDbLine
 62
7
  6
BYLAYER
 10
3.6739307738
 20
14.3527352298
 11
3.6739307738
 21
41.2527352298
  0
LINE
  5
23A
100
AcDbEntity
  8
0
100
AcDbLine
 62
7
  6
BYLAYER
 10
7.0904748108
 20
38.4016231655
 11
7.0675589882
 21
38.3172334171
  0
LINE
  5
23B
100
AcDbEntity
  8
0
100
AcDbLine
 62
7
  6
BYLAYER
 10
7.1573867368
 20
37.2038472941
 11
7.1803025594
 21
37.2882370424
  0
LINE
  5
23C
100
AcDbEntity
  8
0
100
AcDbLine
 62
7
  6
BYLAYER
 10
7.7103221438
 20
38.0463951592
 11
7.6167898601
 21
37.8027352298
  0
LINE
  5
23D
100
AcDbEntity
  8
0
100
AcDbLine
 62
7
  6
BYLAYER
 10
20.3239307738
 20
10.9027352298
 11
13.9239307738
 21
10.9027352298
  0
LINE
  5
23E
100
AcDbEntity
  8
0
100
AcDbLine
 62
7
  6
BYLAYER
 10
13.9239307738
 20
10.9027352298
 11
13.6598291587
 21
11.0552143684
  0
LINE
  5
23F
100
AcDbEntity
  8
0
100
AcDbLine
 62
7
  6
BYLAYER
 10
15.0239449637
 20
7.2027472272
 11
14.6239450348
 21
7.6027521442
  0
LINE
  5
240
100
AcDbEntity
  8
0
100
AcDbLine
 62
7
  6
BYLAYER
 10
5.963028006
 20
18.4971989249
 11
6.5018948642
 21
18.0608415379
  0
LINE
  5
241
100
AcDbEntity
  8
0
100
AcDbLine
 62
7
  6
BYLAYER
 10
6.0703656376
 20
17.3518880039
 11
6.673083548
 21
16.7491700935
  0
LINE
  5
242
100
AcDbEntity
  8
0
100
AcDbLine
 62
7
  6
BYLAYER
 10
6.3894829813
 20
17.6391574102
 11
6.9603529542
 21
17.0682874373
  0
LINE
  5
243
100
AcDbEntity
  8
0
100
AcDbLine
 62
7
  6
BYLAYER
 10
5.6363595561
 20
18.8033446308
 11
6.4761544881
 21
17.9635496989
  0
LINE
  5
244
100
AcDbEntity
  8
0
100
AcDbLine
 62
7
  6
BYLAYER
 10
7.2847452429
 20
17.154958944
 11
8.1245401749
 21
16.3151640121
  0
LINE
  5
245
100
AcDbEntity
  8
0
100
AcDbLine
 62
7
  6
BYLAYER
 10
6.5018948642
 20
18.0608415379
 11
6.5507462479
 21
18.0119901541
  0
LINE
  5
246
100
AcDbEntity
  8
0
100
AcDbLine
 62
7
  6
BYLAYER
 10
7.3331856982
 20
17.2295507039
 11
7.382037082
 21
17.1806993201
  0
LINE
  5
247
100
AcDbEntity
  8
0
100
AcDbLine
 62
7
  6
BYLAYER
 10
7.382037082
 20
17.1806993201
 11
7.818394469
 21
16.6418324619
  0
LINE
  5
248
100
AcDbEntity
  8
0
100
AcDbLine
 62
7
  6
BYLAYER
 10
6.4294670787
 20
18.9636379976
 11
6.8658244657
 21
18.4247711394
  0
LINE
  5
249
100
AcDbEntity
  8
0
100
AcDbLine
 62
7
  6
BYLAYER
 10
6.5250428381
 20
17.8361911928
 11
6.4761544881
 21
17.9635496989
  0
LINE
  5
24A
100
AcDbEntity
  8
0
100
AcDbLine
 62
7
  6
BYLAYER
 10
6.6094325865
 20
17.8591070153
 11
6.6310716876
 21
17.8027352298
  0
LINE
  5
24B
100
AcDbEntity
  8
0
100
AcDbLine
 62
7
  6
BYLAYER
 10
6.5507462479
 20
18.0119901541
 11
6.5375394039
 21
18.0463951592
  0
LINE
  5
24C
100
AcDbEntity
  8
0
100
AcDbLine
 62
7
  6
BYLAYER
 10
7.1239307738
 20
37.314249328
 11
7.1239307738
 21
37.3098761435
  0
LINE
  5
24D
100
AcDbEntity
  8
0
100
AcDbLine
 62
7
  6
BYLAYER
 10
7.1239307738
 20
17.314249328
 11
7.1239307738
 21
17.3098761435
  0
LINE
  5
24E
100
AcDbEntity
  8
0
100
AcDbLine
 62
7
  6
BYLAYER
 10
7.1239307738
 20
18.2912211315
 11
7.1239307738
 21
18.295594316
  0
LINE
  5
24F
100
AcDbEntity
  8
0
100
AcDbLine
 62
7
  6
BYLAYER
 10
9.1474316608
 20
13.6027352298
 11
25.1004298868
 21
13.6027352298
  0
LINE
  5
250
100
AcDbEntity
  8
0
100
AcDbLine
 62
7
  6
BYLAYER
 10
7.2847452429
 20
17.154958944
 11
7.1573867368
 21
17.2038472941
  0
LINE
  5
251
100
AcDbEntity
  8
0
100
AcDbLine
 62
7
  6
BYLAYER
 10
7.3675907033
 20
17.2163438598
 11
7.3331856982
 21
17.2295507039
  0
LINE
  5
252
100
AcDbEntity
  8
0
100
AcDbLine
 62
7
  6
BYLAYER
 10
7.1803025594
 20
17.2882370424
 11
7.1239307738
 21
17.3098761435
  0
LINE
  5
253
100
AcDbEntity
  8
0
100
AcDbLine
 62
7
  6
BYLAYER
 10
7.7459666835
 20
17.5446289216
 11
8.2848335417
 21
17.1082715346
  0
LINE
  5
254
100
AcDbEntity
  8
0
100
AcDbLine
 62
7
  6
BYLAYER
 10
7.7459666835
 20
17.5446289216
 11
7.6971152997
 21
17.5934803054
  0
LINE
  5
255
100
AcDbEntity
  8
0
100
AcDbLine
 62
7
  6
BYLAYER
 10
6.9146758495
 20
18.3759197556
 11
6.8658244657
 21
18.4247711394
  0
LINE
  5
256
100
AcDbEntity
  8
0
100
AcDbLine
 62
7
  6
BYLAYER
 10
8.6115019915
 20
16.8021258287
 11
7.7717070596
 21
17.6419207606
  0
LINE
  5
257
100
AcDbEntity
  8
0
100
AcDbLine
 62
7
  6
BYLAYER
 10
6.9631163047
 20
18.4505115155
 11
6.1233213727
 21
19.2903064475
  0
LINE
  5
258
100
AcDbEntity
  8
0
100
AcDbLine
 62
7
  6
BYLAYER
 10
7.2875085934
 20
18.5371830223
 11
7.8583785663
 21
17.9663130494
  0
LINE
  5
259
100
AcDbEntity
  8
0
100
AcDbLine
 62
7
  6
BYLAYER
 10
7.5747779997
 20
18.856300366
 11
8.17749591
 21
18.2535824556
  0
LINE
  5
25A
100
AcDbEntity
  8
0
100
AcDbLine
 62
7
  6
BYLAYER
 10
7.6167898601
 20
17.8027352298
 11
7.6384289612
 21
17.7463634442
  0
LINE
  5
25B
100
AcDbEntity
  8
0
100
AcDbLine
 62
7
  6
BYLAYER
 10
7.6971152997
 20
17.5934803054
 11
7.7103221438
 21
17.5590753003
  0
LINE
  5
25C
100
AcDbEntity
  8
0
100
AcDbLine
 62
7
  6
BYLAYER
 10
7.7228187095
 20
17.7692792667
 11
7.7717070596
 21
17.6419207606
  0
LINE
  5
25D
100
AcDbEntity
  8
0
100
AcDbLine
 62
7
  6
BYLAYER
 10
27.1239307738
 20
38.295594316
 11
27.3675907033
 21
38.3891265997
  0
LINE
  5
25E
100
AcDbEntity
  8
0
100
AcDbLine
 62
7
  6
BYLAYER
 10
27.1239307738
 20
37.3098761435
 11
26.8802708443
 21
37.2163438598
  0
LINE
  5
25F
100
AcDbEntity
  8
0
100
AcDbLine
 62
7
  6
BYLAYER
 10
27.6384289612
 20
17.7463634442
 11
27.7228187095
 21
17.7692792667
  0
LINE
  5
260
100
AcDbEntity
  8
0
100
AcDbLine
 62
7
  6
BYLAYER
 10
26.6094325865
 20
17.8591070153
 11
26.5250428381
 21
17.8361911928
  0
LINE
  5
261
100
AcDbEntity
  8
0
100
AcDbLine
 62
7
  6
BYLAYER
 10
4.3238460253
 20
14.3027362853
 11
9.1474316608
 21
14.3027362845
  0
LINE
  5
262
100
AcDbEntity
  8
0
100
AcDbLine
 62
7
  6
BYLAYER
 10
25.1004298868
 20
14.3027362817
 11
29.9240104729
 21
14.3027362809
  0
LINE
  5
263
100
AcDbEntity
  8
0
100
AcDbLine
 62
7
  6
BYLAYER
 10
3.6739307738
 20
14.3527352298
 11
9.1474316608
 21
14.3527352298
  0
LINE
  5
264
100
AcDbEntity
  8
0
100
AcDbLine
 62
7
  6
BYLAYER
 10
25.1004298868
 20
14.3527352298
 11
30.5739307738
 21
14.3527352298
  0
LINE
  5
265
100
AcDbEntity
  8
0
100
AcDbLine
 62
7
  6
BYLAYER
 10
9.1474316608
 20
15.6027352298
 11
12.816498712
 21
15.6027352298
  0
LINE
  5
266
100
AcDbEntity
  8
0
100
AcDbLine
 62
7
  6
BYLAYER
 10
22.9882492365
 20
15.6027352298
 11
25.1004298868
 21
15.6027352298
  0
LINE
  5
267
100
AcDbEntity
  8
0
100
AcDbLine
 62
7
  6
BYLAYER
 10
6.9146758495
 20
18.3759197556
 11
6.8802708443
 21
18.3891265997
  0
LINE
  5
268
100
AcDbEntity
  8
0
100
AcDbLine
 62
7
  6
BYLAYER
 10
7.0675589882
 20
18.3172334171
 11
7.1239307738
 21
18.295594316
  0
LINE
  5
269
100
AcDbEntity
  8
0
100
AcDbLine
 62
7
  6
BYLAYER
 10
6.9631163047
 20
18.4505115155
 11
7.0904748108
 21
18.4016231655
  0
LINE
  5
26A
100
AcDbEntity
  8
0
100
AcDbLine
 62
7
  6
BYLAYER
 10
8.75790537
 20
21.0527352298
 11
9.6239307738
 21
19.5527352298
  0
LINE
  5
26B
100
AcDbEntity
  8
0
100
AcDbLine
 62
7
  6
BYLAYER
 10
9.1474316608
 20
13.6027352298
 11
9.1474316608
 21
15.6027352298
  0
LINE
  5
26C
100
AcDbEntity
  8
0
100
AcDbLine
 62
7
  6
BYLAYER
 10
9.1546782919
 20
22.6027352298
 11
9.1546782919
 21
27.6027352298
  0
LINE
  5
26D
100
AcDbEntity
  8
0
100
AcDbLine
 62
7
  6
BYLAYER
 10
9.2821374424
 20
15.6027352298
 11
9.2821374424
 21
13.6027352298
  0
LINE
  5
26E
100
AcDbEntity
  8
0
100
AcDbLine
 62
7
  6
BYLAYER
 10
7.0904748108
 20
18.4016231655
 11
7.0675589882
 21
18.3172334171
  0
LINE
  5
26F
100
AcDbEntity
  8
0
100
AcDbLine
 62
7
  6
BYLAYER
 10
7.1573867368
 20
17.2038472941
 11
7.1803025594
 21
17.2882370424
  0
LINE
  5
270
100
AcDbEntity
  8
0
100
AcDbLine
 62
7
  6
BYLAYER
 10
6.5375394039
 20
17.5590753003
 11
6.6310716876
 21
17.8027352298
  0
LINE
  5
271
100
AcDbEntity
  8
0
100
AcDbLine
 62
7
  6
BYLAYER
 10
12.1239307738
 20
16.1027352298
 11
12.8529841891
 21
16.1027352298
  0
LINE
  5
272
100
AcDbEntity
  8
0
100
AcDbLine
 62
7
  6
BYLAYER
 10
20.588032389
 20
13.4502560912
 11
20.3239307738
 21
13.6027352298
  0
LINE
  5
273
100
AcDbEntity
  8
0
100
AcDbLine
 62
7
  6
BYLAYER
 10
12.7989330391
 20
17.9027359435
 11
12.4989315265
 21
18.2027376627
  0
LINE
  5
274
100
AcDbEntity
  8
0
100
AcDbLine
 62
7
  6
BYLAYER
 10
10.3739307738
 20
41.2527352298
 11
10.3739307738
 21
34.5527352298
  0
LINE
  5
275
100
AcDbEntity
  8
0
100
AcDbLine
 62
7
  6
BYLAYER
 10
10.7405416536
 20
15.6027352298
 11
10.7405416536
 21
13.6027352298
  0
LINE
  5
276
100
AcDbEntity
  8
0
100
AcDbLine
 62
7
  6
BYLAYER
 10
7.7103221438
 20
18.0463951592
 11
7.6167898601
 21
17.8027352298
  0
LINE
  5
277
100
AcDbEntity
  8
0
100
AcDbLine
 62
7
  6
BYLAYER
 10
13.6546782919
 20
29.8027352298
 11
14.1546782919
 21
30.3027352298
  0
LINE
  5
278
100
AcDbEntity
  8
0
100
AcDbLine
 62
7
  6
BYLAYER
 10
26.5507462479
 20
38.0119901541
 11
26.4761544881
 21
37.9635496989
  0
LINE
  5
279
100
AcDbEntity
  8
0
100
AcDbLine
 62
7
  6
BYLAYER
 10
26.6354448721
 20
17.8027352298
 11
26.6310716876
 21
17.8027352298
  0
LINE
  5
27A
100
AcDbEntity
  8
0
100
AcDbLine
 62
7
  6
BYLAYER
 10
6.6354448721
 20
17.8027352298
 11
6.6310716876
 21
17.8027352298
  0
LINE
  5
27B
100
AcDbEntity
  8
0
100
AcDbLine
 62
7
  6
BYLAYER
 10
7.6124166756
 20
17.8027352298
 11
7.6167898601
 21
17.8027352298
  0
LINE
  5
27C
100
AcDbEntity
  8
0
100
AcDbLine
 62
7
  6
BYLAYER
 10
27.6124166756
 20
17.8027352298
 11
27.6167898601
 21
17.8027352298
  0
LINE
  5
27D
100
AcDbEntity
  8
0
100
AcDbLine
 62
7
  6
BYLAYER
 10
12.9843319066
 20
17.9027352298
 11
12.7990855107
 21
17.9027352298
  0
LINE
  5
27E
100
AcDbEntity
  8
0
100
AcDbLine
 62
7
  6
BYLAYER
 10
13.0062233703
 20
18.2027376627
 11
12.4989307738
 21
18.2027376627
  0
LINE
  5
27F
100
AcDbEntity
  8
0
100
AcDbLine
 62
7
  6
BYLAYER
 10
12.1239307738
 20
15.6027352298
 11
12.1239307738
 21
16.1027352298
  0
LINE
  5
280
100
AcDbEntity
  8
0
100
AcDbLine
 62
7
  6
BYLAYER
 10
12.4989307738
 20
18.2027384154
 11
12.4989307738
 21
19.5527352298
  0
LINE
  5
281
100
AcDbEntity
  8
0
100
AcDbLine
 62
7
  6
BYLAYER
 10
12.742542147
 20
13.6027352298
 11
12.742542147
 21
15.6027352298
  0
LINE
  5
282
100
AcDbEntity
  8
0
100
AcDbLine
 62
7
  6
BYLAYER
 10
6.9146758495
 20
18.3759197556
 11
6.9631163047
 21
18.4505115155
  0
LINE
  5
283
100
AcDbEntity
  8
0
100
AcDbLine
 62
7
  6
BYLAYER
 10
7.3331856982
 20
17.2295507039
 11
7.2847452429
 21
17.154958944
  0
LINE
  5
284
100
AcDbEntity
  8
0
100
AcDbLine
 62
7
  6
BYLAYER
 10
5.6363595561
 20
18.8033446308
 11
6.1233213727
 21
19.2903064475
  0
LINE
  5
285
100
AcDbEntity
  8
0
100
AcDbLine
 62
7
  6
BYLAYER
 10
25.6363595561
 20
38.8033446308
 11
26.1233213727
 21
39.2903064475
  0
LINE
  5
286
100
AcDbEntity
  8
0
100
AcDbLine
 62
7
  6
BYLAYER
 10
27.6971152997
 20
37.5934803054
 11
27.7717070596
 21
37.6419207606
  0
LINE
  5
287
100
AcDbEntity
  8
0
100
AcDbLine
 62
7
  6
BYLAYER
 10
20.7046782919
 20
19.1027352298
 11
16.6046782919
 21
19.1027352298
  0
LINE
  5
288
100
AcDbEntity
  8
0
100
AcDbLine
 62
7
  6
BYLAYER
 10
24.6239307738
 20
19.5527352298
 11
23.2764845054
 21
19.5527352298
  0
LINE
  5
289
100
AcDbEntity
  8
0
100
AcDbLine
 62
7
  6
BYLAYER
 10
13.1047339809
 20
19.5527352298
 11
9.6239307738
 21
19.5527352298
  0
LINE
  5
28A
100
AcDbEntity
  8
0
100
AcDbLine
 62
7
  6
BYLAYER
 10
6.5250428381
 20
37.8361911928
 11
6.4761544881
 21
37.9635496989
  0
LINE
  5
28B
100
AcDbEntity
  8
0
100
AcDbLine
 62
7
  6
BYLAYER
 10
6.6094325865
 20
37.8591070153
 11
6.6310716876
 21
37.8027352298
  0
LINE
  5
28C
100
AcDbEntity
  8
0
100
AcDbLine
 62
7
  6
BYLAYER
 10
6.5507462479
 20
38.0119901541
 11
6.5375394039
 21
38.0463951592
  0
LINE
  5
28D
100
AcDbEntity
  8
0
100
AcDbLine
 62
7
  6
BYLAYER
 10
13.6546782919
 20
29.8027352298
 11
13.6546782919
 21
28.8027352298
  0
LINE
  5
28E
100
AcDbEntity
  8
0
100
AcDbLine
 62
7
  6
BYLAYER
 10
13.6598291587
 20
11.0552143684
 11
13.6598291587
 21
13.4502560912
  0
LINE
  5
28F
100
AcDbEntity
  8
0
100
AcDbLine
 62
7
  6
BYLAYER
 10
13.6640598451
 20
22.6027352298
 11
13.6640598451
 21
20.6027352298
  0
LINE
  5
290
100
AcDbEntity
  8
0
100
AcDbLine
 62
7
  6
BYLAYER
 10
14.1546782919
 20
27.6027352298
 11
14.1546782919
 21
28.1027352298
  0
LINE
  5
291
100
AcDbEntity
  8
0
100
AcDbLine
 62
7
  6
BYLAYER
 10
13.3272953911
 20
22.6027352298
 11
12.816498712
 21
15.6027352298
  0
LINE
  5
292
100
AcDbEntity
  8
0
100
AcDbLine
 62
7
  6
BYLAYER
 10
12.8610704346
 20
13.6027352298
 11
13.3718671137
 21
20.6027352298
  0
LINE
  5
293
100
AcDbEntity
  8
0
100
AcDbLine
 62
7
  6
BYLAYER
 10
7.5747779997
 20
18.856300366
 11
7.2875085934
 21
18.5371830223
  0
LINE
  5
294
100
AcDbEntity
  8
0
100
AcDbLine
 62
7
  6
BYLAYER
 10
6.9603529542
 20
17.0682874373
 11
6.673083548
 21
16.7491700935
  0
LINE
  5
295
100
AcDbEntity
  8
0
100
AcDbLine
 62
7
  6
BYLAYER
 10
5.963028006
 20
18.4971989249
 11
6.4294670787
 21
18.9636379976
  0
LINE
  5
296
100
AcDbEntity
  8
0
100
AcDbLine
 62
7
  6
BYLAYER
 10
25.963028006
 20
38.4971989249
 11
26.4294670787
 21
38.9636379976
  0
LINE
  5
297
100
AcDbEntity
  8
0
100
AcDbLine
 62
7
  6
BYLAYER
 10
26.8658244657
 20
38.4247711394
 11
26.7730219838
 21
38.3319686575
  0
LINE
  5
298
100
AcDbEntity
  8
0
100
AcDbLine
 62
7
  6
BYLAYER
 10
26.5946973461
 20
38.1536440198
 11
26.5018948642
 21
38.0608415379
  0
LINE
  5
299
100
AcDbEntity
  8
0
100
AcDbLine
 62
7
  6
BYLAYER
 10
6.8658244657
 20
18.4247711394
 11
6.7730219838
 21
18.3319686575
  0
LINE
  5
29A
100
AcDbEntity
  8
0
100
AcDbLine
 62
7
  6
BYLAYER
 10
6.5946973461
 20
18.1536440198
 11
6.5018948642
 21
18.0608415379
  0
LINE
  5
29B
100
AcDbEntity
  8
0
100
AcDbLine
 62
7
  6
BYLAYER
 10
5.0324842615
 20
16.3436326161
 11
6.5250428381
 21
17.8361911928
  0
LINE
  5
29C
100
AcDbEntity
  8
0
100
AcDbLine
 62
7
  6
BYLAYER
 10
7.0904748108
 20
18.4016231655
 11
8.5830333874
 21
19.8941817421
  0
LINE
  5
29D
100
AcDbEntity
  8
0
100
AcDbLine
 62
7
  6
BYLAYER
 10
25.0324842615
 20
36.3436326161
 11
26.5250428381
 21
37.8361911928
  0
LINE
  5
29E
100
AcDbEntity
  8
0
100
AcDbLine
 62
7
  6
BYLAYER
 10
27.0904748108
 20
38.4016231655
 11
28.5830333874
 21
39.8941817421
  0
LINE
  5
29F
100
AcDbEntity
  8
0
100
AcDbLine
 62
7
  6
BYLAYER
 10
28.8473519704
 20
40.1288743367
 11
27.5747779997
 21
38.856300366
  0
LINE
  5
2A0
100
AcDbEntity
  8
0
100
AcDbLine
 62
7
  6
BYLAYER
 10
26.0703656376
 20
37.3518880039
 11
24.7977916668
 21
36.0793140331
  0
LINE
  5
2A1
100
AcDbEntity
  8
0
100
AcDbLine
 62
7
  6
BYLAYER
 10
8.8473519704
 20
20.1288743367
 11
7.5747779997
 21
18.856300366
  0
LINE
  5
2A2
100
AcDbEntity
  8
0
100
AcDbLine
 62
7
  6
BYLAYER
 10
6.0703656376
 20
17.3518880039
 11
4.7977916668
 21
16.0793140331
  0
LINE
  5
2A3
100
AcDbEntity
  8
0
100
AcDbLine
 62
7
  6
BYLAYER
 10
27.2875085934
 20
38.5371830223
 11
27.0675589882
 21
38.3172334171
  0
LINE
  5
2A4
100
AcDbEntity
  8
0
100
AcDbLine
 62
7
  6
BYLAYER
 10
26.6094325865
 20
37.8591070153
 11
26.3894829813
 21
37.6391574102
  0
LINE
  5
2A5
100
AcDbEntity
  8
0
100
AcDbLine
 62
7
  6
BYLAYER
 10
7.2875085934
 20
18.5371830223
 11
7.0675589882
 21
18.3172334171
  0
LINE
  5
2A6
100
AcDbEntity
  8
0
100
AcDbLine
 62
7
  6
BYLAYER
 10
6.6094325865
 20
17.8591070153
 11
6.3894829813
 21
17.6391574102
  0
LINE
  5
2A7
100
AcDbEntity
  8
0
100
AcDbLine
 62
7
  6
BYLAYER
 10
26.3894829813
 20
37.6391574102
 11
26.0703656376
 21
37.3518880039
  0
LINE
  5
2A8
100
AcDbEntity
  8
0
100
AcDbLine
 62
7
  6
BYLAYER
 10
28.17749591
 20
38.2535824556
 11
27.8583785663
 21
37.9663130494
  0
LINE
  5
2A9
100
AcDbEntity
  8
0
100
AcDbLine
 62
7
  6
BYLAYER
 10
7.6384289612
 20
17.7463634442
 11
7.7228187095
 21
17.7692792667
  0
LINE
  5
2AA
100
AcDbEntity
  8
0
100
AcDbLine
 62
7
  6
BYLAYER
 10
6.6094325865
 20
17.8591070153
 11
6.5250428381
 21
17.8361911928
  0
LINE
  5
2AB
100
AcDbEntity
  8
0
100
AcDbLine
 62
7
  6
BYLAYER
 10
23.6545986721
 20
20.6027352298
 11
13.3718671137
 21
20.6027352298
  0
LINE
  5
2AC
100
AcDbEntity
  8
0
100
AcDbLine
 62
7
  6
BYLAYER
 10
30.5739307738
 20
21.0527352298
 11
25.4899561776
 21
21.0527352298
  0
LINE
  5
2AD
100
AcDbEntity
  8
0
100
AcDbLine
 62
7
  6
BYLAYER
 10
3.6739307738
 20
21.0527352298
 11
8.75790537
 21
21.0527352298
  0
LINE
  5
2AE
100
AcDbEntity
  8
0
100
AcDbLine
 62
7
  6
BYLAYER
 10
27.2847452429
 20
17.154958944
 11
27.1573867368
 21
17.2038472941
  0
LINE
  5
2AF
100
AcDbEntity
  8
0
100
AcDbLine
 62
7
  6
BYLAYER
 10
27.3675907033
 20
17.2163438598
 11
27.3331856982
 21
17.2295507039
  0
LINE
  5
2B0
100
AcDbEntity
  8
0
100
AcDbLine
 62
7
  6
BYLAYER
 10
27.1803025594
 20
17.2882370424
 11
27.1239307738
 21
17.3098761435
  0
LINE
  5
2B1
100
AcDbEntity
  8
0
100
AcDbLine
 62
7
  6
BYLAYER
 10
7.6167898601
 20
37.8027352298
 11
7.6384289612
 21
37.7463634442
  0
LINE
  5
2B2
100
AcDbEntity
  8
0
100
AcDbLine
 62
7
  6
BYLAYER
 10
7.6971152997
 20
37.5934803054
 11
7.7103221438
 21
37.5590753003
  0
LINE
  5
2B3
100
AcDbEntity
  8
0
100
AcDbLine
 62
7
  6
BYLAYER
 10
7.7228187095
 20
37.7692792667
 11
7.7717070596
 21
37.6419207606
  0
LINE
  5
2B4
100
AcDbEntity
  8
0
100
AcDbLine
 62
7
  6
BYLAYER
 10
14.6239307738
 20
7.6027664053
 11
14.6239307738
 21
10.9027352298
  0
LINE
  5
2B5
100
AcDbEntity
  8
0
100
AcDbLine
 62
7
  6
BYLAYER
 10
15.6646782919
 20
28.8027352298
 11
15.6646782919
 21
28.1027352298
  0
LINE
  5
2B6
100
AcDbEntity
  8
0
100
AcDbLine
 62
7
  6
BYLAYER
 10
27.5747779997
 20
38.856300366
 11
27.2875085934
 21
38.5371830223
  0
LINE
  5
2B7
100
AcDbEntity
  8
0
100
AcDbLine
 62
7
  6
BYLAYER
 10
26.9603529542
 20
37.0682874373
 11
26.673083548
 21
36.7491700935
  0
LINE
  5
2B8
100
AcDbEntity
  8
0
100
AcDbLine
 62
7
  6
BYLAYER
 10
27.8583785663
 20
37.9663130494
 11
27.6384289612
 21
37.7463634442
  0
LINE
  5
2B9
100
AcDbEntity
  8
0
100
AcDbLine
 62
7
  6
BYLAYER
 10
27.1803025594
 20
37.2882370424
 11
26.9603529542
 21
37.0682874373
  0
LINE
  5
2BA
100
AcDbEntity
  8
0
100
AcDbLine
 62
7
  6
BYLAYER
 10
7.8583785663
 20
17.9663130494
 11
7.6384289612
 21
17.7463634442
  0
LINE
  5
2BB
100
AcDbEntity
  8
0
100
AcDbLine
 62
7
  6
BYLAYER
 10
7.1803025594
 20
17.2882370424
 11
6.9603529542
 21
17.0682874373
  0
LINE
  5
2BC
100
AcDbEntity
  8
0
100
AcDbLine
 62
7
  6
BYLAYER
 10
5.4005095772
 20
15.4765961228
 11
6.673083548
 21
16.7491700935
  0
LINE
  5
2BD
100
AcDbEntity
  8
0
100
AcDbLine
 62
7
  6
BYLAYER
 10
8.17749591
 20
18.2535824556
 11
9.4500698808
 21
19.5261564264
  0
LINE
  5
2BE
100
AcDbEntity
  8
0
100
AcDbLine
 62
7
  6
BYLAYER
 10
25.4005095772
 20
35.4765961228
 11
26.673083548
 21
36.7491700935
  0
LINE
  5
2BF
100
AcDbEntity
  8
0
100
AcDbLine
 62
7
  6
BYLAYER
 10
28.17749591
 20
38.2535824556
 11
29.4500698808
 21
39.5261564264
  0
LINE
  5
2C0
100
AcDbEntity
  8
0
100
AcDbLine
 62
7
  6
BYLAYER
 10
29.2153772862
 20
39.2618378434
 11
27.7228187095
 21
37.7692792667
  0
LINE
  5
2C1
100
AcDbEntity
  8
0
100
AcDbLine
 62
7
  6
BYLAYER
 10
27.1573867368
 20
37.2038472941
 11
25.6648281602
 21
35.7112887174
  0
LINE
  5
2C2
100
AcDbEntity
  8
0
100
AcDbLine
 62
7
  6
BYLAYER
 10
9.2153772862
 20
19.2618378434
 11
7.7228187095
 21
17.7692792667
  0
LINE
  5
2C3
100
AcDbEntity
  8
0
100
AcDbLine
 62
7
  6
BYLAYER
 10
7.1573867368
 20
17.2038472941
 11
5.6648281602
 21
15.7112887174
  0
LINE
  5
2C4
100
AcDbEntity
  8
0
100
AcDbLine
 62
7
  6
BYLAYER
 10
7.382037082
 20
17.1806993201
 11
7.4748395639
 21
17.273501802
  0
LINE
  5
2C5
100
AcDbEntity
  8
0
100
AcDbLine
 62
7
  6
BYLAYER
 10
7.6531642016
 20
17.4518264397
 11
7.7459666835
 21
17.5446289216
  0
LINE
  5
2C6
100
AcDbEntity
  8
0
100
AcDbLine
 62
7
  6
BYLAYER
 10
27.382037082
 20
37.1806993201
 11
27.4748395639
 21
37.273501802
  0
LINE
  5
2C7
100
AcDbEntity
  8
0
100
AcDbLine
 62
7
  6
BYLAYER
 10
27.6531642016
 20
37.4518264397
 11
27.7459666835
 21
37.5446289216
  0
LINE
  5
2C8
100
AcDbEntity
  8
0
100
AcDbLine
 62
7
  6
BYLAYER
 10
6.3894829813
 20
17.6391574102
 11
6.0703656376
 21
17.3518880039
  0
LINE
  5
2C9
100
AcDbEntity
  8
0
100
AcDbLine
 62
7
  6
BYLAYER
 10
8.17749591
 20
18.2535824556
 11
7.8583785663
 21
17.9663130494
  0
LINE
  5
2CA
100
AcDbEntity
  8
0
100
AcDbLine
 62
7
  6
BYLAYER
 10
28.1546782919
 20
22.6027352298
 11
9.1546782919
 21
22.6027352298
  0
LINE
  5
2CB
100
AcDbEntity
  8
0
100
AcDbLine
 62
7
  6
BYLAYER
 10
26.9146758495
 20
18.3759197556
 11
26.8802708443
 21
18.3891265997
  0
LINE
  5
2CC
100
AcDbEntity
  8
0
100
AcDbLine
 62
7
  6
BYLAYER
 10
27.0675589882
 20
18.3172334171
 11
27.1239307738
 21
18.295594316
  0
LINE
  5
2CD
100
AcDbEntity
  8
0
100
AcDbLine
 62
7
  6
BYLAYER
 10
26.9631163047
 20
18.4505115155
 11
27.0904748108
 21
18.4016231655
  0
LINE
  5
2CE
100
AcDbEntity
  8
0
100
AcDbLine
 62
7
  6
BYLAYER
 10
16.6046782919
 20
20.6027352298
 11
16.6046782919
 21
19.1027352298
  0
LINE
  5
2CF
100
AcDbEntity
  8
0
100
AcDbLine
 62
7
  6
BYLAYER
 10
17.1239307738
 20
11.3646154451
 11
17.1239307738
 21
13.1408550144
  0
LINE
  5
2D0
100
AcDbEntity
  8
0
100
AcDbLine
 62
7
  6
BYLAYER
 10
7.818394469
 20
16.6418324619
 11
8.2848335417
 21
17.1082715346
  0
LINE
  5
2D1
100
AcDbEntity
  8
0
100
AcDbLine
 62
7
  6
BYLAYER
 10
27.818394469
 20
36.6418324619
 11
28.2848335417
 21
37.1082715346
  0
LINE
  5
2D2
100
AcDbEntity
  8
0
100
AcDbLine
 62
7
  6
BYLAYER
 10
28.6115019915
 20
36.8021258287
 11
28.1245401749
 21
36.3151640121
  0
LINE
  5
2D3
100
AcDbEntity
  8
0
100
AcDbLine
 62
7
  6
BYLAYER
 10
8.6115019915
 20
16.8021258287
 11
8.1245401749
 21
16.3151640121
  0
LINE
  5
2D4
100
AcDbEntity
  8
0
100
AcDbLine
 62
7
  6
BYLAYER
 10
6.5507462479
 20
18.0119901541
 11
6.4761544881
 21
17.9635496989
  0
LINE
  5
2D5
100
AcDbEntity
  8
0
100
AcDbLine
 62
7
  6
BYLAYER
 10
26.9146758495
 20
38.3759197556
 11
26.9631163047
 21
38.4505115155
  0
LINE
  5
2D6
100
AcDbEntity
  8
0
100
AcDbLine
 62
7
  6
BYLAYER
 10
27.3331856982
 20
37.2295507039
 11
27.2847452429
 21
37.154958944
  0
LINE
  5
2D7
100
AcDbEntity
  8
0
100
AcDbLine
 62
7
  6
BYLAYER
 10
7.6971152997
 20
17.5934803054
 11
7.7717070596
 21
17.6419207606
  0
LINE
  5
2D8
100
AcDbEntity
  8
0
100
AcDbLine
 62
7
  6
BYLAYER
 10
25.963028006
 20
18.4971989249
 11
26.5018948642
 21
18.0608415379
  0
LINE
  5
2D9
100
AcDbEntity
  8
0
100
AcDbLine
 62
7
  6
BYLAYER
 10
27.7459666835
 20
17.5446289216
 11
28.2848335417
 21
17.1082715346
  0
LINE
  5
2DA
100
AcDbEntity
  8
0
100
AcDbLine
 62
7
  6
BYLAYER
 10
6.0703656376
 20
37.3518880039
 11
6.673083548
 21
36.7491700935
  0
LINE
  5
2DB
100
AcDbEntity
  8
0
100
AcDbLine
 62
7
  6
BYLAYER
 10
26.0703656376
 20
17.3518880039
 11
26.673083548
 21
16.7491700935
  0
LINE
  5
2DC
100
AcDbEntity
  8
0
100
AcDbLine
 62
7
  6
BYLAYER
 10
7.382037082
 20
37.1806993201
 11
7.818394469
 21
36.6418324619
  0
LINE
  5
2DD
100
AcDbEntity
  8
0
100
AcDbLine
 62
7
  6
BYLAYER
 10
6.4294670787
 20
38.9636379976
 11
6.8658244657
 21
38.4247711394
  0
LINE
  5
2DE
100
AcDbEntity
  8
0
100
AcDbLine
 62
7
  6
BYLAYER
 10
19.6239307738
 20
7.6027664053
 11
19.6239307738
 21
10.9027352298
  0
LINE
  5
2DF
100
AcDbEntity
  8
0
100
AcDbLine
 62
7
  6
BYLAYER
 10
7.1239307738
 20
18.295594316
 11
7.3675907033
 21
18.3891265997
  0
LINE
  5
2E0
100
AcDbEntity
  8
0
100
AcDbLine
 62
7
  6
BYLAYER
 10
7.1239307738
 20
17.3098761435
 11
6.8802708443
 21
17.2163438598
  0
LINE
  5
2E1
100
AcDbEntity
  8
0
100
AcDbLine
 62
7
  6
BYLAYER
 10
6.3894829813
 20
37.6391574102
 11
6.9603529542
 21
37.0682874373
  0
LINE
  5
2E2
100
AcDbEntity
  8
0
100
AcDbLine
 62
7
  6
BYLAYER
 10
26.3894829813
 20
17.6391574102
 11
26.9603529542
 21
17.0682874373
  0
LINE
  5
2E3
100
AcDbEntity
  8
0
100
AcDbLine
 62
7
  6
BYLAYER
 10
5.6363595561
 20
38.8033446308
 11
6.4761544881
 21
37.9635496989
  0
LINE
  5
2E4
100
AcDbEntity
  8
0
100
AcDbLine
 62
7
  6
BYLAYER
 10
7.2847452429
 20
37.154958944
 11
8.1245401749
 21
36.3151640121
  0
LINE
  5
2E5
100
AcDbEntity
  8
0
100
AcDbLine
 62
7
  6
BYLAYER
 10
25.6363595561
 20
18.8033446308
 11
26.4761544881
 21
17.9635496989
  0
LINE
  5
2E6
100
AcDbEntity
  8
0
100
AcDbLine
 62
7
  6
BYLAYER
 10
27.2847452429
 20
17.154958944
 11
28.1245401749
 21
16.3151640121
  0
LINE
  5
2E7
100
AcDbEntity
  8
0
100
AcDbLine
 62
7
  6
BYLAYER
 10
6.5018948642
 20
38.0608415379
 11
6.5507462479
 21
38.0119901541
  0
LINE
  5
2E8
100
AcDbEntity
  8
0
100
AcDbLine
 62
7
  6
BYLAYER
 10
7.3331856982
 20
37.2295507039
 11
7.382037082
 21
37.1806993201
  0
LINE
  5
2E9
100
AcDbEntity
  8
0
100
AcDbLine
 62
7
  6
BYLAYER
 10
26.5018948642
 20
18.0608415379
 11
26.5507462479
 21
18.0119901541
  0
LINE
  5
2EA
100
AcDbEntity
  8
0
100
AcDbLine
 62
7
  6
BYLAYER
 10
27.3331856982
 20
17.2295507039
 11
27.382037082
 21
17.1806993201
  0
LINE
  5
2EB
100
AcDbEntity
  8
0
100
AcDbLine
 62
7
  6
BYLAYER
 10
27.7459666835
 20
17.5446289216
 11
27.6971152997
 21
17.5934803054
  0
LINE
  5
2EC
100
AcDbEntity
  8
0
100
AcDbLine
 62
7
  6
BYLAYER
 10
26.9146758495
 20
18.3759197556
 11
26.8658244657
 21
18.4247711394
  0
LINE
  5
2ED
100
AcDbEntity
  8
0
100
AcDbLine
 62
7
  6
BYLAYER
 10
7.7459666835
 20
37.5446289216
 11
7.6971152997
 21
37.5934803054
  0
LINE
  5
2EE
100
AcDbEntity
  8
0
100
AcDbLine
 62
7
  6
BYLAYER
 10
6.9146758495
 20
38.3759197556
 11
6.8658244657
 21
38.4247711394
  0
LINE
  5
2EF
100
AcDbEntity
  8
0
100
AcDbLine
 62
7
  6
BYLAYER
 10
28.6115019915
 20
16.8021258287
 11
27.7717070596
 21
17.6419207606
  0
LINE
  5
2F0
100
AcDbEntity
  8
0
100
AcDbLine
 62
7
  6
BYLAYER
 10
26.9631163047
 20
18.4505115155
 11
26.1233213727
 21
19.2903064475
  0
LINE
  5
2F1
100
AcDbEntity
  8
0
100
AcDbLine
 62
7
  6
BYLAYER
 10
8.6115019915
 20
36.8021258287
 11
7.7717070596
 21
37.6419207606
  0
LINE
  5
2F2
100
AcDbEntity
  8
0
100
AcDbLine
 62
7
  6
BYLAYER
 10
6.9631163047
 20
38.4505115155
 11
6.1233213727
 21
39.2903064475
  0
LINE
  5
2F3
100
AcDbEntity
  8
0
100
AcDbLine
 62
7
  6
BYLAYER
 10
20.588032389
 20
11.0552143684
 11
20.588032389
 21
13.4502560912
  0
LINE
  5
2F4
100
AcDbEntity
  8
0
100
AcDbLine
 62
7
  6
BYLAYER
 10
20.7046782919
 20
20.6027352298
 11
20.7046782919
 21
19.1027352298
  0
LINE
  5
2F5
100
AcDbEntity
  8
0
100
AcDbLine
 62
7
  6
BYLAYER
 10
21.6446782919
 20
28.8027352298
 11
21.6446782919
 21
28.1027352298
  0
LINE
  5
2F6
100
AcDbEntity
  8
0
100
AcDbLine
 62
7
  6
BYLAYER
 10
26.5375394039
 20
37.5590753003
 11
26.6310716876
 21
37.8027352298
  0
LINE
  5
2F7
100
AcDbEntity
  8
0
100
AcDbLine
 62
7
  6
BYLAYER
 10
9.1546782919
 20
27.6027352298
 11
28.1546782919
 21
27.6027352298
  0
LINE
  5
2F8
100
AcDbEntity
  8
0
100
AcDbLine
 62
7
  6
BYLAYER
 10
14.1546782919
 20
28.1027352298
 11
23.1546782919
 21
28.1027352298
  0
LINE
  5
2F9
100
AcDbEntity
  8
0
100
AcDbLine
 62
7
  6
BYLAYER
 10
5.963028006
 20
38.4971989249
 11
6.5018948642
 21
38.0608415379
  0
LINE
  5
2FA
100
AcDbEntity
  8
0
100
AcDbLine
 62
7
  6
BYLAYER
 10
7.7459666835
 20
37.5446289216
 11
8.2848335417
 21
37.1082715346
  0
LINE
  5
2FB
100
AcDbEntity
  8
0
100
AcDbLine
 62
7
  6
BYLAYER
 10
7.2875085934
 20
38.5371830223
 11
7.8583785663
 21
37.9663130494
  0
LINE
  5
2FC
100
AcDbEntity
  8
0
100
AcDbLine
 62
7
  6
BYLAYER
 10
27.2875085934
 20
18.5371830223
 11
27.8583785663
 21
17.9663130494
  0
LINE
  5
2FD
100
AcDbEntity
  8
0
100
AcDbLine
 62
7
  6
BYLAYER
 10
7.5747779997
 20
38.856300366
 11
8.17749591
 21
38.2535824556
  0
LINE
  5
2FE
100
AcDbEntity
  8
0
100
AcDbLine
 62
7
  6
BYLAYER
 10
27.5747779997
 20
18.856300366
 11
28.17749591
 21
18.2535824556
  0
LINE
  5
2FF
100
AcDbEntity
  8
0
100
AcDbLine
 62
7
  6
BYLAYER
 10
27.382037082
 20
17.1806993201
 11
27.818394469
 21
16.6418324619
  0
LINE
  5
300
100
AcDbEntity
  8
0
100
AcDbLine
 62
7
  6
BYLAYER
 10
26.4294670787
 20
18.9636379976
 11
26.8658244657
 21
18.4247711394
  0
LINE
  5
301
100
AcDbEntity
  8
0
100
AcDbLine
 62
7
  6
BYLAYER
 10
27.0904748108
 20
38.4016231655
 11
27.0675589882
 21
38.3172334171
  0
LINE
  5
302
100
AcDbEntity
  8
0
100
AcDbLine
 62
7
  6
BYLAYER
 10
27.7103221438
 20
38.0463951592
 11
27.6167898601
 21
37.8027352298
  0
LINE
  5
303
100
AcDbEntity
  8
0
100
AcDbLine
 62
7
  6
BYLAYER
 10
23.6546782919
 20
28.8027352298
 11
13.6546782919
 21
28.8027352298
  0
LINE
  5
304
100
AcDbEntity
  8
0
100
AcDbLine
 62
7
  6
BYLAYER
 10
13.6546782919
 20
29.8027352298
 11
23.6546782919
 21
29.8027352298
  0
LINE
  5
305
100
AcDbEntity
  8
0
100
AcDbLine
 62
7
  6
BYLAYER
 10
23.1546782919
 20
27.6027352298
 11
23.1546782919
 21
28.1027352298
  0
LINE
  5
306
100
AcDbEntity
  8
0
100
AcDbLine
 62
7
  6
BYLAYER
 10
23.6546782919
 20
29.8027352298
 11
23.6546782919
 21
28.8027352298
  0
LINE
  5
307
100
AcDbEntity
  8
0
100
AcDbLine
 62
7
  6
BYLAYER
 10
23.6546782919
 20
22.6027352298
 11
23.6546782919
 21
20.6027352298
  0
LINE
  5
308
100
AcDbEntity
  8
0
100
AcDbLine
 62
7
  6
BYLAYER
 10
23.8739307738
 20
41.2527352298
 11
23.8739307738
 21
34.5527352298
  0
LINE
  5
309
100
AcDbEntity
  8
0
100
AcDbLine
 62
7
  6
BYLAYER
 10
24.0488575115
 20
15.6027352298
 11
24.0488575115
 21
13.6027352298
  0
LINE
  5
30A
100
AcDbEntity
  8
0
100
AcDbLine
 62
7
  6
BYLAYER
 10
23.3531040073
 20
20.6027352298
 11
22.8423073282
 21
13.6027352298
  0
LINE
  5
30B
100
AcDbEntity
  8
0
100
AcDbLine
 62
7
  6
BYLAYER
 10
27.1573867368
 20
37.2038472941
 11
27.1803025594
 21
37.2882370424
  0
LINE
  5
30C
100
AcDbEntity
  8
0
100
AcDbLine
 62
7
  6
BYLAYER
 10
14.1546782919
 20
30.3027352298
 11
23.1546782919
 21
30.3027352298
  0
LINE
  5
30D
100
AcDbEntity
  8
0
100
AcDbLine
 62
7
  6
BYLAYER
 10
26.5250428381
 20
17.8361911928
 11
26.4761544881
 21
17.9635496989
  0
LINE
  5
30E
100
AcDbEntity
  8
0
100
AcDbLine
 62
7
  6
BYLAYER
 10
26.6094325865
 20
17.8591070153
 11
26.6310716876
 21
17.8027352298
  0
LINE
  5
30F
100
AcDbEntity
  8
0
100
AcDbLine
 62
7
  6
BYLAYER
 10
26.5507462479
 20
18.0119901541
 11
26.5375394039
 21
18.0463951592
  0
LINE
  5
310
100
AcDbEntity
  8
0
100
AcDbLine
 62
7
  6
BYLAYER
 10
25.1004298868
 20
13.6027352298
 11
25.1004298868
 21
15.6027352298
  0
LINE
  5
311
100
AcDbEntity
  8
0
100
AcDbLine
 62
7
  6
BYLAYER
 10
24.6239307738
 20
19.5527352298
 11
25.4899561776
 21
21.0527352298
  0
LINE
  5
312
100
AcDbEntity
  8
0
100
AcDbLine
 62
7
  6
BYLAYER
 10
13.6598291587
 20
13.4502560912
 11
13.9239307738
 21
13.6027352298
  0
LINE
  5
313
100
AcDbEntity
  8
0
100
AcDbLine
 62
7
  6
BYLAYER
 10
7.2847452429
 20
37.154958944
 11
7.1573867368
 21
37.2038472941
  0
LINE
  5
314
100
AcDbEntity
  8
0
100
AcDbLine
 62
7
  6
BYLAYER
 10
7.3675907033
 20
37.2163438598
 11
7.3331856982
 21
37.2295507039
  0
LINE
  5
315
100
AcDbEntity
  8
0
100
AcDbLine
 62
7
  6
BYLAYER
 10
7.1803025594
 20
37.2882370424
 11
7.1239307738
 21
37.3098761435
  0
LINE
  5
316
100
AcDbEntity
  8
0
100
AcDbLine
 62
7
  6
BYLAYER
 10
23.6546782919
 20
29.8027352298
 11
23.1546782919
 21
30.3027352298
  0
LINE
  5
317
100
AcDbEntity
  8
0
100
AcDbLine
 62
7
  6
BYLAYER
 10
27.6167898601
 20
17.8027352298
 11
27.6384289612
 21
17.7463634442
  0
LINE
  5
318
100
AcDbEntity
  8
0
100
AcDbLine
 62
7
  6
BYLAYER
 10
27.6971152997
 20
17.5934803054
 11
27.7103221438
 21
17.5590753003
  0
LINE
  5
319
100
AcDbEntity
  8
0
100
AcDbLine
 62
7
  6
BYLAYER
 10
27.7228187095
 20
17.7692792667
 11
27.7717070596
 21
17.6419207606
  0
LINE
  5
31A
100
AcDbEntity
  8
0
100
AcDbLine
 62
7
  6
BYLAYER
 10
27.1239307738
 20
37.314249328
 11
27.1239307738
 21
37.3098761435
  0
LINE
  5
31B
100
AcDbEntity
  8
0
100
AcDbLine
 62
7
  6
BYLAYER
 10
27.1239307738
 20
17.314249328
 11
27.1239307738
 21
17.3098761435
  0
LINE
  5
31C
100
AcDbEntity
  8
0
100
AcDbLine
 62
7
  6
BYLAYER
 10
27.1239307738
 20
18.2912211315
 11
27.1239307738
 21
18.295594316
  0
LINE
  5
31D
100
AcDbEntity
  8
0
100
AcDbLine
 62
7
  6
BYLAYER
 10
25.6363595561
 20
18.8033446308
 11
26.1233213727
 21
19.2903064475
  0
LINE
  5
31E
100
AcDbEntity
  8
0
100
AcDbLine
 62
7
  6
BYLAYER
 10
25.963028006
 20
18.4971989249
 11
26.4294670787
 21
18.9636379976
  0
LINE
  5
31F
100
AcDbEntity
  8
0
100
AcDbLine
 62
7
  6
BYLAYER
 10
27.1239307738
 20
18.295594316
 11
27.3675907033
 21
18.3891265997
  0
LINE
  5
320
100
AcDbEntity
  8
0
100
AcDbLine
 62
7
  6
BYLAYER
 10
27.1239307738
 20
17.3098761435
 11
26.8802708443
 21
17.2163438598
  0
LINE
  5
321
100
AcDbEntity
  8
0
100
AcDbLine
 62
7
  6
BYLAYER
 10
27.6384289612
 20
37.7463634442
 11
27.7228187095
 21
37.7692792667
  0
LINE
  5
322
100
AcDbEntity
  8
0
100
AcDbLine
 62
7
  6
BYLAYER
 10
30.5739307738
 20
34.5527352298
 11
23.8739307738
 21
34.5527352298
  0
LINE
  5
323
100
AcDbEntity
  8
0
100
AcDbLine
 62
7
  6
BYLAYER
 10
3.6739307738
 20
34.5527352298
 11
10.3739307738
 21
34.5527352298
  0
LINE
  5
324
100
AcDbEntity
  8
0
100
AcDbLine
 62
7
  6
BYLAYER
 10
6.8802708443
 20
38.3891265997
 11
6.9146758495
 21
38.3759197556
  0
LINE
  5
325
100
AcDbEntity
  8
0
100
AcDbLine
 62
7
  6
BYLAYER
 10
7.0675589882
 20
38.3172334171
 11
7.1239307738
 21
38.295594316
  0
LINE
  5
326
100
AcDbEntity
  8
0
100
AcDbLine
 62
7
  6
BYLAYER
 10
6.9631163047
 20
38.4505115155
 11
7.0904748108
 21
38.4016231655
  0
LINE
  5
327
100
AcDbEntity
  8
0
100
AcDbLine
 62
7
  6
BYLAYER
 10
28.1546782919
 20
22.6027352298
 11
28.1546782919
 21
27.6027352298
  0
LINE
  5
328
100
AcDbEntity
  8
0
100
AcDbLine
 62
7
  6
BYLAYER
 10
27.0904748108
 20
18.4016231655
 11
27.0675589882
 21
18.3172334171
  0
LINE
  5
329
100
AcDbEntity
  8
0
100
AcDbLine
 62
7
  6
BYLAYER
 10
27.1573867368
 20
17.2038472941
 11
27.1803025594
 21
17.2882370424
  0
LINE
  5
32A
100
AcDbEntity
  8
0
100
AcDbLine
 62
7
  6
BYLAYER
 10
26.5375394039
 20
17.5590753003
 11
26.6310716876
 21
17.8027352298
  0
LINE
  5
32B
100
AcDbEntity
  8
0
100
AcDbLine
 62
7
  6
BYLAYER
 10
26.9146758495
 20
18.3759197556
 11
26.9631163047
 21
18.4505115155
  0
LINE
  5
32C
100
AcDbEntity
  8
0
100
AcDbLine
 62
7
  6
BYLAYER
 10
27.5747779997
 20
18.856300366
 11
27.2875085934
 21
18.5371830223
  0
LINE
  5
32D
100
AcDbEntity
  8
0
100
AcDbLine
 62
7
  6
BYLAYER
 10
26.8658244657
 20
18.4247711394
 11
26.7730219838
 21
18.3319686575
  0
LINE
  5
32E
100
AcDbEntity
  8
0
100
AcDbLine
 62
7
  6
BYLAYER
 10
26.5946973461
 20
18.1536440198
 11
26.5018948642
 21
18.0608415379
  0
LINE
  5
32F
100
AcDbEntity
  8
0
100
AcDbLine
 62
7
  6
BYLAYER
 10
25.0324842615
 20
16.3436326161
 11
26.5250428381
 21
17.8361911928
  0
LINE
  5
330
100
AcDbEntity
  8
0
100
AcDbLine
 62
7
  6
BYLAYER
 10
27.0904748108
 20
18.4016231655
 11
28.5830333874
 21
19.8941817421
  0
LINE
  5
331
100
AcDbEntity
  8
0
100
AcDbLine
 62
7
  6
BYLAYER
 10
28.8473519704
 20
20.1288743367
 11
27.5747779997
 21
18.856300366
  0
LINE
  5
332
100
AcDbEntity
  8
0
100
AcDbLine
 62
7
  6
BYLAYER
 10
26.0703656376
 20
17.3518880039
 11
24.7977916668
 21
16.0793140331
  0
LINE
  5
333
100
AcDbEntity
  8
0
100
AcDbLine
 62
7
  6
BYLAYER
 10
27.2875085934
 20
18.5371830223
 11
27.0675589882
 21
18.3172334171
  0
LINE
  5
334
100
AcDbEntity
  8
0
100
AcDbLine
 62
7
  6
BYLAYER
 10
26.6094325865
 20
17.8591070153
 11
26.3894829813
 21
17.6391574102
  0
LINE
  5
335
100
AcDbEntity
  8
0
100
AcDbLine
 62
7
  6
BYLAYER
 10
26.3894829813
 20
17.6391574102
 11
26.0703656376
 21
17.3518880039
  0
LINE
  5
336
100
AcDbEntity
  8
0
100
AcDbLine
 62
7
  6
BYLAYER
 10
26.5507462479
 20
18.0119901541
 11
26.4761544881
 21
17.9635496989
  0
LINE
  5
337
100
AcDbEntity
  8
0
100
AcDbLine
 62
7
  6
BYLAYER
 10
27.6971152997
 20
17.5934803054
 11
27.7717070596
 21
17.6419207606
  0
LINE
  5
338
100
AcDbEntity
  8
0
100
AcDbLine
 62
7
  6
BYLAYER
 10
26.6094325865
 20
37.8591070153
 11
26.5250428381
 21
37.8361911928
  0
LINE
  5
339
100
AcDbEntity
  8
0
100
AcDbLine
 62
7
  6
BYLAYER
 10
27.7103221438
 20
18.0463951592
 11
27.6167898601
 21
17.8027352298
  0
LINE
  5
33A
100
AcDbEntity
  8
0
100
AcDbLine
 62
7
  6
BYLAYER
 10
27.3331856982
 20
17.2295507039
 11
27.2847452429
 21
17.154958944
  0
LINE
  5
33B
100
AcDbEntity
  8
0
100
AcDbLine
 62
7
  6
BYLAYER
 10
26.9603529542
 20
17.0682874373
 11
26.673083548
 21
16.7491700935
  0
LINE
  5
33C
100
AcDbEntity
  8
0
100
AcDbLine
 62
7
  6
BYLAYER
 10
27.8583785663
 20
17.9663130494
 11
27.6384289612
 21
17.7463634442
  0
LINE
  5
33D
100
AcDbEntity
  8
0
100
AcDbLine
 62
7
  6
BYLAYER
 10
27.1803025594
 20
17.2882370424
 11
26.9603529542
 21
17.0682874373
  0
LINE
  5
33E
100
AcDbEntity
  8
0
100
AcDbLine
 62
7
  6
BYLAYER
 10
25.4005095772
 20
15.4765961228
 11
26.673083548
 21
16.7491700935
  0
LINE
  5
33F
100
AcDbEntity
  8
0
100
AcDbLine
 62
7
  6
BYLAYER
 10
28.17749591
 20
18.2535824556
 11
29.4500698808
 21
19.5261564264
  0
LINE
  5
340
100
AcDbEntity
  8
0
100
AcDbLine
 62
7
  6
BYLAYER
 10
29.2153772862
 20
19.2618378434
 11
27.7228187095
 21
17.7692792667
  0
LINE
  5
341
100
AcDbEntity
  8
0
100
AcDbLine
 62
7
  6
BYLAYER
 10
27.1573867368
 20
17.2038472941
 11
25.6648281602
 21
15.7112887174
  0
LINE
  5
342
100
AcDbEntity
  8
0
100
AcDbLine
 62
7
  6
BYLAYER
 10
27.382037082
 20
17.1806993201
 11
27.4748395639
 21
17.273501802
  0
LINE
  5
343
100
AcDbEntity
  8
0
100
AcDbLine
 62
7
  6
BYLAYER
 10
27.6531642016
 20
17.4518264397
 11
27.7459666835
 21
17.5446289216
  0
LINE
  5
344
100
AcDbEntity
  8
0
100
AcDbLine
 62
7
  6
BYLAYER
 10
27.818394469
 20
16.6418324619
 11
28.2848335417
 21
17.1082715346
  0
LINE
  5
345
100
AcDbEntity
  8
0
100
AcDbLine
 62
7
  6
BYLAYER
 10
28.17749591
 20
18.2535824556
 11
27.8583785663
 21
17.9663130494
  0
LINE
  5
346
100
AcDbEntity
  8
0
100
AcDbLine
 62
7
  6
BYLAYER
 10
20.3239307738
 20
10.9027352298
 11
20.588032389
 21
11.0552143684
  0
LINE
  5
347
100
AcDbEntity
  8
0
100
AcDbLine
 62
7
  6
BYLAYER
 10
30.5739307738
 20
14.3527352298
 11
30.5739307738
 21
41.2527352298
  0
LINE
  5
348
100
AcDbEntity
  8
0
100
AcDbLine
 62
7
  6
BYLAYER
 10
30.6239297178
 20
15.0026519426
 11
30.6239297228
 21
40.6028185916
  0
LINE
  5
349
100
AcDbEntity
  8
0
100
AcDbLine
 62
7
  6
BYLAYER
 10
28.6115019915
 20
16.8021258287
 11
28.1245401749
 21
16.3151640121
  0
LINE
  5
34A
100
AcDbEntity
  8
0
100
AcDbLine
 62
7
  6
BYLAYER
 10
19.223916584
 20
7.2027472272
 11
19.6239165129
 21
7.6027521442
  0
LINE
  5
34B
100
AcDbEntity
  8
0
100
AcDbLine
 62
7
  6
BYLAYER
 10
26.6354448721
 20
37.8027352298
 11
26.6310716876
 21
37.8027352298
  0
LINE
  5
34C
100
AcDbEntity
  8
0
100
AcDbLine
 62
7
  6
BYLAYER
 10
6.6354448721
 20
37.8027352298
 11
6.6310716876
 21
37.8027352298
  0
LINE
  5
34D
100
AcDbEntity
  8
0
100
AcDbLine
 62
7
  6
BYLAYER
 10
7.6124166756
 20
37.8027352298
 11
7.6167898601
 21
37.8027352298
  0
LINE
  5
34E
100
AcDbEntity
  8
0
100
AcDbLine
 62
7
  6
BYLAYER
 10
27.6124166756
 20
37.8027352298
 11
27.6167898601
 21
37.8027352298
  0
LINE
  5
34F
100
AcDbEntity
  8
0
100
AcDbLine
 62
7
  6
BYLAYER
 10
26.5250428381
 20
37.8361911928
 11
26.4761544881
 21
37.9635496989
  0
LINE
  5
350
100
AcDbEntity
  8
0
100
AcDbLine
 62
7
  6
BYLAYER
 10
26.6094325865
 20
37.8591070153
 11
26.6310716876
 21
37.8027352298
  0
LINE
  5
351
100
AcDbEntity
  8
0
100
AcDbLine
 62
7
  6
BYLAYER
 10
26.5507462479
 20
38.0119901541
 11
26.5375394039
 21
38.0463951592
  0
LINE
  5
352
100
AcDbEntity
  8
0
100
AcDbLine
 62
7
  6
BYLAYER
 10
27.6167898601
 20
37.8027352298
 11
27.6384289612
 21
37.7463634442
  0
LINE
  5
353
100
AcDbEntity
  8
0
100
AcDbLine
 62
7
  6
BYLAYER
 10
27.6971152997
 20
37.5934803054
 11
27.7103221438
 21
37.5590753003
  0
LINE
  5
354
100
AcDbEntity
  8
0
100
AcDbLine
 62
7
  6
BYLAYER
 10
7.6384289612
 20
37.7463634442
 11
7.7228187095
 21
37.7692792667
  0
LINE
  5
355
100
AcDbEntity
  8
0
100
AcDbLine
 62
7
  6
BYLAYER
 10
6.6094325865
 20
37.8591070153
 11
6.5250428381
 21
37.8361911928
  0
LINE
  5
356
100
AcDbEntity
  8
0
100
AcDbLine
 62
7
  6
BYLAYER
 10
27.2847452429
 20
37.154958944
 11
27.1573867368
 21
37.2038472941
  0
LINE
  5
357
100
AcDbEntity
  8
0
100
AcDbLine
 62
7
  6
BYLAYER
 10
27.3675907033
 20
37.2163438598
 11
27.3331856982
 21
37.2295507039
  0
LINE
  5
358
100
AcDbEntity
  8
0
100
AcDbLine
 62
7
  6
BYLAYER
 10
27.1803025594
 20
37.2882370424
 11
27.1239307738
 21
37.3098761435
  0
LINE
  5
359
100
AcDbEntity
  8
0
100
AcDbLine
 62
7
  6
BYLAYER
 10
26.0703656376
 20
37.3518880039
 11
26.673083548
 21
36.7491700935
  0
LINE
  5
35A
100
AcDbEntity
  8
0
100
AcDbLine
 62
7
  6
BYLAYER
 10
26.3894829813
 20
37.6391574102
 11
26.9603529542
 21
37.0682874373
  0
LINE
  5
35B
100
AcDbEntity
  8
0
100
AcDbLine
 62
7
  6
BYLAYER
 10
27.382037082
 20
37.1806993201
 11
27.818394469
 21
36.6418324619
  0
LINE
  5
35C
100
AcDbEntity
  8
0
100
AcDbLine
 62
7
  6
BYLAYER
 10
27.7228187095
 20
37.7692792667
 11
27.7717070596
 21
37.6419207606
  0
LINE
  5
35D
100
AcDbEntity
  8
0
100
AcDbLine
 62
7
  6
BYLAYER
 10
3.6739307738
 20
41.2527352298
 11
30.5739307738
 21
41.2527352298
  0
LINE
  5
35E
100
AcDbEntity
  8
0
100
AcDbLine
 62
7
  6
BYLAYER
 10
29.924014061
 20
41.3027341738
 11
4.3238459503
 21
41.3027341792
  0
LINE
  5
35F
100
AcDbEntity
  8
0
100
AcDbLine
 62
7
  6
BYLAYER
 10
26.8802708443
 20
38.3891265997
 11
26.9146758495
 21
38.3759197556
  0
LINE
  5
360
100
AcDbEntity
  8
0
100
AcDbLine
 62
7
  6
BYLAYER
 10
27.0675589882
 20
38.3172334171
 11
27.1239307738
 21
38.295594316
  0
LINE
  5
361
100
AcDbEntity
  8
0
100
AcDbLine
 62
7
  6
BYLAYER
 10
26.9631163047
 20
38.4505115155
 11
27.0904748108
 21
38.4016231655
  0
LINE
  5
362
100
AcDbEntity
  8
0
100
AcDbLine
 62
7
  6
BYLAYER
 10
25.963028006
 20
38.4971989249
 11
26.5018948642
 21
38.0608415379
  0
LINE
  5
363
100
AcDbEntity
  8
0
100
AcDbLine
 62
7
  6
BYLAYER
 10
27.7459666835
 20
37.5446289216
 11
28.2848335417
 21
37.1082715346
  0
LINE
  5
364
100
AcDbEntity
  8
0
100
AcDbLine
 62
7
  6
BYLAYER
 10
25.6363595561
 20
38.8033446308
 11
26.4761544881
 21
37.9635496989
  0
LINE
  5
365
100
AcDbEntity
  8
0
100
AcDbLine
 62
7
  6
BYLAYER
 10
27.2847452429
 20
37.154958944
 11
28.1245401749
 21
36.3151640121
  0
LINE
  5
366
100
AcDbEntity
  8
0
100
AcDbLine
 62
7
  6
BYLAYER
 10
26.5018948642
 20
38.0608415379
 11
26.5507462479
 21
38.0119901541
  0
LINE
  5
367
100
AcDbEntity
  8
0
100
AcDbLine
 62
7
  6
BYLAYER
 10
27.3331856982
 20
37.2295507039
 11
27.382037082
 21
37.1806993201
  0
LINE
  5
368
100
AcDbEntity
  8
0
100
AcDbLine
 62
7
  6
BYLAYER
 10
27.7459666835
 20
37.5446289216
 11
27.6971152997
 21
37.5934803054
  0
LINE
  5
369
100
AcDbEntity
  8
0
100
AcDbLine
 62
7
  6
BYLAYER
 10
26.9146758495
 20
38.3759197556
 11
26.8658244657
 21
38.4247711394
  0
LINE
  5
36A
100
AcDbEntity
  8
0
100
AcDbLine
 62
7
  6
BYLAYER
 10
28.6115019915
 20
36.8021258287
 11
27.7717070596
 21
37.6419207606
  0
LINE
  5
36B
100
AcDbEntity
  8
0
100
AcDbLine
 62
7
  6
BYLAYER
 10
26.9631163047
 20
38.4505115155
 11
26.1233213727
 21
39.2903064475
  0
LINE
  5
36C
100
AcDbEntity
  8
0
100
AcDbLine
 62
7
  6
BYLAYER
 10
27.2875085934
 20
38.5371830223
 11
27.8583785663
 21
37.9663130494
  0
LINE
  5
36D
100
AcDbEntity
  8
0
100
AcDbLine
 62
7
  6
BYLAYER
 10
26.4294670787
 20
38.9636379976
 11
26.8658244657
 21
38.4247711394
  0
LINE
  5
36E
100
AcDbEntity
  8
0
100
AcDbLine
 62
7
  6
BYLAYER
 10
27.5747779997
 20
38.856300366
 11
28.17749591
 21
38.2535824556
  0
ARC
  5
36F
100
AcDbEntity
  8
0
100
AcDbCircle
 62
7
  6
BYLAYER
 10
-4.071403662
 20
-10.900029922
 40
30.3542594495
100
AcDbArc
 50
67.8613165602
 51
68.3569826949
  0
ARC
  5
370
100
AcDbEntity
  8
0
100
AcDbCircle
 62
7
  6
BYLAYER
 10
15.9285963381
 20
-10.9000299217
 40
30.3542594491
100
AcDbArc
 50
67.8613165602
 51
68.3569826949
  0
ARC
  5
371
100
AcDbEntity
  8
0
100
AcDbCircle
 62
7
  6
BYLAYER
 10
15.9296430172
 20
9.1025749761
 40
30.3514521583
100
AcDbArc
 50
67.8612936373
 51
68.3570056179
  0
ARC
  5
372
100
AcDbEntity
  8
0
100
AcDbCircle
 62
7
  6
BYLAYER
 10
-4.0703569821
 20
9.102574978
 40
30.3514521562
100
AcDbArc
 50
67.8612936373
 51
68.3570056179
  0
ARC
  5
373
100
AcDbEntity
  8
0
100
AcDbCircle
 62
7
  6
BYLAYER
 10
16.8836911444
 20
12.6727212421
 40
26.5039210099
100
AcDbArc
 50
111.6070132551
 51
112.1746874898
  0
ARC
  5
374
100
AcDbEntity
  8
0
100
AcDbCircle
 62
7
  6
BYLAYER
 10
16.8824633908
 20
-7.324223215
 40
26.5006280697
100
AcDbArc
 50
111.6069779855
 51
112.1747227594
  0
ARC
  5
375
100
AcDbEntity
  8
0
100
AcDbCircle
 62
7
  6
BYLAYER
 10
1.9969767513
 20
8.0442043897
 40
26.5006233039
100
AcDbArc
 50
21.6069779344
 51
22.1747228104
  0
ARC
  5
376
100
AcDbEntity
  8
0
100
AcDbCircle
 62
7
  6
BYLAYER
 10
-18.0030232483
 20
8.0442043899
 40
26.5006233034
100
AcDbArc
 50
21.6069779344
 51
22.1747228104
  0
CIRCLE
  5
377
100
AcDbEntity
  8
0
100
AcDbCircle
 62
7
  6
BYLAYER
 10
7.1239307738
 20
17.8027352298
 40
3.0
  0
ARC
  5
378
100
AcDbEntity
  8
0
100
AcDbCircle
 62
7
  6
BYLAYER
 10
7.1239307738
 20
17.8027352298
 40
2.8950136038
100
AcDbArc
 50
216.5345041033
 51
233.4654958967
  0
ARC
  5
379
100
AcDbEntity
  8
0
100
AcDbCircle
 62
7
  6
BYLAYER
 10
7.1239307738
 20
17.8027352298
 40
2.8950136038
100
AcDbArc
 50
36.5345041033
 51
53.4654958967
  0
ARC
  5
37A
100
AcDbEntity
  8
0
100
AcDbCircle
 62
7
  6
BYLAYER
 10
7.1239307738
 20
17.8027352298
 40
2.8489817302
100
AcDbArc
 50
233.8836441583
 51
36.1163558417
  0
ARC
  5
37B
100
AcDbEntity
  8
0
100
AcDbCircle
 62
7
  6
BYLAYER
 10
7.1239307738
 20
17.8027352298
 40
2.8489817302
100
AcDbArc
 50
53.8836441583
 51
216.1163558417
  0
ARC
  5
37C
100
AcDbEntity
  8
0
100
AcDbCircle
 62
7
  6
BYLAYER
 10
7.1239307738
 20
17.8027352298
 40
2.5501233207
100
AcDbArc
 50
55.0983541384
 51
214.9016458616
  0
ARC
  5
37D
100
AcDbEntity
  8
0
100
AcDbCircle
 62
7
  6
BYLAYER
 10
7.1239307738
 20
17.8027352298
 40
2.5501233207
100
AcDbArc
 50
235.0983541384
 51
34.9016458616
  0
ARC
  5
37E
100
AcDbEntity
  8
0
100
AcDbCircle
 62
7
  6
BYLAYER
 10
4.3237803762
 20
15.0025848471
 40
0.6998464524
100
AcDbArc
 50
179.9943925486
 51
195.994115058
  0
ARC
  5
37F
100
AcDbEntity
  8
0
100
AcDbCircle
 62
7
  6
BYLAYER
 10
4.3237803762
 20
15.0025848471
 40
0.6998464524
100
AcDbArc
 50
254.006576495
 51
270.0053746178
  0
ARC
  5
380
100
AcDbEntity
  8
0
100
AcDbCircle
 62
7
  6
BYLAYER
 10
7.1239307738
 20
17.8027352298
 40
0.635
100
AcDbArc
 50
202.564077409
 51
247.435922591
  0
ARC
  5
381
100
AcDbEntity
  8
0
100
AcDbCircle
 62
7
  6
BYLAYER
 10
7.1239307738
 20
17.8027352298
 40
0.635
100
AcDbArc
 50
112.564077409
 51
157.435922591
  0
ARC
  5
382
100
AcDbEntity
  8
0
100
AcDbCircle
 62
7
  6
BYLAYER
 10
7.1239307738
 20
17.8027352298
 40
0.635
100
AcDbArc
 50
22.564077409
 51
67.435922591
  0
ARC
  5
383
100
AcDbEntity
  8
0
100
AcDbCircle
 62
7
  6
BYLAYER
 10
7.1239307738
 20
17.8027352298
 40
0.635
100
AcDbArc
 50
292.564077409
 51
337.435922591
  0
ARC
  5
384
100
AcDbEntity
  8
0
100
AcDbCircle
 62
7
  6
BYLAYER
 10
-1.5787946939
 20
28.99805372
 40
30.3542166821
100
AcDbArc
 50
337.861316211
 51
338.3569830441
  0
ARC
  5
385
100
AcDbEntity
  8
0
100
AcDbCircle
 62
7
  6
BYLAYER
 10
-21.5787946936
 20
28.9980537199
 40
30.3542166818
100
AcDbArc
 50
337.861316211
 51
338.3569830441
  0
ARC
  5
386
100
AcDbEntity
  8
0
100
AcDbCircle
 62
7
  6
BYLAYER
 10
-1.5762373866
 20
48.9970261635
 40
30.3514606794
100
AcDbArc
 50
337.8612937069
 51
338.3570055483
  0
ARC
  5
387
100
AcDbEntity
  8
0
100
AcDbCircle
 62
7
  6
BYLAYER
 10
-21.5762373858
 20
48.9970261631
 40
30.3514606786
100
AcDbArc
 50
337.8612937069
 51
338.3570055483
  0
ARC
  5
388
100
AcDbEntity
  8
0
100
AcDbCircle
 62
7
  6
BYLAYER
 10
-18.0060984692
 20
28.0429687294
 40
26.5039374505
100
AcDbArc
 50
21.6070134311
 51
22.1746873137
  0
ARC
  5
389
100
AcDbEntity
  8
0
100
AcDbCircle
 62
7
  6
BYLAYER
 10
1.9939015308
 20
28.0429687295
 40
26.5039374505
100
AcDbArc
 50
21.6070134311
 51
22.1746873137
  0
ARC
  5
38A
100
AcDbEntity
  8
0
100
AcDbCircle
 62
7
  6
BYLAYER
 10
-2.6358295965
 20
62.932749217
 40
26.5039210094
100
AcDbArc
 50
291.6070132551
 51
292.1746874898
  0
ARC
  5
38B
100
AcDbEntity
  8
0
100
AcDbCircle
 62
7
  6
BYLAYER
 10
-2.6346018432
 20
42.9296936748
 40
26.50062807
100
AcDbArc
 50
291.6069779855
 51
292.1747227594
  0
CIRCLE
  5
38C
100
AcDbEntity
  8
0
100
AcDbCircle
 62
7
  6
BYLAYER
 10
7.1239307738
 20
37.8027352298
 40
3.0
  0
ARC
  5
38D
100
AcDbEntity
  8
0
100
AcDbCircle
 62
7
  6
BYLAYER
 10
7.1239307738
 20
37.8027352298
 40
2.8950136038
100
AcDbArc
 50
216.5345041033
 51
233.4654958967
  0
ARC
  5
38E
100
AcDbEntity
  8
0
100
AcDbCircle
 62
7
  6
BYLAYER
 10
7.1239307738
 20
37.8027352298
 40
2.8950136038
100
AcDbArc
 50
36.5345041033
 51
53.4654958967
  0
ARC
  5
38F
100
AcDbEntity
  8
0
100
AcDbCircle
 62
7
  6
BYLAYER
 10
7.1239307738
 20
37.8027352298
 40
2.8489817302
100
AcDbArc
 50
233.8836441583
 51
36.1163558417
  0
ARC
  5
390
100
AcDbEntity
  8
0
100
AcDbCircle
 62
7
  6
BYLAYER
 10
7.1239307738
 20
37.8027352298
 40
2.8489817302
100
AcDbArc
 50
53.8836441583
 51
216.1163558417
  0
ARC
  5
391
100
AcDbEntity
  8
0
100
AcDbCircle
 62
7
  6
BYLAYER
 10
7.1239307738
 20
37.8027352298
 40
2.5501233207
100
AcDbArc
 50
55.0983541384
 51
214.9016458616
  0
ARC
  5
392
100
AcDbEntity
  8
0
100
AcDbCircle
 62
7
  6
BYLAYER
 10
7.1239307738
 20
37.8027352298
 40
2.5501233207
100
AcDbArc
 50
235.0983541384
 51
34.9016458616
  0
ARC
  5
393
100
AcDbEntity
  8
0
100
AcDbCircle
 62
7
  6
BYLAYER
 10
4.3237803911
 20
40.6028856274
 40
0.6998464524
100
AcDbArc
 50
89.994632749
 51
105.994147406
  0
ARC
  5
394
100
AcDbEntity
  8
0
100
AcDbCircle
 62
7
  6
BYLAYER
 10
4.3237803911
 20
40.6028856274
 40
0.6998464524
100
AcDbArc
 50
164.0065364841
 51
180.0053746169
  0
ARC
  5
395
100
AcDbEntity
  8
0
100
AcDbCircle
 62
7
  6
BYLAYER
 10
7.1239307738
 20
37.8027352298
 40
0.635
100
AcDbArc
 50
202.564077409
 51
247.435922591
  0
ARC
  5
396
100
AcDbEntity
  8
0
100
AcDbCircle
 62
7
  6
BYLAYER
 10
7.1239307738
 20
37.8027352298
 40
0.635
100
AcDbArc
 50
112.564077409
 51
157.435922591
  0
ARC
  5
397
100
AcDbEntity
  8
0
100
AcDbCircle
 62
7
  6
BYLAYER
 10
7.1239307738
 20
37.8027352298
 40
0.635
100
AcDbArc
 50
22.564077409
 51
67.435922591
  0
ARC
  5
398
100
AcDbEntity
  8
0
100
AcDbCircle
 62
7
  6
BYLAYER
 10
7.1239307738
 20
37.8027352298
 40
0.635
100
AcDbArc
 50
292.564077409
 51
337.435922591
  0
ARC
  5
399
100
AcDbEntity
  8
0
100
AcDbCircle
 62
7
  6
BYLAYER
 10
55.8266562416
 20
6.6074167395
 40
30.3542166821
100
AcDbArc
 50
157.861316211
 51
158.3569830441
  0
ARC
  5
39A
100
AcDbEntity
  8
0
100
AcDbCircle
 62
7
  6
BYLAYER
 10
35.8266562412
 20
6.6074167396
 40
30.3542166817
100
AcDbArc
 50
157.861316211
 51
158.3569830441
  0
ARC
  5
39B
100
AcDbEntity
  8
0
100
AcDbCircle
 62
7
  6
BYLAYER
 10
55.8240989343
 20
26.6084442961
 40
30.3514606794
100
AcDbArc
 50
157.8612937069
 51
158.3570055483
  0
ARC
  5
39C
100
AcDbEntity
  8
0
100
AcDbCircle
 62
7
  6
BYLAYER
 10
35.8240989339
 20
26.6084442962
 40
30.351460679
100
AcDbArc
 50
157.8612937069
 51
158.3570055483
  0
ARC
  5
39D
100
AcDbEntity
  8
0
100
AcDbCircle
 62
7
  6
BYLAYER
 10
36.8836911448
 20
12.6727212409
 40
26.5039210112
100
AcDbArc
 50
111.6070132551
 51
112.1746874898
  0
ARC
  5
39E
100
AcDbEntity
  8
0
100
AcDbCircle
 62
7
  6
BYLAYER
 10
36.8824633909
 20
-7.3242232153
 40
26.50062807
100
AcDbArc
 50
111.6069779855
 51
112.1747227594
  0
ARC
  5
39F
100
AcDbEntity
  8
0
100
AcDbCircle
 62
7
  6
BYLAYER
 10
32.2508847962
 20
27.5612660697
 40
26.5006233037
100
AcDbArc
 50
201.6069779344
 51
202.1747228104
  0
ARC
  5
3A0
100
AcDbEntity
  8
0
100
AcDbCircle
 62
7
  6
BYLAYER
 10
52.2508847958
 20
27.5612660695
 40
26.5006233032
100
AcDbArc
 50
201.6069779344
 51
202.1747228104
  0
CIRCLE
  5
3A1
100
AcDbEntity
  8
0
100
AcDbCircle
 62
7
  6
BYLAYER
 10
27.1239307738
 20
17.8027352298
 40
3.0
  0
ARC
  5
3A2
100
AcDbEntity
  8
0
100
AcDbCircle
 62
7
  6
BYLAYER
 10
27.1239307738
 20
17.8027352298
 40
2.8950136038
100
AcDbArc
 50
216.5345041033
 51
233.4654958967
  0
ARC
  5
3A3
100
AcDbEntity
  8
0
100
AcDbCircle
 62
7
  6
BYLAYER
 10
27.1239307738
 20
17.8027352298
 40
2.8950136038
100
AcDbArc
 50
36.5345041033
 51
53.4654958967
  0
ARC
  5
3A4
100
AcDbEntity
  8
0
100
AcDbCircle
 62
7
  6
BYLAYER
 10
27.1239307738
 20
17.8027352298
 40
2.8489817302
100
AcDbArc
 50
233.8836441583
 51
36.1163558417
  0
ARC
  5
3A5
100
AcDbEntity
  8
0
100
AcDbCircle
 62
7
  6
BYLAYER
 10
27.1239307738
 20
17.8027352298
 40
2.8489817302
100
AcDbArc
 50
53.8836441583
 51
216.1163558417
  0
ARC
  5
3A6
100
AcDbEntity
  8
0
100
AcDbCircle
 62
7
  6
BYLAYER
 10
27.1239307738
 20
17.8027352298
 40
2.5501233207
100
AcDbArc
 50
55.0983541384
 51
214.9016458616
  0
ARC
  5
3A7
100
AcDbEntity
  8
0
100
AcDbCircle
 62
7
  6
BYLAYER
 10
27.1239307738
 20
17.8027352298
 40
2.5501233207
100
AcDbArc
 50
235.0983541384
 51
34.9016458616
  0
ARC
  5
3A8
100
AcDbEntity
  8
0
100
AcDbCircle
 62
7
  6
BYLAYER
 10
29.924080024
 20
15.0025859647
 40
0.6998475836
100
AcDbArc
 50
269.9943059397
 51
285.9940731615
  0
ARC
  5
3A9
100
AcDbEntity
  8
0
100
AcDbCircle
 62
7
  6
BYLAYER
 10
29.924080024
 20
15.0025859647
 40
0.6998475836
100
AcDbArc
 50
344.0066202844
 51
0.005401525
  0
ARC
  5
3AA
100
AcDbEntity
  8
0
100
AcDbCircle
 62
7
  6
BYLAYER
 10
27.1239307738
 20
17.8027352298
 40
0.635
100
AcDbArc
 50
202.564077409
 51
247.435922591
  0
ARC
  5
3AB
100
AcDbEntity
  8
0
100
AcDbCircle
 62
7
  6
BYLAYER
 10
27.1239307738
 20
17.8027352298
 40
0.635
100
AcDbArc
 50
112.564077409
 51
157.435922591
  0
ARC
  5
3AC
100
AcDbEntity
  8
0
100
AcDbCircle
 62
7
  6
BYLAYER
 10
27.1239307738
 20
17.8027352298
 40
0.635
100
AcDbArc
 50
22.564077409
 51
67.435922591
  0
ARC
  5
3AD
100
AcDbEntity
  8
0
100
AcDbCircle
 62
7
  6
BYLAYER
 10
27.1239307738
 20
17.8027352298
 40
0.635
100
AcDbArc
 50
292.564077409
 51
337.435922591
  0
ARC
  5
3AE
100
AcDbEntity
  8
0
100
AcDbCircle
 62
7
  6
BYLAYER
 10
18.3192652098
 20
46.505500382
 40
30.35425945
100
AcDbArc
 50
247.8613165602
 51
248.3569826949
  0
ARC
  5
3AF
100
AcDbEntity
  8
0
100
AcDbCircle
 62
7
  6
BYLAYER
 10
38.3192652097
 20
46.5055003816
 40
30.3542594496
100
AcDbArc
 50
247.8613165602
 51
248.3569826949
  0
ARC
  5
3B0
100
AcDbEntity
  8
0
100
AcDbCircle
 62
7
  6
BYLAYER
 10
38.3182185302
 20
66.5028954828
 40
30.3514521576
100
AcDbArc
 50
247.8612936373
 51
248.3570056179
  0
ARC
  5
3B1
100
AcDbEntity
  8
0
100
AcDbCircle
 62
7
  6
BYLAYER
 10
18.31821853
 20
66.5028954823
 40
30.3514521571
100
AcDbArc
 50
247.8612936373
 51
248.3570056179
  0
ARC
  5
3B2
100
AcDbEntity
  8
0
100
AcDbCircle
 62
7
  6
BYLAYER
 10
32.253960017
 20
47.5625017302
 40
26.5039374507
100
AcDbArc
 50
201.6070134311
 51
202.1746873137
  0
ARC
  5
3B3
100
AcDbEntity
  8
0
100
AcDbCircle
 62
7
  6
BYLAYER
 10
52.2539600167
 20
47.56250173
 40
26.5039374504
100
AcDbArc
 50
201.6070134311
 51
202.1746873137
  0
ARC
  5
3B4
100
AcDbEntity
  8
0
100
AcDbCircle
 62
7
  6
BYLAYER
 10
17.3641704035
 20
62.9327492168
 40
26.5039210093
100
AcDbArc
 50
291.6070132551
 51
292.1746874898
  0
ARC
  5
3B5
100
AcDbEntity
  8
0
100
AcDbCircle
 62
7
  6
BYLAYER
 10
17.365398157
 20
42.9296936742
 40
26.5006280694
100
AcDbArc
 50
291.6069779855
 51
292.1747227594
  0
CIRCLE
  5
3B6
100
AcDbEntity
  8
0
100
AcDbCircle
 62
7
  6
BYLAYER
 10
27.1239307738
 20
37.8027352298
 40
3.0
  0
ARC
  5
3B7
100
AcDbEntity
  8
0
100
AcDbCircle
 62
7
  6
BYLAYER
 10
27.1239307738
 20
37.8027352298
 40
2.8950136038
100
AcDbArc
 50
216.5345041033
 51
233.4654958967
  0
ARC
  5
3B8
100
AcDbEntity
  8
0
100
AcDbCircle
 62
7
  6
BYLAYER
 10
27.1239307738
 20
37.8027352298
 40
2.8950136038
100
AcDbArc
 50
36.5345041033
 51
53.4654958967
  0
ARC
  5
3B9
100
AcDbEntity
  8
0
100
AcDbCircle
 62
7
  6
BYLAYER
 10
27.1239307738
 20
37.8027352298
 40
2.8489817302
100
AcDbArc
 50
233.8836441583
 51
36.1163558417
  0
ARC
  5
3BA
100
AcDbEntity
  8
0
100
AcDbCircle
 62
7
  6
BYLAYER
 10
27.1239307738
 20
37.8027352298
 40
2.8489817302
100
AcDbArc
 50
53.8836441583
 51
216.1163558417
  0
ARC
  5
3BB
100
AcDbEntity
  8
0
100
AcDbCircle
 62
7
  6
BYLAYER
 10
27.1239307738
 20
37.8027352298
 40
2.5501233207
100
AcDbArc
 50
55.0983541384
 51
214.9016458616
  0
ARC
  5
3BC
100
AcDbEntity
  8
0
100
AcDbCircle
 62
7
  6
BYLAYER
 10
27.1239307738
 20
37.8027352298
 40
2.5501233207
100
AcDbArc
 50
235.0983541384
 51
34.9016458616
  0
ARC
  5
3BD
100
AcDbEntity
  8
0
100
AcDbCircle
 62
7
  6
BYLAYER
 10
29.9240800389
 20
40.6028844799
 40
0.6998475836
100
AcDbArc
 50
359.9946058083
 51
15.9941135449
  0
ARC
  5
3BE
100
AcDbEntity
  8
0
100
AcDbCircle
 62
7
  6
BYLAYER
 10
29.9240800389
 20
40.6028844799
 40
0.6998475836
100
AcDbArc
 50
74.0065703342
 51
90.0054015244
  0
ARC
  5
3BF
100
AcDbEntity
  8
0
100
AcDbCircle
 62
7
  6
BYLAYER
 10
27.1239307738
 20
37.8027352298
 40
0.635
100
AcDbArc
 50
202.564077409
 51
247.435922591
  0
ARC
  5
3C0
100
AcDbEntity
  8
0
100
AcDbCircle
 62
7
  6
BYLAYER
 10
27.1239307738
 20
37.8027352298
 40
0.635
100
AcDbArc
 50
112.564077409
 51
157.435922591
  0
ARC
  5
3C1
100
AcDbEntity
  8
0
100
AcDbCircle
 62
7
  6
BYLAYER
 10
27.1239307738
 20
37.8027352298
 40
0.635
100
AcDbArc
 50
22.564077409
 51
67.435922591
  0
ARC
  5
3C2
100
AcDbEntity
  8
0
100
AcDbCircle
 62
7
  6
BYLAYER
 10
27.1239307738
 20
37.8027352298
 40
0.635
100
AcDbArc
 50
292.564077409
 51
337.435922591
  0
SPLINE
  5
3C3
100
AcDbEntity
  8
0
100
AcDbSpline
 62
7
  6
BYLAYER
 70
0
 71
3
 72
19
 73
15
 74
0
 42
0.0000001
 43
0.0000001
 44
0.0000000001
 40
0.0
 40
0.0
 40
0.0
 40
0.0
 40
0.1256911015
 40
0.2508395135
 40
0.3132443319
 40
0.3755541825
 40
0.4377954735
 40
0.5000006093
 40
0.5622061556
 40
0.6244474602
 40
0.6867570444
 40
0.7491614945
 40
0.8743092824
 40
1.0
 40
1.0
 40
1.0
 40
1.0
 10
17.1239307738
 20
11.3646154451
 30
0.0
 10
16.9834625719
 20
11.3177927111
 30
0.0
 10
16.7004991678
 20
11.2319656765
 30
0.0
 10
16.3404993724
 20
11.1491846482
 30
0.0
 10
16.0500198498
 20
11.1011401166
 30
0.0
 10
15.8312793187
 20
11.0748470038
 30
0.0
 10
15.6117796229
 20
11.0587936522
 30
0.0
 10
15.3918774758
 20
11.0534370215
 30
0.0
 10
15.1719763975
 20
11.0588147551
 30
0.0
 10
14.9524752656
 20
11.0748450006
 30
0.0
 10
14.7337332684
 20
11.1011254285
 30
0.0
 10
14.4432609341
 20
11.1492039451
 30
0.0
 10
14.0832585577
 20
11.2319615711
 30
0.0
 10
13.8002969316
 20
11.3177928541
 30
0.0
 10
13.6598291587
 20
11.3646154451
 30
0.0
  0
SPLINE
  5
3C4
100
AcDbEntity
  8
0
100
AcDbSpline
 62
7
  6
BYLAYER
 70
0
 71
3
 72
19
 73
15
 74
0
 42
0.0000001
 43
0.0000001
 44
0.0000000001
 40
0.0
 40
0.0
 40
0.0
 40
0.0
 40
0.1256911015
 40
0.2508395135
 40
0.3132443319
 40
0.3755541825
 40
0.4377954735
 40
0.5000006093
 40
0.5622061556
 40
0.6244474602
 40
0.6867570444
 40
0.7491614945
 40
0.8743092824
 40
1.0
 40
1.0
 40
1.0
 40
1.0
 10
20.588032389
 20
11.3646154451
 30
0.0
 10
20.447564187
 20
11.3177927111
 30
0.0
 10
20.1646007829
 20
11.2319656765
 30
0.0
 10
19.8046009875
 20
11.1491846482
 30
0.0
 10
19.5141214649
 20
11.1011401166
 30
0.0
 10
19.2953809338
 20
11.0748470038
 30
0.0
 10
19.0758812381
 20
11.0587936522
 30
0.0
 10
18.8559790909
 20
11.0534370215
 30
0.0
 10
18.6360780127
 20
11.0588147551
 30
0.0
 10
18.4165768808
 20
11.0748450006
 30
0.0
 10
18.1978348835
 20
11.1011254285
 30
0.0
 10
17.9073625493
 20
11.1492039451
 30
0.0
 10
17.5473601729
 20
11.2319615711
 30
0.0
 10
17.2643985467
 20
11.3177928541
 30
0.0
 10
17.1239307738
 20
11.3646154451
 30
0.0
  0
SPLINE
  5
3C5
100
AcDbEntity
  8
0
100
AcDbSpline
 62
7
  6
BYLAYER
 70
0
 71
3
 72
19
 73
15
 74
0
 42
0.0000001
 43
0.0000001
 44
0.0000000001
 40
0.0
 40
0.0
 40
0.0
 40
0.0
 40
0.1256911025
 40
0.2508395067
 40
0.3132443276
 40
0.3755541793
 40
0.4377954691
 40
0.5000006043
 40
0.5622061515
 40
0.6244474583
 40
0.6867570417
 40
0.7491614899
 40
0.8743092835
 40
1.0
 40
1.0
 40
1.0
 40
1.0
 10
17.1239307738
 20
13.1408550144
 30
0.0
 10
17.2643989767
 20
13.1876777487
 30
0.0
 10
17.547362312
 20
13.2735050108
 30
0.0
 10
17.9073621994
 20
13.3562856132
 30
0.0
 10
18.1978416845
 20
13.4043303104
 30
0.0
 10
18.4165822099
 20
13.4306235105
 30
0.0
 10
18.636081906
 20
13.4466768632
 30
0.0
 10
18.8559840549
 20
13.4520334044
 30
0.0
 10
19.0758851329
 20
13.4466556191
 30
0.0
 10
19.2953862713
 20
13.430625443
 30
0.0
 10
19.5141282767
 20
13.4043450828
 30
0.0
 10
19.804600615
 20
13.3562665583
 30
0.0
 10
20.164602965
 20
13.2735088132
 30
0.0
 10
20.4475646174
 20
13.1876776049
 30
0.0
 10
20.588032389
 20
13.1408550144
 30
0.0
  0
SPLINE
  5
3C6
100
AcDbEntity
  8
0
100
AcDbSpline
 62
7
  6
BYLAYER
 70
0
 71
3
 72
19
 73
15
 74
0
 42
0.0000001
 43
0.0000001
 44
0.0000000001
 40
0.0
 40
0.0
 40
0.0
 40
0.0
 40
0.1256911025
 40
0.2508395067
 40
0.3132443276
 40
0.3755541793
 40
0.4377954691
 40
0.5000006043
 40
0.5622061515
 40
0.6244474583
 40
0.6867570417
 40
0.7491614899
 40
0.8743092835
 40
1.0
 40
1.0
 40
1.0
 40
1.0
 10
13.6598291587
 20
13.1408550144
 30
0.0
 10
13.8002973616
 20
13.1876777487
 30
0.0
 10
14.0832606969
 20
13.2735050108
 30
0.0
 10
14.4432605843
 20
13.3562856132
 30
0.0
 10
14.7337400694
 20
13.4043303104
 30
0.0
 10
14.9524805947
 20
13.4306235105
 30
0.0
 10
15.1719802908
 20
13.4466768632
 30
0.0
 10
15.3918824397
 20
13.4520334044
 30
0.0
 10
15.6117835177
 20
13.4466556191
 30
0.0
 10
15.8312846561
 20
13.430625443
 30
0.0
 10
16.0500266616
 20
13.4043450828
 30
0.0
 10
16.3404989999
 20
13.3562665583
 30
0.0
 10
16.7005013498
 20
13.2735088132
 30
0.0
 10
16.9834630023
 20
13.1876776049
 30
0.0
 10
17.1239307738
 20
13.1408550144
 30
0.0
  0
LINE
  5
3C7
100
AcDbEntity
  8
0
100
AcDbLine
 62
7
  6
BYLAYER
 10
8.8031974848
 20
20.1042043719
 11
8.8473519704
 21
20.1288743367
  0
SPLINE
  5
3C8
100
AcDbEntity
  8
0
100
AcDbSpline
 62
7
  6
BYLAYER
 70
0
 71
3
 72
19
 73
15
 74
0
 42
0.0000001
 43
0.0000001
 44
0.0000000001
 40
0.0
 40
0.0
 40
0.0
 40
0.0
 40
0.0054633989
 40
0.0130500986
 40
0.0345483093
 40
0.064346031
 40
0.1021808114
 40
0.1476762977
 40
0.2004362608
 40
0.3257625976
 40
0.4737361442
 40
0.639174376
 40
0.8166376764
 40
1.0
 40
1.0
 40
1.0
 40
1.0
 10
9.425399916
 20
19.4820019407
 30
0.0
 10
9.4251293282
 20
19.4815181175
 30
0.0
 10
9.4244015121
 20
19.4804092261
 30
0.0
 10
9.4223259531
 20
19.4775843351
 30
0.0
 10
9.4185444894
 20
19.4729544445
 30
0.0
 10
9.4126424044
 20
19.4661026814
 30
0.0
 10
9.4049975424
 20
19.4575391887
 30
0.0
 10
9.3956868196
 20
19.4473417873
 30
0.0
 10
9.3802492895
 20
19.4307181214
 30
0.0
 10
9.3574987152
 20
19.4066972255
 30
0.0
 10
9.3266216367
 20
19.3746286316
 30
0.0
 10
9.2918467206
 20
19.3389707877
 30
0.0
 10
9.2543605566
 20
19.3009426354
 30
0.0
 10
9.2285330279
 20
19.2749935851
 30
0.0
 10
9.2153772862
 20
19.2618378434
 30
0.0
  0
SPLINE
  5
3C9
100
AcDbEntity
  8
0
100
AcDbSpline
 62
7
  6
BYLAYER
 70
0
 71
3
 72
19
 73
15
 74
0
 42
0.0000001
 43
0.0000001
 44
0.0000000001
 40
0.0
 40
0.0
 40
0.0
 40
0.0
 40
0.1833619646
 40
0.3608269377
 40
0.5262681272
 40
0.6742438457
 40
0.7995706208
 40
0.8523304657
 40
0.8978246012
 40
0.935657635
 40
0.9654542633
 40
0.9869508074
 40
0.994536859
 40
1.0
 40
1.0
 40
1.0
 40
1.0
 10
5.6648281602
 20
15.7112887174
 30
0.0
 10
5.6516724441
 20
15.6981330013
 30
0.0
 10
5.6257233006
 20
15.6723053769
 30
0.0
 10
5.5876948358
 20
15.6348189117
 30
0.0
 10
5.5520364959
 20
15.6000435151
 30
0.0
 10
5.5199674895
 20
15.5691660496
 30
0.0
 10
5.4959463904
 20
15.5464153217
 30
0.0
 10
5.4793227925
 20
15.5309778717
 30
0.0
 10
5.4691256175
 20
15.5216673844
 30
0.0
 10
5.4605624195
 20
15.5140228311
 30
0.0
 10
5.4537110247
 20
15.5081210192
 30
0.0
 10
5.4490813891
 20
15.5043397893
 30
0.0
 10
5.4462566876
 20
15.5022644119
 30
0.0
 10
5.4451478632
 20
15.5015366627
 30
0.0
 10
5.4446640629
 20
15.5012660876
 30
0.0
  0
LINE
  5
3CA
100
AcDbEntity
  8
0
100
AcDbLine
 62
7
  6
BYLAYER
 10
5.4446640629
 20
15.5012660876
 11
5.4005095772
 21
15.4765961228
  0
LINE
  5
3CB
100
AcDbEntity
  8
0
100
AcDbLine
 62
7
  6
BYLAYER
 10
4.7977916668
 20
16.0793140331
 11
4.8224616317
 21
16.1234685188
  0
SPLINE
  5
3CC
100
AcDbEntity
  8
0
100
AcDbSpline
 62
7
  6
BYLAYER
 70
0
 71
3
 72
19
 73
15
 74
0
 42
0.0000001
 43
0.0000001
 44
0.0000000001
 40
0.0
 40
0.0
 40
0.0
 40
0.0
 40
0.0054633989
 40
0.0130500986
 40
0.0345483093
 40
0.064346031
 40
0.1021808114
 40
0.1476762977
 40
0.2004362608
 40
0.3257625976
 40
0.4737361442
 40
0.639174376
 40
0.8166376764
 40
1.0
 40
1.0
 40
1.0
 40
1.0
 10
4.8224616317
 20
16.1234685188
 30
0.0
 10
4.8227322195
 20
16.123952342
 30
0.0
 10
4.8234600355
 20
16.1250612334
 30
0.0
 10
4.8255355945
 20
16.1278861244
 30
0.0
 10
4.8293170583
 20
16.132516015
 30
0.0
 10
4.8352191432
 20
16.1393677781
 30
0.0
 10
4.8428640052
 20
16.1479312708
 30
0.0
 10
4.8521747281
 20
16.1581286722
 30
0.0
 10
4.8676122582
 20
16.1747523381
 30
0.0
 10
4.8903628324
 20
16.198773234
 30
0.0
 10
4.921239911
 20
16.2308418279
 30
0.0
 10
4.956014827
 20
16.2664996718
 30
0.0
 10
4.9935009911
 20
16.3045278241
 30
0.0
 10
5.0193285198
 20
16.3304768744
 30
0.0
 10
5.0324842615
 20
16.3436326161
 30
0.0
  0
SPLINE
  5
3CD
100
AcDbEntity
  8
0
100
AcDbSpline
 62
7
  6
BYLAYER
 70
0
 71
3
 72
19
 73
15
 74
0
 42
0.0000001
 43
0.0000001
 44
0.0000000001
 40
0.0
 40
0.0
 40
0.0
 40
0.0
 40
0.1833619646
 40
0.3608269377
 40
0.5262681272
 40
0.6742438457
 40
0.7995706208
 40
0.8523304657
 40
0.8978246012
 40
0.935657635
 40
0.9654542633
 40
0.9869508074
 40
0.994536859
 40
1.0
 40
1.0
 40
1.0
 40
1.0
 10
8.5830333874
 20
19.8941817421
 30
0.0
 10
8.5961891035
 20
19.9073374582
 30
0.0
 10
8.6221382471
 20
19.9331650826
 30
0.0
 10
8.6601667118
 20
19.9706515478
 30
0.0
 10
8.6958250518
 20
20.0054269445
 30
0.0
 10
8.7278940581
 20
20.0363044099
 30
0.0
 10
8.7519151573
 20
20.0590551378
 30
0.0
 10
8.7685387551
 20
20.0744925878
 30
0.0
 10
8.7787359301
 20
20.0838030751
 30
0.0
 10
8.7872991281
 20
20.0914476284
 30
0.0
 10
8.794150523
 20
20.0973494403
 30
0.0
 10
8.7987801586
 20
20.1011306702
 30
0.0
 10
8.80160486
 20
20.1032060476
 30
0.0
 10
8.8027136844
 20
20.1039337969
 30
0.0
 10
8.8031974848
 20
20.1042043719
 30
0.0
  0
LINE
  5
3CE
100
AcDbEntity
  8
0
100
AcDbLine
 62
7
  6
BYLAYER
 10
9.4500698808
 20
19.5261564264
 11
9.425399916
 21
19.4820019407
  0
LINE
  5
3CF
100
AcDbEntity
  8
0
100
AcDbLine
 62
7
  6
BYLAYER
 10
28.8031974848
 20
20.1042043719
 11
28.8473519704
 21
20.1288743367
  0
SPLINE
  5
3D0
100
AcDbEntity
  8
0
100
AcDbSpline
 62
7
  6
BYLAYER
 70
0
 71
3
 72
19
 73
15
 74
0
 42
0.0000001
 43
0.0000001
 44
0.0000000001
 40
0.0
 40
0.0
 40
0.0
 40
0.0
 40
0.0054633989
 40
0.0130500986
 40
0.0345483093
 40
0.064346031
 40
0.1021808114
 40
0.1476762977
 40
0.2004362608
 40
0.3257625976
 40
0.4737361442
 40
0.639174376
 40
0.8166376764
 40
1.0
 40
1.0
 40
1.0
 40
1.0
 10
29.425399916
 20
19.4820019407
 30
0.0
 10
29.4251293282
 20
19.4815181175
 30
0.0
 10
29.4244015121
 20
19.4804092261
 30
0.0
 10
29.4223259531
 20
19.4775843351
 30
0.0
 10
29.4185444894
 20
19.4729544445
 30
0.0
 10
29.4126424044
 20
19.4661026814
 30
0.0
 10
29.4049975424
 20
19.4575391887
 30
0.0
 10
29.3956868196
 20
19.4473417873
 30
0.0
 10
29.3802492895
 20
19.4307181214
 30
0.0
 10
29.3574987152
 20
19.4066972255
 30
0.0
 10
29.3266216367
 20
19.3746286316
 30
0.0
 10
29.2918467206
 20
19.3389707877
 30
0.0
 10
29.2543605566
 20
19.3009426354
 30
0.0
 10
29.2285330279
 20
19.2749935851
 30
0.0
 10
29.2153772862
 20
19.2618378434
 30
0.0
  0
SPLINE
  5
3D1
100
AcDbEntity
  8
0
100
AcDbSpline
 62
7
  6
BYLAYER
 70
0
 71
3
 72
19
 73
15
 74
0
 42
0.0000001
 43
0.0000001
 44
0.0000000001
 40
0.0
 40
0.0
 40
0.0
 40
0.0
 40
0.1833619646
 40
0.3608269377
 40
0.5262681272
 40
0.6742438457
 40
0.7995706208
 40
0.8523304657
 40
0.8978246012
 40
0.935657635
 40
0.9654542633
 40
0.9869508074
 40
0.994536859
 40
1.0
 40
1.0
 40
1.0
 40
1.0
 10
25.6648281602
 20
15.7112887174
 30
0.0
 10
25.6516724441
 20
15.6981330013
 30
0.0
 10
25.6257233006
 20
15.6723053769
 30
0.0
 10
25.5876948358
 20
15.6348189117
 30
0.0
 10
25.5520364959
 20
15.6000435151
 30
0.0
 10
25.5199674895
 20
15.5691660496
 30
0.0
 10
25.4959463904
 20
15.5464153217
 30
0.0
 10
25.4793227925
 20
15.5309778717
 30
0.0
 10
25.4691256175
 20
15.5216673844
 30
0.0
 10
25.4605624195
 20
15.5140228311
 30
0.0
 10
25.4537110247
 20
15.5081210192
 30
0.0
 10
25.4490813891
 20
15.5043397893
 30
0.0
 10
25.4462566876
 20
15.5022644119
 30
0.0
 10
25.4451478632
 20
15.5015366627
 30
0.0
 10
25.4446640629
 20
15.5012660876
 30
0.0
  0
LINE
  5
3D2
100
AcDbEntity
  8
0
100
AcDbLine
 62
7
  6
BYLAYER
 10
25.4446640629
 20
15.5012660876
 11
25.4005095772
 21
15.4765961228
  0
LINE
  5
3D3
100
AcDbEntity
  8
0
100
AcDbLine
 62
7
  6
BYLAYER
 10
24.7977916668
 20
16.0793140331
 11
24.8224616317
 21
16.1234685188
  0
SPLINE
  5
3D4
100
AcDbEntity
  8
0
100
AcDbSpline
 62
7
  6
BYLAYER
 70
0
 71
3
 72
19
 73
15
 74
0
 42
0.0000001
 43
0.0000001
 44
0.0000000001
 40
0.0
 40
0.0
 40
0.0
 40
0.0
 40
0.0054633989
 40
0.0130500986
 40
0.0345483093
 40
0.064346031
 40
0.1021808114
 40
0.1476762977
 40
0.2004362608
 40
0.3257625976
 40
0.4737361442
 40
0.639174376
 40
0.8166376764
 40
1.0
 40
1.0
 40
1.0
 40
1.0
 10
24.8224616317
 20
16.1234685188
 30
0.0
 10
24.8227322195
 20
16.123952342
 30
0.0
 10
24.8234600355
 20
16.1250612334
 30
0.0
 10
24.8255355945
 20
16.1278861244
 30
0.0
 10
24.8293170583
 20
16.132516015
 30
0.0
 10
24.8352191432
 20
16.1393677781
 30
0.0
 10
24.8428640052
 20
16.1479312708
 30
0.0
 10
24.8521747281
 20
16.1581286722
 30
0.0
 10
24.8676122582
 20
16.1747523381
 30
0.0
 10
24.8903628324
 20
16.198773234
 30
0.0
 10
24.921239911
 20
16.2308418279
 30
0.0
 10
24.956014827
 20
16.2664996718
 30
0.0
 10
24.9935009911
 20
16.3045278241
 30
0.0
 10
25.0193285198
 20
16.3304768744
 30
0.0
 10
25.0324842615
 20
16.3436326161
 30
0.0
  0
SPLINE
  5
3D5
100
AcDbEntity
  8
0
100
AcDbSpline
 62
7
  6
BYLAYER
 70
0
 71
3
 72
19
 73
15
 74
0
 42
0.0000001
 43
0.0000001
 44
0.0000000001
 40
0.0
 40
0.0
 40
0.0
 40
0.0
 40
0.1833619646
 40
0.3608269377
 40
0.5262681272
 40
0.6742438457
 40
0.7995706208
 40
0.8523304657
 40
0.8978246012
 40
0.935657635
 40
0.9654542633
 40
0.9869508074
 40
0.994536859
 40
1.0
 40
1.0
 40
1.0
 40
1.0
 10
28.5830333874
 20
19.8941817421
 30
0.0
 10
28.5961891035
 20
19.9073374582
 30
0.0
 10
28.6221382471
 20
19.9331650826
 30
0.0
 10
28.6601667118
 20
19.9706515478
 30
0.0
 10
28.6958250518
 20
20.0054269445
 30
0.0
 10
28.7278940581
 20
20.0363044099
 30
0.0
 10
28.7519151573
 20
20.0590551378
 30
0.0
 10
28.7685387551
 20
20.0744925878
 30
0.0
 10
28.7787359301
 20
20.0838030751
 30
0.0
 10
28.7872991281
 20
20.0914476284
 30
0.0
 10
28.794150523
 20
20.0973494403
 30
0.0
 10
28.7987801586
 20
20.1011306702
 30
0.0
 10
28.80160486
 20
20.1032060476
 30
0.0
 10
28.8027136844
 20
20.1039337969
 30
0.0
 10
28.8031974848
 20
20.1042043719
 30
0.0
  0
LINE
  5
3D6
100
AcDbEntity
  8
0
100
AcDbLine
 62
7
  6
BYLAYER
 10
29.4500698808
 20
19.5261564264
 11
29.425399916
 21
19.4820019407
  0
LINE
  5
3D7
100
AcDbEntity
  8
0
100
AcDbLine
 62
7
  6
BYLAYER
 10
5.4446640629
 20
35.5012660876
 11
5.4005095772
 21
35.4765961228
  0
LINE
  5
3D8
100
AcDbEntity
  8
0
100
AcDbLine
 62
7
  6
BYLAYER
 10
4.7977916668
 20
36.0793140331
 11
4.8224616317
 21
36.1234685188
  0
SPLINE
  5
3D9
100
AcDbEntity
  8
0
100
AcDbSpline
 62
7
  6
BYLAYER
 70
0
 71
3
 72
18
 73
14
 74
0
 42
0.0000001
 43
0.0000001
 44
0.0000000001
 40
0.0
 40
0.0
 40
0.0
 40
0.0
 40
0.1832707717
 40
0.3608349237
 40
0.5262901688
 40
0.6742053026
 40
0.7995597429
 40
0.8523236708
 40
0.8978472265
 40
0.9356911131
 40
0.9654713885
 40
0.9869626226
 40
1.0
 40
1.0
 40
1.0
 40
1.0
 10
5.0324842615
 20
36.3436326161
 30
0.0
 10
5.0193351737
 20
36.3304835283
 30
0.0
 10
4.9935073496
 20
36.3045337734
 30
0.0
 10
4.9560192338
 20
36.2665042973
 30
0.0
 10
4.9212400465
 20
36.2308425996
 30
0.0
 10
4.8903654453
 20
36.1987740146
 30
0.0
 10
4.8676155218
 20
36.1747561985
 30
0.0
 10
4.8521749262
 20
36.1581277033
 30
0.0
 10
4.8428591166
 20
36.1479284044
 30
0.0
 10
4.8352183579
 20
36.1393614296
 30
0.0
 10
4.8293038134
 20
36.1325157331
 30
0.0
 10
4.8252068996
 20
36.1274463829
 30
0.0
 10
4.8231073346
 20
36.1246230646
 30
0.0
 10
4.8224616317
 20
36.1234685188
 30
0.0
  0
SPLINE
  5
3DA
100
AcDbEntity
  8
0
100
AcDbSpline
 62
7
  6
BYLAYER
 70
0
 71
3
 72
18
 73
14
 74
0
 42
0.0000001
 43
0.0000001
 44
0.0000000001
 40
0.0
 40
0.0
 40
0.0
 40
0.0
 40
0.013041466
 40
0.0345404686
 40
0.0643252035
 40
0.1021664691
 40
0.1476844058
 40
0.2004429617
 40
0.3257999499
 40
0.4737211072
 40
0.6391689073
 40
0.8167283876
 40
1.0
 40
1.0
 40
1.0
 40
1.0
 10
8.8031974848
 20
40.1042043719
 30
0.0
 10
8.802042577
 20
40.1035584665
 30
0.0
 10
8.7992184865
 20
40.1014578873
 30
0.0
 10
8.7941479562
 20
40.0973598325
 30
0.0
 10
8.7873015465
 20
40.0914446147
 30
0.0
 10
8.7787347523
 20
40.0838042352
 30
0.0
 10
8.7685364015
 20
40.0744894358
 30
0.0
 10
8.7519084619
 20
40.059049504
 30
0.0
 10
8.7278905539
 20
40.0362992079
 30
0.0
 10
8.6958219879
 20
40.0054244298
 30
0.0
 10
8.6601606634
 20
39.9706457518
 30
0.0
 10
8.6221320003
 20
39.9331584477
 30
0.0
 10
8.5961825344
 20
39.907330889
 30
0.0
 10
8.5830333874
 20
39.8941817421
 30
0.0
  0
SPLINE
  5
3DB
100
AcDbEntity
  8
0
100
AcDbSpline
 62
7
  6
BYLAYER
 70
0
 71
3
 72
18
 73
14
 74
0
 42
0.0000001
 43
0.0000001
 44
0.0000000001
 40
0.0
 40
0.0
 40
0.0
 40
0.0
 40
0.1832707717
 40
0.3608349237
 40
0.5262901688
 40
0.6742053026
 40
0.7995597429
 40
0.8523236708
 40
0.8978472265
 40
0.9356911131
 40
0.9654713885
 40
0.9869626226
 40
1.0
 40
1.0
 40
1.0
 40
1.0
 10
9.2153772862
 20
39.2618378434
 30
0.0
 10
9.228526374
 20
39.2749869312
 30
0.0
 10
9.2543541981
 20
39.3009366861
 30
0.0
 10
9.2918423138
 20
39.3389661622
 30
0.0
 10
9.3266215012
 20
39.37462786
 30
0.0
 10
9.3574961023
 20
39.4066964449
 30
0.0
 10
9.3802460258
 20
39.430714261
 30
0.0
 10
9.3956866215
 20
39.4473427562
 30
0.0
 10
9.405002431
 20
39.4575420552
 30
0.0
 10
9.4126431897
 20
39.46610903
 30
0.0
 10
9.4185577343
 20
39.4729547264
 30
0.0
 10
9.422654648
 20
39.4780240766
 30
0.0
 10
9.424754213
 20
39.4808473949
 30
0.0
 10
9.425399916
 20
39.4820019407
 30
0.0
  0
SPLINE
  5
3DC
100
AcDbEntity
  8
0
100
AcDbSpline
 62
7
  6
BYLAYER
 70
0
 71
3
 72
18
 73
14
 74
0
 42
0.0000001
 43
0.0000001
 44
0.0000000001
 40
0.0
 40
0.0
 40
0.0
 40
0.0
 40
0.013041466
 40
0.0345404686
 40
0.0643252035
 40
0.1021664691
 40
0.1476844058
 40
0.2004429617
 40
0.3257999499
 40
0.4737211072
 40
0.6391689073
 40
0.8167283876
 40
1.0
 40
1.0
 40
1.0
 40
1.0
 10
5.4446640629
 20
35.5012660876
 30
0.0
 10
5.4458189707
 20
35.501911993
 30
0.0
 10
5.4486430611
 20
35.5040125722
 30
0.0
 10
5.4537135914
 20
35.5081106271
 30
0.0
 10
5.4605600011
 20
35.5140258448
 30
0.0
 10
5.4691267953
 20
35.5216662243
 30
0.0
 10
5.4793251461
 20
35.5309810237
 30
0.0
 10
5.4959530858
 20
35.5464209555
 30
0.0
 10
5.5199709938
 20
35.5691712516
 30
0.0
 10
5.5520395598
 20
35.6000460297
 30
0.0
 10
5.5877008843
 20
35.6348247077
 30
0.0
 10
5.6257295474
 20
35.6723120118
 30
0.0
 10
5.6516790133
 20
35.6981395705
 30
0.0
 10
5.6648281602
 20
35.7112887174
 30
0.0
  0
LINE
  5
3DD
100
AcDbEntity
  8
0
100
AcDbLine
 62
7
  6
BYLAYER
 10
9.4500698808
 20
39.5261564264
 11
9.425399916
 21
39.4820019407
  0
LINE
  5
3DE
100
AcDbEntity
  8
0
100
AcDbLine
 62
7
  6
BYLAYER
 10
8.8031974848
 20
40.1042043719
 11
8.8473519704
 21
40.1288743367
  0
LINE
  5
3DF
100
AcDbEntity
  8
0
100
AcDbLine
 62
7
  6
BYLAYER
 10
25.4446640629
 20
35.5012660876
 11
25.4005095772
 21
35.4765961228
  0
LINE
  5
3E0
100
AcDbEntity
  8
0
100
AcDbLine
 62
7
  6
BYLAYER
 10
24.7977916668
 20
36.0793140331
 11
24.8224616317
 21
36.1234685188
  0
SPLINE
  5
3E1
100
AcDbEntity
  8
0
100
AcDbSpline
 62
7
  6
BYLAYER
 70
0
 71
3
 72
18
 73
14
 74
0
 42
0.0000001
 43
0.0000001
 44
0.0000000001
 40
0.0
 40
0.0
 40
0.0
 40
0.0
 40
0.1832707717
 40
0.3608349237
 40
0.5262901688
 40
0.6742053026
 40
0.7995597429
 40
0.8523236708
 40
0.8978472265
 40
0.9356911131
 40
0.9654713885
 40
0.9869626226
 40
1.0
 40
1.0
 40
1.0
 40
1.0
 10
25.0324842615
 20
36.3436326161
 30
0.0
 10
25.0193351737
 20
36.3304835283
 30
0.0
 10
24.9935073496
 20
36.3045337734
 30
0.0
 10
24.9560192338
 20
36.2665042973
 30
0.0
 10
24.9212400465
 20
36.2308425996
 30
0.0
 10
24.8903654453
 20
36.1987740146
 30
0.0
 10
24.8676155218
 20
36.1747561985
 30
0.0
 10
24.8521749262
 20
36.1581277033
 30
0.0
 10
24.8428591166
 20
36.1479284044
 30
0.0
 10
24.8352183579
 20
36.1393614296
 30
0.0
 10
24.8293038134
 20
36.1325157331
 30
0.0
 10
24.8252068996
 20
36.1274463829
 30
0.0
 10
24.8231073346
 20
36.1246230646
 30
0.0
 10
24.8224616317
 20
36.1234685188
 30
0.0
  0
SPLINE
  5
3E2
100
AcDbEntity
  8
0
100
AcDbSpline
 62
7
  6
BYLAYER
 70
0
 71
3
 72
18
 73
14
 74
0
 42
0.0000001
 43
0.0000001
 44
0.0000000001
 40
0.0
 40
0.0
 40
0.0
 40
0.0
 40
0.013041466
 40
0.0345404686
 40
0.0643252035
 40
0.1021664691
 40
0.1476844058
 40
0.2004429617
 40
0.3257999499
 40
0.4737211072
 40
0.6391689073
 40
0.8167283876
 40
1.0
 40
1.0
 40
1.0
 40
1.0
 10
28.8031974848
 20
40.1042043719
 30
0.0
 10
28.802042577
 20
40.1035584665
 30
0.0
 10
28.7992184865
 20
40.1014578873
 30
0.0
 10
28.7941479562
 20
40.0973598325
 30
0.0
 10
28.7873015465
 20
40.0914446147
 30
0.0
 10
28.7787347523
 20
40.0838042352
 30
0.0
 10
28.7685364015
 20
40.0744894358
 30
0.0
 10
28.7519084619
 20
40.059049504
 30
0.0
 10
28.7278905539
 20
40.0362992079
 30
0.0
 10
28.6958219879
 20
40.0054244298
 30
0.0
 10
28.6601606634
 20
39.9706457518
 30
0.0
 10
28.6221320003
 20
39.9331584477
 30
0.0
 10
28.5961825344
 20
39.907330889
 30
0.0
 10
28.5830333874
 20
39.8941817421
 30
0.0
  0
SPLINE
  5
3E3
100
AcDbEntity
  8
0
100
AcDbSpline
 62
7
  6
BYLAYER
 70
0
 71
3
 72
18
 73
14
 74
0
 42
0.0000001
 43
0.0000001
 44
0.0000000001
 40
0.0
 40
0.0
 40
0.0
 40
0.0
 40
0.1832707717
 40
0.3608349237
 40
0.5262901688
 40
0.6742053026
 40
0.7995597429
 40
0.8523236708
 40
0.8978472265
 40
0.9356911131
 40
0.9654713885
 40
0.9869626226
 40
1.0
 40
1.0
 40
1.0
 40
1.0
 10
29.2153772862
 20
39.2618378434
 30
0.0
 10
29.228526374
 20
39.2749869312
 30
0.0
 10
29.2543541981
 20
39.3009366861
 30
0.0
 10
29.2918423138
 20
39.3389661622
 30
0.0
 10
29.3266215012
 20
39.37462786
 30
0.0
 10
29.3574961023
 20
39.4066964449
 30
0.0
 10
29.3802460258
 20
39.430714261
 30
0.0
 10
29.3956866215
 20
39.4473427562
 30
0.0
 10
29.405002431
 20
39.4575420552
 30
0.0
 10
29.4126431897
 20
39.46610903
 30
0.0
 10
29.4185577343
 20
39.4729547264
 30
0.0
 10
29.422654648
 20
39.4780240766
 30
0.0
 10
29.424754213
 20
39.4808473949
 30
0.0
 10
29.425399916
 20
39.4820019407
 30
0.0
  0
SPLINE
  5
3E4
100
AcDbEntity
  8
0
100
AcDbSpline
 62
7
  6
BYLAYER
 70
0
 71
3
 72
18
 73
14
 74
0
 42
0.0000001
 43
0.0000001
 44
0.0000000001
 40
0.0
 40
0.0
 40
0.0
 40
0.0
 40
0.013041466
 40
0.0345404686
 40
0.0643252035
 40
0.1021664691
 40
0.1476844058
 40
0.2004429617
 40
0.3257999499
 40
0.4737211072
 40
0.6391689073
 40
0.8167283876
 40
1.0
 40
1.0
 40
1.0
 40
1.0
 10
25.4446640629
 20
35.5012660876
 30
0.0
 10
25.4458189707
 20
35.501911993
 30
0.0
 10
25.4486430611
 20
35.5040125722
 30
0.0
 10
25.4537135914
 20
35.5081106271
 30
0.0
 10
25.4605600011
 20
35.5140258448
 30
0.0
 10
25.4691267953
 20
35.5216662243
 30
0.0
 10
25.4793251461
 20
35.5309810237
 30
0.0
 10
25.4959530858
 20
35.5464209555
 30
0.0
 10
25.5199709938
 20
35.5691712516
 30
0.0
 10
25.5520395598
 20
35.6000460297
 30
0.0
 10
25.5877008843
 20
35.6348247077
 30
0.0
 10
25.6257295474
 20
35.6723120118
 30
0.0
 10
25.6516790133
 20
35.6981395705
 30
0.0
 10
25.6648281602
 20
35.7112887174
 30
0.0
  0
LINE
  5
3E5
100
AcDbEntity
  8
0
100
AcDbLine
 62
7
  6
BYLAYER
 10
29.4500698808
 20
39.5261564264
 11
29.425399916
 21
39.4820019407
  0
LINE
  5
3E6
100
AcDbEntity
  8
0
100
AcDbLine
 62
7
  6
BYLAYER
 10
28.8031974848
 20
40.1042043719
 11
28.8473519704
 21
40.1288743367
  0
ELLIPSE
  5
3E7
100
AcDbEntity
  8
0
100
AcDbEllipse
 62
7
  6
BYLAYER
 10
5.6548885042
 20
18.8218735789
 30
0.0
 11
0.3535533906
 21
-0.3535533906
 31
0.0
 40
0.0524077793
 41
-1.5707963268
 42
-0.4625122518
  0
ELLIPSE
  5
3E8
100
AcDbEntity
  8
0
100
AcDbEllipse
 62
7
  6
BYLAYER
 10
6.1047924247
 20
19.2717774994
 30
0.0
 11
0.3535533906
 21
-0.3535533906
 31
0.0
 40
0.0524077793
 41
0.4625122518
 42
1.5707963268
  0
ELLIPSE
  5
3E9
100
AcDbEntity
  8
0
100
AcDbEllipse
 62
7
  6
BYLAYER
 10
8.5929730435
 20
16.7835968806
 30
0.0
 11
0.3535533906
 21
-0.3535533906
 31
0.0
 40
0.0524077793
 41
1.5707963268
 42
2.6790804018
  0
ELLIPSE
  5
3EA
100
AcDbEntity
  8
0
100
AcDbEllipse
 62
7
  6
BYLAYER
 10
8.143069123
 20
16.3336929601
 30
0.0
 11
0.3535533906
 21
-0.3535533906
 31
0.0
 40
0.0524077793
 41
-2.6790804018
 42
-1.5707963268
  0
ELLIPSE
  5
3EB
100
AcDbEntity
  8
0
100
AcDbEllipse
 62
7
  6
BYLAYER
 10
25.6548885042
 20
18.8218735789
 30
0.0
 11
0.3535533906
 21
-0.3535533906
 31
0.0
 40
0.0524077793
 41
-1.5707963268
 42
-0.4625122518
  0
ELLIPSE
  5
3EC
100
AcDbEntity
  8
0
100
AcDbEllipse
 62
7
  6
BYLAYER
 10
26.1047924247
 20
19.2717774994
 30
0.0
 11
0.3535533906
 21
-0.3535533906
 31
0.0
 40
0.0524077793
 41
0.4625122518
 42
1.5707963268
  0
ELLIPSE
  5
3ED
100
AcDbEntity
  8
0
100
AcDbEllipse
 62
7
  6
BYLAYER
 10
28.5929730435
 20
16.7835968806
 30
0.0
 11
0.3535533906
 21
-0.3535533906
 31
0.0
 40
0.0524077793
 41
1.5707963268
 42
2.6790804018
  0
ELLIPSE
  5
3EE
100
AcDbEntity
  8
0
100
AcDbEllipse
 62
7
  6
BYLAYER
 10
28.143069123
 20
16.3336929601
 30
0.0
 11
0.3535533906
 21
-0.3535533906
 31
0.0
 40
0.0524077793
 41
-2.6790804018
 42
-1.5707963268
  0
ELLIPSE
  5
3EF
100
AcDbEntity
  8
0
100
AcDbEllipse
 62
7
  6
BYLAYER
 10
5.6548885042
 20
38.8218735789
 30
0.0
 11
0.3535533906
 21
-0.3535533906
 31
0.0
 40
0.0524077793
 41
-1.5707963268
 42
-0.4625122518
  0
ELLIPSE
  5
3F0
100
AcDbEntity
  8
0
100
AcDbEllipse
 62
7
  6
BYLAYER
 10
6.1047924247
 20
39.2717774994
 30
0.0
 11
0.3535533906
 21
-0.3535533906
 31
0.0
 40
0.0524077793
 41
0.4625122518
 42
1.5707963268
  0
ELLIPSE
  5
3F1
100
AcDbEntity
  8
0
100
AcDbEllipse
 62
7
  6
BYLAYER
 10
8.5929730435
 20
36.7835968806
 30
0.0
 11
0.3535533906
 21
-0.3535533906
 31
0.0
 40
0.0524077793
 41
1.5707963268
 42
2.6790804018
  0
ELLIPSE
  5
3F2
100
AcDbEntity
  8
0
100
AcDbEllipse
 62
7
  6
BYLAYER
 10
8.143069123
 20
36.3336929601
 30
0.0
 11
0.3535533906
 21
-0.3535533906
 31
0.0
 40
0.0524077793
 41
-2.6790804018
 42
-1.5707963268
  0
ELLIPSE
  5
3F3
100
AcDbEntity
  8
0
100
AcDbEllipse
 62
7
  6
BYLAYER
 10
25.6548885042
 20
38.8218735789
 30
0.0
 11
0.3535533906
 21
-0.3535533906
 31
0.0
 40
0.0524077793
 41
-1.5707963268
 42
-0.4625122518
  0
ELLIPSE
  5
3F4
100
AcDbEntity
  8
0
100
AcDbEllipse
 62
7
  6
BYLAYER
 10
26.1047924247
 20
39.2717774994
 30
0.0
 11
0.3535533906
 21
-0.3535533906
 31
0.0
 40
0.0524077793
 41
0.4625122518
 42
1.5707963268
  0
ELLIPSE
  5
3F5
100
AcDbEntity
  8
0
100
AcDbEllipse
 62
7
  6
BYLAYER
 10
28.5929730435
 20
36.7835968806
 30
0.0
 11
0.3535533906
 21
-0.3535533906
 31
0.0
 40
0.0524077793
 41
1.5707963268
 42
2.6790804018
  0
ELLIPSE
  5
3F6
100
AcDbEntity
  8
0
100
AcDbEllipse
 62
7
  6
BYLAYER
 10
28.143069123
 20
36.3336929601
 30
0.0
 11
0.3535533906
 21
-0.3535533906
 31
0.0
 40
0.0524077793
 41
-2.6790804018
 42
-1.5707963268
  0
ENDSEC
  0
SECTION
  2
OBJECTS
  0
DICTIONARY
  5
C
100
AcDbDictionary
280
0
281
1
  3
ACAD_GROUP
350
D
  3
ACAD_MLINESTYLE
350
17
  3
ACAD_LAYOUT
350
1A
  3
ACAD_PLOTSETTINGS
350
19
  3
ACAD_PLOTSTYLENAME
350
E
  0
DICTIONARY
  5
D
102
{ACAD_REACTORS
330
C
102
}
100
AcDbDictionary
280
0
281
1
  0
ACDBDICTIONARYWDFLT
  5
E
102
{ACAD_REACTORS
330
C
102
}
100
AcDbDictionary
281
1
  3
Normal
350
F
100
AcDbDictionaryWithDefault
340
F
  0
DICTIONARY
  5
17
102
{ACAD_REACTORS
330
C
102
}
100
AcDbDictionary
280
0
281
1
  3
Standard
350
18
  0
DICTIONARY
  5
19
102
{ACAD_REACTORS
330
C
102
}
100
AcDbDictionary
281
1
  0
DICTIONARY
  5
1A
102
{ACAD_REACTORS
330
C
102
}
100
AcDbDictionary
281
1
  3
Model
350
3F7
  3
Layout1
350
3F8
  0
ACDBPLACEHOLDER
  5
F
102
{ACAD_REACTORS
330
E
102
}
  0
MLINESTYLE
  5
18
102
{ACAD_REACTORS
330
17
102
}
100
AcDbMlineStyle
  2
STANDARD
 70
0
  3

 62
256
 51
90.0
 52
90.0
 71
2
 49
0.5
 62
256
  6
BYLAYER
 49
-0.5
 62
256
  6
BYLAYER
  0
LAYOUT
  5
3F7
102
{ACAD_REACTORS
330
1A
102
}
100
AcDbPlotSettings
  1

  2
none_device
  4

  6

 40
0.0
 41
0.0
 42
0.0
 43
0.0
 44
210.0
 45
297.0
 46
0.0
 47
0.0
 48
0.0
 49
0.0
140
0.0
141
0.0
142
1.0
143
1.0
 70
1024
 72
1
 73
0
 74
0
  7

 75
0
147
1.0
148
0.0
149
0.0
100
AcDbLayout
  1
Model
 70
0
 71
0
 10
0.0
 20
0.0
 11
210.0
 21
297.0
 12
0.0
 22
0.0
 32
0.0
 14
0.0
 24
0.0
 34
0.0
 15
0.0
 25
0.0
 35
0.0
146
0.0
 13
0.0
 23
0.0
 33
0.0
 16
1.0
 26
0.0
 36
0.0
 17
0.0
 27
1.0
 37
0.0
 76
0
330
210
345
0
346
0
  0
LAYOUT
  5
3F8
102
{ACAD_REACTORS
330
1A
102
}
100
AcDbPlotSettings
  1

  2
none_device
  4

  6

 40
0.0
 41
0.0
 42
0.0
 43
0.0
 44
210.0
 45
297.0
 46
0.0
 47
0.0
 48
0.0
 49
0.0
140
0.0
141
0.0
142
1.0
143
1.0
 70
0
 72
1
 73
0
 74
0
  7

 75
0
147
1.0
148
0.0
149
0.0
100
AcDbLayout
  1
Layout1
 70
0
 71
1
 10
0.0
 20
0.0
 11
210.0
 21
297.0
 12
0.0
 22
0.0
 32
0.0
 14
0.0
 24
0.0
 34
0.0
 15
0.0
 25
0.0
 35
0.0
146
0.0
 13
0.0
 23
0.0
 33
0.0
 16
1.0
 26
0.0
 36
0.0
 17
0.0
 27
1.0
 37
0.0
 76
0
330
211
345
0
346
0
  0
ENDSEC
  0
EOF
