999
DXF file: C:\Users\sesa63760\Dev\_Creo\CAD\MCADID0004834_3D-CAD\drw0001_1.dxf
999
Pro/ENGINEER 2019471 by Parametric Technology Corporation
  0
SECTION
  2
HEADER
  9
$ACADVER
  1
AC1024
  9
$DWGCODEPAGE
  3
ANSI_1252
  9
$EXTMAX
 10
100.4838156345
 20
142.1128249688
 30
0.0
  9
$EXTMIN
 10
-0.0
 20
0.0
 30
0.0
  9
$LIMMIN
 10
-0.0
 20
0.0
  9
$LIMMAX
 10
100.4838156345
 20
142.1128249688
  9
$VIEWCTR
 10
50.2419078173
 20
71.0564124844
  9
$VIEWSIZE
 40
142.1128249688
  9
$CLAYER
  8
0
  9
$LTSCALE
 40
9.2636508128
  9
$CELTYPE
  6
BYLAYER
  9
$DIMSCALE
 40
1.0
  9
$DIMASZ
 40
1.1962359004
  9
$DIMEXO
 40
1.0
  9
$DIMDLI
 40
6.4003405616
  9
$DIMEXE
 40
1.0
  9
$DIMCEN
 40
1.515870133
  9
$DIMLFAC
 40
1.0
  9
$DIMBLK
  1
_FILLED
  9
$DIMALT
 70
0
  9
$DIMALTF
 40
0.0393700787
  9
$DIMTXT
 40
1.6747302606
  9
$DIMTOL
 70
1
  9
$DIMLIM
 70
0
  9
$DIMTFAC
 40
1.0
  9
$DIMTP
 40
0.01
  9
$DIMTM
 40
0.01
  9
$DIMGAP
 40
0.625
  9
$DIMDSEP
 70
46
  9
$AUNITS
 70
0
  9
$PDMODE
 70
3
  9
$PDSIZE
 40
0.3125
  9
$HANDSEED
  5
2DB
  9
$TILEMODE
 70
1
  9
$MEASUREMENT
 70
1
  9
$INSUNITS
 70
4
  0
ENDSEC
  0
SECTION
  2
CLASSES
  0
CLASS
  1
ACDBDICTIONARYWDFLT
  2
AcDbDictionaryWithDefault
  3
AutoCAD 2000
 90
0
 91
1
280
0
281
0
  0
CLASS
  1
ACDBPLACEHOLDER
  2
AcDbPlaceHolder
  3
AutoCAD 2000
 90
0
 91
1
280
0
281
0
  0
CLASS
  1
LAYOUT
  2
AcDbLayout
  3
AutoCAD 2000
 90
0
 91
0
280
0
281
0
  0
ENDSEC
  0
SECTION
  2
TABLES
  0
TABLE
  2
VPORT
  5
8
100
AcDbSymbolTable
 70
2
  0
VPORT
  5
1F4
100
AcDbSymbolTableRecord
100
AcDbViewportTableRecord
  2
*ACTIVE
 70
0
 10
0.0
 20
0.0
 11
1.0
 21
1.0
 12
50.2419078173
 22
71.0564124844
 13
0.0
 23
0.0
 14
1.0
 24
1.0
 15
0.0
 25
0.0
 16
0.0
 26
0.0
 36
1.0
 17
0.0
 27
0.0
 37
0.0
 40
142.1128249688
 41
0.7070707071
 42
50.0
 43
0.0
 44
0.0
 50
0.0
 51
0.0
 71
0
 72
100
 73
1
 74
1
 75
0
 76
0
 77
0
 78
0
  0
ENDTAB
  0
TABLE
  2
LTYPE
  5
5
100
AcDbSymbolTable
 70
6
  0
LTYPE
  5
14
100
AcDbSymbolTableRecord
100
AcDbLinetypeTableRecord
  2
BYBLOCK
 70
0
  3

 72
65
 73
0
 40
0.0
  0
LTYPE
  5
15
100
AcDbSymbolTableRecord
100
AcDbLinetypeTableRecord
  2
BYLAYER
 70
0
  3

 72
65
 73
0
 40
0.0
  0
LTYPE
  5
16
100
AcDbSymbolTableRecord
100
AcDbLinetypeTableRecord
  2
CONTINUOUS
 70
64
  3
Solid line
 72
65
 73
0
 40
0.0
  0
LTYPE
  5
1F5
100
AcDbSymbolTableRecord
100
AcDbLinetypeTableRecord
  2
CENTER
 70
64
  3
____ _ ____ _ ____ _ ____ _ ____ _ ____ _ ____
 72
65
 73
4
 40
0.6
 49
0.375
 74
0
 49
-0.075
 74
0
 49
0.075
 74
0
 49
-0.075
 74
0
  0
LTYPE
  5
1F6
100
AcDbSymbolTableRecord
100
AcDbLinetypeTableRecord
  2
HIDDEN
 70
64
  3
- - - - - - - - - - - - - - - - - - - -
 72
65
 73
2
 40
0.2
 49
0.1
 74
0
 49
-0.1
 74
0
  0
LTYPE
  5
1F7
100
AcDbSymbolTableRecord
100
AcDbLinetypeTableRecord
  2
PHANTOM
 70
64
  3
_____ _ _ _____ _ _ _____ _ _ _____
 72
65
 73
6
 40
0.8
 49
0.45
 74
0
 49
-0.05
 74
0
 49
0.1
 74
0
 49
-0.05
 74
0
 49
0.1
 74
0
 49
-0.05
 74
0
  0
LTYPE
  5
1F8
100
AcDbSymbolTableRecord
100
AcDbLinetypeTableRecord
  2
DOT
 70
64
  3
. . . . . . . . . . . . . . . . . . . .
 72
65
 73
2
 40
0.2
 49
0.1
 74
0
 49
-0.1
 74
0
  0
LTYPE
  5
1F9
100
AcDbSymbolTableRecord
100
AcDbLinetypeTableRecord
  2
DASHED
 70
64
  3
- - - - - - - - - - - - - - - - - - - -
 72
65
 73
2
 40
0.2
 49
0.1
 74
0
 49
-0.1
 74
0
  0
ENDTAB
  0
TABLE
  2
LAYER
  5
2
100
AcDbSymbolTable
 70
36
  0
LAYER
  5
10
100
AcDbSymbolTableRecord
100
AcDbLayerTableRecord
  2
0
 70
0
 62
7
  6
CONTINUOUS
370
-3
390
F
  0
LAYER
  5
1FA
100
AcDbSymbolTableRecord
100
AcDbLayerTableRecord
  2
DEFAULT_1
 70
0
 62
7
  6
CENTER
370
-3
390
F
  0
LAYER
  5
1FB
100
AcDbSymbolTableRecord
100
AcDbLayerTableRecord
  2
DEFAULT_2
 70
0
 62
7
  6
HIDDEN
370
-3
390
F
  0
LAYER
  5
1FC
100
AcDbSymbolTableRecord
100
AcDbLayerTableRecord
  2
DEFAULT_3
 70
0
 62
7
  6
PHANTOM
370
-3
390
F
  0
LAYER
  5
1FD
100
AcDbSymbolTableRecord
100
AcDbLayerTableRecord
  2
00_COMPONENTS
 70
0
 62
7
  6
CONTINUOUS
370
-3
390
F
  0
LAYER
  5
1FE
100
AcDbSymbolTableRecord
100
AcDbLayerTableRecord
  2
01_1_DEFAULT_DATUMS
 70
0
 62
7
  6
CONTINUOUS
370
-3
390
F
  0
LAYER
  5
1FF
100
AcDbSymbolTableRecord
100
AcDbLayerTableRecord
  2
01_PLANES
 70
0
 62
7
  6
CONTINUOUS
370
-3
390
F
  0
LAYER
  5
200
100
AcDbSymbolTableRecord
100
AcDbLayerTableRecord
  2
02_COORD_SYS
 70
0
 62
7
  6
CONTINUOUS
370
-3
390
F
  0
LAYER
  5
201
100
AcDbSymbolTableRecord
100
AcDbLayerTableRecord
  2
03_AXES
 70
0
 62
7
  6
CONTINUOUS
370
-3
390
F
  0
LAYER
  5
202
100
AcDbSymbolTableRecord
100
AcDbLayerTableRecord
  2
04_POINTS
 70
0
 62
7
  6
CONTINUOUS
370
-3
390
F
  0
LAYER
  5
203
100
AcDbSymbolTableRecord
100
AcDbLayerTableRecord
  2
05_CURVES
 70
0
 62
7
  6
CONTINUOUS
370
-3
390
F
  0
LAYER
  5
204
100
AcDbSymbolTableRecord
100
AcDbLayerTableRecord
  2
06_SURFS
 70
0
 62
7
  6
CONTINUOUS
370
-3
390
F
  0
LAYER
  5
205
100
AcDbSymbolTableRecord
100
AcDbLayerTableRecord
  2
07_COSMETICS
 70
0
 62
7
  6
CONTINUOUS
370
-3
390
F
  0
LAYER
  5
206
100
AcDbSymbolTableRecord
100
AcDbLayerTableRecord
  2
10_NOTES
 70
0
 62
7
  6
CONTINUOUS
370
-3
390
F
  0
LAYER
  5
207
100
AcDbSymbolTableRecord
100
AcDbLayerTableRecord
  2
11_NOTES_PUB
 70
0
 62
7
  6
CONTINUOUS
370
-3
390
F
  0
LAYER
  5
208
100
AcDbSymbolTableRecord
100
AcDbLayerTableRecord
  2
13_REF_GTOL
 70
0
 62
7
  6
CONTINUOUS
370
-3
390
F
  0
LAYER
  5
209
100
AcDbSymbolTableRecord
100
AcDbLayerTableRecord
  2
16_MISC
 70
0
 62
7
  6
CONTINUOUS
370
-3
390
F
  0
LAYER
  5
20A
100
AcDbSymbolTableRecord
100
AcDbLayerTableRecord
  2
17_NO_PRINT
 70
0
 62
7
  6
CONTINUOUS
370
-3
390
F
  0
LAYER
  5
20B
100
AcDbSymbolTableRecord
100
AcDbLayerTableRecord
  2
18_DATUM_CAMS_JOINTS
 70
0
 62
7
  6
CONTINUOUS
370
-3
390
F
  0
LAYER
  5
20C
100
AcDbSymbolTableRecord
100
AcDbLayerTableRecord
  2
19_DATUM_FUNCTIONAL
 70
0
 62
7
  6
CONTINUOUS
370
-3
390
F
  0
LAYER
  5
20D
100
AcDbSymbolTableRecord
100
AcDbLayerTableRecord
  2
20_DATUM_KINEMATIC_SCHEME
 70
0
 62
7
  6
CONTINUOUS
370
-3
390
F
  0
ENDTAB
  0
TABLE
  2
STYLE
  5
3
100
AcDbSymbolTable
 70
1
  0
STYLE
  5
11
100
AcDbSymbolTableRecord
100
AcDbTextStyleTableRecord
  2
STANDARD
 70
0
 40
0.0
 41
1.0
 50
0.0
 71
0
 42
0.2
  3
ARIAL.TTF
  4

  0
STYLE
  5
20E
100
AcDbSymbolTableRecord
100
AcDbTextStyleTableRecord
  2
TEXTSTYLE_1
 70
0
 40
0.0
 41
0.8
 50
0.0
 71
0
 42
0.2
  3
gdt
  4

  0
ENDTAB
  0
TABLE
  2
VIEW
  5
6
100
AcDbSymbolTable
 70
0
  0
ENDTAB
  0
TABLE
  2
UCS
  5
7
100
AcDbSymbolTable
 70
0
  0
ENDTAB
  0
TABLE
  2
APPID
  5
9
100
AcDbSymbolTable
 70
1
  0
APPID
  5
20F
100
AcDbSymbolTableRecord
100
AcDbRegAppTableRecord
  2
ACAD
 70
0
  0
ENDTAB
  0
TABLE
  2
BLOCK_RECORD
  5
1
100
AcDbSymbolTable
 70
0
  0
BLOCK_RECORD
  5
210
100
AcDbSymbolTableRecord
100
AcDbBlockTableRecord
  2
*Model_Space
  0
BLOCK_RECORD
  5
211
100
AcDbSymbolTableRecord
100
AcDbBlockTableRecord
  2
*Paper_Space
  0
BLOCK_RECORD
  5
212
100
AcDbSymbolTableRecord
100
AcDbBlockTableRecord
  2
_FILLED
  0
ENDTAB
  0
TABLE
  2
DIMSTYLE
  5
A
100
AcDbSymbolTable
 70
1
100
AcDbDimStyleTable
 71
0
  0
DIMSTYLE
105
213
100
AcDbSymbolTableRecord
100
AcDbDimStyleTableRecord
  2
STANDARD
 70
0
  3

  4

 40
1.0
 41
1.1962359004
 42
1.0
 43
0.38
 44
1.0
 45
0.0
 46
0.0
 47
0.01
 48
0.01
140
1.6747302606
141
0.09
142
0.0
143
25.4
144
1.0
145
0.0
146
1.0
147
0.625
 71
1
 72
0
 73
0
 74
0
 75
0
 76
0
 77
1
 78
8
 79
2
170
0
171
1
172
0
173
0
174
0
175
0
176
0
177
0
178
0
270
2
179
2
271
2
272
2
273
2
274
2
275
0
280
0
281
0
282
0
283
1
284
8
285
0
286
0
287
3
288
0
340
11
278
46
341
212
342
212
343
212
344
212
  0
ENDTAB
  0
ENDSEC
  0
SECTION
  2
BLOCKS
  0
BLOCK
  5
20
100
AcDbEntity
  8
0
100
AcDbBlockBegin
  2
*Model_Space
 70
0
 10
0.0
 20
0.0
 30
0.0
  3
*Model_Space
  1

  0
ENDBLK
  5
21
100
AcDbEntity
  8
0
100
AcDbBlockEnd
  0
BLOCK
  5
1C
100
AcDbEntity
  8
0
100
AcDbBlockBegin
  2
*Paper_Space
 70
0
 10
0.0
 20
0.0
 30
0.0
  3
*Paper_Space
  1

  0
ENDBLK
  5
1D
100
AcDbEntity
  8
0
100
AcDbBlockEnd
  0
BLOCK
  5
214
100
AcDbEntity
  8
0
100
AcDbBlockBegin
  2
_FILLED
 70
64
 10
0.0
 20
0.0
  3
_FILLED
  1

  0
SOLID
  5
215
100
AcDbEntity
  8
0
  6
BYBLOCK
 62
0
100
AcDbTrace
 10
0.0
 20
0.0
 11
-1.0
 21
0.25
 12
-1.0
 22
-0.25
 13
-1.0
 23
-0.25
  0
ENDBLK
  5
216
100
AcDbEntity
  8
0
  6
BYBLOCK
 62
0
100
AcDbBlockEnd
  0
ENDSEC
  0
SECTION
  2
ENTITIES
  0
LINE
  5
217
100
AcDbEntity
  8
0
100
AcDbLine
 62
7
  6
BYLAYER
 10
11.6572634611
 20
88.0316669811
 11
11.6572634611
 21
92.5224302754
  0
LINE
  5
218
100
AcDbEntity
  8
0
100
AcDbLine
 62
7
  6
BYLAYER
 10
15.5322634611
 20
92.5663675686
 11
15.5322634611
 21
93.2246223541
  0
LINE
  5
219
100
AcDbEntity
  8
0
100
AcDbLine
 62
7
  6
BYLAYER
 10
23.7822634611
 20
92.6384306058
 11
23.7822634611
 21
93.2246223541
  0
LINE
  5
21A
100
AcDbEntity
  8
0
100
AcDbLine
 62
7
  6
BYLAYER
 10
27.6572634611
 20
88.0316669811
 11
27.6572634611
 21
92.5224302754
  0
LINE
  5
21B
100
AcDbEntity
  8
0
100
AcDbLine
 62
7
  6
BYLAYER
 10
30.7140026268
 20
75.4009465346
 11
30.7140026268
 21
73.7679417003
  0
LINE
  5
21C
100
AcDbEntity
  8
0
100
AcDbLine
 62
7
  6
BYLAYER
 10
32.3295499813
 20
72.7139175842
 11
32.3295499813
 21
74.3469224185
  0
LINE
  5
21D
100
AcDbEntity
  8
0
100
AcDbLine
 62
7
  6
BYLAYER
 10
34.4326830666
 20
71.4006310864
 11
34.4326830666
 21
71.4997006006
  0
LINE
  5
21E
100
AcDbEntity
  8
0
100
AcDbLine
 62
7
  6
BYLAYER
 10
34.5065470815
 20
80.4383527562
 11
34.5065470815
 21
82.0713575905
  0
LINE
  5
21F
100
AcDbEntity
  8
0
100
AcDbLine
 62
7
  6
BYLAYER
 10
35.3113715549
 20
70.1758986248
 11
35.3113715549
 21
70.9924010419
  0
LINE
  5
220
100
AcDbEntity
  8
0
100
AcDbLine
 62
7
  6
BYLAYER
 10
38.0118518249
 20
73.1543224212
 11
37.9341359425
 21
73.6358803553
  0
LINE
  5
221
100
AcDbEntity
  8
0
100
AcDbLine
 62
7
  6
BYLAYER
 10
40.4061038413
 20
74.4780927484
 11
40.4061038413
 21
75.8853145644
  0
LINE
  5
222
100
AcDbEntity
  8
0
100
AcDbLine
 62
7
  6
BYLAYER
 10
30.7140026268
 20
73.7679417003
 11
17.3237175002
 21
83.658591478
  0
LINE
  5
223
100
AcDbEntity
  8
0
100
AcDbLine
 62
7
  6
BYLAYER
 10
43.1299710786
 20
64.8404823195
 11
42.9455040906
 21
65.0786309005
  0
LINE
  5
224
100
AcDbEntity
  8
0
100
AcDbLine
 62
7
  6
BYLAYER
 10
42.9455040906
 20
65.6093574716
 11
42.7226112382
 21
65.8971141977
  0
LINE
  5
225
100
AcDbEntity
  8
0
100
AcDbLine
 62
7
  6
BYLAYER
 10
42.8061038413
 20
65.4557410391
 11
42.8061038413
 21
65.7893244779
  0
LINE
  5
226
100
AcDbEntity
  8
0
100
AcDbLine
 62
7
  6
BYLAYER
 10
42.8942785694
 20
66.6145066771
 11
42.8942785694
 21
65.7980042599
  0
LINE
  5
227
100
AcDbEntity
  8
0
100
AcDbLine
 62
7
  6
BYLAYER
 10
43.4577872183
 20
75.881607391
 11
43.4577872183
 21
75.6776195648
  0
LINE
  5
228
100
AcDbEntity
  8
0
100
AcDbLine
 62
7
  6
BYLAYER
 10
43.5017195105
 20
77.0348971759
 11
43.5017207595
 21
75.7196600702
  0
LINE
  5
229
100
AcDbEntity
  8
0
100
AcDbLine
 62
7
  6
BYLAYER
 10
44.1500338759
 20
77.4958014384
 11
44.1500338759
 21
76.2593758071
  0
LINE
  5
22A
100
AcDbEntity
  8
0
100
AcDbLine
 62
7
  6
BYLAYER
 10
44.4060934328
 20
78.0443540715
 11
44.4061142498
 21
75.1576439942
  0
LINE
  5
22B
100
AcDbEntity
  8
0
100
AcDbLine
 62
7
  6
BYLAYER
 10
44.6621659102
 20
76.4007953776
 11
44.6621659102
 21
76.5769516023
  0
LINE
  5
22C
100
AcDbEntity
  8
0
100
AcDbLine
 62
7
  6
BYLAYER
 10
45.3121297682
 20
76.8825728538
 11
45.310488172
 21
76.8695872307
  0
LINE
  5
22D
100
AcDbEntity
  8
0
100
AcDbLine
 62
7
  6
BYLAYER
 10
43.5000779143
 20
77.0302160026
 11
43.5017195105
 21
77.0427880343
  0
LINE
  5
22E
100
AcDbEntity
  8
0
100
AcDbLine
 62
7
  6
BYLAYER
 10
41.3550638352
 20
74.7578320716
 11
43.481971442
 21
75.9857954209
  0
LINE
  5
22F
100
AcDbEntity
  8
0
100
AcDbLine
 62
7
  6
BYLAYER
 10
44.4817045703
 20
76.5629881663
 11
46.6086121771
 21
77.7909515157
  0
LINE
  5
230
100
AcDbEntity
  8
0
100
AcDbLine
 62
7
  6
BYLAYER
 10
45.2492684543
 20
76.9159133908
 11
44.6621659102
 21
76.5769516023
  0
LINE
  5
231
100
AcDbEntity
  8
0
100
AcDbLine
 62
7
  6
BYLAYER
 10
43.4577872183
 20
75.881607391
 11
42.8706846743
 21
75.5426456024
  0
LINE
  5
232
100
AcDbEntity
  8
0
100
AcDbLine
 62
7
  6
BYLAYER
 10
35.3113715549
 20
70.1758986248
 11
42.8942785694
 21
65.7980042599
  0
LINE
  5
233
100
AcDbEntity
  8
0
100
AcDbLine
 62
7
  6
BYLAYER
 10
78.3474148078
 20
46.1460919836
 11
32.3295499813
 21
72.7139175842
  0
LINE
  5
234
100
AcDbEntity
  8
0
100
AcDbLine
 62
7
  6
BYLAYER
 10
78.3474148078
 20
47.7790968179
 11
32.3295499813
 21
74.3469224185
  0
LINE
  5
235
100
AcDbEntity
  8
0
100
AcDbLine
 62
7
  6
BYLAYER
 10
19.8167171551
 20
83.4501578179
 11
30.7140026268
 21
75.4009465346
  0
LINE
  5
236
100
AcDbEntity
  8
0
100
AcDbLine
 62
7
  6
BYLAYER
 10
45.310488172
 20
76.8696019918
 11
45.310488172
 21
75.8700385382
  0
LINE
  5
237
100
AcDbEntity
  8
0
100
AcDbLine
 62
7
  6
BYLAYER
 10
45.3544225964
 20
75.8298198755
 11
45.3544225964
 21
76.800463017
  0
LINE
  5
238
100
AcDbEntity
  8
0
100
AcDbLine
 62
7
  6
BYLAYER
 10
46.4061038413
 20
69.6501535674
 11
46.4061038413
 21
70.011077858
  0
LINE
  5
239
100
AcDbEntity
  8
0
100
AcDbLine
 62
7
  6
BYLAYER
 10
29.556820221
 20
79.2136485134
 11
37.9844278019
 21
74.3480770818
  0
LINE
  5
23A
100
AcDbEntity
  8
0
100
AcDbLine
 62
7
  6
BYLAYER
 10
45.7156469179
 20
69.8845566224
 11
76.2260620807
 21
52.269758715
  0
LINE
  5
23B
100
AcDbEntity
  8
0
100
AcDbLine
 62
7
  6
BYLAYER
 10
43.5016969024
 20
75.9428434994
 11
43.481971442
 21
75.9857954209
  0
LINE
  5
23C
100
AcDbEntity
  8
0
100
AcDbLine
 62
7
  6
BYLAYER
 10
43.4940062822
 20
77.1092884395
 11
43.5158027421
 21
77.0480617877
  0
LINE
  5
23D
100
AcDbEntity
  8
0
100
AcDbLine
 62
7
  6
BYLAYER
 10
43.4948314182
 20
77.1093047395
 11
43.5165990861
 21
77.0480781128
  0
LINE
  5
23E
100
AcDbEntity
  8
0
100
AcDbLine
 62
7
  6
BYLAYER
 10
48.4061038413
 20
74.4780927484
 11
48.4061038413
 21
75.8853145644
  0
LINE
  5
23F
100
AcDbEntity
  8
0
100
AcDbLine
 62
7
  6
BYLAYER
 10
50.8003558576
 20
73.1543224212
 11
50.8780717401
 21
73.6358803553
  0
LINE
  5
240
100
AcDbEntity
  8
0
100
AcDbLine
 62
7
  6
BYLAYER
 10
45.682236604
 20
64.8404823195
 11
45.7702462192
 21
64.9541035436
  0
LINE
  5
241
100
AcDbEntity
  8
0
100
AcDbLine
 62
7
  6
BYLAYER
 10
46.3214740379
 20
69.6235285478
 11
46.2446231756
 21
69.5791589466
  0
LINE
  5
242
100
AcDbEntity
  8
0
100
AcDbLine
 62
7
  6
BYLAYER
 10
81.1757889412
 20
53.4944629579
 11
53.2632699596
 21
69.6093987371
  0
LINE
  5
243
100
AcDbEntity
  8
0
100
AcDbLine
 62
7
  6
BYLAYER
 10
39.2390024476
 20
77.7061301878
 11
34.5065470815
 21
80.4383527562
  0
LINE
  5
244
100
AcDbEntity
  8
0
100
AcDbLine
 62
7
  6
BYLAYER
 10
40.0124225136
 20
77.5862174271
 11
40.8699999206
 21
77.0911060812
  0
LINE
  5
245
100
AcDbEntity
  8
0
100
AcDbLine
 62
7
  6
BYLAYER
 10
50.0629639787
 20
71.783665878
 11
53.0424081923
 21
70.0635218741
  0
LINE
  5
246
100
AcDbEntity
  8
0
100
AcDbLine
 62
7
  6
BYLAYER
 10
53.333692615
 20
67.7420324848
 11
53.333692615
 21
69.2933870773
  0
LINE
  5
247
100
AcDbEntity
  8
0
100
AcDbLine
 62
7
  6
BYLAYER
 10
53.3283507512
 20
69.2972078933
 11
53.3317398047
 21
69.3018941328
  0
LINE
  5
248
100
AcDbEntity
  8
0
100
AcDbLine
 62
7
  6
BYLAYER
 10
53.3555891918
 20
69.2893681773
 11
53.3595135102
 21
69.2939179651
  0
LINE
  5
249
100
AcDbEntity
  8
0
100
AcDbLine
 62
7
  6
BYLAYER
 10
45.6822153719
 20
64.840487812
 11
45.394591905
 21
64.5992742542
  0
LINE
  5
24A
100
AcDbEntity
  8
0
100
AcDbLine
 62
7
  6
BYLAYER
 10
45.3180494488
 20
76.8929143416
 11
45.3211401309
 21
76.891823446
  0
LINE
  5
24B
100
AcDbEntity
  8
0
100
AcDbLine
 62
7
  6
BYLAYER
 10
45.3150840309
 20
76.8901074037
 11
45.3180743154
 21
76.8889349268
  0
LINE
  5
24C
100
AcDbEntity
  8
0
100
AcDbLine
 62
7
  6
BYLAYER
 10
81.1757889412
 20
55.1274677921
 11
50.6653737784
 21
72.7422656995
  0
LINE
  5
24D
100
AcDbEntity
  8
0
100
AcDbLine
 62
7
  6
BYLAYER
 10
42.0158615928
 20
77.7359509159
 11
34.5065470815
 21
82.0713575905
  0
LINE
  5
24E
100
AcDbEntity
  8
0
100
AcDbLine
 62
7
  6
BYLAYER
 10
41.1104446665
 20
81.4032993156
 11
27.5911491326
 21
87.5039749882
  0
LINE
  5
24F
100
AcDbEntity
  8
0
100
AcDbLine
 62
7
  6
BYLAYER
 10
42.9361075396
 20
80.4705847265
 11
88.953972366
 21
53.902759126
  0
LINE
  5
250
100
AcDbEntity
  8
0
100
AcDbLine
 62
7
  6
BYLAYER
 10
78.3474148078
 20
47.7790968179
 11
78.3474148078
 21
46.1460919836
  0
LINE
  5
251
100
AcDbEntity
  8
0
100
AcDbLine
 62
7
  6
BYLAYER
 10
81.1757889412
 20
55.1274677921
 11
81.1757889412
 21
53.4944629579
  0
LINE
  5
252
100
AcDbEntity
  8
0
100
AcDbLine
 62
7
  6
BYLAYER
 10
85.4184826196
 20
46.1461089804
 11
85.4184826196
 21
47.7791138146
  0
LINE
  5
253
100
AcDbEntity
  8
0
100
AcDbLine
 62
7
  6
BYLAYER
 10
88.9540018057
 20
49.820334584
 11
88.9540018057
 21
48.1873297497
  0
LINE
  5
254
100
AcDbEntity
  8
0
100
AcDbLine
 62
7
  6
BYLAYER
 10
88.9540018057
 20
49.820334584
 11
85.4184826196
 21
47.7791138146
  0
LINE
  5
255
100
AcDbEntity
  8
0
100
AcDbLine
 62
7
  6
BYLAYER
 10
90.41845318
 20
50.2285335223
 11
90.41845318
 21
51.8615383566
  0
LINE
  5
256
100
AcDbEntity
  8
0
100
AcDbLine
 62
7
  6
BYLAYER
 10
88.9540018057
 20
48.1873297497
 11
85.4184826196
 21
46.1461089804
  0
ARC
  5
257
100
AcDbEntity
  8
0
100
AcDbCircle
 62
7
  6
BYLAYER
 10
311.4316298856
 20
172.3997345594
 40
284.3779866023
100
AcDbArc
 50
199.4370507678
 51
199.5776316626
  0
ARC
  5
258
100
AcDbEntity
  8
0
100
AcDbCircle
 62
7
  6
BYLAYER
 10
170.0376454534
 20
122.0723459552
 40
134.2943142797
100
AcDbArc
 50
199.588698947
 51
200.0453081699
  0
ARC
  5
259
100
AcDbEntity
  8
0
100
AcDbCircle
 62
7
  6
BYLAYER
 10
-64.4365750781
 20
116.0021642994
 40
116.4419137661
100
AcDbArc
 50
339.9894005945
 51
340.3866133702
  0
ARC
  5
25A
100
AcDbEntity
  8
0
100
AcDbCircle
 62
7
  6
BYLAYER
 10
-27.5370438396
 20
68.6031155267
 40
72.2411229421
100
AcDbArc
 50
5.205350997
 51
6.1647264887
  0
ARC
  5
25B
100
AcDbEntity
  8
0
100
AcDbCircle
 62
7
  6
BYLAYER
 10
113.1116335223
 20
68.924984001
 40
68.9875154078
100
AcDbArc
 50
173.7518068405
 51
174.8168985607
  0
ARC
  5
25C
100
AcDbEntity
  8
0
100
AcDbCircle
 62
7
  6
BYLAYER
 10
78.9581279097
 20
50.8912608181
 40
42.5138475131
100
AcDbArc
 50
142.0894044803
 51
142.2422143762
  0
ARC
  5
25D
100
AcDbEntity
  8
0
100
AcDbCircle
 62
7
  6
BYLAYER
 10
76.6413816706
 20
53.6921836584
 40
39.9936970524
100
AcDbArc
 50
143.4187261854
 51
143.5806906553
  0
ARC
  5
25E
100
AcDbEntity
  8
0
100
AcDbCircle
 62
7
  6
BYLAYER
 10
41.790917332
 20
67.2835512108
 40
9.7245645716
100
AcDbArc
 50
80.0823815781
 51
80.4981078381
  0
ARC
  5
25F
100
AcDbEntity
  8
0
100
AcDbCircle
 62
7
  6
BYLAYER
 10
42.8905903604
 20
67.2640078178
 40
9.2032954
100
AcDbArc
 50
80.8537264073
 51
81.27752612
  0
ARC
  5
260
100
AcDbEntity
  8
0
100
AcDbCircle
 62
7
  6
BYLAYER
 10
44.7741388703
 20
69.1413614326
 40
7.759921929
100
AcDbArc
 50
85.7760671567
 51
86.0240265422
  0
ARC
  5
261
100
AcDbEntity
  8
0
100
AcDbCircle
 62
7
  6
BYLAYER
 10
44.7004888432
 20
69.3978395878
 40
7.7261787251
100
AcDbArc
 50
98.9387142494
 51
111.2059298055
  0
ARC
  5
262
100
AcDbEntity
  8
0
100
AcDbCircle
 62
7
  6
BYLAYER
 10
44.1132770231
 20
69.4019344969
 40
7.7218343336
100
AcDbArc
 50
68.7936897741
 51
80.2876770633
  0
ARC
  5
263
100
AcDbEntity
  8
0
100
AcDbCircle
 62
7
  6
BYLAYER
 10
44.4061038413
 20
71.7019845301
 40
6.5
100
AcDbArc
 50
74.8831394578
 51
105.1322204769
  0
ARC
  5
264
100
AcDbEntity
  8
0
100
AcDbCircle
 62
7
  6
BYLAYER
 10
49.2923496671
 20
72.7988869312
 40
5.3690436001
100
AcDbArc
 50
319.2461486902
 51
321.8112026105
  0
ARC
  5
265
100
AcDbEntity
  8
0
100
AcDbCircle
 62
7
  6
BYLAYER
 10
18.7490601556
 20
91.2491382443
 40
4.1985063555
100
AcDbArc
 50
118.1259121985
 51
118.7793850556
  0
ARC
  5
266
100
AcDbEntity
  8
0
100
AcDbCircle
 62
7
  6
BYLAYER
 10
21.0152291982
 20
91.9669903877
 40
3.3507735139
100
AcDbArc
 50
53.8160737532
 51
54.1612518232
  0
ARC
  5
267
100
AcDbEntity
  8
0
100
AcDbCircle
 62
7
  6
BYLAYER
 10
44.5525341461
 20
74.7179108253
 40
2.3057870618
100
AcDbArc
 50
70.6099457195
 51
72.4121548618
  0
ARC
  5
268
100
AcDbEntity
  8
0
100
AcDbCircle
 62
7
  6
BYLAYER
 10
44.5755162894
 20
74.7842191465
 40
2.2356097147
100
AcDbArc
 50
70.1583681217
 51
70.5173455588
  0
ARC
  5
269
100
AcDbEntity
  8
0
100
AcDbCircle
 62
7
  6
BYLAYER
 10
44.5819234329
 20
74.8019809134
 40
2.2167276637
100
AcDbArc
 50
69.8384905302
 51
70.1583178266
  0
ARC
  5
26A
100
AcDbEntity
  8
0
100
AcDbCircle
 62
7
  6
BYLAYER
 10
36.5517965704
 20
75.9070477907
 40
1.0732674612
100
AcDbArc
 50
180.0085678467
 51
186.9369726134
  0
ARC
  5
26B
100
AcDbEntity
  8
0
100
AcDbCircle
 62
7
  6
BYLAYER
 10
43.3221360076
 20
76.9966805878
 40
0.1597191744
100
AcDbArc
 50
307.5720791486
 51
310.5270573069
  0
SPLINE
  5
26C
100
AcDbEntity
  8
0
100
AcDbSpline
 62
7
  6
BYLAYER
 70
0
 71
3
 72
25
 73
21
 74
0
 42
0.0000001
 43
0.0000001
 44
0.0000000001
 40
0.0
 40
0.0
 40
0.0
 40
0.0
 40
0.0213317481
 40
0.0428920743
 40
0.0648973414
 40
0.0875422146
 40
0.1353173502
 40
0.1872187855
 40
0.243656425
 40
0.3046035226
 40
0.369691224
 40
0.4382874671
 40
0.5095730787
 40
0.582596888
 40
0.656328314
 40
0.7297058179
 40
0.801683105
 40
0.8712760614
 40
0.9376161449
 40
1.0
 40
1.0
 40
1.0
 40
1.0
 10
23.7822634141
 20
93.2246223541
 30
0.0
 10
23.782263185
 20
93.2831399046
 30
0.0
 10
23.7747104857
 20
93.400937787
 30
0.0
 10
23.7408682309
 20
93.5761658299
 30
0.0
 10
23.6847219709
 20
93.7493716096
 30
0.0
 10
23.5788134744
 20
93.9802764261
 30
0.0
 10
23.3887561558
 20
94.2599444164
 30
0.0
 10
23.0851493141
 20
94.5647649075
 30
0.0
 10
22.7088947587
 20
94.8397157428
 30
0.0
 10
22.2680570054
 20
95.079474542
 30
0.0
 10
21.7718537184
 20
95.2793774261
 30
0.0
 10
21.2307124978
 20
95.4353322299
 30
0.0
 10
20.6560723993
 20
95.5440905089
 30
0.0
 10
20.0601377877
 20
95.6033537237
 30
0.0
 10
19.4556061726
 20
95.6118615811
 30
0.0
 10
18.8553711623
 20
95.5694303454
 30
0.0
 10
18.2722409473
 20
95.4769678806
 30
0.0
 10
17.718585131
 20
95.3364141379
 30
0.0
 10
17.2062461958
 20
95.150778943
 30
0.0
 10
16.8886409561
 20
94.9941812166
 30
0.0
 10
16.7404358449
 20
94.9086154665
 30
0.0
  0
SPLINE
  5
26D
100
AcDbEntity
  8
0
100
AcDbSpline
 62
7
  6
BYLAYER
 70
0
 71
3
 72
15
 73
11
 74
0
 42
0.0000001
 43
0.0000001
 44
0.0000000001
 40
0.0
 40
0.0
 40
0.0
 40
0.0
 40
0.1486075862
 40
0.2895019935
 40
0.4227263937
 40
0.5486447838
 40
0.668001999
 40
0.7819389451
 40
0.8919874765
 40
1.0
 40
1.0
 40
1.0
 40
1.0
 10
16.7404358449
 20
94.9086154665
 30
0.0
 10
16.6473890099
 20
94.8548951719
 30
0.0
 10
16.4703249321
 20
94.7426776507
 30
0.0
 10
16.2282683001
 20
94.5553024658
 30
0.0
 10
16.0189012815
 20
94.3549050012
 30
0.0
 10
15.844303674
 20
94.1432793993
 30
0.0
 10
15.7062700999
 20
93.9223176273
 30
0.0
 10
15.6063562804
 20
93.6940149467
 30
0.0
 10
15.545826447
 20
93.4606856008
 30
0.0
 10
15.5322632025
 20
93.3027137989
 30
0.0
 10
15.5322635082
 20
93.2246223541
 30
0.0
  0
SPLINE
  5
26E
100
AcDbEntity
  8
0
100
AcDbSpline
 62
7
  6
BYLAYER
 70
0
 71
3
 72
25
 73
21
 74
0
 42
0.0000001
 43
0.0000001
 44
0.0000000001
 40
0.0
 40
0.0
 40
0.0
 40
0.0
 40
0.0213317481
 40
0.0428920743
 40
0.0648973414
 40
0.0875422146
 40
0.1353173502
 40
0.1872187855
 40
0.243656425
 40
0.3046035226
 40
0.369691224
 40
0.4382874671
 40
0.5095730787
 40
0.582596888
 40
0.656328314
 40
0.7297058179
 40
0.801683105
 40
0.8712760614
 40
0.9376161449
 40
1.0
 40
1.0
 40
1.0
 40
1.0
 10
15.5322635082
 20
93.2246223541
 30
0.0
 10
15.5322637372
 20
93.1661048036
 30
0.0
 10
15.5398164366
 20
93.0483069212
 30
0.0
 10
15.5736586913
 20
92.8730788782
 30
0.0
 10
15.6298049513
 20
92.6998730986
 30
0.0
 10
15.7357134478
 20
92.4689682821
 30
0.0
 10
15.9257707665
 20
92.1893002918
 30
0.0
 10
16.2293776081
 20
91.8844798007
 30
0.0
 10
16.6056321635
 20
91.6095289654
 30
0.0
 10
17.0464699168
 20
91.3697701663
 30
0.0
 10
17.5426732038
 20
91.1698672821
 30
0.0
 10
18.0838144243
 20
91.0139124783
 30
0.0
 10
18.6584545228
 20
90.9051541993
 30
0.0
 10
19.2543891344
 20
90.8458909845
 30
0.0
 10
19.8589207495
 20
90.837383127
 30
0.0
 10
20.4591557598
 20
90.8798143627
 30
0.0
 10
21.0422859747
 20
90.9722768276
 30
0.0
 10
21.5959417911
 20
91.1128305702
 30
0.0
 10
22.1082807262
 20
91.2984657651
 30
0.0
 10
22.425885966
 20
91.4550634915
 30
0.0
 10
22.5740910772
 20
91.5406292416
 30
0.0
  0
SPLINE
  5
26F
100
AcDbEntity
  8
0
100
AcDbSpline
 62
7
  6
BYLAYER
 70
0
 71
3
 72
26
 73
22
 74
0
 42
0.0000001
 43
0.0000001
 44
0.0000000001
 40
0.0
 40
0.0
 40
0.0
 40
0.0
 40
0.0603491995
 40
0.1143437665
 40
0.1629028575
 40
0.1858700314
 40
0.2084120086
 40
0.2309540597
 40
0.2539218084
 40
0.2777006128
 40
0.3026115903
 40
0.3566016759
 40
0.416953366
 40
0.4835091951
 40
0.5553224423
 40
0.630913553
 40
0.7084723352
 40
0.7860310787
 40
0.8616245039
 40
0.9334424731
 40
1.0
 40
1.0
 40
1.0
 40
1.0
 10
20.3643731863
 20
93.0123421797
 30
0.0
 10
20.408222078
 20
93.0377568224
 30
0.0
 10
20.4878916672
 20
93.092498796
 30
0.0
 10
20.5830112228
 20
93.1924303778
 30
0.0
 10
20.634070483
 20
93.2865711737
 30
0.0
 10
20.6539701826
 20
93.3633654367
 30
0.0
 10
20.6588899877
 20
93.4205851602
 30
0.0
 10
20.6539707295
 20
93.4778011954
 30
0.0
 10
20.6392942926
 20
93.5343777229
 30
0.0
 10
20.6150760355
 20
93.5897256837
 30
0.0
 10
20.5692431732
 20
93.6630767597
 30
0.0
 10
20.4878308553
 20
93.7487263987
 30
0.0
 10
20.3620261434
 20
93.8353149821
 30
0.0
 10
20.2101404659
 20
93.9060455166
 30
0.0
 10
20.0377336312
 20
93.9584534829
 30
0.0
 10
19.8511280175
 20
93.9906963285
 30
0.0
 10
19.6572698964
 20
94.0015820219
 30
0.0
 10
19.4634120143
 20
93.9906986561
 30
0.0
 10
19.2767938062
 20
93.9584523907
 30
0.0
 10
19.1043958431
 20
93.9060904384
 30
0.0
 10
18.9986059702
 20
93.8566926911
 30
0.0
 10
18.950153736
 20
93.8288236887
 30
0.0
  0
SPLINE
  5
270
100
AcDbEntity
  8
0
100
AcDbSpline
 62
7
  6
BYLAYER
 70
0
 71
3
 72
26
 73
22
 74
0
 42
0.0000001
 43
0.0000001
 44
0.0000000001
 40
0.0
 40
0.0
 40
0.0
 40
0.0
 40
0.0603491995
 40
0.1143437665
 40
0.1629028575
 40
0.1858700314
 40
0.2084120086
 40
0.2309540597
 40
0.2539218084
 40
0.2777006128
 40
0.3026115903
 40
0.3566016759
 40
0.416953366
 40
0.4835091951
 40
0.5553224423
 40
0.630913553
 40
0.7084723352
 40
0.7860310787
 40
0.8616245039
 40
0.9334424731
 40
1.0
 40
1.0
 40
1.0
 40
1.0
 10
18.950153736
 20
93.8288236887
 30
0.0
 10
18.9063048443
 20
93.8034090461
 30
0.0
 10
18.8266352551
 20
93.7486670724
 30
0.0
 10
18.7315156995
 20
93.6487354906
 30
0.0
 10
18.6804564393
 20
93.5545946947
 30
0.0
 10
18.6605567396
 20
93.4778004317
 30
0.0
 10
18.6556369346
 20
93.4205807083
 30
0.0
 10
18.6605561928
 20
93.363364673
 30
0.0
 10
18.6752326296
 20
93.3067881455
 30
0.0
 10
18.6994508868
 20
93.2514401847
 30
0.0
 10
18.745283749
 20
93.1780891087
 30
0.0
 10
18.826696067
 20
93.0924394697
 30
0.0
 10
18.9525007789
 20
93.0058508863
 30
0.0
 10
19.1043864563
 20
92.9351203518
 30
0.0
 10
19.2767932911
 20
92.8827123855
 30
0.0
 10
19.4633989048
 20
92.8504695399
 30
0.0
 10
19.6572570259
 20
92.8395838465
 30
0.0
 10
19.851114908
 20
92.8504672123
 30
0.0
 10
20.0377331161
 20
92.8827134777
 30
0.0
 10
20.2101310792
 20
92.93507543
 30
0.0
 10
20.3159209521
 20
92.9844731774
 30
0.0
 10
20.3643731863
 20
93.0123421797
 30
0.0
  0
SPLINE
  5
271
100
AcDbEntity
  8
0
100
AcDbSpline
 62
7
  6
BYLAYER
 70
0
 71
3
 72
15
 73
11
 74
0
 42
0.0000001
 43
0.0000001
 44
0.0000000001
 40
0.0
 40
0.0
 40
0.0
 40
0.0
 40
0.1486075862
 40
0.2895019935
 40
0.4227263937
 40
0.5486447838
 40
0.668001999
 40
0.7819389451
 40
0.8919874765
 40
1.0
 40
1.0
 40
1.0
 40
1.0
 10
22.5740910772
 20
91.5406292416
 30
0.0
 10
22.6671379121
 20
91.5943495361
 30
0.0
 10
22.84420199
 20
91.7065670574
 30
0.0
 10
23.086258622
 20
91.8939422423
 30
0.0
 10
23.2956256407
 20
92.0943397069
 30
0.0
 10
23.4702232482
 20
92.3059653088
 30
0.0
 10
23.6082568223
 20
92.5269270809
 30
0.0
 10
23.7081706418
 20
92.7552297614
 30
0.0
 10
23.7687004753
 20
92.9885591074
 30
0.0
 10
23.7822637198
 20
93.1465309093
 30
0.0
 10
23.7822634141
 20
93.2246223541
 30
0.0
  0
SPLINE
  5
272
100
AcDbEntity
  8
0
100
AcDbSpline
 62
7
  6
BYLAYER
 70
0
 71
3
 72
9
 73
5
 74
0
 42
0.0000001
 43
0.0000001
 44
0.0000000001
 40
0.0
 40
0.0
 40
0.0
 40
0.0
 40
0.4867156245
 40
1.0
 40
1.0
 40
1.0
 40
1.0
 10
49.0022787832
 20
76.6376153699
 30
0.0
 10
48.8084850417
 20
76.7494997076
 30
0.0
 10
48.3975966657
 20
76.9577543696
 30
0.0
 10
47.9691266724
 20
77.126299477
 30
0.0
 10
47.7460980659
 20
77.2034256572
 30
0.0
  0
SPLINE
  5
273
100
AcDbEntity
  8
0
100
AcDbSpline
 62
7
  6
BYLAYER
 70
0
 71
3
 72
19
 73
15
 74
0
 42
0.0000001
 43
0.0000001
 44
0.0000000001
 40
0.0
 40
0.0
 40
0.0
 40
0.0
 40
0.1567598505
 40
0.3040794136
 40
0.4410923075
 40
0.5056967367
 40
0.5677340896
 40
0.6845275079
 40
0.7398563767
 40
0.7935119639
 40
0.8458873905
 40
0.8974327134
 40
0.9486353689
 40
1.0
 40
1.0
 40
1.0
 40
1.0
 10
41.0758249253
 20
77.2067753744
 30
0.0
 10
40.8210615164
 20
77.1190266602
 30
0.0
 10
40.334518514
 20
76.9250596728
 30
0.0
 10
39.6636860202
 20
76.5683914338
 30
0.0
 10
39.1716880907
 20
76.2217694839
 30
0.0
 10
38.8323281747
 20
75.9207195751
 30
0.0
 10
38.5421562424
 20
75.6188584785
 30
0.0
 10
38.3005097801
 20
75.2934520866
 30
0.0
 10
38.1193593871
 20
74.949543447
 30
0.0
 10
38.0170347381
 20
74.6911170216
 30
0.0
 10
37.9465265141
 20
74.4289689039
 30
0.0
 10
37.9082101682
 20
74.1644342831
 30
0.0
 10
37.9023783713
 20
73.898965992
 30
0.0
 10
37.9200714175
 20
73.7230426335
 30
0.0
 10
37.9341363029
 20
73.6358803747
 30
0.0
  0
SPLINE
  5
274
100
AcDbEntity
  8
0
100
AcDbSpline
 62
7
  6
BYLAYER
 70
0
 71
3
 72
17
 73
13
 74
0
 42
0.0000001
 43
0.0000001
 44
0.0000000001
 40
0.0
 40
0.0
 40
0.0
 40
0.0
 40
0.1502867866
 40
0.2918406057
 40
0.4247370768
 40
0.5496098548
 40
0.6675962501
 40
0.780415063
 40
0.8356250079
 40
0.8904083384
 40
0.9450904117
 40
1.0
 40
1.0
 40
1.0
 40
1.0
 10
49.0022787832
 20
76.6376153699
 30
0.0
 10
49.1657172608
 20
76.5432562556
 30
0.0
 10
49.4749364719
 20
76.3452343379
 30
0.0
 10
49.8919387614
 20
76.0109458211
 30
0.0
 10
50.243679655
 20
75.6516295168
 30
0.0
 10
50.5257290325
 20
75.2712654454
 30
0.0
 10
50.734243253
 20
74.8741024232
 30
0.0
 10
50.8448143398
 20
74.5301551535
 30
0.0
 10
50.8925297753
 20
74.2541018873
 30
0.0
 10
50.9084425965
 20
74.047600043
 30
0.0
 10
50.9046618419
 20
73.8409263982
 30
0.0
 10
50.889052559
 20
73.7039520424
 30
0.0
 10
50.8780660408
 20
73.6358806619
 30
0.0
  0
SPLINE
  5
275
100
AcDbEntity
  8
0
100
AcDbSpline
 62
7
  6
BYLAYER
 70
0
 71
3
 72
11
 73
7
 74
0
 42
0.0000001
 43
0.0000001
 44
0.0000000001
 40
0.0
 40
0.0
 40
0.0
 40
0.0
 40
0.2348254881
 40
0.4777107612
 40
0.7319454702
 40
1.0
 40
1.0
 40
1.0
 40
1.0
 10
50.8003502268
 20
73.1543227241
 30
0.0
 10
50.7807351426
 20
73.0327896014
 30
0.0
 10
50.7198140127
 20
72.7885149784
 30
0.0
 10
50.5686617219
 20
72.434277689
 30
0.0
 10
50.3585962371
 20
72.0910553964
 30
0.0
 10
50.1856833563
 20
71.87769403
 30
0.0
 10
50.0910975667
 20
71.7737657874
 30
0.0
  0
SPLINE
  5
276
100
AcDbEntity
  8
0
100
AcDbSpline
 62
7
  6
BYLAYER
 70
0
 71
3
 72
15
 73
11
 74
0
 42
0.0000001
 43
0.0000001
 44
0.0000000001
 40
0.0
 40
0.0
 40
0.0
 40
0.0
 40
0.1037290764
 40
0.214166519
 40
0.3313197192
 40
0.4548962507
 40
0.584359403
 40
0.718976128
 40
0.8578584977
 40
1.0
 40
1.0
 40
1.0
 40
1.0
 10
50.0910975667
 20
71.7737657874
 30
0.0
 10
49.9779957257
 20
71.649492621
 30
0.0
 10
49.7267134971
 20
71.4087131056
 30
0.0
 10
49.2977352096
 20
71.0845008611
 30
0.0
 10
48.8101935948
 20
70.7896018048
 30
0.0
 10
48.2699781234
 20
70.5274784295
 30
0.0
 10
47.6834895905
 20
70.3011392078
 30
0.0
 10
47.0577124808
 20
70.1132521082
 30
0.0
 10
46.4001564775
 20
69.9660463052
 30
0.0
 10
45.9498092136
 20
69.8968219533
 30
0.0
 10
45.7212099351
 20
69.8692067824
 30
0.0
  0
SPLINE
  5
277
100
AcDbEntity
  8
0
100
AcDbSpline
 62
7
  6
BYLAYER
 70
0
 71
3
 72
15
 73
11
 74
0
 42
0.0000001
 43
0.0000001
 44
0.0000000001
 40
0.0
 40
0.0
 40
0.0
 40
0.0
 40
0.1308697536
 40
0.2626323665
 40
0.3939421604
 40
0.523466873
 40
0.6499322872
 40
0.7721589601
 40
0.88912807
 40
1.0
 40
1.0
 40
1.0
 40
1.0
 10
45.7212099351
 20
69.8692067824
 30
0.0
 10
45.4597707021
 20
69.8376244906
 30
0.0
 10
44.9325769167
 20
69.7936388542
 30
0.0
 10
44.1392926571
 20
69.784384651
 30
0.0
 10
43.3500167022
 20
69.8315397266
 30
0.0
 10
42.5767844799
 20
69.9343882511
 30
0.0
 10
41.8313230627
 20
70.0913779437
 30
0.0
 10
41.1248714988
 20
70.3001445951
 30
0.0
 10
40.4682107998
 20
70.557535166
 30
0.0
 10
40.0583312342
 20
70.7650193553
 30
0.0
 10
39.8651201175
 20
70.876567322
 30
0.0
  0
SPLINE
  5
278
100
AcDbEntity
  8
0
100
AcDbSpline
 62
7
  6
BYLAYER
 70
0
 71
3
 72
15
 73
11
 74
0
 42
0.0000001
 43
0.0000001
 44
0.0000000001
 40
0.0
 40
0.0
 40
0.0
 40
0.0
 40
0.1077465244
 40
0.218603082
 40
0.3338049278
 40
0.4543329772
 40
0.5808851882
 40
0.713910482
 40
0.8536489915
 40
1.0
 40
1.0
 40
1.0
 40
1.0
 10
38.011852181
 20
73.1543224403
 30
0.0
 10
38.0292005795
 20
73.0468117458
 30
0.0
 10
38.0807940153
 20
72.8310281989
 30
0.0
 10
38.2051234027
 20
72.5163170548
 30
0.0
 10
38.3760525921
 20
72.2094585119
 30
0.0
 10
38.5920727335
 20
71.9128019156
 30
0.0
 10
38.851393924
 20
71.6284003901
 30
0.0
 10
39.1520663046
 20
71.3582597184
 30
0.0
 10
39.4917657977
 20
71.1043503315
 30
0.0
 10
39.7370171982
 20
70.9505259038
 30
0.0
 10
39.8651201175
 20
70.876567322
 30
0.0
  0
SPLINE
  5
279
100
AcDbEntity
  8
0
100
AcDbSpline
 62
7
  6
BYLAYER
 70
0
 71
3
 72
15
 73
11
 74
0
 42
0.0000001
 43
0.0000001
 44
0.0000000001
 40
0.0
 40
0.0
 40
0.0
 40
0.0
 40
0.1077465244
 40
0.218603082
 40
0.3338049278
 40
0.4543329772
 40
0.5808851882
 40
0.713910482
 40
0.8536489915
 40
1.0
 40
1.0
 40
1.0
 40
1.0
 10
37.9341363029
 20
73.6358803747
 30
0.0
 10
37.9516955542
 20
73.5270629928
 30
0.0
 10
38.0039160578
 20
73.3086568078
 30
0.0
 10
38.1297565473
 20
72.9901206574
 30
0.0
 10
38.3027632139
 20
72.6795325489
 30
0.0
 10
38.5214088689
 20
72.3792703816
 30
0.0
 10
38.783881855
 20
72.0914122336
 30
0.0
 10
39.0882086145
 20
71.8179882662
 30
0.0
 10
39.4320368228
 20
71.5609928589
 30
0.0
 10
39.6802690144
 20
71.4052988456
 30
0.0
 10
39.8099288994
 20
71.3304413696
 30
0.0
  0
SPLINE
  5
27A
100
AcDbEntity
  8
0
100
AcDbSpline
 62
7
  6
BYLAYER
 70
0
 71
3
 72
25
 73
21
 74
0
 42
0.0000001
 43
0.0000001
 44
0.0000000001
 40
0.0
 40
0.0
 40
0.0
 40
0.0
 40
0.0213696411
 40
0.0432044533
 40
0.0656763047
 40
0.0889316398
 40
0.1381809228
 40
0.1916009716
 40
0.249358521
 40
0.3112766149
 40
0.3769109195
 40
0.4456152331
 40
0.5165963751
 40
0.5889613946
 40
0.6617599432
 40
0.7340242219
 40
0.8048078336
 40
0.873226682
 40
0.9384994042
 40
1.0
 40
1.0
 40
1.0
 40
1.0
 10
50.8780660408
 20
73.6358806619
 30
0.0
 10
50.8637432715
 20
73.547138199
 30
0.0
 10
50.8238406527
 20
73.369313011
 30
0.0
 10
50.7321511609
 20
73.108109742
 30
0.0
 10
50.6087376068
 20
72.8514798202
 30
0.0
 10
50.3988432672
 20
72.5108258643
 30
0.0
 10
50.0557867195
 20
72.1030868238
 30
0.0
 10
49.5410854197
 20
71.6629291754
 30
0.0
 10
48.9258337163
 20
71.2697384408
 30
0.0
 10
48.2221091647
 20
70.9307474723
 30
0.0
 10
47.4435195462
 20
70.6521938635
 30
0.0
 10
46.6052372874
 20
70.4394124537
 30
0.0
 10
45.7236719936
 20
70.2965253182
 30
0.0
 10
44.816150129
 20
70.226331918
 30
0.0
 10
43.9005469119
 20
70.2302115335
 30
0.0
 10
42.9949053112
 20
70.3080911492
 30
0.0
 10
42.1170706012
 20
70.4584295215
 30
0.0
 10
41.2842507123
 20
70.6783151342
 30
0.0
 10
40.5128908044
 20
70.9633937995
 30
0.0
 10
40.0339715549
 20
71.2010932083
 30
0.0
 10
39.8099288994
 20
71.3304413696
 30
0.0
  0
SPLINE
  5
27B
100
AcDbEntity
  8
0
100
AcDbSpline
 62
7
  6
BYLAYER
 70
0
 71
3
 72
16
 73
12
 74
0
 42
0.0000001
 43
0.0000001
 44
0.0000000001
 40
0.0
 40
0.0
 40
0.0
 40
0.0
 40
0.1199891428
 40
0.2508362304
 40
0.3882025626
 40
0.5268938206
 40
0.6615650911
 40
0.7873592232
 40
0.8457904981
 40
0.9007880364
 40
1.0
 40
1.0
 40
1.0
 40
1.0
 10
45.394591905
 20
64.5992742542
 30
0.0
 10
45.3104286539
 20
64.5506828685
 30
0.0
 10
45.1232162022
 20
64.4681763232
 30
0.0
 10
44.8173745099
 20
64.3905569388
 30
0.0
 10
44.4884441637
 20
64.3565577727
 30
0.0
 10
44.1549182157
 20
64.3681851808
 30
0.0
 10
43.8355055565
 20
64.424747051
 30
0.0
 10
43.589832637
 20
64.5087663059
 30
0.0
 10
43.4168905535
 20
64.5969259963
 30
0.0
 10
43.2723523761
 20
64.6907484386
 30
0.0
 10
43.1791858255
 20
64.7769601515
 30
0.0
 10
43.1299744172
 20
64.8404831835
 30
0.0
  0
SPLINE
  5
27C
100
AcDbEntity
  8
0
100
AcDbSpline
 62
7
  6
BYLAYER
 70
0
 71
3
 72
25
 73
21
 74
0
 42
0.0000001
 43
0.0000001
 44
0.0000000001
 40
0.0
 40
0.0
 40
0.0
 40
0.0
 40
0.0623832239
 40
0.1287222452
 40
0.1983149034
 40
0.2702914047
 40
0.3436688435
 40
0.41740089
 40
0.4904255401
 40
0.5617122486
 40
0.630309722
 40
0.6953976182
 40
0.7563455377
 40
0.8127830829
 40
0.8646837331
 40
0.9124584544
 40
0.9351028857
 40
0.9571080477
 40
0.9786681899
 40
1.0
 40
1.0
 40
1.0
 40
1.0
 10
47.2345427419
 20
72.8451297303
 30
0.0
 10
47.090830248
 20
72.7621577785
 30
0.0
 10
46.7828535385
 20
72.6103079084
 30
0.0
 10
46.2860460889
 20
72.4302979958
 30
0.0
 10
45.7491736299
 20
72.2940048756
 30
0.0
 10
45.1837178534
 20
72.2043425459
 30
0.0
 10
44.601672863
 20
72.1631958483
 30
0.0
 10
44.0154570562
 20
72.1714442025
 30
0.0
 10
43.4375745588
 20
72.22891112
 30
0.0
 10
42.8803397701
 20
72.3343746256
 30
0.0
 10
42.3555906837
 20
72.4856054631
 30
0.0
 10
41.8744190334
 20
72.6794538122
 30
0.0
 10
41.4469388526
 20
72.9119495666
 30
0.0
 10
41.0820874694
 20
73.1785700157
 30
0.0
 10
40.7876854213
 20
73.4741525179
 30
0.0
 10
40.6033898084
 20
73.7453419974
 30
0.0
 10
40.5006944407
 20
73.9692483715
 30
0.0
 10
40.4462487564
 20
74.1372029185
 30
0.0
 10
40.4134320928
 20
74.3071205946
 30
0.0
 10
40.4061108038
 20
74.4213483341
 30
0.0
 10
40.4061081774
 20
74.4780927513
 30
0.0
  0
SPLINE
  5
27D
100
AcDbEntity
  8
0
100
AcDbSpline
 62
7
  6
BYLAYER
 70
0
 71
3
 72
11
 73
7
 74
0
 42
0.0000001
 43
0.0000001
 44
0.0000000001
 40
0.0
 40
0.0
 40
0.0
 40
0.0
 40
0.222676073
 40
0.4538955423
 40
0.710484231
 40
1.0
 40
1.0
 40
1.0
 40
1.0
 10
43.501709873
 20
77.0427941067
 30
0.0
 10
43.5017081218
 20
77.0482201924
 30
0.0
 10
43.4997072008
 20
77.0593960016
 30
0.0
 10
43.4905432084
 20
77.074468043
 30
0.0
 10
43.476128847
 20
77.0870935038
 30
0.0
 10
43.4642795034
 20
77.0933782788
 30
0.0
 10
43.4577850861
 20
77.096133799
 30
0.0
  0
SPLINE
  5
27E
100
AcDbEntity
  8
0
100
AcDbSpline
 62
7
  6
BYLAYER
 70
0
 71
3
 72
9
 73
5
 74
0
 42
0.0000001
 43
0.0000001
 44
0.0000000001
 40
0.0
 40
0.0
 40
0.0
 40
0.0
 40
0.4960140811
 40
1.0
 40
1.0
 40
1.0
 40
1.0
 10
46.9064749111
 20
76.6008768521
 30
0.0
 10
46.654455208
 20
76.6743719566
 30
0.0
 10
46.1379165445
 20
76.7948064943
 30
0.0
 10
45.6117063619
 20
76.8605596681
 30
0.0
 10
45.3456941808
 20
76.8802058471
 30
0.0
  0
SPLINE
  5
27F
100
AcDbEntity
  8
0
100
AcDbSpline
 62
7
  6
BYLAYER
 70
0
 71
3
 72
11
 73
7
 74
0
 42
0.0000001
 43
0.0000001
 44
0.0000000001
 40
0.0
 40
0.0
 40
0.0
 40
0.0
 40
0.2251065441
 40
0.4648916266
 40
0.7226274044
 40
1.0
 40
1.0
 40
1.0
 40
1.0
 10
47.4571438473
 20
77.3010626102
 30
0.0
 10
47.3038239713
 20
77.3352731815
 30
0.0
 10
46.9792237859
 20
77.373123347
 30
0.0
 10
46.4737689475
 20
77.3402881175
 30
0.0
 10
45.944357349
 20
77.2212262763
 30
0.0
 10
45.5933035144
 20
77.0906506249
 30
0.0
 10
45.4159575025
 20
77.0130914344
 30
0.0
  0
SPLINE
  5
280
100
AcDbEntity
  8
0
100
AcDbSpline
 62
7
  6
BYLAYER
 70
0
 71
3
 72
9
 73
5
 74
0
 42
0.0000001
 43
0.0000001
 44
0.0000000001
 40
0.0
 40
0.0
 40
0.0
 40
0.0
 40
0.2384657149
 40
1.0
 40
1.0
 40
1.0
 40
1.0
 10
46.2434480325
 20
76.0451128772
 30
0.0
 10
46.2213291543
 20
76.0246224546
 30
0.0
 10
46.1258125108
 20
75.9416877144
 30
0.0
 10
46.0203540672
 20
75.8705352699
 30
0.0
 10
45.9369665304
 20
75.8223917405
 30
0.0
  0
SPLINE
  5
281
100
AcDbEntity
  8
0
100
AcDbSpline
 62
7
  6
BYLAYER
 70
0
 71
3
 72
9
 73
5
 74
0
 42
0.0000001
 43
0.0000001
 44
0.0000000001
 40
0.0
 40
0.0
 40
0.0
 40
0.0
 40
0.517415267
 40
1.0
 40
1.0
 40
1.0
 40
1.0
 10
42.70929584
 20
77.9766032534
 30
0.0
 10
42.5056021823
 20
77.921514214
 30
0.0
 10
42.1173742705
 20
77.7933022124
 30
0.0
 10
41.7481051323
 20
77.6166806856
 30
0.0
 10
41.5776649407
 20
77.5182775825
 30
0.0
  0
SPLINE
  5
282
100
AcDbEntity
  8
0
100
AcDbSpline
 62
7
  6
BYLAYER
 70
0
 71
3
 72
14
 73
10
 74
0
 42
0.0000001
 43
0.0000001
 44
0.0000000001
 40
0.0
 40
0.0
 40
0.0
 40
0.0
 40
0.1109715517
 40
0.2235526791
 40
0.3392399792
 40
0.4593271654
 40
0.5848505108
 40
0.7165685985
 40
1.0
 40
1.0
 40
1.0
 40
1.0
 10
48.4061034963
 20
75.8853145644
 30
0.0
 10
48.4061037072
 20
75.9515298103
 30
0.0
 10
48.3960923797
 20
76.0851279455
 30
0.0
 10
48.351312691
 20
76.2832213034
 30
0.0
 10
48.2771923971
 20
76.4781210496
 30
0.0
 10
48.174437432
 20
76.6682860079
 30
0.0
 10
48.0439193335
 20
76.8523825092
 30
0.0
 10
47.8291563666
 20
77.0937761665
 30
0.0
 10
47.6368077071
 20
77.2527858464
 30
0.0
 10
47.4985000631
 20
77.3501125231
 30
0.0
  0
SPLINE
  5
283
100
AcDbEntity
  8
0
100
AcDbSpline
 62
7
  6
BYLAYER
 70
0
 71
3
 72
11
 73
7
 74
0
 42
0.0000001
 43
0.0000001
 44
0.0000000001
 40
0.0
 40
0.0
 40
0.0
 40
0.0
 40
0.2315195206
 40
0.4761200694
 40
0.7327651976
 40
1.0
 40
1.0
 40
1.0
 40
1.0
 10
47.4985000631
 20
77.3501125231
 30
0.0
 10
47.4013916999
 20
77.4184473888
 30
0.0
 10
47.1938638924
 20
77.5480797263
 30
0.0
 10
46.8572674761
 20
77.7163080375
 30
0.0
 10
46.4905475632
 20
77.8619192401
 30
0.0
 10
46.2335471081
 20
77.9413158953
 30
0.0
 10
46.1012296825
 20
77.9770579278
 30
0.0
  0
SPLINE
  5
284
100
AcDbEntity
  8
0
100
AcDbSpline
 62
7
  6
BYLAYER
 70
0
 71
3
 72
15
 73
11
 74
0
 42
0.0000001
 43
0.0000001
 44
0.0000000001
 40
0.0
 40
0.0
 40
0.0
 40
0.0
 40
0.1080119452
 40
0.2180596203
 40
0.3319964562
 40
0.4513567907
 40
0.5772739753
 40
0.7104898865
 40
0.8514199359
 40
1.0
 40
1.0
 40
1.0
 40
1.0
 10
48.4060995052
 20
74.4780927454
 30
0.0
 10
48.4061030101
 20
74.4023682423
 30
0.0
 10
48.392940977
 20
74.2491855243
 30
0.0
 10
48.334258752
 20
74.0229256341
 30
0.0
 10
48.2373676592
 20
73.8015409621
 30
0.0
 10
48.1035113955
 20
73.5872782341
 30
0.0
 10
47.9342160474
 20
73.3820631891
 30
0.0
 10
47.7311825461
 20
73.1877227871
 30
0.0
 10
47.4964483945
 20
73.0060435254
 30
0.0
 10
47.3247531125
 20
72.8972124011
 30
0.0
 10
47.2345427419
 20
72.8451297303
 30
0.0
  0
SPLINE
  5
285
100
AcDbEntity
  8
0
100
AcDbSpline
 62
7
  6
BYLAYER
 70
0
 71
3
 72
9
 73
5
 74
0
 42
0.0000001
 43
0.0000001
 44
0.0000000001
 40
0.0
 40
0.0
 40
0.0
 40
0.0
 40
0.4824654409
 40
1.0
 40
1.0
 40
1.0
 40
1.0
 10
44.6621738067
 20
76.4007953776
 30
0.0
 10
44.6447325432
 20
76.4135341944
 30
0.0
 10
44.6025490461
 20
76.4318720799
 30
0.0
 10
44.5570565848
 20
76.4353174671
 30
0.0
 10
44.5339759377
 20
76.4333082122
 30
0.0
  0
SPLINE
  5
286
100
AcDbEntity
  8
0
100
AcDbSpline
 62
7
  6
BYLAYER
 70
0
 71
3
 72
9
 73
5
 74
0
 42
0.0000001
 43
0.0000001
 44
0.0000000001
 40
0.0
 40
0.0
 40
0.0
 40
0.0
 40
0.2567513776
 40
1.0
 40
1.0
 40
1.0
 40
1.0
 10
45.5511992428
 20
75.6454452378
 30
0.0
 10
45.4796683048
 20
75.7151637222
 30
0.0
 10
45.1966249075
 20
75.9820767789
 30
0.0
 10
44.8956768049
 20
76.2302485639
 30
0.0
 10
44.6621738067
 20
76.4007953776
 30
0.0
  0
SPLINE
  5
287
100
AcDbEntity
  8
0
100
AcDbSpline
 62
7
  6
BYLAYER
 70
0
 71
3
 72
9
 73
5
 74
0
 42
0.0000001
 43
0.0000001
 44
0.0000000001
 40
0.0
 40
0.0
 40
0.0
 40
0.0
 40
0.2406171261
 40
1.0
 40
1.0
 40
1.0
 40
1.0
 10
45.9369665304
 20
75.8223917405
 30
0.0
 10
45.9074643121
 20
75.8053587285
 30
0.0
 10
45.7830869993
 20
75.7376451326
 30
0.0
 10
45.6523618646
 20
75.6818456787
 30
0.0
 10
45.5511992428
 20
75.6454452378
 30
0.0
  0
SPLINE
  5
288
100
AcDbEntity
  8
0
100
AcDbSpline
 62
7
  6
BYLAYER
 70
0
 71
3
 72
15
 73
11
 74
0
 42
0.0000001
 43
0.0000001
 44
0.0000000001
 40
0.0
 40
0.0
 40
0.0
 40
0.0
 40
0.1486072722
 40
0.2895005166
 40
0.4227239227
 40
0.5486437433
 40
0.6680015967
 40
0.7819389474
 40
0.8919876691
 40
1.0
 40
1.0
 40
1.0
 40
1.0
 10
41.5776649407
 20
77.5182775825
 30
0.0
 10
41.4874378994
 20
77.4661852869
 30
0.0
 10
41.3157402035
 20
77.3573689602
 30
0.0
 10
41.0810201228
 20
77.1756727283
 30
0.0
 10
40.8779974717
 20
76.9813488171
 30
0.0
 10
40.7086896267
 20
76.7761359413
 30
0.0
 10
40.5748384921
 20
76.5618682109
 30
0.0
 10
40.4779511521
 20
76.3404834201
 30
0.0
 10
40.4192556127
 20
76.114224243
 30
0.0
 10
40.4061040959
 20
75.9610394651
 30
0.0
 10
40.4061041737
 20
75.8853145644
 30
0.0
  0
SPLINE
  5
289
100
AcDbEntity
  8
0
100
AcDbSpline
 62
7
  6
BYLAYER
 70
0
 71
3
 72
9
 73
5
 74
0
 42
0.0000001
 43
0.0000001
 44
0.0000000001
 40
0.0
 40
0.0
 40
0.0
 40
0.0
 40
0.261010631
 40
1.0
 40
1.0
 40
1.0
 40
1.0
 10
43.4577850861
 20
77.096133799
 30
0.0
 10
43.3832576599
 20
77.1277550845
 30
0.0
 10
43.0948630561
 20
77.2418793324
 30
0.0
 10
42.7943478201
 20
77.3267099054
 30
0.0
 10
42.56875965
 20
77.3673185855
 30
0.0
  0
SPLINE
  5
28A
100
AcDbEntity
  8
0
100
AcDbSpline
 62
7
  6
BYLAYER
 70
0
 71
3
 72
9
 73
5
 74
0
 42
0.0000001
 43
0.0000001
 44
0.0000000001
 40
0.0
 40
0.0
 40
0.0
 40
0.0
 40
0.5038354593
 40
1.0
 40
1.0
 40
1.0
 40
1.0
 10
43.3962464505
 20
76.8746937978
 30
0.0
 10
43.1422855546
 20
76.853662787
 30
0.0
 10
42.639932939
 20
76.7874108489
 30
0.0
 10
42.1466825558
 20
76.6711070122
 30
0.0
 10
41.9057672954
 20
76.6008507055
 30
0.0
  0
SPLINE
  5
28B
100
AcDbEntity
  8
0
100
AcDbSpline
 62
7
  6
BYLAYER
 70
0
 71
3
 72
11
 73
7
 74
0
 42
0.0000001
 43
0.0000001
 44
0.0000000001
 40
0.0
 40
0.0
 40
0.0
 40
0.0
 40
0.236275921
 40
0.4831404832
 40
0.7384999384
 40
1.0
 40
1.0
 40
1.0
 40
1.0
 10
44.2862566582
 20
76.3608623184
 30
0.0
 10
44.0965208964
 20
76.2249277626
 30
0.0
 10
43.7213326519
 20
75.9287861537
 30
0.0
 10
43.1872463526
 20
75.4307887128
 30
0.0
 10
42.6757157877
 20
74.8753306419
 30
0.0
 10
42.3574257605
 20
74.4754685994
 30
0.0
 10
42.2035955054
 20
74.2679431661
 30
0.0
  0
SPLINE
  5
28C
100
AcDbEntity
  8
0
100
AcDbSpline
 62
7
  6
BYLAYER
 70
0
 71
3
 72
11
 73
7
 74
0
 42
0.0000001
 43
0.0000001
 44
0.0000000001
 40
0.0
 40
0.0
 40
0.0
 40
0.0
 40
0.2058612989
 40
0.4516245451
 40
0.7205912161
 40
1.0
 40
1.0
 40
1.0
 40
1.0
 10
44.4061082311
 20
76.2342553923
 30
0.0
 10
44.4061081743
 20
76.2431081948
 30
0.0
 10
44.4022885543
 20
76.2624636772
 30
0.0
 10
44.3906224449
 20
76.2912328658
 30
0.0
 10
44.3739515565
 20
76.321126308
 30
0.0
 10
44.3606332189
 20
76.3406177267
 30
0.0
 10
44.3535045725
 20
76.3502902385
 30
0.0
  0
SPLINE
  5
28D
100
AcDbEntity
  8
0
100
AcDbSpline
 62
7
  6
BYLAYER
 70
0
 71
3
 72
10
 73
6
 74
0
 42
0.0000001
 43
0.0000001
 44
0.0000000001
 40
0.0
 40
0.0
 40
0.0
 40
0.0
 40
0.5489014815
 40
0.793396646
 40
1.0
 40
1.0
 40
1.0
 40
1.0
 10
44.4500417723
 20
76.338124497
 30
0.0
 10
44.4381999156
 20
76.3209459139
 30
0.0
 10
44.4225192385
 20
76.2948764934
 30
0.0
 10
44.4091376794
 20
76.2592210152
 30
0.0
 10
44.4061081807
 20
76.2421087233
 30
0.0
 10
44.4061082311
 20
76.2342553923
 30
0.0
  0
SPLINE
  5
28E
100
AcDbEntity
  8
0
100
AcDbSpline
 62
7
  6
BYLAYER
 70
0
 71
3
 72
9
 73
5
 74
0
 42
0.0000001
 43
0.0000001
 44
0.0000000001
 40
0.0
 40
0.0
 40
0.0
 40
0.0
 40
0.4935492133
 40
1.0
 40
1.0
 40
1.0
 40
1.0
 10
44.5339759377
 20
76.4333082122
 30
0.0
 10
44.5185071236
 20
76.419240116
 30
0.0
 10
44.4886880451
 20
76.3890343546
 30
0.0
 10
44.4622191425
 20
76.3558012212
 30
0.0
 10
44.4500417723
 20
76.3381359199
 30
0.0
  0
SPLINE
  5
28F
100
AcDbEntity
  8
0
100
AcDbSpline
 62
7
  6
BYLAYER
 70
0
 71
3
 72
9
 73
5
 74
0
 42
0.0000001
 43
0.0000001
 44
0.0000000001
 40
0.0
 40
0.0
 40
0.0
 40
0.0
 40
0.2631312763
 40
1.0
 40
1.0
 40
1.0
 40
1.0
 10
43.11984941
 20
75.3429146977
 30
0.0
 10
43.096058608
 20
75.357772463
 30
0.0
 10
43.0072192667
 20
75.416657482
 30
0.0
 10
42.924819902
 20
75.4857313372
 30
0.0
 10
42.8706846743
 20
75.5426456024
 30
0.0
  0
SPLINE
  5
290
100
AcDbEntity
  8
0
100
AcDbSpline
 62
7
  6
BYLAYER
 70
0
 71
3
 72
11
 73
7
 74
0
 42
0.0000001
 43
0.0000001
 44
0.0000000001
 40
0.0
 40
0.0
 40
0.0
 40
0.0
 40
0.2662205889
 40
0.5190067331
 40
0.7620670285
 40
1.0
 40
1.0
 40
1.0
 40
1.0
 10
42.9455085617
 20
65.0786320549
 30
0.0
 10
42.9232778111
 20
65.1073326877
 30
0.0
 10
42.8835645655
 20
65.1662612598
 30
0.0
 10
42.8391398874
 20
65.2606926313
 30
0.0
 10
42.8121549314
 20
65.3575540099
 30
0.0
 10
42.8061097122
 20
65.423295157
 30
0.0
 10
42.8061068296
 20
65.4557410392
 30
0.0
  0
SPLINE
  5
291
100
AcDbEntity
  8
0
100
AcDbSpline
 62
7
  6
BYLAYER
 70
0
 71
3
 72
9
 73
5
 74
0
 42
0.0000001
 43
0.0000001
 44
0.0000000001
 40
0.0
 40
0.0
 40
0.0
 40
0.0
 40
0.5227268264
 40
1.0
 40
1.0
 40
1.0
 40
1.0
 10
43.5959897411
 20
65.4964432707
 30
0.0
 10
43.4673169663
 20
65.5293550058
 30
0.0
 10
43.2250206355
 20
65.6090668424
 30
0.0
 10
42.9982280318
 20
65.7272341521
 30
0.0
 10
42.8971850676
 20
65.7942850086
 30
0.0
  0
SPLINE
  5
292
100
AcDbEntity
  8
0
100
AcDbSpline
 62
7
  6
BYLAYER
 70
0
 71
3
 72
9
 73
5
 74
0
 42
0.0000001
 43
0.0000001
 44
0.0000000001
 40
0.0
 40
0.0
 40
0.0
 40
0.0
 40
0.2452655916
 40
1.0
 40
1.0
 40
1.0
 40
1.0
 10
45.3104981547
 20
76.8695966372
 30
0.0
 10
45.3104985596
 20
76.8683787273
 30
0.0
 10
45.310668305
 20
76.8634138764
 30
0.0
 10
45.3115089634
 20
76.8584772851
 30
0.0
 10
45.3124675612
 20
76.8548541849
 30
0.0
  0
SPLINE
  5
293
100
AcDbEntity
  8
0
100
AcDbSpline
 62
7
  6
BYLAYER
 70
0
 71
3
 72
10
 73
6
 74
0
 42
0.0000001
 43
0.0000001
 44
0.0000000001
 40
0.0
 40
0.0
 40
0.0
 40
0.0
 40
0.2196885329
 40
0.5860763198
 40
1.0
 40
1.0
 40
1.0
 40
1.0
 10
45.3124675612
 20
76.8548541849
 30
0.0
 10
45.3137757015
 20
76.8499099599
 30
0.0
 10
45.3188926147
 20
76.8371262331
 30
0.0
 10
45.3328277722
 20
76.8181418416
 30
0.0
 10
45.3466410277
 20
76.806146549
 30
0.0
 10
45.3544225964
 20
76.800463017
 30
0.0
  0
SPLINE
  5
294
100
AcDbEntity
  8
0
100
AcDbSpline
 62
7
  6
BYLAYER
 70
0
 71
3
 72
15
 73
11
 74
0
 42
0.0000001
 43
0.0000001
 44
0.0000000001
 40
0.0
 40
0.0
 40
0.0
 40
0.0
 40
0.1153910735
 40
0.2402583718
 40
0.3716806092
 40
0.5060785817
 40
0.6396194174
 40
0.7685418848
 40
0.8895093371
 40
1.0
 40
1.0
 40
1.0
 40
1.0
 10
45.5374794015
 20
64.8025558318
 30
0.0
 10
45.4552749937
 20
64.7550953781
 30
0.0
 10
45.2747177437
 20
64.6721639316
 30
0.0
 10
44.9803041396
 20
64.5865248426
 30
0.0
 10
44.6618624853
 20
64.5372343037
 30
0.0
 10
44.3327520189
 20
64.5264123396
 30
0.0
 10
44.0067127985
 20
64.5544715413
 30
0.0
 10
43.6973189449
 20
64.6202859832
 30
0.0
 10
43.4175204084
 20
64.7210723826
 30
0.0
 10
43.2497996998
 20
64.8137206285
 30
0.0
 10
43.1751737434
 20
64.8656051165
 30
0.0
  0
SPLINE
  5
295
100
AcDbEntity
  8
0
100
AcDbSpline
 62
7
  6
BYLAYER
 70
0
 71
3
 72
9
 73
5
 74
0
 42
0.0000001
 43
0.0000001
 44
0.0000000001
 40
0.0
 40
0.0
 40
0.0
 40
0.0
 40
0.2651139278
 40
1.0
 40
1.0
 40
1.0
 40
1.0
 10
43.1751737434
 20
64.8656051165
 30
0.0
 10
43.1523977974
 20
64.8814403346
 30
0.0
 10
43.0684546305
 20
64.9438558222
 30
0.0
 10
42.9925953105
 20
65.0178415083
 30
0.0
 10
42.9455085617
 20
65.0786320549
 30
0.0
  0
SPLINE
  5
296
100
AcDbEntity
  8
0
100
AcDbSpline
 62
7
  6
BYLAYER
 70
0
 71
3
 72
17
 73
13
 74
0
 42
0.0000001
 43
0.0000001
 44
0.0000000001
 40
0.0
 40
0.0
 40
0.0
 40
0.0
 40
0.0480953165
 40
0.0967512808
 40
0.1464967938
 40
0.1978023862
 40
0.3064395
 40
0.4249758587
 40
0.5542430175
 40
0.6939928521
 40
0.8431444919
 40
1.0
 40
1.0
 40
1.0
 40
1.0
 10
40.4061041737
 20
75.8853145644
 30
0.0
 10
40.4061042346
 20
75.8260677644
 30
0.0
 10
40.4140961362
 20
75.7067339739
 30
0.0
 10
40.4498899974
 20
75.5293624917
 30
0.0
 10
40.5092421177
 20
75.3542371451
 30
0.0
 10
40.6212569356
 20
75.1208838164
 30
0.0
 10
40.8221068115
 20
74.839356946
 30
0.0
 10
41.1416178601
 20
74.5351572136
 30
0.0
 10
41.5363433367
 20
74.2636039456
 30
0.0
 10
41.9971538119
 20
74.0304170569
 30
0.0
 10
42.5135197775
 20
73.8405594061
 30
0.0
 10
42.8795796276
 20
73.7475846382
 30
0.0
 10
43.0688751619
 20
73.7088179596
 30
0.0
  0
SPLINE
  5
297
100
AcDbEntity
  8
0
100
AcDbSpline
 62
7
  6
BYLAYER
 70
0
 71
3
 72
15
 73
11
 74
0
 42
0.0000001
 43
0.0000001
 44
0.0000000001
 40
0.0
 40
0.0
 40
0.0
 40
0.0
 40
0.1281609347
 40
0.2587506545
 40
0.390069243
 40
0.5203875692
 40
0.6480163653
 40
0.7713773326
 40
0.8890784977
 40
1.0
 40
1.0
 40
1.0
 40
1.0
 10
43.0688751619
 20
73.7088179596
 30
0.0
 10
43.2481931407
 20
73.6720946292
 30
0.0
 10
43.6136836648
 20
73.6139878293
 30
0.0
 10
44.1698133219
 20
73.5723932557
 30
0.0
 10
44.7306013754
 20
73.5759585762
 30
0.0
 10
45.285043538
 20
73.6246259238
 30
0.0
 10
45.8223310684
 20
73.717440339
 30
0.0
 10
46.3320279553
 20
73.8526185727
 30
0.0
 10
46.8041588219
 20
74.0275126137
 30
0.0
 10
47.0973482395
 20
74.1731427363
 30
0.0
 10
47.2345427419
 20
74.2523515463
 30
0.0
  0
SPLINE
  5
298
100
AcDbEntity
  8
0
100
AcDbSpline
 62
7
  6
BYLAYER
 70
0
 71
3
 72
9
 73
5
 74
0
 42
0.0000001
 43
0.0000001
 44
0.0000000001
 40
0.0
 40
0.0
 40
0.0
 40
0.0
 40
0.2384656722
 40
1.0
 40
1.0
 40
1.0
 40
1.0
 10
42.56875965
 20
77.3673185855
 30
0.0
 10
42.5908785243
 20
77.3878090044
 30
0.0
 10
42.6863951657
 20
77.4707437471
 30
0.0
 10
42.7918536107
 20
77.5418961901
 30
0.0
 10
42.8752411521
 20
77.5900397223
 30
0.0
  0
SPLINE
  5
299
100
AcDbEntity
  8
0
100
AcDbSpline
 62
7
  6
BYLAYER
 70
0
 71
3
 72
11
 73
7
 74
0
 42
0.0000001
 43
0.0000001
 44
0.0000000001
 40
0.0
 40
0.0
 40
0.0
 40
0.0
 40
0.2616063105
 40
0.516878408
 40
0.763638827
 40
1.0
 40
1.0
 40
1.0
 40
1.0
 10
41.3550638352
 20
74.7578320716
 30
0.0
 10
41.5032694953
 20
74.9684137499
 30
0.0
 10
41.8113879217
 20
75.3739798223
 30
0.0
 10
42.3109467687
 20
75.9366378179
 30
0.0
 10
42.8364331993
 20
76.4399285093
 30
0.0
 10
43.2078789178
 20
76.73814763
 30
0.0
 10
43.3962501758
 20
76.874696219
 30
0.0
  0
SPLINE
  5
29A
100
AcDbEntity
  8
0
100
AcDbSpline
 62
7
  6
BYLAYER
 70
0
 71
3
 72
9
 73
5
 74
0
 42
0.0000001
 43
0.0000001
 44
0.0000000001
 40
0.0
 40
0.0
 40
0.0
 40
0.0
 40
0.5199601603
 40
1.0
 40
1.0
 40
1.0
 40
1.0
 10
42.2035955054
 20
74.2679431661
 30
0.0
 10
42.0464677719
 20
74.3334298589
 30
0.0
 10
41.7511311814
 20
74.4768566381
 30
0.0
 10
41.4777987249
 20
74.6596738836
 30
0.0
 10
41.3550638352
 20
74.7578320716
 30
0.0
  0
SPLINE
  5
29B
100
AcDbEntity
  8
0
100
AcDbSpline
 62
7
  6
BYLAYER
 70
0
 71
3
 72
11
 73
7
 74
0
 42
0.0000001
 43
0.0000001
 44
0.0000000001
 40
0.0
 40
0.0
 40
0.0
 40
0.0
 40
0.2895214144
 40
0.5491683981
 40
0.7823256153
 40
1.0
 40
1.0
 40
1.0
 40
1.0
 10
43.4577872183
 20
75.881607391
 30
0.0
 10
43.4643647011
 20
75.8854048798
 30
0.0
 10
43.4763012309
 20
75.8936377134
 30
0.0
 10
43.4905836163
 20
75.9086284359
 30
0.0
 10
43.499610565
 20
75.9252273669
 30
0.0
 10
43.50171728
 20
75.93713325
 30
0.0
 10
43.5017173624
 20
75.9428434994
 30
0.0
  0
SPLINE
  5
29C
100
AcDbEntity
  8
0
100
AcDbSpline
 62
7
  6
BYLAYER
 70
0
 71
3
 72
13
 73
9
 74
0
 42
0.0000001
 43
0.0000001
 44
0.0000000001
 40
0.0
 40
0.0
 40
0.0
 40
0.0
 40
0.3048643974
 40
0.4347512935
 40
0.5505210883
 40
0.6560444938
 40
0.7591944744
 40
1.0
 40
1.0
 40
1.0
 40
1.0
 10
44.3621659102
 20
77.4331315776
 30
0.0
 10
44.3677553405
 20
77.4314772588
 30
0.0
 10
44.3759616938
 20
77.4296600723
 30
0.0
 10
44.3865300124
 20
77.4296058429
 30
0.0
 10
44.3931813587
 20
77.4308900852
 30
0.0
 10
44.3988204586
 20
77.4337141967
 30
0.0
 10
44.404836746
 20
77.4401221278
 30
0.0
 10
44.4060994893
 20
77.447131139
 30
0.0
 10
44.4060994515
 20
77.4517354203
 30
0.0
  0
SPLINE
  5
29D
100
AcDbEntity
  8
0
100
AcDbSpline
 62
7
  6
BYLAYER
 70
0
 71
3
 72
10
 73
6
 74
0
 42
0.0000001
 43
0.0000001
 44
0.0000000001
 40
0.0
 40
0.0
 40
0.0
 40
0.0
 40
0.5467224331
 40
0.7873028863
 40
1.0
 40
1.0
 40
1.0
 40
1.0
 10
44.2782317448
 20
77.479480651
 30
0.0
 10
44.2923503711
 20
77.4690725201
 30
0.0
 10
44.313433351
 20
77.4549862074
 30
0.0
 10
44.3420226833
 20
77.4403701471
 30
0.0
 10
44.355622577
 20
77.4350796485
 30
0.0
 10
44.3621659102
 20
77.4331430005
 30
0.0
  0
SPLINE
  5
29E
100
AcDbEntity
  8
0
100
AcDbSpline
 62
7
  6
BYLAYER
 70
0
 71
3
 72
13
 73
9
 74
0
 42
0.0000001
 43
0.0000001
 44
0.0000000001
 40
0.0
 40
0.0
 40
0.0
 40
0.0
 40
0.2275449282
 40
0.3265090417
 40
0.4313914742
 40
0.5496223294
 40
0.6839297903
 40
1.0
 40
1.0
 40
1.0
 40
1.0
 10
44.4060994515
 20
77.4517354203
 30
0.0
 10
44.4060994929
 20
77.4466987345
 30
0.0
 10
44.4077124046
 20
77.4388484348
 30
0.0
 10
44.4151744108
 20
77.4324648394
 30
0.0
 10
44.4220058955
 20
77.4300540294
 30
0.0
 10
44.429952298
 20
77.4294283988
 30
0.0
 10
44.4425168592
 20
77.4306946541
 30
0.0
 10
44.4521438419
 20
77.4336124805
 30
0.0
 10
44.4587031101
 20
77.4360461198
 30
0.0
  0
SPLINE
  5
29F
100
AcDbEntity
  8
0
100
AcDbSpline
 62
7
  6
BYLAYER
 70
0
 71
3
 72
9
 73
5
 74
0
 42
0.0000001
 43
0.0000001
 44
0.0000000001
 40
0.0
 40
0.0
 40
0.0
 40
0.0
 40
0.2441765655
 40
1.0
 40
1.0
 40
1.0
 40
1.0
 10
45.7607396298
 20
64.9641635126
 30
0.0
 10
45.7528726957
 20
64.9569372641
 30
0.0
 10
45.7202016538
 20
64.9278377943
 30
0.0
 10
45.6857923264
 20
64.9007056817
 30
0.0
 10
45.6590466589
 20
64.8812638032
 30
0.0
  0
SPLINE
  5
2A0
100
AcDbEntity
  8
0
100
AcDbSpline
 62
7
  6
BYLAYER
 70
0
 71
3
 72
9
 73
5
 74
0
 42
0.0000001
 43
0.0000001
 44
0.0000000001
 40
0.0
 40
0.0
 40
0.0
 40
0.0
 40
0.2445503783
 40
1.0
 40
1.0
 40
1.0
 40
1.0
 10
45.6590466589
 20
64.8812638032
 30
0.0
 10
45.6494950444
 20
64.8743205728
 30
0.0
 10
45.6100400773
 20
64.8464773442
 30
0.0
 10
45.5690705141
 20
64.8207948603
 30
0.0
 10
45.5374794015
 20
64.8025558318
 30
0.0
  0
SPLINE
  5
2A1
100
AcDbEntity
  8
0
100
AcDbSpline
 62
7
  6
BYLAYER
 70
0
 71
3
 72
11
 73
7
 74
0
 42
0.0000001
 43
0.0000001
 44
0.0000000001
 40
0.0
 40
0.0
 40
0.0
 40
0.0
 40
0.2516984303
 40
0.5141439987
 40
0.7690999252
 40
1.0
 40
1.0
 40
1.0
 40
1.0
 10
44.4817045703
 20
76.5629881663
 30
0.0
 10
44.4964838859
 20
76.5581145822
 30
0.0
 10
44.5278720755
 20
76.5516279542
 30
0.0
 10
44.5756724568
 20
76.5508428863
 30
0.0
 10
44.6215416243
 20
76.5586203578
 30
0.0
 10
44.6498023379
 20
76.5698135331
 30
0.0
 10
44.6621659102
 20
76.5769516023
 30
0.0
  0
SPLINE
  5
2A2
100
AcDbEntity
  8
0
100
AcDbSpline
 62
7
  6
BYLAYER
 70
0
 71
3
 72
9
 73
5
 74
0
 42
0.0000001
 43
0.0000001
 44
0.0000000001
 40
0.0
 40
0.0
 40
0.0
 40
0.0
 40
0.5199667422
 40
1.0
 40
1.0
 40
1.0
 40
1.0
 10
46.6086121771
 20
77.7909515157
 30
0.0
 10
46.7657419
 20
77.7254639938
 30
0.0
 10
47.0610784274
 20
77.5820369869
 30
0.0
 10
47.3344106402
 20
77.3992194525
 30
0.0
 10
47.4571438473
 20
77.3010626102
 30
0.0
  0
SPLINE
  5
2A3
100
AcDbEntity
  8
0
100
AcDbSpline
 62
7
  6
BYLAYER
 70
0
 71
3
 72
11
 73
7
 74
0
 42
0.0000001
 43
0.0000001
 44
0.0000000001
 40
0.0
 40
0.0
 40
0.0
 40
0.0
 40
0.2741128435
 40
0.5306169674
 40
0.7714565757
 40
1.0
 40
1.0
 40
1.0
 40
1.0
 10
44.52595107
 20
77.5269255545
 30
0.0
 10
44.7049466892
 20
77.6040319413
 30
0.0
 10
45.0607992705
 20
77.7330223737
 30
0.0
 10
45.5994162984
 20
77.8468628727
 30
0.0
 10
46.1172484187
 20
77.872270198
 30
0.0
 10
46.4504552243
 20
77.8282548726
 30
0.0
 10
46.6086121771
 20
77.7909515157
 30
0.0
  0
SPLINE
  5
2A4
100
AcDbEntity
  8
0
100
AcDbSpline
 62
7
  6
BYLAYER
 70
0
 71
3
 72
11
 73
7
 74
0
 42
0.0000001
 43
0.0000001
 44
0.0000000001
 40
0.0
 40
0.0
 40
0.0
 40
0.0
 40
0.1896712284
 40
0.4198597283
 40
0.6901957586
 40
1.0
 40
1.0
 40
1.0
 40
1.0
 10
44.4060749258
 20
78.0444511244
 30
0.0
 10
44.4173356248
 20
78.0127730486
 30
0.0
 10
44.4390891052
 20
77.9415290117
 30
0.0
 10
44.4687615646
 20
77.8228150153
 30
0.0
 10
44.4983530584
 20
77.6822328717
 30
0.0
 10
44.5166471189
 20
77.5810302879
 30
0.0
 10
44.5259061855
 20
77.5269024491
 30
0.0
  0
SPLINE
  5
2A5
100
AcDbEntity
  8
0
100
AcDbSpline
 62
7
  6
BYLAYER
 70
0
 71
3
 72
11
 73
7
 74
0
 42
0.0000001
 43
0.0000001
 44
0.0000000001
 40
0.0
 40
0.0
 40
0.0
 40
0.0
 40
0.3123460303
 40
0.5836086922
 40
0.8129717717
 40
1.0
 40
1.0
 40
1.0
 40
1.0
 10
44.2782217006
 20
77.4795195231
 30
0.0
 10
44.2880596253
 20
77.5390795932
 30
0.0
 10
44.3075718801
 20
77.6501851658
 30
0.0
 10
44.3391252007
 20
77.8041394301
 30
0.0
 10
44.3706979779
 20
77.9332661853
 30
0.0
 10
44.393970028
 20
78.0103912893
 30
0.0
 10
44.4060749258
 20
78.0444511244
 30
0.0
  0
SPLINE
  5
2A6
100
AcDbEntity
  8
0
100
AcDbSpline
 62
7
  6
BYLAYER
 70
0
 71
3
 72
10
 73
6
 74
0
 42
0.0000001
 43
0.0000001
 44
0.0000000001
 40
0.0
 40
0.0
 40
0.0
 40
0.0
 40
0.2207301706
 40
0.4679123583
 40
1.0
 40
1.0
 40
1.0
 40
1.0
 10
44.1500338759
 20
77.4958014384
 30
0.0
 10
44.1588542536
 20
77.4920590352
 30
0.0
 10
44.1782887644
 20
77.4858304764
 30
0.0
 10
44.2210531075
 20
77.4780311856
 30
0.0
 10
44.2552182235
 20
77.4775198124
 30
0.0
 10
44.2782317448
 20
77.479480651
 30
0.0
  0
SPLINE
  5
2A7
100
AcDbEntity
  8
0
100
AcDbSpline
 62
7
  6
BYLAYER
 70
0
 71
3
 72
9
 73
5
 74
0
 42
0.0000001
 43
0.0000001
 44
0.0000000001
 40
0.0
 40
0.0
 40
0.0
 40
0.0
 40
0.2395219914
 40
1.0
 40
1.0
 40
1.0
 40
1.0
 10
43.2610084398
 20
77.7669862249
 30
0.0
 10
43.3341311861
 20
77.7538232199
 30
0.0
 10
43.6376591575
 20
77.6892048873
 30
0.0
 10
43.9328770144
 20
77.5879390509
 30
0.0
 10
44.1500338759
 20
77.4958014384
 30
0.0
  0
SPLINE
  5
2A8
100
AcDbEntity
  8
0
100
AcDbSpline
 62
7
  6
BYLAYER
 70
0
 71
3
 72
9
 73
5
 74
0
 42
0.0000001
 43
0.0000001
 44
0.0000000001
 40
0.0
 40
0.0
 40
0.0
 40
0.0
 40
0.2406171692
 40
1.0
 40
1.0
 40
1.0
 40
1.0
 10
42.8752411521
 20
77.5900397223
 30
0.0
 10
42.9047433757
 20
77.6070727373
 30
0.0
 10
43.0291206898
 20
77.6747863308
 30
0.0
 10
43.1598458237
 20
77.7305857861
 30
0.0
 10
43.2610084398
 20
77.7669862249
 30
0.0
  0
SPLINE
  5
2A9
100
AcDbEntity
  8
0
100
AcDbSpline
 62
7
  6
BYLAYER
 70
0
 71
3
 72
9
 73
5
 74
0
 42
0.0000001
 43
0.0000001
 44
0.0000000001
 40
0.0
 40
0.0
 40
0.0
 40
0.0
 40
0.2515603889
 40
1.0
 40
1.0
 40
1.0
 40
1.0
 10
43.4577859693
 20
76.9109910042
 30
0.0
 10
43.4638429949
 20
76.9197774339
 30
0.0
 10
43.4852436263
 20
76.956530733
 30
0.0
 10
43.4967154075
 20
76.9986437143
 30
0.0
 10
43.5000779143
 20
77.0302160026
 30
0.0
  0
SPLINE
  5
2AA
100
AcDbEntity
  8
0
100
AcDbSpline
 62
7
  6
BYLAYER
 70
0
 71
3
 72
9
 73
5
 74
0
 42
0.0000001
 43
0.0000001
 44
0.0000000001
 40
0.0
 40
0.0
 40
0.0
 40
0.0
 40
0.2508370056
 40
1.0
 40
1.0
 40
1.0
 40
1.0
 10
43.4259226563
 20
76.8752781733
 30
0.0
 10
43.4289704363
 20
76.8778826133
 30
0.0
 10
43.4407384859
 20
76.8887104891
 30
0.0
 10
43.450990189
 20
76.9011428236
 30
0.0
 10
43.4577859693
 20
76.911000904
 30
0.0
  0
SPLINE
  5
2AB
100
AcDbEntity
  8
0
100
AcDbSpline
 62
7
  6
BYLAYER
 70
0
 71
3
 72
16
 73
12
 74
0
 42
0.0000001
 43
0.0000001
 44
0.0000000001
 40
0.0
 40
0.0
 40
0.0
 40
0.0
 40
0.0980101139
 40
0.1518305029
 40
0.208774353
 40
0.3310961598
 40
0.4624988515
 40
0.5993206978
 40
0.7373470497
 40
0.8722502136
 40
1.0
 40
1.0
 40
1.0
 40
1.0
 10
42.9455085617
 20
65.609358626
 30
0.0
 10
42.9959207993
 20
65.5442747637
 30
0.0
 10
43.0893117578
 20
65.4549003558
 30
0.0
 10
43.2336928444
 20
65.3551969239
 30
0.0
 10
43.4051386193
 20
65.2600074053
 30
0.0
 10
43.6492765923
 20
65.1644484694
 30
0.0
 10
43.9698184745
 20
65.0902561566
 30
0.0
 10
44.3103724744
 20
65.0571729572
 30
0.0
 10
44.6553221072
 20
65.0667208103
 30
0.0
 10
44.9887655949
 20
65.1184327053
 30
0.0
 10
45.2010833684
 20
65.1817892086
 30
0.0
 10
45.3010668026
 20
65.2207450548
 30
0.0
  0
SPLINE
  5
2AC
100
AcDbEntity
  8
0
100
AcDbSpline
 62
7
  6
BYLAYER
 70
0
 71
3
 72
15
 73
11
 74
0
 42
0.0000001
 43
0.0000001
 44
0.0000000001
 40
0.0
 40
0.0
 40
0.0
 40
0.0
 40
0.1486056667
 40
0.2894981457
 40
0.4227209642
 40
0.5486408582
 40
0.6679989744
 40
0.7819367023
 40
0.8919864957
 40
1.0
 40
1.0
 40
1.0
 40
1.0
 10
47.2345427419
 20
74.2523515463
 30
0.0
 10
47.324768808
 20
74.304443279
 30
0.0
 10
47.4964651063
 20
74.4132586768
 30
0.0
 10
47.7311839003
 20
74.5949531638
 30
0.0
 10
47.9342062495
 20
74.7892760929
 30
0.0
 10
48.1035144396
 20
74.9944884289
 30
0.0
 10
48.2373667363
 20
75.2087560165
 30
0.0
 10
48.3342552954
 20
75.4301415994
 30
0.0
 10
48.3929516798
 20
75.6564025128
 30
0.0
 10
48.4061032552
 20
75.8095888414
 30
0.0
 10
48.4061034963
 20
75.8853145644
 30
0.0
  0
SPLINE
  5
2AD
100
AcDbEntity
  8
0
100
AcDbSpline
 62
7
  6
BYLAYER
 70
0
 71
3
 72
9
 73
5
 74
0
 42
0.0000001
 43
0.0000001
 44
0.0000000001
 40
0.0
 40
0.0
 40
0.0
 40
0.0
 40
0.2430914153
 40
1.0
 40
1.0
 40
1.0
 40
1.0
 10
45.3544225964
 20
76.800463017
 30
0.0
 10
45.4307948652
 20
76.744681947
 30
0.0
 10
45.7405135284
 20
76.5091506778
 30
0.0
 10
46.0325695391
 20
76.2506481234
 30
0.0
 10
46.2434480325
 20
76.0451128772
 30
0.0
  0
SPLINE
  5
2AE
100
AcDbEntity
  8
0
100
AcDbSpline
 62
7
  6
BYLAYER
 70
0
 71
3
 72
24
 73
20
 74
0
 42
0.0000001
 43
0.0000001
 44
0.0000000001
 40
0.0
 40
0.0
 40
0.0
 40
0.0
 40
0.0213337509
 40
0.0428957838
 40
0.0874739126
 40
0.1352527618
 40
0.1871576448
 40
0.2435994969
 40
0.304551803
 40
0.3696442106
 40
0.4382463943
 40
0.5095380482
 40
0.5825677918
 40
0.6563052775
 40
0.7296877822
 40
0.8016693127
 40
0.8712665318
 40
0.9376125682
 40
1.0
 40
1.0
 40
1.0
 40
1.0
 10
23.9072634645
 20
93.151395681
 30
0.0
 10
23.9072634981
 20
93.0911040027
 30
0.0
 10
23.8994597307
 20
92.9697281038
 30
0.0
 10
23.8525444088
 20
92.7264536212
 30
0.0
 10
23.7326724797
 20
92.4241290331
 30
0.0
 10
23.5018531335
 20
92.0848128551
 30
0.0
 10
23.1890165511
 20
91.7706124829
 30
0.0
 10
22.8013711362
 20
91.4873748878
 30
0.0
 10
22.3471727574
 20
91.2403379148
 30
0.0
 10
21.8359329946
 20
91.0343805466
 30
0.0
 10
21.2783922646
 20
90.8736981444
 30
0.0
 10
20.6863361247
 20
90.7616441331
 30
0.0
 10
20.0723408817
 20
90.7005841999
 30
0.0
 10
19.4494916263
 20
90.6918199542
 30
0.0
 10
18.8310732786
 20
90.7355333529
 30
0.0
 10
18.2302831803
 20
90.8307995181
 30
0.0
 10
17.6598533656
 20
90.9756025632
 30
0.0
 10
17.1319955561
 20
91.1668649555
 30
0.0
 10
16.8047655828
 20
91.3282024286
 30
0.0
 10
16.652072153
 20
91.416358027
 30
0.0
  0
SPLINE
  5
2AF
100
AcDbEntity
  8
0
100
AcDbSpline
 62
7
  6
BYLAYER
 70
0
 71
3
 72
15
 73
11
 74
0
 42
0.0000001
 43
0.0000001
 44
0.0000000001
 40
0.0
 40
0.0
 40
0.0
 40
0.0
 40
0.1080126475
 40
0.218061629
 40
0.3319995051
 40
0.4513577624
 40
0.5772778009
 40
0.710500689
 40
0.8513943272
 40
1.0
 40
1.0
 40
1.0
 40
1.0
 10
27.657263396
 20
92.5224302754
 30
0.0
 10
27.6572638949
 20
92.6738824807
 30
0.0
 10
27.6309583334
 20
92.9802567197
 30
0.0
 10
27.5135645698
 20
93.4327821391
 30
0.0
 10
27.3197841115
 20
93.8755579702
 30
0.0
 10
27.0520743706
 20
94.3040984525
 30
0.0
 10
26.7134499041
 20
94.7145260097
 30
0.0
 10
26.30739759
 20
95.1031772049
 30
0.0
 10
25.8379490955
 20
95.4665676231
 30
0.0
 10
25.494549386
 20
95.6841999893
 30
0.0
 10
25.3140941588
 20
95.7883835063
 30
0.0
  0
SPLINE
  5
2B0
100
AcDbEntity
  8
0
100
AcDbSpline
 62
7
  6
BYLAYER
 70
0
 71
3
 72
15
 73
11
 74
0
 42
0.0000001
 43
0.0000001
 44
0.0000000001
 40
0.0
 40
0.0
 40
0.0
 40
0.0
 40
0.1080119162
 40
0.2180606909
 40
0.3319972983
 40
0.4513553156
 40
0.5772764126
 40
0.7104919602
 40
0.8514099286
 40
1.0
 40
1.0
 40
1.0
 40
1.0
 10
27.6572571597
 20
88.0316669848
 30
0.0
 10
27.6572521691
 20
87.8802179202
 30
0.0
 10
27.6309645262
 20
87.5738482244
 30
0.0
 10
27.5135598135
 20
87.1213341982
 30
0.0
 10
27.3197905189
 20
86.6785650291
 30
0.0
 10
27.0520919347
 20
86.2500257664
 30
0.0
 10
26.7134780774
 20
85.8396115804
 30
0.0
 10
26.3074255985
 20
85.450934623
 30
0.0
 10
25.8379684471
 20
85.0875653818
 30
0.0
 10
25.4945742731
 20
84.8699133705
 30
0.0
 10
25.3141412623
 20
84.765740945
 30
0.0
  0
SPLINE
  5
2B1
100
AcDbEntity
  8
0
100
AcDbSpline
 62
7
  6
BYLAYER
 70
0
 71
3
 72
25
 73
21
 74
0
 42
0.0000001
 43
0.0000001
 44
0.0000000001
 40
0.0
 40
0.0
 40
0.0
 40
0.0
 40
0.0623841861
 40
0.1287216277
 40
0.1983147762
 40
0.2702911408
 40
0.3436686204
 40
0.4174004656
 40
0.4904250278
 40
0.561711832
 40
0.6303095728
 40
0.6953976637
 40
0.7563456693
 40
0.8127832499
 40
0.8646839412
 40
0.9124586172
 40
0.9351030041
 40
0.9571081016
 40
0.978668273
 40
1.0
 40
1.0
 40
1.0
 40
1.0
 10
25.3141412623
 20
84.765740945
 30
0.0
 10
25.0267117971
 20
84.5997944564
 30
0.0
 10
24.4107625801
 20
84.2960927554
 30
0.0
 10
23.4171447909
 20
83.9360827672
 30
0.0
 10
22.3434080596
 20
83.6634907696
 30
0.0
 10
21.2124932031
 20
83.4841710216
 30
0.0
 10
20.0484049564
 20
83.4018754873
 30
0.0
 10
18.8759744162
 20
83.4183729169
 30
0.0
 10
17.7202102072
 20
83.5333054362
 30
0.0
 10
16.605738823
 20
83.7442318248
 30
0.0
 10
15.5562373176
 20
84.0466932027
 30
0.0
 10
14.5938906503
 20
84.4343898723
 30
0.0
 10
13.7389282601
 20
84.899381323
 30
0.0
 10
13.009223711
 20
85.4326218977
 30
0.0
 10
12.4204204933
 20
86.0237874848
 30
0.0
 10
12.0518263142
 20
86.5661654057
 30
0.0
 10
11.8464439525
 20
87.0139806954
 30
0.0
 10
11.7375464176
 20
87.3498878195
 30
0.0
 10
11.6719223076
 20
87.6897235251
 30
0.0
 10
11.6572660229
 20
87.9181785681
 30
0.0
 10
11.6572697625
 20
88.0316669775
 30
0.0
  0
SPLINE
  5
2B2
100
AcDbEntity
  8
0
100
AcDbSpline
 62
7
  6
BYLAYER
 70
0
 71
3
 72
14
 73
10
 74
0
 42
0.0000001
 43
0.0000001
 44
0.0000000001
 40
0.0
 40
0.0
 40
0.0
 40
0.0
 40
0.2892726719
 40
0.4225387508
 40
0.5484992406
 40
0.6678955851
 40
0.7818695696
 40
0.8919533446
 40
1.0
 40
1.0
 40
1.0
 40
1.0
 10
16.652072153
 20
91.416358027
 30
0.0
 10
16.4655197542
 20
91.5240616681
 30
0.0
 10
16.204258442
 20
91.7039368098
 30
0.0
 10
15.9086745032
 20
91.9868319652
 30
0.0
 10
15.7287642441
 20
92.2048921763
 30
0.0
 10
15.5865481248
 20
92.4325490075
 30
0.0
 10
15.483602547
 20
92.6677743078
 30
0.0
 10
15.421237461
 20
92.9081767752
 30
0.0
 10
15.4072635106
 20
93.0709372294
 30
0.0
 10
15.4072634881
 20
93.151395681
 30
0.0
  0
SPLINE
  5
2B3
100
AcDbEntity
  8
0
100
AcDbSpline
 62
7
  6
BYLAYER
 70
0
 71
3
 72
15
 73
11
 74
0
 42
0.0000001
 43
0.0000001
 44
0.0000000001
 40
0.0
 40
0.0
 40
0.0
 40
0.0
 40
0.1485927741
 40
0.2895034341
 40
0.4227191729
 40
0.5486411911
 40
0.6679996052
 40
0.7819372595
 40
0.8919868062
 40
1.0
 40
1.0
 40
1.0
 40
1.0
 10
14.00038566
 20
95.7883563115
 30
0.0
 10
13.8199493063
 20
95.684181956
 30
0.0
 10
13.4765577187
 20
95.4665374959
 30
0.0
 10
13.0071086022
 20
95.1031673289
 30
0.0
 10
12.601062838
 20
94.7144963499
 30
0.0
 10
12.2624403731
 20
94.3040862096
 30
0.0
 10
11.9947381743
 20
93.8755450449
 30
0.0
 10
11.8009674478
 20
93.4327718677
 30
0.0
 10
11.6835718168
 20
92.9802527493
 30
0.0
 10
11.6572627749
 20
92.6738811826
 30
0.0
 10
11.6572634827
 20
92.5224302754
 30
0.0
  0
SPLINE
  5
2B4
100
AcDbEntity
  8
0
100
AcDbSpline
 62
7
  6
BYLAYER
 70
0
 71
3
 72
19
 73
15
 74
0
 42
0.0000001
 43
0.0000001
 44
0.0000000001
 40
0.0
 40
0.0
 40
0.0
 40
0.0
 40
0.0558504631
 40
0.1142037009
 40
0.1748206771
 40
0.2374048536
 40
0.3670148569
 40
0.4999987916
 40
0.6329829352
 40
0.7625934374
 40
0.8251779951
 40
0.8857953999
 40
0.9441490194
 40
1.0
 40
1.0
 40
1.0
 40
1.0
 10
25.3140941588
 20
95.7883835063
 30
0.0
 10
25.1245688261
 20
95.8978035328
 30
0.0
 10
24.727167774
 20
96.1048028389
 30
0.0
 10
24.0965083462
 20
96.3737015256
 30
0.0
 10
23.4233916185
 20
96.6057315912
 30
0.0
 10
22.4669435033
 20
96.8659118211
 30
0.0
 10
21.2080441864
 20
97.0833813141
 30
0.0
 10
19.6572496419
 20
97.1704308913
 30
0.0
 10
18.1064533127
 20
97.0833781641
 30
0.0
 10
16.8475502273
 20
96.8659050179
 30
0.0
 10
15.8910980358
 20
96.6057201839
 30
0.0
 10
15.21797776
 20
96.3736860329
 30
0.0
 10
14.5873148678
 20
96.1047821482
 30
0.0
 10
14.1899119598
 20
95.8977787186
 30
0.0
 10
14.00038566
 20
95.7883563115
 30
0.0
  0
SPLINE
  5
2B5
100
AcDbEntity
  8
0
100
AcDbSpline
 62
7
  6
BYLAYER
 70
0
 71
3
 72
14
 73
10
 74
0
 42
0.0000001
 43
0.0000001
 44
0.0000000001
 40
0.0
 40
0.0
 40
0.0
 40
0.0
 40
0.1073190431
 40
0.2167886216
 40
0.3303533235
 40
0.4496013067
 40
0.5756921564
 40
0.7093512242
 40
1.0
 40
1.0
 40
1.0
 40
1.0
 10
15.4072634881
 20
93.151395681
 30
0.0
 10
15.4072634649
 20
93.2344126886
 30
0.0
 10
15.4221585177
 20
93.4024681425
 30
0.0
 10
15.4885909776
 20
93.650422533
 30
0.0
 10
15.5981642997
 20
93.8926626931
 30
0.0
 10
15.7493884264
 20
94.126581687
 30
0.0
 10
15.9404825341
 20
94.3499795821
 30
0.0
 10
16.2542501301
 20
94.638871215
 30
0.0
 10
16.5306791623
 20
94.8207983383
 30
0.0
 10
16.7277381878
 20
94.9290449169
 30
0.0
  0
SPLINE
  5
2B6
100
AcDbEntity
  8
0
100
AcDbSpline
 62
7
  6
BYLAYER
 70
0
 71
3
 72
11
 73
7
 74
0
 42
0.0000001
 43
0.0000001
 44
0.0000000001
 40
0.0
 40
0.0
 40
0.0
 40
0.0
 40
0.2326888956
 40
0.4785802273
 40
0.7353033916
 40
1.0
 40
1.0
 40
1.0
 40
1.0
 10
16.7698390094
 20
94.9518587672
 30
0.0
 10
16.9178871047
 20
95.0309986787
 30
0.0
 10
17.2321818754
 20
95.175863036
 30
0.0
 10
17.7346480982
 20
95.3483449273
 30
0.0
 10
18.2731815932
 20
95.4795254516
 30
0.0
 10
18.6454310683
 20
95.5371594713
 30
0.0
 10
18.8351708021
 20
95.5587570577
 30
0.0
  0
SPLINE
  5
2B7
100
AcDbEntity
  8
0
100
AcDbSpline
 62
7
  6
BYLAYER
 70
0
 71
3
 72
11
 73
7
 74
0
 42
0.0000001
 43
0.0000001
 44
0.0000000001
 40
0.0
 40
0.0
 40
0.0
 40
0.0
 40
0.266535749
 40
0.5249152292
 40
0.7706224029
 40
1.0
 40
1.0
 40
1.0
 40
1.0
 10
20.0937105249
 20
95.5921266432
 30
0.0
 10
20.3318821379
 20
95.57793051
 30
0.0
 10
20.799927753
 20
95.5269875223
 30
0.0
 10
21.4757031848
 20
95.3821728601
 30
0.0
 10
22.0998038131
 20
95.1737951563
 30
0.0
 10
22.4846314501
 20
94.9890973536
 30
0.0
 10
22.6624547693
 20
94.886433335
 30
0.0
  0
SPLINE
  5
2B8
100
AcDbEntity
  8
0
100
AcDbSpline
 62
7
  6
BYLAYER
 70
0
 71
3
 72
9
 73
5
 74
0
 42
0.0000001
 43
0.0000001
 44
0.0000000001
 40
0.0
 40
0.0
 40
0.0
 40
0.0
 40
0.2553508454
 40
1.0
 40
1.0
 40
1.0
 40
1.0
 10
22.6624547693
 20
94.886433335
 30
0.0
 10
22.6900681331
 20
94.8704911126
 30
0.0
 10
22.7974524311
 20
94.8067657566
 30
0.0
 10
22.9017498113
 20
94.7377975113
 30
0.0
 10
22.977127363
 20
94.6833553729
 30
0.0
  0
SPLINE
  5
2B9
100
AcDbEntity
  8
0
100
AcDbSpline
 62
7
  6
BYLAYER
 70
0
 71
3
 72
13
 73
9
 74
0
 42
0.0000001
 43
0.0000001
 44
0.0000000001
 40
0.0
 40
0.0
 40
0.0
 40
0.0
 40
0.2823722725
 40
0.538954213
 40
0.6592337775
 40
0.7753059638
 40
0.8884176938
 40
1.0
 40
1.0
 40
1.0
 40
1.0
 10
22.9934563851
 20
94.6714867065
 30
0.0
 10
23.1331767701
 20
94.5692858938
 30
0.0
 10
23.3855217401
 20
94.35305783
 30
0.0
 10
23.6371283053
 20
94.0323027867
 30
0.0
 10
23.7777900396
 20
93.7640189335
 30
0.0
 10
23.8522605001
 20
93.5624400685
 30
0.0
 10
23.8972009781
 20
93.3577523565
 30
0.0
 10
23.9072634263
 20
93.2198015575
 30
0.0
 10
23.9072634645
 20
93.151395681
 30
0.0
  0
SPLINE
  5
2BA
100
AcDbEntity
  8
0
100
AcDbSpline
 62
7
  6
BYLAYER
 70
0
 71
3
 72
15
 73
11
 74
0
 42
0.0000001
 43
0.0000001
 44
0.0000000001
 40
0.0
 40
0.0
 40
0.0
 40
0.0
 40
0.1486063429
 40
0.289500113
 40
0.4227231307
 40
0.5486431928
 40
0.6680012999
 40
0.7819389638
 40
0.8919876952
 40
1.0
 40
1.0
 40
1.0
 40
1.0
 10
25.3141412623
 20
89.2565042392
 30
0.0
 10
25.4945942223
 20
89.3606881823
 30
0.0
 10
25.8379888363
 20
89.5783208927
 30
0.0
 10
26.3074295726
 20
89.9417109665
 30
0.0
 10
26.7134738114
 20
90.3303606657
 30
0.0
 10
27.0520910615
 20
90.7407852749
 30
0.0
 10
27.3197938151
 20
91.1693218704
 30
0.0
 10
27.5135689735
 20
91.6120921438
 30
0.0
 10
27.6309595997
 20
92.0646110874
 30
0.0
 10
27.6572628972
 20
92.3709805057
 30
0.0
 10
27.657263396
 20
92.5224302754
 30
0.0
  0
SPLINE
  5
2BB
100
AcDbEntity
  8
0
100
AcDbSpline
 62
7
  6
BYLAYER
 70
0
 71
3
 72
19
 73
15
 74
0
 42
0.0000001
 43
0.0000001
 44
0.0000000001
 40
0.0
 40
0.0
 40
0.0
 40
0.0
 40
0.0558465966
 40
0.1142071871
 40
0.1748219306
 40
0.2374071554
 40
0.3670180313
 40
0.5000024063
 40
0.6329864186
 40
0.7625962681
 40
0.8251807881
 40
0.8857947984
 40
0.9441541397
 40
1.0
 40
1.0
 40
1.0
 40
1.0
 10
14.0004327634
 20
89.2564770444
 30
0.0
 10
14.1899449381
 20
89.1470646146
 30
0.0
 10
14.58736286
 20
88.9400689878
 30
0.0
 10
15.2180199575
 20
88.6711525433
 30
0.0
 10
15.8911640617
 20
88.4391275072
 30
0.0
 10
16.8476079677
 20
88.1789379844
 30
0.0
 10
18.1065194511
 20
87.9614836584
 30
0.0
 10
19.657317664
 20
87.8744251522
 30
0.0
 10
21.2081111536
 20
87.9614955988
 30
0.0
 10
22.4670128717
 20
88.1789582308
 30
0.0
 10
23.4234452913
 20
88.4391532047
 30
0.0
 10
24.0965775686
 20
88.6711801193
 30
0.0
 10
24.7272232046
 20
88.9400963003
 30
0.0
 10
25.1246323751
 20
89.1470918853
 30
0.0
 10
25.3141412623
 20
89.2565042392
 30
0.0
  0
SPLINE
  5
2BC
100
AcDbEntity
  8
0
100
AcDbSpline
 62
7
  6
BYLAYER
 70
0
 71
3
 72
15
 73
11
 74
0
 42
0.0000001
 43
0.0000001
 44
0.0000000001
 40
0.0
 40
0.0
 40
0.0
 40
0.0
 40
0.1080122854
 40
0.2180611494
 40
0.3319982936
 40
0.4513564914
 40
0.5772784924
 40
0.7104944308
 40
0.8514067913
 40
1.0
 40
1.0
 40
1.0
 40
1.0
 10
11.6572634827
 20
92.5224302754
 30
0.0
 10
11.6572641905
 20
92.3709786866
 30
0.0
 10
11.6835704469
 20
92.0646052872
 30
0.0
 10
11.8009694997
 20
91.6120835384
 30
0.0
 10
11.9947429793
 20
91.1693070964
 30
0.0
 10
12.2624491329
 20
90.7407618748
 30
0.0
 10
12.601077472
 20
90.3303477126
 30
0.0
 10
13.0071324921
 20
89.9416719996
 30
0.0
 10
13.4765931659
 20
89.5782988907
 30
0.0
 10
13.8199928012
 20
89.3606517484
 30
0.0
 10
14.0004327634
 20
89.2564770444
 30
0.0
  0
SPLINE
  5
2BD
100
AcDbEntity
  8
0
100
AcDbSpline
 62
7
  6
BYLAYER
 70
0
 71
3
 72
14
 73
10
 74
0
 42
0.0000001
 43
0.0000001
 44
0.0000000001
 40
0.0
 40
0.0
 40
0.0
 40
0.0
 40
0.289269348
 40
0.4225298258
 40
0.5484745467
 40
0.6678701106
 40
0.7818326042
 40
0.8919169694
 40
1.0
 40
1.0
 40
1.0
 40
1.0
 10
35.3113715549
 20
70.1758986248
 30
0.0
 10
35.1796893648
 20
70.2519236528
 30
0.0
 10
34.9952742443
 20
70.3788908377
 30
0.0
 10
34.7866334992
 20
70.5785696914
 30
0.0
 10
34.6596552113
 20
70.7324925159
 30
0.0
 10
34.5592675067
 20
70.8931729062
 30
0.0
 10
34.4865893126
 20
71.0592012848
 30
0.0
 10
34.4425431161
 20
71.228906761
 30
0.0
 10
34.4327019245
 20
71.3438179001
 30
0.0
 10
34.432700132
 20
71.4006310738
 30
0.0
  0
SPLINE
  5
2BE
100
AcDbEntity
  8
0
100
AcDbSpline
 62
7
  6
BYLAYER
 70
0
 71
3
 72
11
 73
7
 74
0
 42
0.0000001
 43
0.0000001
 44
0.0000000001
 40
0.0
 40
0.0
 40
0.0
 40
0.0
 40
0.265556459
 40
0.5252520974
 40
0.7720202633
 40
1.0
 40
1.0
 40
1.0
 40
1.0
 10
45.1669991787
 20
65.2929219039
 30
0.0
 10
44.9586668984
 20
65.2868549755
 30
0.0
 10
44.5454552648
 20
65.2995243439
 30
0.0
 10
43.944996161
 20
65.3915141146
 30
0.0
 10
43.3897277522
 20
65.5523503524
 30
0.0
 10
43.0492362507
 20
65.7085414248
 30
0.0
 10
42.8942785694
 20
65.7980042599
 30
0.0
  0
SPLINE
  5
2BF
100
AcDbEntity
  8
0
100
AcDbSpline
 62
7
  6
BYLAYER
 70
0
 71
3
 72
9
 73
5
 74
0
 42
0.0000001
 43
0.0000001
 44
0.0000000001
 40
0.0
 40
0.0
 40
0.0
 40
0.0
 40
0.2429633326
 40
1.0
 40
1.0
 40
1.0
 40
1.0
 10
52.3964437354
 20
66.4356620703
 30
0.0
 10
52.3661043547
 20
66.4181457253
 30
0.0
 10
52.2399733988
 20
66.3482419011
 30
0.0
 10
52.1091755361
 20
66.2868566885
 30
0.0
 10
52.0084436563
 20
66.244805052
 30
0.0
  0
SPLINE
  5
2C0
100
AcDbEntity
  8
0
100
AcDbSpline
 62
7
  6
BYLAYER
 70
0
 71
3
 72
9
 73
5
 74
0
 42
0.0000001
 43
0.0000001
 44
0.0000000001
 40
0.0
 40
0.0
 40
0.0
 40
0.0
 40
0.2429322615
 40
1.0
 40
1.0
 40
1.0
 40
1.0
 10
53.9063113714
 20
69.246400794
 30
0.0
 10
53.8686192445
 20
69.1801795706
 30
0.0
 10
53.7063294712
 20
68.9116742525
 30
0.0
 10
53.5166533321
 20
68.6600322878
 30
0.0
 10
53.3617718042
 20
68.4800383318
 30
0.0
  0
SPLINE
  5
2C1
100
AcDbEntity
  8
0
100
AcDbSpline
 62
7
  6
BYLAYER
 70
0
 71
3
 72
11
 73
7
 74
0
 42
0.0000001
 43
0.0000001
 44
0.0000000001
 40
0.0
 40
0.0
 40
0.0
 40
0.0
 40
0.2374438991
 40
0.4802309348
 40
0.733241386
 40
1.0
 40
1.0
 40
1.0
 40
1.0
 10
53.3336785613
 20
69.2933870805
 30
0.0
 10
53.3336791208
 20
69.3597414144
 30
0.0
 10
53.3210253335
 20
69.4942630477
 30
0.0
 10
53.2645843604
 20
69.6923274073
 30
0.0
 10
53.1716377066
 20
69.8851221608
 30
0.0
 10
53.0887747565
 20
70.0051497155
 30
0.0
 10
53.0424081923
 20
70.0635218741
 30
0.0
  0
SPLINE
  5
2C2
100
AcDbEntity
  8
0
100
AcDbSpline
 62
7
  6
BYLAYER
 70
0
 71
3
 72
15
 73
11
 74
0
 42
0.0000001
 43
0.0000001
 44
0.0000000001
 40
0.0
 40
0.0
 40
0.0
 40
0.0
 40
0.1080022987
 40
0.2180526516
 40
0.3319954415
 40
0.4513541847
 40
0.5772602148
 40
0.7104886047
 40
0.8514511831
 40
1.0
 40
1.0
 40
1.0
 40
1.0
 10
53.3336897852
 20
67.7420324752
 30
0.0
 10
53.3336902995
 20
67.6814584417
 30
0.0
 10
53.3231602456
 20
67.5589167651
 30
0.0
 10
53.2762110626
 20
67.377910678
 30
0.0
 10
53.1986981693
 20
67.2007998373
 30
0.0
 10
53.0916240045
 20
67.0293875884
 30
0.0
 10
52.9561850339
 20
66.8652189825
 30
0.0
 10
52.7937526707
 20
66.7097250486
 30
0.0
 10
52.6059441162
 20
66.5643974314
 30
0.0
 10
52.4685966655
 20
66.4773193352
 30
0.0
 10
52.3964437354
 20
66.4356620703
 30
0.0
  0
SPLINE
  5
2C3
100
AcDbEntity
  8
0
100
AcDbSpline
 62
7
  6
BYLAYER
 70
0
 71
3
 72
15
 73
11
 74
0
 42
0.0000001
 43
0.0000001
 44
0.0000000001
 40
0.0
 40
0.0
 40
0.0
 40
0.0
 40
0.1485563598
 40
0.2895106989
 40
0.4227332813
 40
0.5486401621
 40
0.6680003327
 40
0.7819378441
 40
0.89198624
 40
1.0
 40
1.0
 40
1.0
 40
1.0
 10
36.4157639471
 20
77.213257715
 30
0.0
 10
36.3436073082
 20
77.1715983088
 30
0.0
 10
36.2062577696
 20
77.0845236595
 30
0.0
 10
36.0184560624
 20
76.9391932545
 30
0.0
 10
35.8560248923
 20
76.7837081712
 30
0.0
 10
35.7205935092
 20
76.6195364296
 30
0.0
 10
35.6135080858
 20
76.4481324038
 30
0.0
 10
35.5360048255
 20
76.2710219175
 30
0.0
 10
35.4890323568
 20
76.090017686
 30
0.0
 10
35.4785296321
 20
75.967467797
 30
0.0
 10
35.4785291212
 20
75.9068872974
 30
0.0
  0
SPLINE
  5
2C4
100
AcDbEntity
  8
0
100
AcDbSpline
 62
7
  6
BYLAYER
 70
0
 71
3
 72
15
 73
11
 74
0
 42
0.0000001
 43
0.0000001
 44
0.0000000001
 40
0.0
 40
0.0
 40
0.0
 40
0.0
 40
0.1259358553
 40
0.2554836419
 40
0.3866792972
 40
0.5175391332
 40
0.6460646927
 40
0.7703704429
 40
0.8888073723
 40
1.0
 40
1.0
 40
1.0
 40
1.0
 10
40.0124225136
 20
77.5862174271
 30
0.0
 10
39.8623280952
 20
77.6259567522
 30
0.0
 10
39.5536105073
 20
77.6912783749
 30
0.0
 10
39.0795304891
 20
77.746923413
 30
0.0
 10
38.5962984717
 20
77.7608107356
 30
0.0
 10
38.1149566327
 20
77.7326627971
 30
0.0
 10
37.6463953069
 20
77.6630780353
 30
0.0
 10
37.2011712072
 20
77.5536530918
 30
0.0
 10
36.7894352964
 20
77.4068299583
 30
0.0
 10
36.5344868211
 20
77.2818019891
 30
0.0
 10
36.4157639471
 20
77.213257715
 30
0.0
  0
SPLINE
  5
2C5
100
AcDbEntity
  8
0
100
AcDbSpline
 62
7
  6
BYLAYER
 70
0
 71
3
 72
11
 73
7
 74
0
 42
0.0000001
 43
0.0000001
 44
0.0000000001
 40
0.0
 40
0.0
 40
0.0
 40
0.0
 40
0.2217464288
 40
0.4637591089
 40
0.7242441055
 40
1.0
 40
1.0
 40
1.0
 40
1.0
 10
49.0828504305
 20
70.9290306053
 30
0.0
 10
48.9159562057
 20
70.7733491081
 30
0.0
 10
48.5353292297
 20
70.4808859787
 30
0.0
 10
47.8804965243
 20
70.1201459066
 30
0.0
 10
47.1333211922
 20
69.8261418152
 30
0.0
 10
46.5989851707
 20
69.6830505766
 30
0.0
 10
46.3214740379
 20
69.6235285478
 30
0.0
  0
SPLINE
  5
2C6
100
AcDbEntity
  8
0
100
AcDbSpline
 62
7
  6
BYLAYER
 70
0
 71
3
 72
15
 73
11
 74
0
 42
0.0000001
 43
0.0000001
 44
0.0000000001
 40
0.0
 40
0.0
 40
0.0
 40
0.0
 40
0.1485563598
 40
0.2895106989
 40
0.4227332813
 40
0.5486401621
 40
0.6680003327
 40
0.7819378441
 40
0.89198624
 40
1.0
 40
1.0
 40
1.0
 40
1.0
 10
52.3964437354
 20
67.9870166629
 30
0.0
 10
52.4686003743
 20
68.0286760691
 30
0.0
 10
52.605949913
 20
68.1157507185
 30
0.0
 10
52.7937516202
 20
68.2610811234
 30
0.0
 10
52.9561827903
 20
68.4165662067
 30
0.0
 10
53.0916141734
 20
68.5807379483
 30
0.0
 10
53.1986995967
 20
68.7521419741
 30
0.0
 10
53.276202857
 20
68.9292524604
 30
0.0
 10
53.3231753258
 20
69.1102566919
 30
0.0
 10
53.3336780505
 20
69.2328065809
 30
0.0
 10
53.3336785613
 20
69.2933870805
 30
0.0
  0
SPLINE
  5
2C7
100
AcDbEntity
  8
0
100
AcDbSpline
 62
7
  6
BYLAYER
 70
0
 71
3
 72
12
 73
8
 74
0
 42
0.0000001
 43
0.0000001
 44
0.0000000001
 40
0.0
 40
0.0
 40
0.0
 40
0.0
 40
0.2650596904
 40
0.524961008
 40
0.7719853394
 40
0.8887414414
 40
1.0
 40
1.0
 40
1.0
 40
1.0
 10
49.8776662947
 20
67.4518167424
 30
0.0
 10
50.1077073574
 20
67.4411616261
 30
0.0
 10
50.5651569974
 20
67.4484508326
 30
0.0
 10
51.2308628843
 20
67.5428276923
 30
0.0
 10
51.7545030172
 20
67.690193724
 30
0.0
 10
52.1363349928
 20
67.8478263308
 30
0.0
 10
52.3127309575
 20
67.9386853565
 30
0.0
 10
52.3964437354
 20
67.9870166629
 30
0.0
  0
SPLINE
  5
2C8
100
AcDbEntity
  8
0
100
AcDbSpline
 62
7
  6
BYLAYER
 70
0
 71
3
 72
9
 73
5
 74
0
 42
0.0000001
 43
0.0000001
 44
0.0000000001
 40
0.0
 40
0.0
 40
0.0
 40
0.0
 40
0.2560681823
 40
1.0
 40
1.0
 40
1.0
 40
1.0
 10
32.3295499813
 20
72.7139175842
 30
0.0
 10
32.1869164211
 20
72.7962652457
 30
0.0
 10
31.6341562065
 20
73.1251247198
 30
0.0
 10
31.0988764425
 20
73.4836570803
 30
0.0
 10
30.7140026268
 20
73.7679417003
 30
0.0
  0
SPLINE
  5
2C9
100
AcDbEntity
  8
0
100
AcDbSpline
 62
7
  6
BYLAYER
 70
0
 71
3
 72
15
 73
11
 74
0
 42
0.0000001
 43
0.0000001
 44
0.0000000001
 40
0.0
 40
0.0
 40
0.0
 40
0.0
 40
0.1141464977
 40
0.2373352781
 40
0.3669759338
 40
0.4999994786
 40
0.633023096
 40
0.7626639634
 40
0.8858530776
 40
1.0
 40
1.0
 40
1.0
 40
1.0
 10
85.4184826196
 20
46.1461089804
 30
0.0
 10
85.1764652448
 20
46.0063810179
 30
0.0
 10
84.6471810907
 20
45.7599483221
 30
0.0
 10
83.7853379644
 20
45.4979440903
 30
0.0
 10
82.8522115631
 20
45.3367675701
 30
0.0
 10
81.8829546762
 20
45.2823204779
 30
0.0
 10
80.9136970144
 20
45.3367629698
 30
0.0
 10
79.980568324
 20
45.4979350594
 30
0.0
 10
79.1187214872
 20
45.7599351943
 30
0.0
 10
78.5894340907
 20
46.0063652466
 30
0.0
 10
78.3474148078
 20
46.1460919836
 30
0.0
  0
SPLINE
  5
2CA
100
AcDbEntity
  8
0
100
AcDbSpline
 62
7
  6
BYLAYER
 70
0
 71
3
 72
9
 73
5
 74
0
 42
0.0000001
 43
0.0000001
 44
0.0000000001
 40
0.0
 40
0.0
 40
0.0
 40
0.0
 40
0.2321195146
 40
1.0
 40
1.0
 40
1.0
 40
1.0
 10
81.8768054447
 20
52.9148633342
 30
0.0
 10
81.8326202482
 20
52.969945457
 30
0.0
 10
81.6285473042
 20
53.1962539638
 30
0.0
 10
81.378094304
 20
53.3776645445
 30
0.0
 10
81.1757889412
 20
53.4944629579
 30
0.0
  0
SPLINE
  5
2CB
100
AcDbEntity
  8
0
100
AcDbSpline
 62
7
  6
BYLAYER
 70
0
 71
3
 72
16
 73
12
 74
0
 42
0.0000001
 43
0.0000001
 44
0.0000000001
 40
0.0
 40
0.0
 40
0.0
 40
0.0
 40
0.1199660401
 40
0.2507973987
 40
0.3881406785
 40
0.5268118776
 40
0.6614793012
 40
0.7872884351
 40
0.8457301615
 40
0.9007473806
 40
1.0
 40
1.0
 40
1.0
 40
1.0
 10
34.5065470815
 20
80.4383527562
 30
0.0
 10
34.2959489655
 20
80.5599388845
 30
0.0
 10
33.8274913172
 20
80.7664137078
 30
0.0
 10
33.0622064612
 20
80.9607628886
 30
0.0
 10
32.239116671
 20
81.0459658363
 30
0.0
 10
31.4044821745
 20
81.0170759662
 30
0.0
 10
30.6050603819
 20
80.8757753621
 30
0.0
 10
29.9900516837
 20
80.6658182157
 30
0.0
 10
29.5570426619
 20
80.4453422155
 30
0.0
 10
29.194963019
 20
80.2107963291
 30
0.0
 10
28.9614881542
 20
79.9951882218
 30
0.0
 10
28.8380835252
 20
79.8362905716
 30
0.0
  0
SPLINE
  5
2CC
100
AcDbEntity
  8
0
100
AcDbSpline
 62
7
  6
BYLAYER
 70
0
 71
3
 72
20
 73
16
 74
0
 42
0.0000001
 43
0.0000001
 44
0.0000000001
 40
0.0
 40
0.0
 40
0.0
 40
0.0
 40
0.042830232
 40
0.0874301356
 40
0.1352308785
 40
0.1871627195
 40
0.2436313841
 40
0.3046123116
 40
0.3697376297
 40
0.4383725735
 40
0.5826244619
 40
0.7296909134
 40
0.8711893823
 40
0.9376086966
 40
1.0
 40
1.0
 40
1.0
 40
1.0
 10
82.2009050934
 20
53.6986132542
 30
0.0
 10
82.2008880408
 20
53.5989820552
 30
0.0
 10
82.1742969359
 20
53.3947305564
 30
0.0
 10
82.0570925286
 20
53.0998459372
 30
0.0
 10
81.8670818135
 20
52.8202326072
 30
0.0
 10
81.6094275915
 20
52.5615539708
 30
0.0
 10
81.2902106044
 20
52.3282851474
 30
0.0
 10
80.9161964457
 20
52.1248248008
 30
0.0
 10
80.4951579243
 20
51.9552307259
 30
0.0
 10
79.8728739017
 20
51.7759053547
 30
0.0
 10
79.0388383233
 20
51.6589449188
 30
0.0
 10
78.0282311946
 20
51.6868325091
 30
0.0
 10
77.2133382786
 20
51.8497762432
 30
0.0
 10
76.621300117
 20
52.0643662668
 30
0.0
 10
76.351752473
 20
52.1971929748
 30
0.0
 10
76.2260620807
 20
52.269758715
 30
0.0
  0
SPLINE
  5
2CD
100
AcDbEntity
  8
0
100
AcDbSpline
 62
7
  6
BYLAYER
 70
0
 71
3
 72
13
 73
9
 74
0
 42
0.0000001
 43
0.0000001
 44
0.0000000001
 40
0.0
 40
0.0
 40
0.0
 40
0.0
 40
0.1080933872
 40
0.2182315081
 40
0.3322546464
 40
0.4516825566
 40
0.7106203807
 40
1.0
 40
1.0
 40
1.0
 40
1.0
 10
90.418416426
 20
51.8615383566
 30
0.0
 10
90.4184164248
 20
51.956192901
 30
0.0
 10
90.402027452
 20
52.1476845416
 30
0.0
 10
90.3285668511
 20
52.4304853564
 30
0.0
 10
90.2075085528
 20
52.7072264664
 30
0.0
 10
89.9783878624
 20
53.0740410757
 30
0.0
 10
89.5713937838
 20
53.5021887057
 30
0.0
 10
89.1734263009
 20
53.7760602039
 30
0.0
 10
88.953972366
 20
53.902759126
 30
0.0
  0
SPLINE
  5
2CE
100
AcDbEntity
  8
0
100
AcDbSpline
 62
7
  6
BYLAYER
 70
0
 71
3
 72
9
 73
5
 74
0
 42
0.0000001
 43
0.0000001
 44
0.0000000001
 40
0.0
 40
0.0
 40
0.0
 40
0.0
 40
0.2446519339
 40
1.0
 40
1.0
 40
1.0
 40
1.0
 10
42.9361075396
 20
80.4705847265
 30
0.0
 10
42.7912828258
 20
80.5541974224
 30
0.0
 10
42.1947881645
 20
80.8880744367
 30
0.0
 10
41.5810545577
 20
81.1909333452
 30
0.0
 10
41.1104446665
 20
81.4032993156
 30
0.0
  0
SPLINE
  5
2CF
100
AcDbEntity
  8
0
100
AcDbSpline
 62
7
  6
BYLAYER
 70
0
 71
3
 72
12
 73
8
 74
0
 42
0.0000001
 43
0.0000001
 44
0.0000000001
 40
0.0
 40
0.0
 40
0.0
 40
0.0
 40
0.2895277737
 40
0.5486637172
 40
0.7816294832
 40
0.8918384714
 40
1.0
 40
1.0
 40
1.0
 40
1.0
 10
29.556820221
 20
79.2136485134
 30
0.0
 10
29.4032191788
 20
79.3023281102
 30
0.0
 10
29.1245769496
 20
79.4942990438
 30
0.0
 10
28.7915763438
 20
79.8439127712
 30
0.0
 10
28.6129050462
 20
80.1734972161
 30
0.0
 10
28.5432243922
 20
80.4421921603
 30
0.0
 10
28.531692728
 20
80.576244238
 30
0.0
 10
28.5317040687
 20
80.6425030513
 30
0.0
  0
SPLINE
  5
2D0
100
AcDbEntity
  8
0
100
AcDbSpline
 62
7
  6
BYLAYER
 70
0
 71
3
 72
13
 73
9
 74
0
 42
0.0000001
 43
0.0000001
 44
0.0000000001
 40
0.0
 40
0.0
 40
0.0
 40
0.0
 40
0.1080936316
 40
0.2182319596
 40
0.3322552351
 40
0.451683196
 40
0.7106208532
 40
1.0
 40
1.0
 40
1.0
 40
1.0
 10
90.418416426
 20
50.2285335223
 30
0.0
 10
90.4184164272
 20
50.1338799854
 30
0.0
 10
90.40202781
 20
49.9423904269
 30
0.0
 10
90.3285687788
 20
49.659592591
 30
0.0
 10
90.2075130613
 20
49.3828542492
 30
0.0
 10
89.9783972372
 20
49.0160431804
 30
0.0
 10
89.5714115735
 20
48.5878988692
 30
0.0
 10
89.1734516368
 20
48.3140284125
 30
0.0
 10
88.9540018057
 20
48.1873297497
 30
0.0
  0
SPLINE
  5
2D1
100
AcDbEntity
  8
0
100
AcDbSpline
 62
7
  6
BYLAYER
 70
0
 71
3
 72
12
 73
8
 74
0
 42
0.0000001
 43
0.0000001
 44
0.0000000001
 40
0.0
 40
0.0
 40
0.0
 40
0.0
 40
0.2895277737
 40
0.5486637172
 40
0.7816294832
 40
0.8918384714
 40
1.0
 40
1.0
 40
1.0
 40
1.0
 10
81.1757889412
 20
55.1274677921
 30
0.0
 10
81.3293899833
 20
55.0387881953
 30
0.0
 10
81.6080322125
 20
54.8468172617
 30
0.0
 10
81.9410328183
 20
54.4972035342
 30
0.0
 10
82.1197041159
 20
54.1676190894
 30
0.0
 10
82.1893847699
 20
53.8989241452
 30
0.0
 10
82.2009164341
 20
53.7648720675
 30
0.0
 10
82.2009050934
 20
53.6986132542
 30
0.0
  0
SPLINE
  5
2D2
100
AcDbEntity
  8
0
100
AcDbSpline
 62
7
  6
BYLAYER
 70
0
 71
3
 72
13
 73
9
 74
0
 42
0.0000001
 43
0.0000001
 44
0.0000000001
 40
0.0
 40
0.0
 40
0.0
 40
0.0
 40
0.2893791468
 40
0.548316804
 40
0.6677447649
 40
0.7817680404
 40
0.8919063684
 40
1.0
 40
1.0
 40
1.0
 40
1.0
 10
88.9540018057
 20
49.820334584
 30
0.0
 10
89.1734516368
 20
49.9470332468
 30
0.0
 10
89.5714115735
 20
50.2209037035
 30
0.0
 10
89.9783972372
 20
50.6490480147
 30
0.0
 10
90.2075130613
 20
51.0158590835
 30
0.0
 10
90.3285687788
 20
51.2925974253
 30
0.0
 10
90.40202781
 20
51.5753952612
 30
0.0
 10
90.4184164272
 20
51.7668848196
 30
0.0
 10
90.418416426
 20
51.8615383566
 30
0.0
  0
SPLINE
  5
2D3
100
AcDbEntity
  8
0
100
AcDbSpline
 62
7
  6
BYLAYER
 70
0
 71
3
 72
15
 73
11
 74
0
 42
0.0000001
 43
0.0000001
 44
0.0000000001
 40
0.0
 40
0.0
 40
0.0
 40
0.0
 40
0.1141469224
 40
0.2373360366
 40
0.366976904
 40
0.5000005214
 40
0.6330240662
 40
0.7626647219
 40
0.8858535023
 40
1.0
 40
1.0
 40
1.0
 40
1.0
 10
78.3474148078
 20
47.7790968179
 30
0.0
 10
78.5894340907
 20
47.6393700808
 30
0.0
 10
79.1187214872
 20
47.3929400286
 30
0.0
 10
79.980568324
 20
47.1309398936
 30
0.0
 10
80.9136970144
 20
46.969767804
 30
0.0
 10
81.8829546762
 20
46.9153253122
 30
0.0
 10
82.8522115631
 20
46.9697724043
 30
0.0
 10
83.7853379644
 20
47.1309489245
 30
0.0
 10
84.6471810907
 20
47.3929531564
 30
0.0
 10
85.1764652448
 20
47.6393858522
 30
0.0
 10
85.4184826196
 20
47.7791138146
 30
0.0
  0
SPLINE
  5
2D4
100
AcDbEntity
  8
0
100
AcDbSpline
 62
7
  6
BYLAYER
 70
0
 71
3
 72
9
 73
5
 74
0
 42
0.0000001
 43
0.0000001
 44
0.0000000001
 40
0.0
 40
0.0
 40
0.0
 40
0.0
 40
0.2439926909
 40
1.0
 40
1.0
 40
1.0
 40
1.0
 10
30.7140026268
 20
75.4009465346
 30
0.0
 10
30.8402336784
 20
75.3077067633
 30
0.0
 10
31.3633614891
 20
74.9334114803
 30
0.0
 10
31.908439307
 20
74.5900452795
 30
0.0
 10
32.3295499813
 20
74.3469224185
 30
0.0
  0
SPLINE
  5
2D5
100
AcDbEntity
  8
0
100
AcDbSpline
 62
7
  6
BYLAYER
 70
0
 71
3
 72
20
 73
16
 74
0
 42
0.0000001
 43
0.0000001
 44
0.0000000001
 40
0.0
 40
0.0
 40
0.0
 40
0.0
 40
0.042830232
 40
0.0874301356
 40
0.1352308785
 40
0.1871627195
 40
0.2436313841
 40
0.3046123116
 40
0.3697376297
 40
0.4383725735
 40
0.5826244619
 40
0.7296909134
 40
0.8711893823
 40
0.9376086966
 40
1.0
 40
1.0
 40
1.0
 40
1.0
 10
28.5317040687
 20
80.6425030513
 30
0.0
 10
28.5317211213
 20
80.7421342502
 30
0.0
 10
28.5583122262
 20
80.9463857491
 30
0.0
 10
28.6755166335
 20
81.2412703683
 30
0.0
 10
28.8655273486
 20
81.5208836983
 30
0.0
 10
29.1231815706
 20
81.7795623346
 30
0.0
 10
29.4423985577
 20
82.0128311581
 30
0.0
 10
29.8164127164
 20
82.2162915047
 30
0.0
 10
30.2374512378
 20
82.3858855796
 30
0.0
 10
30.8597352604
 20
82.5652109508
 30
0.0
 10
31.6937708388
 20
82.6821713867
 30
0.0
 10
32.7043779676
 20
82.6542837964
 30
0.0
 10
33.5192708835
 20
82.4913400622
 30
0.0
 10
34.1113090451
 20
82.2767500386
 30
0.0
 10
34.3808566891
 20
82.1439233307
 30
0.0
 10
34.5065470815
 20
82.0713575905
 30
0.0
  0
ELLIPSE
  5
2D6
100
AcDbEntity
  8
0
100
AcDbEllipse
 62
7
  6
BYLAYER
 10
43.3517207595
 20
77.1743624376
 30
0.0
 11
-0.1047407642
 21
4.7387765974
 31
0.0
 40
0.0226587839
 41
-1.824821541
 42
-1.6370929146
  0
ELLIPSE
  5
2D7
100
AcDbEntity
  8
0
100
AcDbEllipse
 62
7
  6
BYLAYER
 10
45.460486923
 20
77.3475701111
 30
0.0
 11
0.1075193233
 21
4.6163148201
 31
0.0
 40
0.0226571461
 41
-4.6198770456
 42
-4.6108165151
  0
ELLIPSE
  5
2D8
100
AcDbEntity
  8
0
100
AcDbEllipse
 62
7
  6
BYLAYER
 10
44.5560994515
 20
77.8697066489
 30
0.0
 11
-0.1047407642
 21
4.7387765974
 31
0.0
 40
0.0226587839
 41
-4.6212484184
 42
-4.433519792
  0
ENDSEC
  0
SECTION
  2
OBJECTS
  0
DICTIONARY
  5
C
100
AcDbDictionary
280
0
281
1
  3
ACAD_GROUP
350
D
  3
ACAD_MLINESTYLE
350
17
  3
ACAD_LAYOUT
350
1A
  3
ACAD_PLOTSETTINGS
350
19
  3
ACAD_PLOTSTYLENAME
350
E
  0
DICTIONARY
  5
D
102
{ACAD_REACTORS
330
C
102
}
100
AcDbDictionary
280
0
281
1
  0
ACDBDICTIONARYWDFLT
  5
E
102
{ACAD_REACTORS
330
C
102
}
100
AcDbDictionary
281
1
  3
Normal
350
F
100
AcDbDictionaryWithDefault
340
F
  0
DICTIONARY
  5
17
102
{ACAD_REACTORS
330
C
102
}
100
AcDbDictionary
280
0
281
1
  3
Standard
350
18
  0
DICTIONARY
  5
19
102
{ACAD_REACTORS
330
C
102
}
100
AcDbDictionary
281
1
  0
DICTIONARY
  5
1A
102
{ACAD_REACTORS
330
C
102
}
100
AcDbDictionary
281
1
  3
Model
350
2D9
  3
Layout1
350
2DA
  0
ACDBPLACEHOLDER
  5
F
102
{ACAD_REACTORS
330
E
102
}
  0
MLINESTYLE
  5
18
102
{ACAD_REACTORS
330
17
102
}
100
AcDbMlineStyle
  2
STANDARD
 70
0
  3

 62
256
 51
90.0
 52
90.0
 71
2
 49
0.5
 62
256
  6
BYLAYER
 49
-0.5
 62
256
  6
BYLAYER
  0
LAYOUT
  5
2D9
102
{ACAD_REACTORS
330
1A
102
}
100
AcDbPlotSettings
  1

  2
none_device
  4

  6

 40
0.0
 41
0.0
 42
0.0
 43
0.0
 44
210.0
 45
297.0
 46
0.0
 47
0.0
 48
0.0
 49
0.0
140
0.0
141
0.0
142
1.0
143
1.0
 70
1024
 72
1
 73
0
 74
0
  7

 75
0
147
1.0
148
0.0
149
0.0
100
AcDbLayout
  1
Model
 70
0
 71
0
 10
0.0
 20
0.0
 11
210.0
 21
297.0
 12
0.0
 22
0.0
 32
0.0
 14
0.0
 24
0.0
 34
0.0
 15
0.0
 25
0.0
 35
0.0
146
0.0
 13
0.0
 23
0.0
 33
0.0
 16
1.0
 26
0.0
 36
0.0
 17
0.0
 27
1.0
 37
0.0
 76
0
330
210
345
0
346
0
  0
LAYOUT
  5
2DA
102
{ACAD_REACTORS
330
1A
102
}
100
AcDbPlotSettings
  1

  2
none_device
  4

  6

 40
0.0
 41
0.0
 42
0.0
 43
0.0
 44
210.0
 45
297.0
 46
0.0
 47
0.0
 48
0.0
 49
0.0
140
0.0
141
0.0
142
1.0
143
1.0
 70
0
 72
1
 73
0
 74
0
  7

 75
0
147
1.0
148
0.0
149
0.0
100
AcDbLayout
  1
Layout1
 70
0
 71
1
 10
0.0
 20
0.0
 11
210.0
 21
297.0
 12
0.0
 22
0.0
 32
0.0
 14
0.0
 24
0.0
 34
0.0
 15
0.0
 25
0.0
 35
0.0
146
0.0
 13
0.0
 23
0.0
 33
0.0
 16
1.0
 26
0.0
 36
0.0
 17
0.0
 27
1.0
 37
0.0
 76
0
330
211
345
0
346
0
  0
ENDSEC
  0
EOF
