999
DXF file: C:\Users\sesa63760\Dev\_Creo\CAD\MCADID0004770_3D-CAD\drw0001_7.dxf
999
Pro/ENGINEER 2019471 by Parametric Technology Corporation
  0
SECTION
  2
HEADER
  9
$ACADVER
  1
AC1024
  9
$DWGCODEPAGE
  3
ANSI_1252
  9
$EXTMAX
 10
59.4109586013
 20
84.0240700219
 30
0.0
  9
$EXTMIN
 10
0.0
 20
0.0
 30
0.0
  9
$LIMMIN
 10
0.0
 20
0.0
  9
$LIMMAX
 10
59.4109586013
 20
84.0240700219
  9
$VIEWCTR
 10
29.7054793007
 20
42.0120350109
  9
$VIEWSIZE
 40
84.0240700219
  9
$CLAYER
  8
0
  9
$LTSCALE
 40
5.4771245644
  9
$CELTYPE
  6
BYLAYER
  9
$DIMSCALE
 40
1.0
  9
$DIMASZ
 40
0.7072733167
  9
$DIMEXO
 40
1.0
  9
$DIMDLI
 40
3.7841951536
  9
$DIMEXE
 40
1.0
  9
$DIMCEN
 40
0.8962567469
  9
$DIMLFAC
 40
1.0
  9
$DIMBLK
  1
_FILLED
  9
$DIMALT
 70
0
  9
$DIMALTF
 40
0.0393700787
  9
$DIMTXT
 40
0.9901826434
  9
$DIMTOL
 70
1
  9
$DIMLIM
 70
0
  9
$DIMTFAC
 40
1.0
  9
$DIMTP
 40
0.01
  9
$DIMTM
 40
0.01
  9
$DIMGAP
 40
0.625
  9
$DIMDSEP
 70
46
  9
$AUNITS
 70
0
  9
$PDMODE
 70
3
  9
$PDSIZE
 40
0.3125
  9
$HANDSEED
  5
41A
  9
$TILEMODE
 70
1
  9
$MEASUREMENT
 70
1
  9
$INSUNITS
 70
4
  0
ENDSEC
  0
SECTION
  2
CLASSES
  0
CLASS
  1
ACDBDICTIONARYWDFLT
  2
AcDbDictionaryWithDefault
  3
AutoCAD 2000
 90
0
 91
1
280
0
281
0
  0
CLASS
  1
ACDBPLACEHOLDER
  2
AcDbPlaceHolder
  3
AutoCAD 2000
 90
0
 91
1
280
0
281
0
  0
CLASS
  1
LAYOUT
  2
AcDbLayout
  3
AutoCAD 2000
 90
0
 91
0
280
0
281
0
  0
ENDSEC
  0
SECTION
  2
TABLES
  0
TABLE
  2
VPORT
  5
8
100
AcDbSymbolTable
 70
2
  0
VPORT
  5
1F4
100
AcDbSymbolTableRecord
100
AcDbViewportTableRecord
  2
*ACTIVE
 70
0
 10
0.0
 20
0.0
 11
1.0
 21
1.0
 12
29.7054793007
 22
42.0120350109
 13
0.0
 23
0.0
 14
1.0
 24
1.0
 15
0.0
 25
0.0
 16
0.0
 26
0.0
 36
1.0
 17
0.0
 27
0.0
 37
0.0
 40
84.0240700219
 41
0.7070707071
 42
50.0
 43
0.0
 44
0.0
 50
0.0
 51
0.0
 71
0
 72
100
 73
1
 74
1
 75
0
 76
0
 77
0
 78
0
  0
ENDTAB
  0
TABLE
  2
LTYPE
  5
5
100
AcDbSymbolTable
 70
6
  0
LTYPE
  5
14
100
AcDbSymbolTableRecord
100
AcDbLinetypeTableRecord
  2
BYBLOCK
 70
0
  3

 72
65
 73
0
 40
0.0
  0
LTYPE
  5
15
100
AcDbSymbolTableRecord
100
AcDbLinetypeTableRecord
  2
BYLAYER
 70
0
  3

 72
65
 73
0
 40
0.0
  0
LTYPE
  5
16
100
AcDbSymbolTableRecord
100
AcDbLinetypeTableRecord
  2
CONTINUOUS
 70
64
  3
Solid line
 72
65
 73
0
 40
0.0
  0
LTYPE
  5
1F5
100
AcDbSymbolTableRecord
100
AcDbLinetypeTableRecord
  2
CENTER
 70
64
  3
____ _ ____ _ ____ _ ____ _ ____ _ ____ _ ____
 72
65
 73
4
 40
0.6
 49
0.375
 74
0
 49
-0.075
 74
0
 49
0.075
 74
0
 49
-0.075
 74
0
  0
LTYPE
  5
1F6
100
AcDbSymbolTableRecord
100
AcDbLinetypeTableRecord
  2
HIDDEN
 70
64
  3
- - - - - - - - - - - - - - - - - - - -
 72
65
 73
2
 40
0.2
 49
0.1
 74
0
 49
-0.1
 74
0
  0
LTYPE
  5
1F7
100
AcDbSymbolTableRecord
100
AcDbLinetypeTableRecord
  2
PHANTOM
 70
64
  3
_____ _ _ _____ _ _ _____ _ _ _____
 72
65
 73
6
 40
0.8
 49
0.45
 74
0
 49
-0.05
 74
0
 49
0.1
 74
0
 49
-0.05
 74
0
 49
0.1
 74
0
 49
-0.05
 74
0
  0
LTYPE
  5
1F8
100
AcDbSymbolTableRecord
100
AcDbLinetypeTableRecord
  2
DOT
 70
64
  3
. . . . . . . . . . . . . . . . . . . .
 72
65
 73
2
 40
0.2
 49
0.1
 74
0
 49
-0.1
 74
0
  0
LTYPE
  5
1F9
100
AcDbSymbolTableRecord
100
AcDbLinetypeTableRecord
  2
DASHED
 70
64
  3
- - - - - - - - - - - - - - - - - - - -
 72
65
 73
2
 40
0.2
 49
0.1
 74
0
 49
-0.1
 74
0
  0
ENDTAB
  0
TABLE
  2
LAYER
  5
2
100
AcDbSymbolTable
 70
36
  0
LAYER
  5
10
100
AcDbSymbolTableRecord
100
AcDbLayerTableRecord
  2
0
 70
0
 62
7
  6
CONTINUOUS
370
-3
390
F
  0
LAYER
  5
1FA
100
AcDbSymbolTableRecord
100
AcDbLayerTableRecord
  2
DEFAULT_1
 70
0
 62
7
  6
CENTER
370
-3
390
F
  0
LAYER
  5
1FB
100
AcDbSymbolTableRecord
100
AcDbLayerTableRecord
  2
DEFAULT_2
 70
0
 62
7
  6
HIDDEN
370
-3
390
F
  0
LAYER
  5
1FC
100
AcDbSymbolTableRecord
100
AcDbLayerTableRecord
  2
DEFAULT_3
 70
0
 62
7
  6
PHANTOM
370
-3
390
F
  0
LAYER
  5
1FD
100
AcDbSymbolTableRecord
100
AcDbLayerTableRecord
  2
00_COMPONENTS
 70
0
 62
7
  6
CONTINUOUS
370
-3
390
F
  0
LAYER
  5
1FE
100
AcDbSymbolTableRecord
100
AcDbLayerTableRecord
  2
01_1_DEFAULT_DATUMS
 70
0
 62
7
  6
CONTINUOUS
370
-3
390
F
  0
LAYER
  5
1FF
100
AcDbSymbolTableRecord
100
AcDbLayerTableRecord
  2
01_PLANES
 70
0
 62
7
  6
CONTINUOUS
370
-3
390
F
  0
LAYER
  5
200
100
AcDbSymbolTableRecord
100
AcDbLayerTableRecord
  2
02_COORD_SYS
 70
0
 62
7
  6
CONTINUOUS
370
-3
390
F
  0
LAYER
  5
201
100
AcDbSymbolTableRecord
100
AcDbLayerTableRecord
  2
03_AXES
 70
0
 62
7
  6
CONTINUOUS
370
-3
390
F
  0
LAYER
  5
202
100
AcDbSymbolTableRecord
100
AcDbLayerTableRecord
  2
04_POINTS
 70
0
 62
7
  6
CONTINUOUS
370
-3
390
F
  0
LAYER
  5
203
100
AcDbSymbolTableRecord
100
AcDbLayerTableRecord
  2
05_CURVES
 70
0
 62
7
  6
CONTINUOUS
370
-3
390
F
  0
LAYER
  5
204
100
AcDbSymbolTableRecord
100
AcDbLayerTableRecord
  2
06_SURFS
 70
0
 62
7
  6
CONTINUOUS
370
-3
390
F
  0
LAYER
  5
205
100
AcDbSymbolTableRecord
100
AcDbLayerTableRecord
  2
07_COSMETICS
 70
0
 62
7
  6
CONTINUOUS
370
-3
390
F
  0
LAYER
  5
206
100
AcDbSymbolTableRecord
100
AcDbLayerTableRecord
  2
10_NOTES
 70
0
 62
7
  6
CONTINUOUS
370
-3
390
F
  0
LAYER
  5
207
100
AcDbSymbolTableRecord
100
AcDbLayerTableRecord
  2
11_NOTES_PUB
 70
0
 62
7
  6
CONTINUOUS
370
-3
390
F
  0
LAYER
  5
208
100
AcDbSymbolTableRecord
100
AcDbLayerTableRecord
  2
13_REF_GTOL
 70
0
 62
7
  6
CONTINUOUS
370
-3
390
F
  0
LAYER
  5
209
100
AcDbSymbolTableRecord
100
AcDbLayerTableRecord
  2
16_MISC
 70
0
 62
7
  6
CONTINUOUS
370
-3
390
F
  0
LAYER
  5
20A
100
AcDbSymbolTableRecord
100
AcDbLayerTableRecord
  2
17_NO_PRINT
 70
0
 62
7
  6
CONTINUOUS
370
-3
390
F
  0
LAYER
  5
20B
100
AcDbSymbolTableRecord
100
AcDbLayerTableRecord
  2
18_DATUM_CAMS_JOINTS
 70
0
 62
7
  6
CONTINUOUS
370
-3
390
F
  0
LAYER
  5
20C
100
AcDbSymbolTableRecord
100
AcDbLayerTableRecord
  2
19_DATUM_FUNCTIONAL
 70
0
 62
7
  6
CONTINUOUS
370
-3
390
F
  0
LAYER
  5
20D
100
AcDbSymbolTableRecord
100
AcDbLayerTableRecord
  2
20_DATUM_KINEMATIC_SCHEME
 70
0
 62
7
  6
CONTINUOUS
370
-3
390
F
  0
ENDTAB
  0
TABLE
  2
STYLE
  5
3
100
AcDbSymbolTable
 70
1
  0
STYLE
  5
11
100
AcDbSymbolTableRecord
100
AcDbTextStyleTableRecord
  2
STANDARD
 70
0
 40
0.0
 41
1.0
 50
0.0
 71
0
 42
0.2
  3
ARIAL.TTF
  4

  0
STYLE
  5
20E
100
AcDbSymbolTableRecord
100
AcDbTextStyleTableRecord
  2
TEXTSTYLE_1
 70
0
 40
0.0
 41
0.8
 50
0.0
 71
0
 42
0.2
  3
gdt
  4

  0
ENDTAB
  0
TABLE
  2
VIEW
  5
6
100
AcDbSymbolTable
 70
0
  0
ENDTAB
  0
TABLE
  2
UCS
  5
7
100
AcDbSymbolTable
 70
0
  0
ENDTAB
  0
TABLE
  2
APPID
  5
9
100
AcDbSymbolTable
 70
1
  0
APPID
  5
20F
100
AcDbSymbolTableRecord
100
AcDbRegAppTableRecord
  2
ACAD
 70
0
  0
ENDTAB
  0
TABLE
  2
BLOCK_RECORD
  5
1
100
AcDbSymbolTable
 70
0
  0
BLOCK_RECORD
  5
210
100
AcDbSymbolTableRecord
100
AcDbBlockTableRecord
  2
*Model_Space
  0
BLOCK_RECORD
  5
211
100
AcDbSymbolTableRecord
100
AcDbBlockTableRecord
  2
*Paper_Space
  0
BLOCK_RECORD
  5
212
100
AcDbSymbolTableRecord
100
AcDbBlockTableRecord
  2
_FILLED
  0
ENDTAB
  0
TABLE
  2
DIMSTYLE
  5
A
100
AcDbSymbolTable
 70
1
100
AcDbDimStyleTable
 71
0
  0
DIMSTYLE
105
213
100
AcDbSymbolTableRecord
100
AcDbDimStyleTableRecord
  2
STANDARD
 70
0
  3

  4

 40
1.0
 41
0.7072733167
 42
1.0
 43
0.38
 44
1.0
 45
0.0
 46
0.0
 47
0.01
 48
0.01
140
0.9901826434
141
0.09
142
0.0
143
25.4
144
1.0
145
0.0
146
1.0
147
0.625
 71
1
 72
0
 73
0
 74
0
 75
0
 76
0
 77
1
 78
8
 79
2
170
0
171
1
172
0
173
0
174
0
175
0
176
0
177
0
178
0
270
2
179
2
271
2
272
2
273
2
274
2
275
0
280
0
281
0
282
0
283
1
284
8
285
0
286
0
287
3
288
0
340
11
278
46
341
212
342
212
343
212
344
212
  0
ENDTAB
  0
ENDSEC
  0
SECTION
  2
BLOCKS
  0
BLOCK
  5
20
100
AcDbEntity
  8
0
100
AcDbBlockBegin
  2
*Model_Space
 70
0
 10
0.0
 20
0.0
 30
0.0
  3
*Model_Space
  1

  0
ENDBLK
  5
21
100
AcDbEntity
  8
0
100
AcDbBlockEnd
  0
BLOCK
  5
1C
100
AcDbEntity
  8
0
100
AcDbBlockBegin
  2
*Paper_Space
 70
0
 10
0.0
 20
0.0
 30
0.0
  3
*Paper_Space
  1

  0
ENDBLK
  5
1D
100
AcDbEntity
  8
0
100
AcDbBlockEnd
  0
BLOCK
  5
214
100
AcDbEntity
  8
0
100
AcDbBlockBegin
  2
_FILLED
 70
64
 10
0.0
 20
0.0
  3
_FILLED
  1

  0
SOLID
  5
215
100
AcDbEntity
  8
0
  6
BYBLOCK
 62
0
100
AcDbTrace
 10
0.0
 20
0.0
 11
-1.0
 21
0.25
 12
-1.0
 22
-0.25
 13
-1.0
 23
-0.25
  0
ENDBLK
  5
216
100
AcDbEntity
  8
0
  6
BYBLOCK
 62
0
100
AcDbBlockEnd
  0
ENDSEC
  0
SECTION
  2
ENTITIES
  0
LINE
  5
217
100
AcDbEntity
  8
0
100
AcDbLine
 62
7
  6
BYLAYER
 10
6.3083239396
 20
47.2177242888
 11
6.3083239396
 21
37.2177242888
  0
LINE
  5
218
100
AcDbEntity
  8
0
100
AcDbLine
 62
7
  6
BYLAYER
 10
6.8083249952
 20
55.0178090374
 11
6.8083239396
 21
47.2177242888
  0
LINE
  5
219
100
AcDbEntity
  8
0
100
AcDbLine
 62
7
  6
BYLAYER
 10
6.8083239396
 20
37.2177242888
 11
6.8083249903
 21
29.4176423993
  0
LINE
  5
21A
100
AcDbEntity
  8
0
100
AcDbLine
 62
7
  6
BYLAYER
 10
10.251952154
 20
52.7322224762
 11
10.2748679766
 21
52.8166122245
  0
LINE
  5
21B
100
AcDbEntity
  8
0
100
AcDbLine
 62
7
  6
BYLAYER
 10
9.7219325697
 20
51.9740643594
 11
9.8154648534
 21
52.2177242888
  0
LINE
  5
21C
100
AcDbEntity
  8
0
100
AcDbLine
 62
7
  6
BYLAYER
 10
10.1475094705
 20
52.8655005746
 11
10.0990690152
 21
52.7909088147
  0
LINE
  5
21D
100
AcDbEntity
  8
0
100
AcDbLine
 62
7
  6
BYLAYER
 10
10.4719017592
 20
52.9521720813
 11
10.7591711655
 21
53.2712894251
  0
LINE
  5
21E
100
AcDbEntity
  8
0
100
AcDbLine
 62
7
  6
BYLAYER
 10
8.8207527219
 20
53.2183336899
 11
9.3077145385
 21
53.7052955065
  0
LINE
  5
21F
100
AcDbEntity
  8
0
100
AcDbLine
 62
7
  6
BYLAYER
 10
9.1474211718
 20
52.912187984
 11
9.6138602445
 21
53.3786270567
  0
LINE
  5
220
100
AcDbEntity
  8
0
100
AcDbLine
 62
7
  6
BYLAYER
 10
10.0502176315
 20
52.8397601985
 11
9.9574151495
 21
52.7469577166
  0
LINE
  5
221
100
AcDbEntity
  8
0
100
AcDbLine
 62
7
  6
BYLAYER
 10
9.7790905119
 20
52.5686330789
 11
9.68628803
 21
52.475830597
  0
LINE
  5
222
100
AcDbEntity
  8
0
100
AcDbLine
 62
7
  6
BYLAYER
 10
9.8574767138
 20
31.1641591526
 11
9.2547588034
 21
31.766877063
  0
LINE
  5
223
100
AcDbEntity
  8
0
100
AcDbLine
 62
7
  6
BYLAYER
 10
10.14474612
 20
31.4832764963
 11
9.5738761471
 21
32.0541464692
  0
LINE
  5
224
100
AcDbEntity
  8
0
100
AcDbLine
 62
7
  6
BYLAYER
 10
11.0027876348
 20
31.056821521
 11
10.5664302478
 21
31.5956883792
  0
LINE
  5
225
100
AcDbEntity
  8
0
100
AcDbLine
 62
7
  6
BYLAYER
 10
9.7094360039
 20
32.2511802519
 11
9.6605476539
 21
32.378538758
  0
LINE
  5
226
100
AcDbEntity
  8
0
100
AcDbLine
 62
7
  6
BYLAYER
 10
9.8154648534
 20
32.2177242888
 11
9.7938257523
 21
32.2740960744
  0
LINE
  5
227
100
AcDbEntity
  8
0
100
AcDbLine
 62
7
  6
BYLAYER
 10
9.7351394137
 20
32.4269792132
 11
9.7219325697
 21
32.4613842183
  0
LINE
  5
228
100
AcDbEntity
  8
0
100
AcDbLine
 62
7
  6
BYLAYER
 10
8.8184568834
 20
38.7177242888
 11
8.8184568834
 21
45.7177242888
  0
LINE
  5
229
100
AcDbEntity
  8
0
100
AcDbLine
 62
7
  6
BYLAYER
 10
10.3646957252
 20
51.7032261015
 11
10.3417799026
 21
51.6188363531
  0
LINE
  5
22A
100
AcDbEntity
  8
0
100
AcDbLine
 62
7
  6
BYLAYER
 10
10.8947153096
 20
52.4613842183
 11
10.8011830259
 21
52.2177242888
  0
LINE
  5
22B
100
AcDbEntity
  8
0
100
AcDbLine
 62
7
  6
BYLAYER
 10
10.4691384087
 20
51.5699480031
 11
10.517578864
 21
51.644539763
  0
LINE
  5
22C
100
AcDbEntity
  8
0
100
AcDbLine
 62
7
  6
BYLAYER
 10
9.8574767138
 20
51.1641591526
 11
10.14474612
 21
51.4832764963
  0
LINE
  5
22D
100
AcDbEntity
  8
0
100
AcDbLine
 62
7
  6
BYLAYER
 10
8.2168774273
 20
50.7586216752
 11
9.7094360039
 21
52.2511802519
  0
LINE
  5
22E
100
AcDbEntity
  8
0
100
AcDbLine
 62
7
  6
BYLAYER
 10
10.2748679766
 20
52.8166122245
 11
11.7674265532
 21
54.3091708012
  0
LINE
  5
22F
100
AcDbEntity
  8
0
100
AcDbLine
 62
7
  6
BYLAYER
 10
12.0317451362
 20
54.5438633958
 11
10.7591711655
 21
53.2712894251
  0
LINE
  5
230
100
AcDbEntity
  8
0
100
AcDbLine
 62
7
  6
BYLAYER
 10
9.2547588034
 20
51.766877063
 11
7.9821848326
 21
50.4943030922
  0
LINE
  5
231
100
AcDbEntity
  8
0
100
AcDbLine
 62
7
  6
BYLAYER
 10
10.4719017592
 20
52.9521720813
 11
10.251952154
 21
52.7322224762
  0
LINE
  5
232
100
AcDbEntity
  8
0
100
AcDbLine
 62
7
  6
BYLAYER
 10
9.7938257523
 20
52.2740960744
 11
9.5738761471
 21
52.0541464692
  0
LINE
  5
233
100
AcDbEntity
  8
0
100
AcDbLine
 62
7
  6
BYLAYER
 10
10.14474612
 20
51.4832764963
 11
10.3646957252
 21
51.7032261015
  0
LINE
  5
234
100
AcDbEntity
  8
0
100
AcDbLine
 62
7
  6
BYLAYER
 10
10.8228221269
 20
52.1613525033
 11
11.0427717321
 21
52.3813021084
  0
LINE
  5
235
100
AcDbEntity
  8
0
100
AcDbLine
 62
7
  6
BYLAYER
 10
12.6344630466
 20
53.9411454855
 11
11.3618890758
 21
52.6685715147
  0
LINE
  5
236
100
AcDbEntity
  8
0
100
AcDbLine
 62
7
  6
BYLAYER
 10
9.8574767138
 20
51.1641591526
 11
8.584902743
 21
49.8915851819
  0
LINE
  5
237
100
AcDbEntity
  8
0
100
AcDbLine
 62
7
  6
BYLAYER
 10
12.3997704519
 20
53.6768269025
 11
10.9072118753
 21
52.1842683258
  0
LINE
  5
238
100
AcDbEntity
  8
0
100
AcDbLine
 62
7
  6
BYLAYER
 10
10.3417799026
 20
51.6188363531
 11
8.849221326
 21
50.1262777765
  0
LINE
  5
239
100
AcDbEntity
  8
0
100
AcDbLine
 62
7
  6
BYLAYER
 10
10.9303598493
 20
51.9596179807
 11
10.8375573674
 21
51.8668154988
  0
LINE
  5
23A
100
AcDbEntity
  8
0
100
AcDbLine
 62
7
  6
BYLAYER
 10
10.6592327297
 20
51.6884908611
 11
10.5664302478
 21
51.5956883792
  0
LINE
  5
23B
100
AcDbEntity
  8
0
100
AcDbLine
 62
7
  6
BYLAYER
 10
9.2547588034
 20
51.766877063
 11
9.5738761471
 21
52.0541464692
  0
LINE
  5
23C
100
AcDbEntity
  8
0
100
AcDbLine
 62
7
  6
BYLAYER
 10
11.0427717321
 20
52.3813021084
 11
11.3618890758
 21
52.6685715147
  0
LINE
  5
23D
100
AcDbEntity
  8
0
100
AcDbLine
 62
7
  6
BYLAYER
 10
9.6862880299
 20
32.475830597
 11
9.1474211718
 21
32.912187984
  0
LINE
  5
23E
100
AcDbEntity
  8
0
100
AcDbLine
 62
7
  6
BYLAYER
 10
11.4692267075
 20
31.5232605937
 11
10.9303598493
 21
31.9596179807
  0
LINE
  5
23F
100
AcDbEntity
  8
0
100
AcDbLine
 62
7
  6
BYLAYER
 10
11.3089333407
 20
30.7301530711
 11
10.4691384087
 21
31.5699480031
  0
LINE
  5
240
100
AcDbEntity
  8
0
100
AcDbLine
 62
7
  6
BYLAYER
 10
9.6605476539
 20
32.378538758
 11
8.8207527219
 21
33.2183336899
  0
LINE
  5
241
100
AcDbEntity
  8
0
100
AcDbLine
 62
7
  6
BYLAYER
 10
9.68628803
 20
32.475830597
 11
9.7351394137
 21
32.4269792132
  0
LINE
  5
242
100
AcDbEntity
  8
0
100
AcDbLine
 62
7
  6
BYLAYER
 10
10.517578864
 20
31.644539763
 11
10.5664302478
 21
31.5956883792
  0
LINE
  5
243
100
AcDbEntity
  8
0
100
AcDbLine
 62
7
  6
BYLAYER
 10
10.9303598493
 20
31.9596179807
 11
10.8815084655
 21
32.0084693645
  0
LINE
  5
244
100
AcDbEntity
  8
0
100
AcDbLine
 62
7
  6
BYLAYER
 10
10.0990690152
 20
32.7909088147
 11
10.0502176315
 21
32.8397601985
  0
LINE
  5
245
100
AcDbEntity
  8
0
100
AcDbLine
 62
7
  6
BYLAYER
 10
9.3077145385
 20
33.7052955065
 11
10.1475094705
 21
32.8655005746
  0
LINE
  5
246
100
AcDbEntity
  8
0
100
AcDbLine
 62
7
  6
BYLAYER
 10
10.9561002254
 20
32.0569098197
 11
11.7958951573
 21
31.2171148878
  0
LINE
  5
247
100
AcDbEntity
  8
0
100
AcDbLine
 62
7
  6
BYLAYER
 10
11.0427717321
 20
32.3813021084
 11
10.4719017592
 21
32.9521720813
  0
LINE
  5
248
100
AcDbEntity
  8
0
100
AcDbLine
 62
7
  6
BYLAYER
 10
11.3618890758
 20
32.6685715147
 11
10.7591711655
 21
33.2712894251
  0
LINE
  5
249
100
AcDbEntity
  8
0
100
AcDbLine
 62
7
  6
BYLAYER
 10
10.0502176315
 20
32.8397601985
 11
9.6138602445
 21
33.3786270567
  0
LINE
  5
24A
100
AcDbEntity
  8
0
100
AcDbLine
 62
7
  6
BYLAYER
 10
10.8011830259
 20
32.2177242888
 11
10.8228221269
 21
32.1613525033
  0
LINE
  5
24B
100
AcDbEntity
  8
0
100
AcDbLine
 62
7
  6
BYLAYER
 10
10.8815084655
 20
32.0084693645
 11
10.8947153096
 21
31.9740643594
  0
LINE
  5
24C
100
AcDbEntity
  8
0
100
AcDbLine
 62
7
  6
BYLAYER
 10
10.9072118753
 20
32.1842683258
 11
10.9561002254
 21
32.0569098197
  0
LINE
  5
24D
100
AcDbEntity
  8
0
100
AcDbLine
 62
7
  6
BYLAYER
 10
10.3083239396
 20
52.7105833751
 11
10.3083239396
 21
52.7062101906
  0
LINE
  5
24E
100
AcDbEntity
  8
0
100
AcDbLine
 62
7
  6
BYLAYER
 10
10.3083239396
 20
32.7105833751
 11
10.3083239396
 21
32.7062101906
  0
LINE
  5
24F
100
AcDbEntity
  8
0
100
AcDbLine
 62
7
  6
BYLAYER
 10
10.3083239396
 20
31.7248652026
 11
10.3083239396
 21
31.7292383871
  0
LINE
  5
250
100
AcDbEntity
  8
0
100
AcDbLine
 62
7
  6
BYLAYER
 10
10.3083239396
 20
51.7248652026
 11
10.3083239396
 21
51.7292383871
  0
LINE
  5
251
100
AcDbEntity
  8
0
100
AcDbLine
 62
7
  6
BYLAYER
 10
10.8184568834
 20
33.7177242888
 11
10.8184568834
 21
37.9177242888
  0
LINE
  5
252
100
AcDbEntity
  8
0
100
AcDbLine
 62
7
  6
BYLAYER
 10
10.8184568834
 20
46.5177242888
 11
10.8184568834
 21
50.7177242888
  0
LINE
  5
253
100
AcDbEntity
  8
0
100
AcDbLine
 62
7
  6
BYLAYER
 10
11.0027876348
 20
51.056821521
 11
11.4692267075
 21
51.5232605937
  0
LINE
  5
254
100
AcDbEntity
  8
0
100
AcDbLine
 62
7
  6
BYLAYER
 10
11.7958951573
 20
51.2171148878
 11
11.3089333407
 21
50.7301530711
  0
LINE
  5
255
100
AcDbEntity
  8
0
100
AcDbLine
 62
7
  6
BYLAYER
 10
9.6605476539
 20
52.378538758
 11
9.7351394137
 21
52.4269792132
  0
LINE
  5
256
100
AcDbEntity
  8
0
100
AcDbLine
 62
7
  6
BYLAYER
 10
10.9561002254
 20
52.0569098197
 11
10.8815084655
 21
52.0084693645
  0
LINE
  5
257
100
AcDbEntity
  8
0
100
AcDbLine
 62
7
  6
BYLAYER
 10
13.3184568834
 20
38.4677249337
 11
13.3184568834
 21
38.7177242888
  0
LINE
  5
258
100
AcDbEntity
  8
0
100
AcDbLine
 62
7
  6
BYLAYER
 10
13.3184568834
 20
45.7177242888
 11
13.3184568834
 21
45.9677235416
  0
LINE
  5
259
100
AcDbEntity
  8
0
100
AcDbLine
 62
7
  6
BYLAYER
 10
10.251952154
 20
32.7322224762
 11
10.2748679766
 21
32.8166122245
  0
LINE
  5
25A
100
AcDbEntity
  8
0
100
AcDbLine
 62
7
  6
BYLAYER
 10
10.3083239396
 20
52.7105833751
 11
10.5519838691
 21
52.8041156588
  0
LINE
  5
25B
100
AcDbEntity
  8
0
100
AcDbLine
 62
7
  6
BYLAYER
 10
10.4691384087
 20
31.5699480031
 11
10.3417799026
 21
31.6188363531
  0
LINE
  5
25C
100
AcDbEntity
  8
0
100
AcDbLine
 62
7
  6
BYLAYER
 10
10.5519838691
 20
31.6313329189
 11
10.517578864
 21
31.644539763
  0
LINE
  5
25D
100
AcDbEntity
  8
0
100
AcDbLine
 62
7
  6
BYLAYER
 10
10.3646957252
 20
31.7032261015
 11
10.3083239396
 21
31.7248652026
  0
LINE
  5
25E
100
AcDbEntity
  8
0
100
AcDbLine
 62
7
  6
BYLAYER
 10
15.6184568834
 20
33.7177242888
 11
15.8184568834
 21
33.5177242888
  0
LINE
  5
25F
100
AcDbEntity
  8
0
100
AcDbLine
 62
7
  6
BYLAYER
 10
14.7710518004
 20
46.5177242888
 11
14.7710518004
 21
46.2177242888
  0
LINE
  5
260
100
AcDbEntity
  8
0
100
AcDbLine
 62
7
  6
BYLAYER
 10
14.7710518004
 20
38.2177242888
 11
14.7710518004
 21
37.9177242888
  0
LINE
  5
261
100
AcDbEntity
  8
0
100
AcDbLine
 62
7
  6
BYLAYER
 10
14.8184568834
 20
37.9177242888
 11
14.8184568834
 21
38.2177242888
  0
LINE
  5
262
100
AcDbEntity
  8
0
100
AcDbLine
 62
7
  6
BYLAYER
 10
10.3646957252
 20
31.7032261015
 11
10.3417799026
 21
31.6188363531
  0
LINE
  5
263
100
AcDbEntity
  8
0
100
AcDbLine
 62
7
  6
BYLAYER
 10
9.7219325697
 20
31.9740643594
 11
9.8154648534
 21
32.2177242888
  0
LINE
  5
264
100
AcDbEntity
  8
0
100
AcDbLine
 62
7
  6
BYLAYER
 10
16.7184568834
 20
51.5177242888
 11
16.3184568834
 21
51.1177242888
  0
LINE
  5
265
100
AcDbEntity
  8
0
100
AcDbLine
 62
7
  6
BYLAYER
 10
13.5684575945
 20
46.2177240459
 11
13.3184571357
 21
45.9677235416
  0
LINE
  5
266
100
AcDbEntity
  8
0
100
AcDbLine
 62
7
  6
BYLAYER
 10
10.3083239396
 20
51.7248652026
 11
10.0646640101
 21
51.6313329189
  0
LINE
  5
267
100
AcDbEntity
  8
0
100
AcDbLine
 62
7
  6
BYLAYER
 10
10.0646640101
 20
32.8041156588
 11
10.0990690152
 21
32.7909088147
  0
LINE
  5
268
100
AcDbEntity
  8
0
100
AcDbLine
 62
7
  6
BYLAYER
 10
10.251952154
 20
32.7322224762
 11
10.3083239396
 21
32.7105833751
  0
LINE
  5
269
100
AcDbEntity
  8
0
100
AcDbLine
 62
7
  6
BYLAYER
 10
10.1475094705
 20
32.8655005746
 11
10.2748679766
 21
32.8166122245
  0
LINE
  5
26A
100
AcDbEntity
  8
0
100
AcDbLine
 62
7
  6
BYLAYER
 10
13.3184571259
 20
38.4677249337
 11
13.5684574972
 21
38.217724522
  0
LINE
  5
26B
100
AcDbEntity
  8
0
100
AcDbLine
 62
7
  6
BYLAYER
 10
9.7094360039
 20
52.2511802519
 11
9.6605476539
 21
52.378538758
  0
LINE
  5
26C
100
AcDbEntity
  8
0
100
AcDbLine
 62
7
  6
BYLAYER
 10
9.8154648534
 20
52.2177242888
 11
9.7938257523
 21
52.2740960744
  0
LINE
  5
26D
100
AcDbEntity
  8
0
100
AcDbLine
 62
7
  6
BYLAYER
 10
9.7351394137
 20
52.4269792132
 11
9.7219325697
 21
52.4613842183
  0
LINE
  5
26E
100
AcDbEntity
  8
0
100
AcDbLine
 62
7
  6
BYLAYER
 10
16.3184568834
 20
50.7177242888
 11
16.3184568834
 21
51.1177242888
  0
LINE
  5
26F
100
AcDbEntity
  8
0
100
AcDbLine
 62
7
  6
BYLAYER
 10
10.8947153096
 20
32.4613842183
 11
10.8011830259
 21
32.2177242888
  0
LINE
  5
270
100
AcDbEntity
  8
0
100
AcDbLine
 62
7
  6
BYLAYER
 10
15.3184568834
 20
46.5177242888
 11
15.0184568834
 21
46.2177242888
  0
LINE
  5
271
100
AcDbEntity
  8
0
100
AcDbLine
 62
7
  6
BYLAYER
 10
7.5082391911
 20
28.7177253444
 11
33.1084036387
 21
28.71772534
  0
LINE
  5
272
100
AcDbEntity
  8
0
100
AcDbLine
 62
7
  6
BYLAYER
 10
10.8011830259
 20
52.2177242888
 11
10.8228221269
 21
52.1613525033
  0
LINE
  5
273
100
AcDbEntity
  8
0
100
AcDbLine
 62
7
  6
BYLAYER
 10
10.8815084655
 20
52.0084693645
 11
10.8947153096
 21
51.9740643594
  0
LINE
  5
274
100
AcDbEntity
  8
0
100
AcDbLine
 62
7
  6
BYLAYER
 10
10.9072118753
 20
52.1842683258
 11
10.9561002254
 21
52.0569098197
  0
LINE
  5
275
100
AcDbEntity
  8
0
100
AcDbLine
 62
7
  6
BYLAYER
 10
10.1475094705
 20
32.8655005746
 11
10.0990690152
 21
32.7909088147
  0
LINE
  5
276
100
AcDbEntity
  8
0
100
AcDbLine
 62
7
  6
BYLAYER
 10
48.7933239396
 20
30.8677242888
 11
43.8233239396
 21
30.8677242888
  0
LINE
  5
277
100
AcDbEntity
  8
0
100
AcDbLine
 62
7
  6
BYLAYER
 10
49.2933239396
 20
31.3677242888
 11
43.3233239396
 21
31.3677242888
  0
LINE
  5
278
100
AcDbEntity
  8
0
100
AcDbLine
 62
7
  6
BYLAYER
 10
34.7337263628
 20
31.5677242888
 11
52.8083239396
 21
31.5677242888
  0
LINE
  5
279
100
AcDbEntity
  8
0
100
AcDbLine
 62
7
  6
BYLAYER
 10
34.7337263628
 20
31.6177242888
 11
34.3377761231
 21
31.6177242888
  0
LINE
  5
27A
100
AcDbEntity
  8
0
100
AcDbLine
 62
7
  6
BYLAYER
 10
10.4691384087
 20
31.5699480031
 11
10.517578864
 21
31.644539763
  0
LINE
  5
27B
100
AcDbEntity
  8
0
100
AcDbLine
 62
7
  6
BYLAYER
 10
30.3083239396
 20
52.7105833751
 11
30.5519838691
 21
52.8041156588
  0
LINE
  5
27C
100
AcDbEntity
  8
0
100
AcDbLine
 62
7
  6
BYLAYER
 10
30.9072118753
 20
32.1842683258
 11
30.8228221269
 21
32.1613525033
  0
LINE
  5
27D
100
AcDbEntity
  8
0
100
AcDbLine
 62
7
  6
BYLAYER
 10
29.7094360039
 20
32.2511802519
 11
29.7938257523
 21
32.2740960744
  0
LINE
  5
27E
100
AcDbEntity
  8
0
100
AcDbLine
 62
7
  6
BYLAYER
 10
30.8011830259
 20
32.2177242888
 11
30.7968098414
 21
32.2177242888
  0
LINE
  5
27F
100
AcDbEntity
  8
0
100
AcDbLine
 62
7
  6
BYLAYER
 10
10.8011830259
 20
32.2177242888
 11
10.7968098414
 21
32.2177242888
  0
LINE
  5
280
100
AcDbEntity
  8
0
100
AcDbLine
 62
7
  6
BYLAYER
 10
9.8154648534
 20
32.2177242888
 11
9.8198380379
 21
32.2177242888
  0
LINE
  5
281
100
AcDbEntity
  8
0
100
AcDbLine
 62
7
  6
BYLAYER
 10
29.8154648534
 20
32.2177242888
 11
29.8198380379
 21
32.2177242888
  0
LINE
  5
282
100
AcDbEntity
  8
0
100
AcDbLine
 62
7
  6
BYLAYER
 10
30.4691384087
 20
31.5699480031
 11
30.3417799026
 21
31.6188363531
  0
LINE
  5
283
100
AcDbEntity
  8
0
100
AcDbLine
 62
7
  6
BYLAYER
 10
30.5519838691
 20
31.6313329189
 11
30.517578864
 21
31.644539763
  0
LINE
  5
284
100
AcDbEntity
  8
0
100
AcDbLine
 62
7
  6
BYLAYER
 10
30.3646957252
 20
31.7032261015
 11
30.3083239396
 21
31.7248652026
  0
LINE
  5
285
100
AcDbEntity
  8
0
100
AcDbLine
 62
7
  6
BYLAYER
 10
11.0027876348
 20
51.056821521
 11
10.5664302478
 21
51.5956883792
  0
LINE
  5
286
100
AcDbEntity
  8
0
100
AcDbLine
 62
7
  6
BYLAYER
 10
21.3184568834
 20
50.7177242888
 11
21.3184568834
 21
51.1177242888
  0
LINE
  5
287
100
AcDbEntity
  8
0
100
AcDbLine
 62
7
  6
BYLAYER
 10
22.8184568834
 20
37.9177242888
 11
22.8184568834
 21
38.2177242888
  0
LINE
  5
288
100
AcDbEntity
  8
0
100
AcDbLine
 62
7
  6
BYLAYER
 10
10.4719017592
 20
32.9521720813
 11
10.7591711655
 21
33.2712894251
  0
LINE
  5
289
100
AcDbEntity
  8
0
100
AcDbLine
 62
7
  6
BYLAYER
 10
9.8574767138
 20
31.1641591526
 11
10.14474612
 21
31.4832764963
  0
LINE
  5
28A
100
AcDbEntity
  8
0
100
AcDbLine
 62
7
  6
BYLAYER
 10
8.8207527219
 20
33.2183336899
 11
9.3077145385
 21
33.7052955065
  0
LINE
  5
28B
100
AcDbEntity
  8
0
100
AcDbLine
 62
7
  6
BYLAYER
 10
28.8207527219
 20
53.2183336899
 11
29.3077145385
 21
53.7052955065
  0
LINE
  5
28C
100
AcDbEntity
  8
0
100
AcDbLine
 62
7
  6
BYLAYER
 10
9.1474211718
 20
32.912187984
 11
9.6138602445
 21
33.3786270567
  0
LINE
  5
28D
100
AcDbEntity
  8
0
100
AcDbLine
 62
7
  6
BYLAYER
 10
29.1474211718
 20
52.912187984
 11
29.6138602445
 21
53.3786270567
  0
LINE
  5
28E
100
AcDbEntity
  8
0
100
AcDbLine
 62
7
  6
BYLAYER
 10
30.0502176315
 20
52.8397601985
 11
29.9574151495
 21
52.7469577166
  0
LINE
  5
28F
100
AcDbEntity
  8
0
100
AcDbLine
 62
7
  6
BYLAYER
 10
29.7790905119
 20
52.5686330789
 11
29.68628803
 21
52.475830597
  0
LINE
  5
290
100
AcDbEntity
  8
0
100
AcDbLine
 62
7
  6
BYLAYER
 10
10.0502176315
 20
32.8397601985
 11
9.9574151495
 21
32.7469577166
  0
LINE
  5
291
100
AcDbEntity
  8
0
100
AcDbLine
 62
7
  6
BYLAYER
 10
9.7790905119
 20
32.5686330789
 11
9.68628803
 21
32.475830597
  0
LINE
  5
292
100
AcDbEntity
  8
0
100
AcDbLine
 62
7
  6
BYLAYER
 10
8.2168774273
 20
30.7586216752
 11
9.7094360039
 21
32.2511802519
  0
LINE
  5
293
100
AcDbEntity
  8
0
100
AcDbLine
 62
7
  6
BYLAYER
 10
10.2748679766
 20
32.8166122245
 11
11.1759800409
 21
33.7177242888
  0
LINE
  5
294
100
AcDbEntity
  8
0
100
AcDbLine
 62
7
  6
BYLAYER
 10
28.2168774273
 20
50.7586216752
 11
29.7094360039
 21
52.2511802519
  0
LINE
  5
295
100
AcDbEntity
  8
0
100
AcDbLine
 62
7
  6
BYLAYER
 10
30.2748679766
 20
52.8166122245
 11
31.7674265532
 21
54.3091708012
  0
LINE
  5
296
100
AcDbEntity
  8
0
100
AcDbLine
 62
7
  6
BYLAYER
 10
32.0317451362
 20
54.5438633958
 11
30.7591711655
 21
53.2712894251
  0
LINE
  5
297
100
AcDbEntity
  8
0
100
AcDbLine
 62
7
  6
BYLAYER
 10
29.2547588034
 20
51.766877063
 11
27.9821848326
 21
50.4943030922
  0
LINE
  5
298
100
AcDbEntity
  8
0
100
AcDbLine
 62
7
  6
BYLAYER
 10
11.2056060292
 20
33.7177242888
 11
10.7591711655
 21
33.2712894251
  0
LINE
  5
299
100
AcDbEntity
  8
0
100
AcDbLine
 62
7
  6
BYLAYER
 10
9.2547588034
 20
31.766877063
 11
7.9821848326
 21
30.4943030922
  0
LINE
  5
29A
100
AcDbEntity
  8
0
100
AcDbLine
 62
7
  6
BYLAYER
 10
30.4719017592
 20
52.9521720813
 11
30.251952154
 21
52.7322224762
  0
LINE
  5
29B
100
AcDbEntity
  8
0
100
AcDbLine
 62
7
  6
BYLAYER
 10
29.7938257523
 20
52.2740960744
 11
29.5738761471
 21
52.0541464692
  0
LINE
  5
29C
100
AcDbEntity
  8
0
100
AcDbLine
 62
7
  6
BYLAYER
 10
10.4719017592
 20
32.9521720813
 11
10.251952154
 21
32.7322224762
  0
LINE
  5
29D
100
AcDbEntity
  8
0
100
AcDbLine
 62
7
  6
BYLAYER
 10
9.7938257523
 20
32.2740960744
 11
9.5738761471
 21
32.0541464692
  0
LINE
  5
29E
100
AcDbEntity
  8
0
100
AcDbLine
 62
7
  6
BYLAYER
 10
29.2547588034
 20
51.766877063
 11
29.5738761471
 21
52.0541464692
  0
LINE
  5
29F
100
AcDbEntity
  8
0
100
AcDbLine
 62
7
  6
BYLAYER
 10
29.6605476539
 20
52.378538758
 11
29.7351394137
 21
52.4269792132
  0
LINE
  5
2A0
100
AcDbEntity
  8
0
100
AcDbLine
 62
7
  6
BYLAYER
 10
30.9561002254
 20
52.0569098197
 11
30.8815084655
 21
52.0084693645
  0
LINE
  5
2A1
100
AcDbEntity
  8
0
100
AcDbLine
 62
7
  6
BYLAYER
 10
34.3377761231
 20
52.8177242888
 11
33.9374270905
 21
52.6413973081
  0
LINE
  5
2A2
100
AcDbEntity
  8
0
100
AcDbLine
 62
7
  6
BYLAYER
 10
30.3083239396
 20
51.7248652026
 11
30.0646640101
 21
51.6313329189
  0
LINE
  5
2A3
100
AcDbEntity
  8
0
100
AcDbLine
 62
7
  6
BYLAYER
 10
21.8184568834
 20
33.5177242888
 11
15.8184568834
 21
33.5177242888
  0
LINE
  5
2A4
100
AcDbEntity
  8
0
100
AcDbLine
 62
7
  6
BYLAYER
 10
26.8184285484
 20
33.7177242888
 11
10.8184852185
 21
33.7177242888
  0
LINE
  5
2A5
100
AcDbEntity
  8
0
100
AcDbLine
 62
7
  6
BYLAYER
 10
34.7337263628
 20
34.5677242888
 11
52.8083239396
 21
34.5677242888
  0
LINE
  5
2A6
100
AcDbEntity
  8
0
100
AcDbLine
 62
7
  6
BYLAYER
 10
53.3083014211
 20
35.0677242888
 11
39.3777711357
 21
35.0677242888
  0
LINE
  5
2A7
100
AcDbEntity
  8
0
100
AcDbLine
 62
7
  6
BYLAYER
 10
49.1107671675
 20
35.2177242888
 11
25.9578610986
 21
35.2177242888
  0
LINE
  5
2A8
100
AcDbEntity
  8
0
100
AcDbLine
 62
7
  6
BYLAYER
 10
30.0646640101
 20
32.8041156588
 11
30.0990690152
 21
32.7909088147
  0
LINE
  5
2A9
100
AcDbEntity
  8
0
100
AcDbLine
 62
7
  6
BYLAYER
 10
30.251952154
 20
32.7322224762
 11
30.3083239396
 21
32.7105833751
  0
LINE
  5
2AA
100
AcDbEntity
  8
0
100
AcDbLine
 62
7
  6
BYLAYER
 10
30.1475094705
 20
32.8655005746
 11
30.2748679766
 21
32.8166122245
  0
LINE
  5
2AB
100
AcDbEntity
  8
0
100
AcDbLine
 62
7
  6
BYLAYER
 10
33.9374270905
 20
31.7940512695
 11
34.3377761231
 21
31.6177242888
  0
LINE
  5
2AC
100
AcDbEntity
  8
0
100
AcDbLine
 62
7
  6
BYLAYER
 10
29.6862880299
 20
32.475830597
 11
29.1474211718
 21
32.912187984
  0
LINE
  5
2AD
100
AcDbEntity
  8
0
100
AcDbLine
 62
7
  6
BYLAYER
 10
31.4692267075
 20
31.5232605937
 11
30.9303598493
 21
31.9596179807
  0
LINE
  5
2AE
100
AcDbEntity
  8
0
100
AcDbLine
 62
7
  6
BYLAYER
 10
29.8574767138
 20
31.1641591526
 11
29.2547588034
 21
31.766877063
  0
LINE
  5
2AF
100
AcDbEntity
  8
0
100
AcDbLine
 62
7
  6
BYLAYER
 10
9.8574767138
 20
51.1641591526
 11
9.2547588034
 21
51.766877063
  0
LINE
  5
2B0
100
AcDbEntity
  8
0
100
AcDbLine
 62
7
  6
BYLAYER
 10
30.14474612
 20
31.4832764963
 11
29.5738761471
 21
32.0541464692
  0
LINE
  5
2B1
100
AcDbEntity
  8
0
100
AcDbLine
 62
7
  6
BYLAYER
 10
10.14474612
 20
51.4832764963
 11
9.5738761471
 21
52.0541464692
  0
LINE
  5
2B2
100
AcDbEntity
  8
0
100
AcDbLine
 62
7
  6
BYLAYER
 10
31.3089333407
 20
30.7301530711
 11
30.4691384087
 21
31.5699480031
  0
LINE
  5
2B3
100
AcDbEntity
  8
0
100
AcDbLine
 62
7
  6
BYLAYER
 10
29.6605476539
 20
32.378538758
 11
28.8207527219
 21
33.2183336899
  0
LINE
  5
2B4
100
AcDbEntity
  8
0
100
AcDbLine
 62
7
  6
BYLAYER
 10
11.3089333407
 20
50.7301530711
 11
10.4691384087
 21
51.5699480031
  0
LINE
  5
2B5
100
AcDbEntity
  8
0
100
AcDbLine
 62
7
  6
BYLAYER
 10
9.6605476539
 20
52.378538758
 11
8.8207527219
 21
53.2183336899
  0
LINE
  5
2B6
100
AcDbEntity
  8
0
100
AcDbLine
 62
7
  6
BYLAYER
 10
10.0502176315
 20
52.8397601985
 11
9.6138602445
 21
53.3786270567
  0
LINE
  5
2B7
100
AcDbEntity
  8
0
100
AcDbLine
 62
7
  6
BYLAYER
 10
24.3184568834
 20
38.4677249337
 11
24.3184568834
 21
38.7177242888
  0
LINE
  5
2B8
100
AcDbEntity
  8
0
100
AcDbLine
 62
7
  6
BYLAYER
 10
24.3184568834
 20
45.7177242888
 11
24.3184568834
 21
45.9677235416
  0
LINE
  5
2B9
100
AcDbEntity
  8
0
100
AcDbLine
 62
7
  6
BYLAYER
 10
30.1475094705
 20
52.8655005746
 11
30.0990690152
 21
52.7909088147
  0
LINE
  5
2BA
100
AcDbEntity
  8
0
100
AcDbLine
 62
7
  6
BYLAYER
 10
30.4719017592
 20
52.9521720813
 11
30.7591711655
 21
53.2712894251
  0
LINE
  5
2BB
100
AcDbEntity
  8
0
100
AcDbLine
 62
7
  6
BYLAYER
 10
29.8574767138
 20
51.1641591526
 11
30.14474612
 21
51.4832764963
  0
LINE
  5
2BC
100
AcDbEntity
  8
0
100
AcDbLine
 62
7
  6
BYLAYER
 10
10.14474612
 20
31.4832764963
 11
10.3646957252
 21
31.7032261015
  0
LINE
  5
2BD
100
AcDbEntity
  8
0
100
AcDbLine
 62
7
  6
BYLAYER
 10
10.8228221269
 20
32.1613525033
 11
11.0427717321
 21
32.3813021084
  0
LINE
  5
2BE
100
AcDbEntity
  8
0
100
AcDbLine
 62
7
  6
BYLAYER
 10
30.14474612
 20
51.4832764963
 11
30.3646957252
 21
51.7032261015
  0
LINE
  5
2BF
100
AcDbEntity
  8
0
100
AcDbLine
 62
7
  6
BYLAYER
 10
30.8228221269
 20
52.1613525033
 11
31.0427717321
 21
52.3813021084
  0
LINE
  5
2C0
100
AcDbEntity
  8
0
100
AcDbLine
 62
7
  6
BYLAYER
 10
32.6344630466
 20
53.9411454855
 11
31.3618890758
 21
52.6685715147
  0
LINE
  5
2C1
100
AcDbEntity
  8
0
100
AcDbLine
 62
7
  6
BYLAYER
 10
29.8574767138
 20
51.1641591526
 11
28.584902743
 21
49.8915851819
  0
LINE
  5
2C2
100
AcDbEntity
  8
0
100
AcDbLine
 62
7
  6
BYLAYER
 10
12.41104185
 20
33.7177242888
 11
11.3618890758
 21
32.6685715147
  0
LINE
  5
2C3
100
AcDbEntity
  8
0
100
AcDbLine
 62
7
  6
BYLAYER
 10
9.8574767138
 20
31.1641591526
 11
8.584902743
 21
29.8915851819
  0
LINE
  5
2C4
100
AcDbEntity
  8
0
100
AcDbLine
 62
7
  6
BYLAYER
 10
32.3997704519
 20
53.6768269025
 11
30.9072118753
 21
52.1842683258
  0
LINE
  5
2C5
100
AcDbEntity
  8
0
100
AcDbLine
 62
7
  6
BYLAYER
 10
30.3417799026
 20
51.6188363531
 11
28.849221326
 21
50.1262777765
  0
LINE
  5
2C6
100
AcDbEntity
  8
0
100
AcDbLine
 62
7
  6
BYLAYER
 10
12.3997704519
 20
33.6768269025
 11
10.9072118753
 21
32.1842683258
  0
LINE
  5
2C7
100
AcDbEntity
  8
0
100
AcDbLine
 62
7
  6
BYLAYER
 10
10.3417799026
 20
31.6188363531
 11
8.849221326
 21
30.1262777765
  0
LINE
  5
2C8
100
AcDbEntity
  8
0
100
AcDbLine
 62
7
  6
BYLAYER
 10
30.9303598493
 20
51.9596179807
 11
30.8375573674
 21
51.8668154988
  0
LINE
  5
2C9
100
AcDbEntity
  8
0
100
AcDbLine
 62
7
  6
BYLAYER
 10
30.6592327297
 20
51.6884908611
 11
30.5664302478
 21
51.5956883792
  0
LINE
  5
2CA
100
AcDbEntity
  8
0
100
AcDbLine
 62
7
  6
BYLAYER
 10
10.9303598493
 20
31.9596179807
 11
10.8375573674
 21
31.8668154988
  0
LINE
  5
2CB
100
AcDbEntity
  8
0
100
AcDbLine
 62
7
  6
BYLAYER
 10
10.6592327297
 20
31.6884908611
 11
10.5664302478
 21
31.5956883792
  0
LINE
  5
2CC
100
AcDbEntity
  8
0
100
AcDbLine
 62
7
  6
BYLAYER
 10
11.0027876348
 20
31.056821521
 11
11.4692267075
 21
31.5232605937
  0
LINE
  5
2CD
100
AcDbEntity
  8
0
100
AcDbLine
 62
7
  6
BYLAYER
 10
31.0027876348
 20
51.056821521
 11
31.4692267075
 21
51.5232605937
  0
LINE
  5
2CE
100
AcDbEntity
  8
0
100
AcDbLine
 62
7
  6
BYLAYER
 10
31.0427717321
 20
52.3813021084
 11
31.3618890758
 21
52.6685715147
  0
LINE
  5
2CF
100
AcDbEntity
  8
0
100
AcDbLine
 62
7
  6
BYLAYER
 10
9.2547588034
 20
31.766877063
 11
9.5738761471
 21
32.0541464692
  0
LINE
  5
2D0
100
AcDbEntity
  8
0
100
AcDbLine
 62
7
  6
BYLAYER
 10
11.0427717321
 20
32.3813021084
 11
11.3618890758
 21
32.6685715147
  0
LINE
  5
2D1
100
AcDbEntity
  8
0
100
AcDbLine
 62
7
  6
BYLAYER
 10
9.68628803
 20
52.475830597
 11
9.7351394137
 21
52.4269792132
  0
LINE
  5
2D2
100
AcDbEntity
  8
0
100
AcDbLine
 62
7
  6
BYLAYER
 10
10.517578864
 20
51.644539763
 11
10.5664302478
 21
51.5956883792
  0
LINE
  5
2D3
100
AcDbEntity
  8
0
100
AcDbLine
 62
7
  6
BYLAYER
 10
29.68628803
 20
32.475830597
 11
29.7351394137
 21
32.4269792132
  0
LINE
  5
2D4
100
AcDbEntity
  8
0
100
AcDbLine
 62
7
  6
BYLAYER
 10
30.517578864
 20
31.644539763
 11
30.5664302478
 21
31.5956883792
  0
LINE
  5
2D5
100
AcDbEntity
  8
0
100
AcDbLine
 62
7
  6
BYLAYER
 10
30.9303598493
 20
31.9596179807
 11
30.8815084655
 21
32.0084693645
  0
LINE
  5
2D6
100
AcDbEntity
  8
0
100
AcDbLine
 62
7
  6
BYLAYER
 10
30.0990690152
 20
32.7909088147
 11
30.0502176315
 21
32.8397601985
  0
LINE
  5
2D7
100
AcDbEntity
  8
0
100
AcDbLine
 62
7
  6
BYLAYER
 10
10.9303598493
 20
51.9596179807
 11
10.8815084655
 21
52.0084693645
  0
LINE
  5
2D8
100
AcDbEntity
  8
0
100
AcDbLine
 62
7
  6
BYLAYER
 10
10.0990690152
 20
52.7909088147
 11
10.0502176315
 21
52.8397601985
  0
LINE
  5
2D9
100
AcDbEntity
  8
0
100
AcDbLine
 62
7
  6
BYLAYER
 10
9.3077145385
 20
53.7052955065
 11
10.1475094705
 21
52.8655005746
  0
LINE
  5
2DA
100
AcDbEntity
  8
0
100
AcDbLine
 62
7
  6
BYLAYER
 10
10.9561002254
 20
52.0569098197
 11
11.7958951573
 21
51.2171148878
  0
LINE
  5
2DB
100
AcDbEntity
  8
0
100
AcDbLine
 62
7
  6
BYLAYER
 10
29.3077145385
 20
33.7052955065
 11
30.1475094705
 21
32.8655005746
  0
LINE
  5
2DC
100
AcDbEntity
  8
0
100
AcDbLine
 62
7
  6
BYLAYER
 10
30.9561002254
 20
32.0569098197
 11
31.7958951573
 21
31.2171148878
  0
LINE
  5
2DD
100
AcDbEntity
  8
0
100
AcDbLine
 62
7
  6
BYLAYER
 10
31.0427717321
 20
32.3813021084
 11
30.4719017592
 21
32.9521720813
  0
LINE
  5
2DE
100
AcDbEntity
  8
0
100
AcDbLine
 62
7
  6
BYLAYER
 10
11.0427717321
 20
52.3813021084
 11
10.4719017592
 21
52.9521720813
  0
LINE
  5
2DF
100
AcDbEntity
  8
0
100
AcDbLine
 62
7
  6
BYLAYER
 10
31.3618890758
 20
32.6685715147
 11
30.7591711655
 21
33.2712894251
  0
LINE
  5
2E0
100
AcDbEntity
  8
0
100
AcDbLine
 62
7
  6
BYLAYER
 10
11.3618890758
 20
52.6685715147
 11
10.7591711655
 21
53.2712894251
  0
LINE
  5
2E1
100
AcDbEntity
  8
0
100
AcDbLine
 62
7
  6
BYLAYER
 10
31.0027876348
 20
31.056821521
 11
30.5664302478
 21
31.5956883792
  0
LINE
  5
2E2
100
AcDbEntity
  8
0
100
AcDbLine
 62
7
  6
BYLAYER
 10
30.0502176315
 20
32.8397601985
 11
29.6138602445
 21
33.3786270567
  0
LINE
  5
2E3
100
AcDbEntity
  8
0
100
AcDbLine
 62
7
  6
BYLAYER
 10
25.9578610986
 20
35.2177242888
 11
25.9578610986
 21
37.9177242888
  0
LINE
  5
2E4
100
AcDbEntity
  8
0
100
AcDbLine
 62
7
  6
BYLAYER
 10
25.9578610986
 20
46.5177242888
 11
25.9578610986
 21
49.2177242888
  0
LINE
  5
2E5
100
AcDbEntity
  8
0
100
AcDbLine
 62
7
  6
BYLAYER
 10
29.7219325697
 20
51.9740643594
 11
29.8154648534
 21
52.2177242888
  0
LINE
  5
2E6
100
AcDbEntity
  8
0
100
AcDbLine
 62
7
  6
BYLAYER
 10
30.4691384087
 20
51.5699480031
 11
30.517578864
 21
51.644539763
  0
LINE
  5
2E7
100
AcDbEntity
  8
0
100
AcDbLine
 62
7
  6
BYLAYER
 10
31.7958951573
 20
51.2171148878
 11
31.3089333407
 21
50.7301530711
  0
LINE
  5
2E8
100
AcDbEntity
  8
0
100
AcDbLine
 62
7
  6
BYLAYER
 10
11.7958951573
 20
31.2171148878
 11
11.3089333407
 21
30.7301530711
  0
LINE
  5
2E9
100
AcDbEntity
  8
0
100
AcDbLine
 62
7
  6
BYLAYER
 10
10.9072118753
 20
32.1842683258
 11
10.8228221269
 21
32.1613525033
  0
LINE
  5
2EA
100
AcDbEntity
  8
0
100
AcDbLine
 62
7
  6
BYLAYER
 10
9.7094360039
 20
32.2511802519
 11
9.7938257523
 21
32.2740960744
  0
LINE
  5
2EB
100
AcDbEntity
  8
0
100
AcDbLine
 62
7
  6
BYLAYER
 10
6.3083239396
 20
37.2177242888
 11
6.8083239396
 21
37.2177242888
  0
LINE
  5
2EC
100
AcDbEntity
  8
0
100
AcDbLine
 62
7
  6
BYLAYER
 10
10.8185059002
 20
37.9177242888
 11
29.4944910134
 21
37.9177242888
  0
LINE
  5
2ED
100
AcDbEntity
  8
0
100
AcDbLine
 62
7
  6
BYLAYER
 10
24.0684562697
 20
38.2177242888
 11
13.5684574972
 21
38.2177242888
  0
LINE
  5
2EE
100
AcDbEntity
  8
0
100
AcDbLine
 62
7
  6
BYLAYER
 10
24.3184568834
 20
38.4677249337
 11
13.3184568834
 21
38.4677249337
  0
LINE
  5
2EF
100
AcDbEntity
  8
0
100
AcDbLine
 62
7
  6
BYLAYER
 10
28.8184568834
 20
38.7177242888
 11
8.8184568834
 21
38.7177242888
  0
LINE
  5
2F0
100
AcDbEntity
  8
0
100
AcDbLine
 62
7
  6
BYLAYER
 10
9.6862880299
 20
52.475830597
 11
9.1474211718
 21
52.912187984
  0
LINE
  5
2F1
100
AcDbEntity
  8
0
100
AcDbLine
 62
7
  6
BYLAYER
 10
11.4692267075
 20
51.5232605937
 11
10.9303598493
 21
51.9596179807
  0
LINE
  5
2F2
100
AcDbEntity
  8
0
100
AcDbLine
 62
7
  6
BYLAYER
 10
29.7094360039
 20
32.2511802519
 11
29.6605476539
 21
32.378538758
  0
LINE
  5
2F3
100
AcDbEntity
  8
0
100
AcDbLine
 62
7
  6
BYLAYER
 10
29.8154648534
 20
32.2177242888
 11
29.7938257523
 21
32.2740960744
  0
LINE
  5
2F4
100
AcDbEntity
  8
0
100
AcDbLine
 62
7
  6
BYLAYER
 10
29.7351394137
 20
32.4269792132
 11
29.7219325697
 21
32.4613842183
  0
LINE
  5
2F5
100
AcDbEntity
  8
0
100
AcDbLine
 62
7
  6
BYLAYER
 10
26.8184568834
 20
33.7177242888
 11
26.8184568834
 21
35.2177242888
  0
LINE
  5
2F6
100
AcDbEntity
  8
0
100
AcDbLine
 62
7
  6
BYLAYER
 10
26.8184568834
 20
49.2177242888
 11
26.8184568834
 21
50.7177242888
  0
LINE
  5
2F7
100
AcDbEntity
  8
0
100
AcDbLine
 62
7
  6
BYLAYER
 10
30.251952154
 20
52.7322224762
 11
30.2748679766
 21
52.8166122245
  0
LINE
  5
2F8
100
AcDbEntity
  8
0
100
AcDbLine
 62
7
  6
BYLAYER
 10
30.3646957252
 20
51.7032261015
 11
30.3417799026
 21
51.6188363531
  0
LINE
  5
2F9
100
AcDbEntity
  8
0
100
AcDbLine
 62
7
  6
BYLAYER
 10
30.8947153096
 20
52.4613842183
 11
30.8011830259
 21
52.2177242888
  0
LINE
  5
2FA
100
AcDbEntity
  8
0
100
AcDbLine
 62
7
  6
BYLAYER
 10
9.6605476539
 20
32.378538758
 11
9.7351394137
 21
32.4269792132
  0
LINE
  5
2FB
100
AcDbEntity
  8
0
100
AcDbLine
 62
7
  6
BYLAYER
 10
10.9561002254
 20
32.0569098197
 11
10.8815084655
 21
32.0084693645
  0
LINE
  5
2FC
100
AcDbEntity
  8
0
100
AcDbLine
 62
7
  6
BYLAYER
 10
22.3184568834
 20
46.5177242888
 11
22.6184568834
 21
46.2177242888
  0
LINE
  5
2FD
100
AcDbEntity
  8
0
100
AcDbLine
 62
7
  6
BYLAYER
 10
30.8011830259
 20
32.2177242888
 11
30.8228221269
 21
32.1613525033
  0
LINE
  5
2FE
100
AcDbEntity
  8
0
100
AcDbLine
 62
7
  6
BYLAYER
 10
30.8815084655
 20
32.0084693645
 11
30.8947153096
 21
31.9740643594
  0
LINE
  5
2FF
100
AcDbEntity
  8
0
100
AcDbLine
 62
7
  6
BYLAYER
 10
30.9072118753
 20
32.1842683258
 11
30.9561002254
 21
32.0569098197
  0
LINE
  5
300
100
AcDbEntity
  8
0
100
AcDbLine
 62
7
  6
BYLAYER
 10
28.8184568834
 20
38.7177242888
 11
28.8184568834
 21
45.7177242888
  0
LINE
  5
301
100
AcDbEntity
  8
0
100
AcDbLine
 62
7
  6
BYLAYER
 10
29.4944910134
 20
35.2177242888
 11
29.4944910134
 21
49.2177242888
  0
LINE
  5
302
100
AcDbEntity
  8
0
100
AcDbLine
 62
7
  6
BYLAYER
 10
24.318456641
 20
38.4677249337
 11
24.0684562697
 21
38.217724522
  0
LINE
  5
303
100
AcDbEntity
  8
0
100
AcDbLine
 62
7
  6
BYLAYER
 10
24.0684561723
 20
46.2177240459
 11
24.3184566311
 21
45.9677235416
  0
LINE
  5
304
100
AcDbEntity
  8
0
100
AcDbLine
 62
7
  6
BYLAYER
 10
30.3083239396
 20
52.7105833751
 11
30.3083239396
 21
52.7062101906
  0
LINE
  5
305
100
AcDbEntity
  8
0
100
AcDbLine
 62
7
  6
BYLAYER
 10
30.3083239396
 20
32.7105833751
 11
30.3083239396
 21
32.7062101906
  0
LINE
  5
306
100
AcDbEntity
  8
0
100
AcDbLine
 62
7
  6
BYLAYER
 10
30.3083239396
 20
31.7248652026
 11
30.3083239396
 21
31.7292383871
  0
LINE
  5
307
100
AcDbEntity
  8
0
100
AcDbLine
 62
7
  6
BYLAYER
 10
30.3083239396
 20
51.7248652026
 11
30.3083239396
 21
51.7292383871
  0
LINE
  5
308
100
AcDbEntity
  8
0
100
AcDbLine
 62
7
  6
BYLAYER
 10
22.0184568834
 20
33.7177242888
 11
21.8184568834
 21
33.5177242888
  0
LINE
  5
309
100
AcDbEntity
  8
0
100
AcDbLine
 62
7
  6
BYLAYER
 10
44.8383239396
 20
54.3677242888
 11
44.3383239396
 21
53.8677242888
  0
LINE
  5
30A
100
AcDbEntity
  8
0
100
AcDbLine
 62
7
  6
BYLAYER
 10
10.3083239396
 20
32.7105833751
 11
10.5519838691
 21
32.8041156588
  0
LINE
  5
30B
100
AcDbEntity
  8
0
100
AcDbLine
 62
7
  6
BYLAYER
 10
10.4691384087
 20
51.5699480031
 11
10.3417799026
 21
51.6188363531
  0
LINE
  5
30C
100
AcDbEntity
  8
0
100
AcDbLine
 62
7
  6
BYLAYER
 10
10.5519838691
 20
51.6313329189
 11
10.517578864
 21
51.644539763
  0
LINE
  5
30D
100
AcDbEntity
  8
0
100
AcDbLine
 62
7
  6
BYLAYER
 10
10.3646957252
 20
51.7032261015
 11
10.3083239396
 21
51.7248652026
  0
LINE
  5
30E
100
AcDbEntity
  8
0
100
AcDbLine
 62
7
  6
BYLAYER
 10
20.9184568834
 20
51.5177242888
 11
21.3184568834
 21
51.1177242888
  0
LINE
  5
30F
100
AcDbEntity
  8
0
100
AcDbLine
 62
7
  6
BYLAYER
 10
43.3233239396
 20
31.3677242888
 11
43.8233239396
 21
30.8677242888
  0
LINE
  5
310
100
AcDbEntity
  8
0
100
AcDbLine
 62
7
  6
BYLAYER
 10
30.251952154
 20
32.7322224762
 11
30.2748679766
 21
32.8166122245
  0
LINE
  5
311
100
AcDbEntity
  8
0
100
AcDbLine
 62
7
  6
BYLAYER
 10
30.3646957252
 20
31.7032261015
 11
30.3417799026
 21
31.6188363531
  0
LINE
  5
312
100
AcDbEntity
  8
0
100
AcDbLine
 62
7
  6
BYLAYER
 10
29.7219325697
 20
31.9740643594
 11
29.8154648534
 21
32.2177242888
  0
LINE
  5
313
100
AcDbEntity
  8
0
100
AcDbLine
 62
7
  6
BYLAYER
 10
10.3083239396
 20
31.7248652026
 11
10.0646640101
 21
31.6313329189
  0
LINE
  5
314
100
AcDbEntity
  8
0
100
AcDbLine
 62
7
  6
BYLAYER
 10
8.8184568834
 20
45.7177242888
 11
28.8184568834
 21
45.7177242888
  0
LINE
  5
315
100
AcDbEntity
  8
0
100
AcDbLine
 62
7
  6
BYLAYER
 10
13.3184568834
 20
45.9677235416
 11
24.3184568834
 21
45.9677235416
  0
LINE
  5
316
100
AcDbEntity
  8
0
100
AcDbLine
 62
7
  6
BYLAYER
 10
10.0646640101
 20
52.8041156588
 11
10.0990690152
 21
52.7909088147
  0
LINE
  5
317
100
AcDbEntity
  8
0
100
AcDbLine
 62
7
  6
BYLAYER
 10
10.251952154
 20
52.7322224762
 11
10.3083239396
 21
52.7105833751
  0
LINE
  5
318
100
AcDbEntity
  8
0
100
AcDbLine
 62
7
  6
BYLAYER
 10
10.1475094705
 20
52.8655005746
 11
10.2748679766
 21
52.8166122245
  0
LINE
  5
319
100
AcDbEntity
  8
0
100
AcDbLine
 62
7
  6
BYLAYER
 10
29.7094360039
 20
52.2511802519
 11
29.6605476539
 21
52.378538758
  0
LINE
  5
31A
100
AcDbEntity
  8
0
100
AcDbLine
 62
7
  6
BYLAYER
 10
29.8154648534
 20
52.2177242888
 11
29.7938257523
 21
52.2740960744
  0
LINE
  5
31B
100
AcDbEntity
  8
0
100
AcDbLine
 62
7
  6
BYLAYER
 10
29.7351394137
 20
52.4269792132
 11
29.7219325697
 21
52.4613842183
  0
LINE
  5
31C
100
AcDbEntity
  8
0
100
AcDbLine
 62
7
  6
BYLAYER
 10
33.8083228836
 20
29.4176410017
 11
33.8083239396
 21
33.2177242888
  0
LINE
  5
31D
100
AcDbEntity
  8
0
100
AcDbLine
 62
7
  6
BYLAYER
 10
33.8083239396
 20
51.2177242888
 11
33.8083228886
 21
55.0178076507
  0
LINE
  5
31E
100
AcDbEntity
  8
0
100
AcDbLine
 62
7
  6
BYLAYER
 10
33.9374270905
 20
52.6413973081
 11
33.9374270905
 21
49.2177242888
  0
LINE
  5
31F
100
AcDbEntity
  8
0
100
AcDbLine
 62
7
  6
BYLAYER
 10
33.9374270905
 20
35.2177242888
 11
33.9374270905
 21
31.7940512695
  0
LINE
  5
320
100
AcDbEntity
  8
0
100
AcDbLine
 62
7
  6
BYLAYER
 10
34.3377761231
 20
52.8177242888
 11
34.3377761231
 21
49.2177242888
  0
LINE
  5
321
100
AcDbEntity
  8
0
100
AcDbLine
 62
7
  6
BYLAYER
 10
34.3377761231
 20
35.2177242888
 11
34.3377761231
 21
31.6177242888
  0
LINE
  5
322
100
AcDbEntity
  8
0
100
AcDbLine
 62
7
  6
BYLAYER
 10
34.7337263628
 20
34.5677242888
 11
34.7337263628
 21
31.5677242888
  0
LINE
  5
323
100
AcDbEntity
  8
0
100
AcDbLine
 62
7
  6
BYLAYER
 10
34.7337263628
 20
49.8677242888
 11
34.7337263628
 21
52.8677242888
  0
LINE
  5
324
100
AcDbEntity
  8
0
100
AcDbLine
 62
7
  6
BYLAYER
 10
30.8947153096
 20
32.4613842183
 11
30.8011830259
 21
32.2177242888
  0
LINE
  5
325
100
AcDbEntity
  8
0
100
AcDbLine
 62
7
  6
BYLAYER
 10
30.1475094705
 20
32.8655005746
 11
30.0990690152
 21
32.7909088147
  0
LINE
  5
326
100
AcDbEntity
  8
0
100
AcDbLine
 62
7
  6
BYLAYER
 10
13.5684575945
 20
46.2177242888
 11
24.0684561723
 21
46.2177242888
  0
LINE
  5
327
100
AcDbEntity
  8
0
100
AcDbLine
 62
7
  6
BYLAYER
 10
29.4944910134
 20
46.5177242888
 11
10.8185059002
 21
46.5177242888
  0
LINE
  5
328
100
AcDbEntity
  8
0
100
AcDbLine
 62
7
  6
BYLAYER
 10
6.8083239396
 20
47.2177242888
 11
6.3083239396
 21
47.2177242888
  0
LINE
  5
329
100
AcDbEntity
  8
0
100
AcDbLine
 62
7
  6
BYLAYER
 10
30.8011830259
 20
52.2177242888
 11
30.8228221269
 21
52.1613525033
  0
LINE
  5
32A
100
AcDbEntity
  8
0
100
AcDbLine
 62
7
  6
BYLAYER
 10
30.8815084655
 20
52.0084693645
 11
30.8947153096
 21
51.9740643594
  0
LINE
  5
32B
100
AcDbEntity
  8
0
100
AcDbLine
 62
7
  6
BYLAYER
 10
30.9072118753
 20
52.1842683258
 11
30.9561002254
 21
52.0569098197
  0
LINE
  5
32C
100
AcDbEntity
  8
0
100
AcDbLine
 62
7
  6
BYLAYER
 10
36.2052882039
 20
52.8677242888
 11
36.2052882039
 21
49.8677242888
  0
LINE
  5
32D
100
AcDbEntity
  8
0
100
AcDbLine
 62
7
  6
BYLAYER
 10
36.2052882039
 20
34.5677242888
 11
36.2052882039
 21
31.5677242888
  0
LINE
  5
32E
100
AcDbEntity
  8
0
100
AcDbLine
 62
7
  6
BYLAYER
 10
30.4691384087
 20
31.5699480031
 11
30.517578864
 21
31.644539763
  0
LINE
  5
32F
100
AcDbEntity
  8
0
100
AcDbLine
 62
7
  6
BYLAYER
 10
30.4719017592
 20
32.9521720813
 11
30.7591711655
 21
33.2712894251
  0
LINE
  5
330
100
AcDbEntity
  8
0
100
AcDbLine
 62
7
  6
BYLAYER
 10
29.8574767138
 20
31.1641591526
 11
30.14474612
 21
31.4832764963
  0
LINE
  5
331
100
AcDbEntity
  8
0
100
AcDbLine
 62
7
  6
BYLAYER
 10
28.8207527219
 20
33.2183336899
 11
29.3077145385
 21
33.7052955065
  0
LINE
  5
332
100
AcDbEntity
  8
0
100
AcDbLine
 62
7
  6
BYLAYER
 10
29.1474211718
 20
32.912187984
 11
29.6138602445
 21
33.3786270567
  0
LINE
  5
333
100
AcDbEntity
  8
0
100
AcDbLine
 62
7
  6
BYLAYER
 10
30.0502176315
 20
32.8397601985
 11
29.9574151495
 21
32.7469577166
  0
LINE
  5
334
100
AcDbEntity
  8
0
100
AcDbLine
 62
7
  6
BYLAYER
 10
29.7790905119
 20
32.5686330789
 11
29.68628803
 21
32.475830597
  0
LINE
  5
335
100
AcDbEntity
  8
0
100
AcDbLine
 62
7
  6
BYLAYER
 10
28.2168774273
 20
30.7586216752
 11
29.7094360039
 21
32.2511802519
  0
LINE
  5
336
100
AcDbEntity
  8
0
100
AcDbLine
 62
7
  6
BYLAYER
 10
30.2748679766
 20
32.8166122245
 11
31.7674265532
 21
34.3091708012
  0
LINE
  5
337
100
AcDbEntity
  8
0
100
AcDbLine
 62
7
  6
BYLAYER
 10
32.0317451362
 20
34.5438633958
 11
30.7591711655
 21
33.2712894251
  0
LINE
  5
338
100
AcDbEntity
  8
0
100
AcDbLine
 62
7
  6
BYLAYER
 10
29.2547588034
 20
31.766877063
 11
27.9821848326
 21
30.4943030922
  0
LINE
  5
339
100
AcDbEntity
  8
0
100
AcDbLine
 62
7
  6
BYLAYER
 10
30.4719017592
 20
32.9521720813
 11
30.251952154
 21
32.7322224762
  0
LINE
  5
33A
100
AcDbEntity
  8
0
100
AcDbLine
 62
7
  6
BYLAYER
 10
29.7938257523
 20
32.2740960744
 11
29.5738761471
 21
32.0541464692
  0
LINE
  5
33B
100
AcDbEntity
  8
0
100
AcDbLine
 62
7
  6
BYLAYER
 10
29.2547588034
 20
31.766877063
 11
29.5738761471
 21
32.0541464692
  0
LINE
  5
33C
100
AcDbEntity
  8
0
100
AcDbLine
 62
7
  6
BYLAYER
 10
25.9578610986
 20
49.2177242888
 11
49.1107671676
 21
49.2177242888
  0
LINE
  5
33D
100
AcDbEntity
  8
0
100
AcDbLine
 62
7
  6
BYLAYER
 10
39.3777711357
 20
49.3677242888
 11
53.3083161943
 21
49.3677242888
  0
LINE
  5
33E
100
AcDbEntity
  8
0
100
AcDbLine
 62
7
  6
BYLAYER
 10
29.8574767138
 20
51.1641591526
 11
29.2547588034
 21
51.766877063
  0
LINE
  5
33F
100
AcDbEntity
  8
0
100
AcDbLine
 62
7
  6
BYLAYER
 10
30.14474612
 20
51.4832764963
 11
29.5738761471
 21
52.0541464692
  0
LINE
  5
340
100
AcDbEntity
  8
0
100
AcDbLine
 62
7
  6
BYLAYER
 10
31.3089333407
 20
50.7301530711
 11
30.4691384087
 21
51.5699480031
  0
LINE
  5
341
100
AcDbEntity
  8
0
100
AcDbLine
 62
7
  6
BYLAYER
 10
29.6605476539
 20
52.378538758
 11
28.8207527219
 21
53.2183336899
  0
LINE
  5
342
100
AcDbEntity
  8
0
100
AcDbLine
 62
7
  6
BYLAYER
 10
29.68628803
 20
52.475830597
 11
29.7351394137
 21
52.4269792132
  0
LINE
  5
343
100
AcDbEntity
  8
0
100
AcDbLine
 62
7
  6
BYLAYER
 10
30.517578864
 20
51.644539763
 11
30.5664302478
 21
51.5956883792
  0
LINE
  5
344
100
AcDbEntity
  8
0
100
AcDbLine
 62
7
  6
BYLAYER
 10
31.0027876348
 20
51.056821521
 11
30.5664302478
 21
51.5956883792
  0
LINE
  5
345
100
AcDbEntity
  8
0
100
AcDbLine
 62
7
  6
BYLAYER
 10
30.0502176315
 20
52.8397601985
 11
29.6138602445
 21
53.3786270567
  0
LINE
  5
346
100
AcDbEntity
  8
0
100
AcDbLine
 62
7
  6
BYLAYER
 10
37.9873012523
 20
31.5677242888
 11
37.9873012523
 21
34.5677242888
  0
LINE
  5
347
100
AcDbEntity
  8
0
100
AcDbLine
 62
7
  6
BYLAYER
 10
37.9873012523
 20
49.8677242888
 11
37.9873012523
 21
52.8677242888
  0
LINE
  5
348
100
AcDbEntity
  8
0
100
AcDbLine
 62
7
  6
BYLAYER
 10
30.14474612
 20
31.4832764963
 11
30.3646957252
 21
31.7032261015
  0
LINE
  5
349
100
AcDbEntity
  8
0
100
AcDbLine
 62
7
  6
BYLAYER
 10
30.8228221269
 20
32.1613525033
 11
31.0427717321
 21
32.3813021084
  0
LINE
  5
34A
100
AcDbEntity
  8
0
100
AcDbLine
 62
7
  6
BYLAYER
 10
32.6344630466
 20
33.9411454855
 11
31.3618890758
 21
32.6685715147
  0
LINE
  5
34B
100
AcDbEntity
  8
0
100
AcDbLine
 62
7
  6
BYLAYER
 10
29.8574767138
 20
31.1641591526
 11
28.584902743
 21
29.8915851819
  0
LINE
  5
34C
100
AcDbEntity
  8
0
100
AcDbLine
 62
7
  6
BYLAYER
 10
32.3997704519
 20
33.6768269025
 11
30.9072118753
 21
32.1842683258
  0
LINE
  5
34D
100
AcDbEntity
  8
0
100
AcDbLine
 62
7
  6
BYLAYER
 10
30.3417799026
 20
31.6188363531
 11
28.849221326
 21
30.1262777765
  0
LINE
  5
34E
100
AcDbEntity
  8
0
100
AcDbLine
 62
7
  6
BYLAYER
 10
30.9303598493
 20
31.9596179807
 11
30.8375573674
 21
31.8668154988
  0
LINE
  5
34F
100
AcDbEntity
  8
0
100
AcDbLine
 62
7
  6
BYLAYER
 10
30.6592327297
 20
31.6884908611
 11
30.5664302478
 21
31.5956883792
  0
LINE
  5
350
100
AcDbEntity
  8
0
100
AcDbLine
 62
7
  6
BYLAYER
 10
31.0027876348
 20
31.056821521
 11
31.4692267075
 21
31.5232605937
  0
LINE
  5
351
100
AcDbEntity
  8
0
100
AcDbLine
 62
7
  6
BYLAYER
 10
31.7958951573
 20
31.2171148878
 11
31.3089333407
 21
30.7301530711
  0
LINE
  5
352
100
AcDbEntity
  8
0
100
AcDbLine
 62
7
  6
BYLAYER
 10
31.0427717321
 20
32.3813021084
 11
31.3618890758
 21
32.6685715147
  0
LINE
  5
353
100
AcDbEntity
  8
0
100
AcDbLine
 62
7
  6
BYLAYER
 10
29.6605476539
 20
32.378538758
 11
29.7351394137
 21
32.4269792132
  0
LINE
  5
354
100
AcDbEntity
  8
0
100
AcDbLine
 62
7
  6
BYLAYER
 10
30.9561002254
 20
32.0569098197
 11
30.8815084655
 21
32.0084693645
  0
LINE
  5
355
100
AcDbEntity
  8
0
100
AcDbLine
 62
7
  6
BYLAYER
 10
30.3083239396
 20
32.7105833751
 11
30.5519838691
 21
32.8041156588
  0
LINE
  5
356
100
AcDbEntity
  8
0
100
AcDbLine
 62
7
  6
BYLAYER
 10
34.7337263628
 20
49.8677242888
 11
52.8083239396
 21
49.8677242888
  0
LINE
  5
357
100
AcDbEntity
  8
0
100
AcDbLine
 62
7
  6
BYLAYER
 10
10.8184645798
 20
50.7177242888
 11
26.8184491871
 21
50.7177242888
  0
LINE
  5
358
100
AcDbEntity
  8
0
100
AcDbLine
 62
7
  6
BYLAYER
 10
16.3184568834
 20
51.1177242888
 11
21.3184568834
 21
51.1177242888
  0
LINE
  5
359
100
AcDbEntity
  8
0
100
AcDbLine
 62
7
  6
BYLAYER
 10
30.4691384087
 20
51.5699480031
 11
30.3417799026
 21
51.6188363531
  0
LINE
  5
35A
100
AcDbEntity
  8
0
100
AcDbLine
 62
7
  6
BYLAYER
 10
30.5519838691
 20
51.6313329189
 11
30.517578864
 21
51.644539763
  0
LINE
  5
35B
100
AcDbEntity
  8
0
100
AcDbLine
 62
7
  6
BYLAYER
 10
30.3646957252
 20
51.7032261015
 11
30.3083239396
 21
51.7248652026
  0
LINE
  5
35C
100
AcDbEntity
  8
0
100
AcDbLine
 62
7
  6
BYLAYER
 10
29.6862880299
 20
52.475830597
 11
29.1474211718
 21
52.912187984
  0
LINE
  5
35D
100
AcDbEntity
  8
0
100
AcDbLine
 62
7
  6
BYLAYER
 10
31.4692267075
 20
51.5232605937
 11
30.9303598493
 21
51.9596179807
  0
LINE
  5
35E
100
AcDbEntity
  8
0
100
AcDbLine
 62
7
  6
BYLAYER
 10
30.9303598493
 20
51.9596179807
 11
30.8815084655
 21
52.0084693645
  0
LINE
  5
35F
100
AcDbEntity
  8
0
100
AcDbLine
 62
7
  6
BYLAYER
 10
30.0990690152
 20
52.7909088147
 11
30.0502176315
 21
52.8397601985
  0
LINE
  5
360
100
AcDbEntity
  8
0
100
AcDbLine
 62
7
  6
BYLAYER
 10
29.3077145385
 20
53.7052955065
 11
30.1475094705
 21
52.8655005746
  0
LINE
  5
361
100
AcDbEntity
  8
0
100
AcDbLine
 62
7
  6
BYLAYER
 10
30.9561002254
 20
52.0569098197
 11
31.7958951573
 21
51.2171148878
  0
LINE
  5
362
100
AcDbEntity
  8
0
100
AcDbLine
 62
7
  6
BYLAYER
 10
31.0427717321
 20
52.3813021084
 11
30.4719017592
 21
52.9521720813
  0
LINE
  5
363
100
AcDbEntity
  8
0
100
AcDbLine
 62
7
  6
BYLAYER
 10
31.3618890758
 20
52.6685715147
 11
30.7591711655
 21
53.2712894251
  0
LINE
  5
364
100
AcDbEntity
  8
0
100
AcDbLine
 62
7
  6
BYLAYER
 10
39.3777711357
 20
49.8677242888
 11
39.3777711357
 21
49.2177242888
  0
LINE
  5
365
100
AcDbEntity
  8
0
100
AcDbLine
 62
7
  6
BYLAYER
 10
39.3777711357
 20
35.2177242888
 11
39.3777711357
 21
34.5677242888
  0
LINE
  5
366
100
AcDbEntity
  8
0
100
AcDbLine
 62
7
  6
BYLAYER
 10
39.8083239396
 20
34.5677242888
 11
39.8083239396
 21
35.0677242888
  0
LINE
  5
367
100
AcDbEntity
  8
0
100
AcDbLine
 62
7
  6
BYLAYER
 10
39.8083239396
 20
49.3677242888
 11
39.8083239396
 21
49.8677242888
  0
LINE
  5
368
100
AcDbEntity
  8
0
100
AcDbLine
 62
7
  6
BYLAYER
 10
40.1384332312
 20
34.5677242888
 11
40.1384332312
 21
31.5677242888
  0
LINE
  5
369
100
AcDbEntity
  8
0
100
AcDbLine
 62
7
  6
BYLAYER
 10
40.1384332312
 20
49.8677242888
 11
40.1384332312
 21
52.8677242888
  0
LINE
  5
36A
100
AcDbEntity
  8
0
100
AcDbLine
 62
7
  6
BYLAYER
 10
30.3083239396
 20
31.7248652026
 11
30.0646640101
 21
31.6313329189
  0
LINE
  5
36B
100
AcDbEntity
  8
0
100
AcDbLine
 62
7
  6
BYLAYER
 10
30.9072118753
 20
52.1842683258
 11
30.8228221269
 21
52.1613525033
  0
LINE
  5
36C
100
AcDbEntity
  8
0
100
AcDbLine
 62
7
  6
BYLAYER
 10
29.7094360039
 20
52.2511802519
 11
29.7938257523
 21
52.2740960744
  0
LINE
  5
36D
100
AcDbEntity
  8
0
100
AcDbLine
 62
7
  6
BYLAYER
 10
16.7184568834
 20
51.5177242888
 11
20.9184568834
 21
51.5177242888
  0
LINE
  5
36E
100
AcDbEntity
  8
0
100
AcDbLine
 62
7
  6
BYLAYER
 10
30.8011830259
 20
52.2177242888
 11
30.7968098414
 21
52.2177242888
  0
LINE
  5
36F
100
AcDbEntity
  8
0
100
AcDbLine
 62
7
  6
BYLAYER
 10
10.8011830259
 20
52.2177242888
 11
10.7968098414
 21
52.2177242888
  0
LINE
  5
370
100
AcDbEntity
  8
0
100
AcDbLine
 62
7
  6
BYLAYER
 10
9.8154648534
 20
52.2177242888
 11
9.8198380379
 21
52.2177242888
  0
LINE
  5
371
100
AcDbEntity
  8
0
100
AcDbLine
 62
7
  6
BYLAYER
 10
29.8154648534
 20
52.2177242888
 11
29.8198380379
 21
52.2177242888
  0
LINE
  5
372
100
AcDbEntity
  8
0
100
AcDbLine
 62
7
  6
BYLAYER
 10
34.3377761231
 20
52.8177242888
 11
34.7337263628
 21
52.8177242888
  0
LINE
  5
373
100
AcDbEntity
  8
0
100
AcDbLine
 62
7
  6
BYLAYER
 10
34.7337263628
 20
52.8677242888
 11
52.8083239396
 21
52.8677242888
  0
LINE
  5
374
100
AcDbEntity
  8
0
100
AcDbLine
 62
7
  6
BYLAYER
 10
30.0646640101
 20
52.8041156588
 11
30.0990690152
 21
52.7909088147
  0
LINE
  5
375
100
AcDbEntity
  8
0
100
AcDbLine
 62
7
  6
BYLAYER
 10
30.251952154
 20
52.7322224762
 11
30.3083239396
 21
52.7105833751
  0
LINE
  5
376
100
AcDbEntity
  8
0
100
AcDbLine
 62
7
  6
BYLAYER
 10
30.1475094705
 20
52.8655005746
 11
30.2748679766
 21
52.8166122245
  0
LINE
  5
377
100
AcDbEntity
  8
0
100
AcDbLine
 62
7
  6
BYLAYER
 10
44.3383239396
 20
53.8677242888
 11
48.2783239396
 21
53.8677242888
  0
LINE
  5
378
100
AcDbEntity
  8
0
100
AcDbLine
 62
7
  6
BYLAYER
 10
44.8383239396
 20
54.3677242888
 11
47.7783239396
 21
54.3677242888
  0
LINE
  5
379
100
AcDbEntity
  8
0
100
AcDbLine
 62
7
  6
BYLAYER
 10
43.3233239396
 20
31.3677242888
 11
43.3233239396
 21
31.5677242888
  0
LINE
  5
37A
100
AcDbEntity
  8
0
100
AcDbLine
 62
7
  6
BYLAYER
 10
43.3233239396
 20
34.5677242888
 11
43.3233239396
 21
35.0677242888
  0
LINE
  5
37B
100
AcDbEntity
  8
0
100
AcDbLine
 62
7
  6
BYLAYER
 10
43.3233239396
 20
49.3677242888
 11
43.3233239396
 21
49.8677242888
  0
LINE
  5
37C
100
AcDbEntity
  8
0
100
AcDbLine
 62
7
  6
BYLAYER
 10
44.3383239396
 20
52.8677242888
 11
44.3383239396
 21
53.8677242888
  0
LINE
  5
37D
100
AcDbEntity
  8
0
100
AcDbLine
 62
7
  6
BYLAYER
 10
10.9072118753
 20
52.1842683258
 11
10.8228221269
 21
52.1613525033
  0
LINE
  5
37E
100
AcDbEntity
  8
0
100
AcDbLine
 62
7
  6
BYLAYER
 10
33.1084072268
 20
55.7177232328
 11
7.5082391161
 21
55.7177232383
  0
LINE
  5
37F
100
AcDbEntity
  8
0
100
AcDbLine
 62
7
  6
BYLAYER
 10
9.7094360039
 20
52.2511802519
 11
9.7938257523
 21
52.2740960744
  0
LINE
  5
380
100
AcDbEntity
  8
0
100
AcDbLine
 62
7
  6
BYLAYER
 10
48.2783239396
 20
52.8677242888
 11
48.2783239396
 21
53.8677242888
  0
LINE
  5
381
100
AcDbEntity
  8
0
100
AcDbLine
 62
7
  6
BYLAYER
 10
48.7132526877
 20
52.8677242888
 11
48.7132526877
 21
49.8677242888
  0
LINE
  5
382
100
AcDbEntity
  8
0
100
AcDbLine
 62
7
  6
BYLAYER
 10
48.7132526877
 20
34.5677242888
 11
48.7132526877
 21
31.5677242888
  0
LINE
  5
383
100
AcDbEntity
  8
0
100
AcDbLine
 62
7
  6
BYLAYER
 10
49.1107671675
 20
49.2177242888
 11
49.1107671675
 21
35.2177242888
  0
LINE
  5
384
100
AcDbEntity
  8
0
100
AcDbLine
 62
7
  6
BYLAYER
 10
49.2933239396
 20
31.3677242888
 11
49.2933239396
 21
31.5677242888
  0
LINE
  5
385
100
AcDbEntity
  8
0
100
AcDbLine
 62
7
  6
BYLAYER
 10
49.2933239396
 20
34.5677242888
 11
49.2933239396
 21
35.0677242888
  0
LINE
  5
386
100
AcDbEntity
  8
0
100
AcDbLine
 62
7
  6
BYLAYER
 10
49.2933239396
 20
49.3677242888
 11
49.2933239396
 21
49.8677242888
  0
LINE
  5
387
100
AcDbEntity
  8
0
100
AcDbLine
 62
7
  6
BYLAYER
 10
49.2933239396
 20
31.3677242888
 11
48.7933239396
 21
30.8677242888
  0
LINE
  5
388
100
AcDbEntity
  8
0
100
AcDbLine
 62
7
  6
BYLAYER
 10
47.7783239396
 20
54.3677242888
 11
48.2783239396
 21
53.8677242888
  0
LINE
  5
389
100
AcDbEntity
  8
0
100
AcDbLine
 62
7
  6
BYLAYER
 10
52.8083239396
 20
31.5677242888
 11
52.8083239396
 21
35.0677242888
  0
LINE
  5
38A
100
AcDbEntity
  8
0
100
AcDbLine
 62
7
  6
BYLAYER
 10
52.8083239396
 20
49.3677242888
 11
52.8083239396
 21
52.8677242888
  0
LINE
  5
38B
100
AcDbEntity
  8
0
100
AcDbLine
 62
7
  6
BYLAYER
 10
53.3083239396
 20
35.0677242888
 11
53.3083239396
 21
49.3677242888
  0
ARC
  5
38C
100
AcDbEntity
  8
0
100
AcDbCircle
 62
7
  6
BYLAYER
 10
1.6138885062
 20
21.0257368333
 40
30.345282536
100
AcDbArc
 50
21.6429439892
 51
22.1387567556
  0
ARC
  5
38D
100
AcDbEntity
  8
0
100
AcDbCircle
 62
7
  6
BYLAYER
 10
-18.3861114926
 20
21.0257368338
 40
30.3452825346
100
AcDbArc
 50
21.6429439892
 51
22.1387567556
  0
ARC
  5
38E
100
AcDbEntity
  8
0
100
AcDbCircle
 62
7
  6
BYLAYER
 10
0.5474663686
 20
7.0849796694
 40
26.5068637954
100
AcDbArc
 50
67.825344022
 51
68.3929552331
  0
ARC
  5
38F
100
AcDbEntity
  8
0
100
AcDbCircle
 62
7
  6
BYLAYER
 10
0.5474663686
 20
27.0849796693
 40
26.5068637954
100
AcDbArc
 50
67.825344022
 51
68.3929552331
  0
ARC
  5
390
100
AcDbEntity
  8
0
100
AcDbCircle
 62
7
  6
BYLAYER
 10
10.3083239396
 20
32.2177242888
 40
3.0
100
AcDbArc
 50
80.3649851319
 51
30.0057313595
  0
ARC
  5
391
100
AcDbEntity
  8
0
100
AcDbCircle
 62
7
  6
BYLAYER
 10
10.3083239396
 20
32.2177242888
 40
2.8950136038
100
AcDbArc
 50
216.5345041033
 51
233.4654958967
  0
ARC
  5
392
100
AcDbEntity
  8
0
100
AcDbCircle
 62
7
  6
BYLAYER
 10
10.3083239396
 20
32.2177242888
 40
2.8489817302
100
AcDbArc
 50
233.8836441583
 51
32.0959579416
  0
ARC
  5
393
100
AcDbEntity
  8
0
100
AcDbCircle
 62
7
  6
BYLAYER
 10
10.3083239396
 20
32.2177242888
 40
2.8489817302
100
AcDbArc
 50
79.5688927731
 51
216.1163558417
  0
ARC
  5
394
100
AcDbEntity
  8
0
100
AcDbCircle
 62
7
  6
BYLAYER
 10
10.3083239396
 20
32.2177242888
 40
2.5501233207
100
AcDbArc
 50
78.3619818538
 51
214.9016458616
  0
ARC
  5
395
100
AcDbEntity
  8
0
100
AcDbCircle
 62
7
  6
BYLAYER
 10
10.3083239396
 20
32.2177242888
 40
2.5501233207
100
AcDbArc
 50
235.0983541384
 51
34.9016458616
  0
ARC
  5
396
100
AcDbEntity
  8
0
100
AcDbCircle
 62
7
  6
BYLAYER
 10
7.8083239396
 20
29.7177242888
 40
1.0
100
AcDbArc
 50
180.0
 51
270.0
  0
ARC
  5
397
100
AcDbEntity
  8
0
100
AcDbCircle
 62
7
  6
BYLAYER
 10
7.5583239396
 20
29.4677242888
 40
0.7
100
AcDbArc
 50
180.0
 51
270.0
  0
ARC
  5
398
100
AcDbEntity
  8
0
100
AcDbCircle
 62
7
  6
BYLAYER
 10
7.5081735419
 20
29.4175739062
 40
0.6998464524
100
AcDbArc
 50
179.9943925486
 51
270.0053746178
  0
ARC
  5
399
100
AcDbEntity
  8
0
100
AcDbCircle
 62
7
  6
BYLAYER
 10
10.3083239396
 20
32.2177242888
 40
0.635
100
AcDbArc
 50
202.564077409
 51
247.435922591
  0
ARC
  5
39A
100
AcDbEntity
  8
0
100
AcDbCircle
 62
7
  6
BYLAYER
 10
10.3083239396
 20
32.2177242888
 40
0.635
100
AcDbArc
 50
112.564077409
 51
157.435922591
  0
ARC
  5
39B
100
AcDbEntity
  8
0
100
AcDbCircle
 62
7
  6
BYLAYER
 10
10.3083239396
 20
32.2177242888
 40
0.635
100
AcDbArc
 50
22.564077409
 51
67.435922591
  0
ARC
  5
39C
100
AcDbEntity
  8
0
100
AcDbCircle
 62
7
  6
BYLAYER
 10
10.3083239396
 20
32.2177242888
 40
0.635
100
AcDbArc
 50
292.564077409
 51
337.435922591
  0
ARC
  5
39D
100
AcDbEntity
  8
0
100
AcDbCircle
 62
7
  6
BYLAYER
 10
-18.3861114923
 20
41.0257368339
 40
30.3452825344
100
AcDbArc
 50
21.6429439892
 51
22.1387567556
  0
ARC
  5
39E
100
AcDbEntity
  8
0
100
AcDbCircle
 62
7
  6
BYLAYER
 10
1.6138885078
 20
41.0257368339
 40
30.3452825342
100
AcDbArc
 50
21.6429439892
 51
22.1387567556
  0
ARC
  5
39F
100
AcDbEntity
  8
0
100
AcDbCircle
 62
7
  6
BYLAYER
 10
-14.8244510568
 20
61.9785940657
 40
26.5068965324
100
AcDbArc
 50
337.8253443725
 51
338.3929548826
  0
ARC
  5
3A0
100
AcDbEntity
  8
0
100
AcDbCircle
 62
7
  6
BYLAYER
 10
5.1755489432
 20
61.9785940657
 40
26.5068965324
100
AcDbArc
 50
337.8253443725
 51
338.3929548826
  0
ARC
  5
3A1
100
AcDbEntity
  8
0
100
AcDbCircle
 62
7
  6
BYLAYER
 10
5.1755489433
 20
41.9785940656
 40
26.5068965323
100
AcDbArc
 50
337.8253443725
 51
338.3929548826
  0
ARC
  5
3A2
100
AcDbEntity
  8
0
100
AcDbCircle
 62
7
  6
BYLAYER
 10
-14.8244510567
 20
41.9785940656
 40
26.5068965323
100
AcDbArc
 50
337.8253443725
 51
338.3929548826
  0
ARC
  5
3A3
100
AcDbEntity
  8
0
100
AcDbCircle
 62
7
  6
BYLAYER
 10
20.0691815105
 20
77.3504689081
 40
26.5068637951
100
AcDbArc
 50
247.825344022
 51
248.3929552331
  0
ARC
  5
3A4
100
AcDbEntity
  8
0
100
AcDbCircle
 62
7
  6
BYLAYER
 10
20.0691815103
 20
57.3504689076
 40
26.5068637946
100
AcDbArc
 50
247.825344022
 51
248.3929552332
  0
ARC
  5
3A5
100
AcDbEntity
  8
0
100
AcDbCircle
 62
7
  6
BYLAYER
 10
4.1937725968
 20
41.8831083345
 40
11.6052339805
100
AcDbArc
 50
314.9990100243
 51
315.2934983635
  0
ARC
  5
3A6
100
AcDbEntity
  8
0
100
AcDbCircle
 62
7
  6
BYLAYER
 10
10.3083239396
 20
52.2177242888
 40
3.0
100
AcDbArc
 50
329.9965084325
 51
279.6462191885
  0
ARC
  5
3A7
100
AcDbEntity
  8
0
100
AcDbCircle
 62
7
  6
BYLAYER
 10
10.3083239396
 20
52.2177242888
 40
2.8950136038
100
AcDbArc
 50
216.5345041033
 51
233.4654958967
  0
ARC
  5
3A8
100
AcDbEntity
  8
0
100
AcDbCircle
 62
7
  6
BYLAYER
 10
10.3083239396
 20
52.2177242888
 40
2.8950136038
100
AcDbArc
 50
36.5345041033
 51
53.4654958967
  0
ARC
  5
3A9
100
AcDbEntity
  8
0
100
AcDbCircle
 62
7
  6
BYLAYER
 10
10.3083239396
 20
52.2177242888
 40
2.8489817302
100
AcDbArc
 50
327.7295296058
 51
36.1163558417
  0
ARC
  5
3AA
100
AcDbEntity
  8
0
100
AcDbCircle
 62
7
  6
BYLAYER
 10
10.3083239396
 20
52.2177242888
 40
2.8489817302
100
AcDbArc
 50
233.8836441583
 51
280.4930554889
  0
ARC
  5
3AB
100
AcDbEntity
  8
0
100
AcDbCircle
 62
7
  6
BYLAYER
 10
10.3083239396
 20
52.2177242888
 40
2.8489817302
100
AcDbArc
 50
53.8836441583
 51
216.1163558417
  0
ARC
  5
3AC
100
AcDbEntity
  8
0
100
AcDbCircle
 62
7
  6
BYLAYER
 10
10.3083239396
 20
52.2177242888
 40
2.5501233207
100
AcDbArc
 50
55.0983541384
 51
214.9016458616
  0
ARC
  5
3AD
100
AcDbEntity
  8
0
100
AcDbCircle
 62
7
  6
BYLAYER
 10
10.3083239396
 20
52.2177242888
 40
2.5501233207
100
AcDbArc
 50
323.2645062976
 51
34.9016458616
  0
ARC
  5
3AE
100
AcDbEntity
  8
0
100
AcDbCircle
 62
7
  6
BYLAYER
 10
10.3083239396
 20
52.2177242888
 40
2.5501233207
100
AcDbArc
 50
235.0983541384
 51
281.7192929675
  0
ARC
  5
3AF
100
AcDbEntity
  8
0
100
AcDbCircle
 62
7
  6
BYLAYER
 10
7.8083239396
 20
54.7177242888
 40
1.0
100
AcDbArc
 50
90.0
 51
180.0
  0
ARC
  5
3B0
100
AcDbEntity
  8
0
100
AcDbCircle
 62
7
  6
BYLAYER
 10
7.5583239396
 20
54.9677242888
 40
0.7
100
AcDbArc
 50
90.0
 51
180.0
  0
ARC
  5
3B1
100
AcDbEntity
  8
0
100
AcDbCircle
 62
7
  6
BYLAYER
 10
7.5081735569
 20
55.0178746865
 40
0.6998464524
100
AcDbArc
 50
89.994632749
 51
180.0053746169
  0
ARC
  5
3B2
100
AcDbEntity
  8
0
100
AcDbCircle
 62
7
  6
BYLAYER
 10
10.3083239396
 20
52.2177242888
 40
0.635
100
AcDbArc
 50
202.564077409
 51
247.435922591
  0
ARC
  5
3B3
100
AcDbEntity
  8
0
100
AcDbCircle
 62
7
  6
BYLAYER
 10
10.3083239396
 20
52.2177242888
 40
0.635
100
AcDbArc
 50
112.564077409
 51
157.435922591
  0
ARC
  5
3B4
100
AcDbEntity
  8
0
100
AcDbCircle
 62
7
  6
BYLAYER
 10
10.3083239396
 20
52.2177242888
 40
0.635
100
AcDbArc
 50
22.564077409
 51
67.435922591
  0
ARC
  5
3B5
100
AcDbEntity
  8
0
100
AcDbCircle
 62
7
  6
BYLAYER
 10
10.3083239396
 20
52.2177242888
 40
0.635
100
AcDbArc
 50
292.564077409
 51
337.435922591
  0
ARC
  5
3B6
100
AcDbEntity
  8
0
100
AcDbCircle
 62
7
  6
BYLAYER
 10
41.5003092091
 20
23.5232942958
 40
30.3452766729
100
AcDbArc
 50
111.6429439413
 51
112.1387568035
  0
ARC
  5
3B7
100
AcDbEntity
  8
0
100
AcDbCircle
 62
7
  6
BYLAYER
 10
41.500309209
 20
3.5232942963
 40
30.3452766724
100
AcDbArc
 50
111.6429439413
 51
112.1387568035
  0
ARC
  5
3B8
100
AcDbEntity
  8
0
100
AcDbCircle
 62
7
  6
BYLAYER
 10
21.5003092089
 20
23.5232942963
 40
30.3452766723
100
AcDbArc
 50
111.6429439413
 51
112.1387568035
  0
ARC
  5
3B9
100
AcDbEntity
  8
0
100
AcDbCircle
 62
7
  6
BYLAYER
 10
20.5474663681
 20
27.0849796681
 40
26.5068637968
100
AcDbArc
 50
67.825344022
 51
68.3929552331
  0
ARC
  5
3BA
100
AcDbEntity
  8
0
100
AcDbCircle
 62
7
  6
BYLAYER
 10
20.5474663682
 20
7.0849796683
 40
26.5068637965
100
AcDbArc
 50
67.825344022
 51
68.3929552331
  0
CIRCLE
  5
3BB
100
AcDbEntity
  8
0
100
AcDbCircle
 62
7
  6
BYLAYER
 10
30.3083239396
 20
32.2177242888
 40
3.0
  0
ARC
  5
3BC
100
AcDbEntity
  8
0
100
AcDbCircle
 62
7
  6
BYLAYER
 10
30.3083239396
 20
32.2177242888
 40
2.8950136038
100
AcDbArc
 50
216.5345041033
 51
233.4654958967
  0
ARC
  5
3BD
100
AcDbEntity
  8
0
100
AcDbCircle
 62
7
  6
BYLAYER
 10
30.3083239396
 20
32.2177242888
 40
2.8950136038
100
AcDbArc
 50
36.5345041033
 51
53.4654958967
  0
ARC
  5
3BE
100
AcDbEntity
  8
0
100
AcDbCircle
 62
7
  6
BYLAYER
 10
30.3083239396
 20
32.2177242888
 40
2.8489817302
100
AcDbArc
 50
233.8836441583
 51
36.1163558417
  0
ARC
  5
3BF
100
AcDbEntity
  8
0
100
AcDbCircle
 62
7
  6
BYLAYER
 10
30.3083239396
 20
32.2177242888
 40
2.8489817302
100
AcDbArc
 50
53.8836441583
 51
216.1163558417
  0
ARC
  5
3C0
100
AcDbEntity
  8
0
100
AcDbCircle
 62
7
  6
BYLAYER
 10
30.3083239396
 20
32.2177242888
 40
2.5501233207
100
AcDbArc
 50
55.0983541384
 51
214.9016458616
  0
ARC
  5
3C1
100
AcDbEntity
  8
0
100
AcDbCircle
 62
7
  6
BYLAYER
 10
30.3083239396
 20
32.2177242888
 40
2.5501233207
100
AcDbArc
 50
235.0983541384
 51
34.9016458616
  0
ARC
  5
3C2
100
AcDbEntity
  8
0
100
AcDbCircle
 62
7
  6
BYLAYER
 10
35.8083239396
 20
33.2177242888
 40
2.0
100
AcDbArc
 50
158.2668297607
 51
180.0
  0
ARC
  5
3C3
100
AcDbEntity
  8
0
100
AcDbCircle
 62
7
  6
BYLAYER
 10
32.8083239396
 20
29.7177242888
 40
1.0
100
AcDbArc
 50
270.0
 51
360.0
  0
ARC
  5
3C4
100
AcDbEntity
  8
0
100
AcDbCircle
 62
7
  6
BYLAYER
 10
33.0583239396
 20
29.4677242888
 40
0.7
100
AcDbArc
 50
270.0
 51
360.0
  0
ARC
  5
3C5
100
AcDbEntity
  8
0
100
AcDbCircle
 62
7
  6
BYLAYER
 10
33.1084731898
 20
29.4175750238
 40
0.6998475836
100
AcDbArc
 50
269.9943059397
 51
0.005401525
  0
ARC
  5
3C6
100
AcDbEntity
  8
0
100
AcDbCircle
 62
7
  6
BYLAYER
 10
30.3083239396
 20
32.2177242888
 40
0.635
100
AcDbArc
 50
202.564077409
 51
247.435922591
  0
ARC
  5
3C7
100
AcDbEntity
  8
0
100
AcDbCircle
 62
7
  6
BYLAYER
 10
30.3083239396
 20
32.2177242888
 40
0.635
100
AcDbArc
 50
112.564077409
 51
157.435922591
  0
ARC
  5
3C8
100
AcDbEntity
  8
0
100
AcDbCircle
 62
7
  6
BYLAYER
 10
30.3083239396
 20
32.2177242888
 40
0.635
100
AcDbArc
 50
22.564077409
 51
67.435922591
  0
ARC
  5
3C9
100
AcDbEntity
  8
0
100
AcDbCircle
 62
7
  6
BYLAYER
 10
30.3083239396
 20
32.2177242888
 40
0.635
100
AcDbArc
 50
292.564077409
 51
337.435922591
  0
ARC
  5
3CA
100
AcDbEntity
  8
0
100
AcDbCircle
 62
7
  6
BYLAYER
 10
20.3083239396
 20
42.2177242888
 40
10.15
100
AcDbArc
 50
310.3724136865
 51
315.7085339393
  0
ARC
  5
3CB
100
AcDbEntity
  8
0
100
AcDbCircle
 62
7
  6
BYLAYER
 10
20.3083239396
 20
42.2177242888
 40
10.15
100
AcDbArc
 50
237.6054419657
 51
302.3984724094
  0
ARC
  5
3CC
100
AcDbEntity
  8
0
100
AcDbCircle
 62
7
  6
BYLAYER
 10
20.3083239396
 20
42.2177242888
 40
10.15
100
AcDbArc
 50
200.3167994553
 51
205.4337548502
  0
ARC
  5
3CD
100
AcDbEntity
  8
0
100
AcDbCircle
 62
7
  6
BYLAYER
 10
20.3083239396
 20
42.2177242888
 40
10.15
100
AcDbArc
 50
154.5762737773
 51
159.6841346505
  0
ARC
  5
3CE
100
AcDbEntity
  8
0
100
AcDbCircle
 62
7
  6
BYLAYER
 10
20.3083239396
 20
42.2177242888
 40
10.15
100
AcDbArc
 50
57.6054419657
 51
122.3984724094
  0
ARC
  5
3CF
100
AcDbEntity
  8
0
100
AcDbCircle
 62
7
  6
BYLAYER
 10
20.3083239396
 20
42.2177242888
 40
10.15
100
AcDbArc
 50
44.2881456567
 51
49.6417196427
  0
ARC
  5
3D0
100
AcDbEntity
  8
0
100
AcDbCircle
 62
7
  6
BYLAYER
 10
20.3083239396
 20
42.2177242888
 40
9.5
100
AcDbArc
 50
246.7109290147
 51
296.1294320656
  0
ARC
  5
3D1
100
AcDbEntity
  8
0
100
AcDbCircle
 62
7
  6
BYLAYER
 10
20.3083239396
 20
42.2177242888
 40
9.5
100
AcDbArc
 50
201.8425560027
 51
207.1648823467
  0
ARC
  5
3D2
100
AcDbEntity
  8
0
100
AcDbCircle
 62
7
  6
BYLAYER
 10
20.3083239396
 20
42.2177242888
 40
9.5
100
AcDbArc
 50
152.8351343322
 51
158.1574348946
  0
ARC
  5
3D3
100
AcDbEntity
  8
0
100
AcDbCircle
 62
7
  6
BYLAYER
 10
20.3083239396
 20
42.2177242888
 40
9.5
100
AcDbArc
 50
114.8578110166
 51
116.1294378497
  0
ARC
  5
3D4
100
AcDbEntity
  8
0
100
AcDbCircle
 62
7
  6
BYLAYER
 10
20.3083239396
 20
42.2177242888
 40
9.5
100
AcDbArc
 50
63.8706764729
 51
100.4009153565
  0
ARC
  5
3D5
100
AcDbEntity
  8
0
100
AcDbCircle
 62
7
  6
BYLAYER
 10
20.3083239396
 20
42.2177242888
 40
8.035520981
100
AcDbArc
 50
149.0394318219
 51
155.1306684397
  0
ARC
  5
3D6
100
AcDbEntity
  8
0
100
AcDbCircle
 62
7
  6
BYLAYER
 10
20.3083239396
 20
42.2177242888
 40
8.0355209805
100
AcDbArc
 50
206.8538022786
 51
211.1029469294
  0
ARC
  5
3D7
100
AcDbEntity
  8
0
100
AcDbCircle
 62
7
  6
BYLAYER
 10
39.0027593713
 20
43.4097117437
 40
30.3452825341
100
AcDbArc
 50
201.6429439892
 51
202.1387567556
  0
CIRCLE
  5
3D8
100
AcDbEntity
  8
0
100
AcDbCircle
 62
7
  6
BYLAYER
 10
30.3083239396
 20
52.2177242888
 40
3.0
  0
ARC
  5
3D9
100
AcDbEntity
  8
0
100
AcDbCircle
 62
7
  6
BYLAYER
 10
30.3083239396
 20
52.2177242888
 40
2.8950136038
100
AcDbArc
 50
216.5345041033
 51
233.4654958967
  0
ARC
  5
3DA
100
AcDbEntity
  8
0
100
AcDbCircle
 62
7
  6
BYLAYER
 10
30.3083239396
 20
52.2177242888
 40
2.8950136038
100
AcDbArc
 50
36.5345041033
 51
53.4654958967
  0
ARC
  5
3DB
100
AcDbEntity
  8
0
100
AcDbCircle
 62
7
  6
BYLAYER
 10
30.3083239396
 20
52.2177242888
 40
2.8489817302
100
AcDbArc
 50
233.8836441583
 51
36.1163558417
  0
ARC
  5
3DC
100
AcDbEntity
  8
0
100
AcDbCircle
 62
7
  6
BYLAYER
 10
30.3083239396
 20
52.2177242888
 40
2.8489817302
100
AcDbArc
 50
53.8836441583
 51
216.1163558417
  0
ARC
  5
3DD
100
AcDbEntity
  8
0
100
AcDbCircle
 62
7
  6
BYLAYER
 10
30.3083239396
 20
52.2177242888
 40
2.5501233207
100
AcDbArc
 50
55.0983541384
 51
214.9016458616
  0
ARC
  5
3DE
100
AcDbEntity
  8
0
100
AcDbCircle
 62
7
  6
BYLAYER
 10
30.3083239396
 20
52.2177242888
 40
2.5501233207
100
AcDbArc
 50
235.0983541384
 51
34.9016458616
  0
ARC
  5
3DF
100
AcDbEntity
  8
0
100
AcDbCircle
 62
7
  6
BYLAYER
 10
35.8083239396
 20
51.2177242888
 40
2.0
100
AcDbArc
 50
180.0
 51
201.7331702392
  0
ARC
  5
3E0
100
AcDbEntity
  8
0
100
AcDbCircle
 62
7
  6
BYLAYER
 10
32.8083239396
 20
54.7177242888
 40
1.0
100
AcDbArc
 50
0.0
 51
90.0
  0
ARC
  5
3E1
100
AcDbEntity
  8
0
100
AcDbCircle
 62
7
  6
BYLAYER
 10
33.0583239396
 20
54.9677242888
 40
0.7
100
AcDbArc
 50
0.0
 51
90.0
  0
ARC
  5
3E2
100
AcDbEntity
  8
0
100
AcDbCircle
 62
7
  6
BYLAYER
 10
33.1084732047
 20
55.017873539
 40
0.6998475836
100
AcDbArc
 50
359.9946058083
 51
90.0054015244
  0
ARC
  5
3E3
100
AcDbEntity
  8
0
100
AcDbCircle
 62
7
  6
BYLAYER
 10
30.3083239396
 20
52.2177242888
 40
0.635
100
AcDbArc
 50
202.564077409
 51
247.435922591
  0
ARC
  5
3E4
100
AcDbEntity
  8
0
100
AcDbCircle
 62
7
  6
BYLAYER
 10
30.3083239396
 20
52.2177242888
 40
0.635
100
AcDbArc
 50
112.564077409
 51
157.435922591
  0
ARC
  5
3E5
100
AcDbEntity
  8
0
100
AcDbCircle
 62
7
  6
BYLAYER
 10
30.3083239396
 20
52.2177242888
 40
0.635
100
AcDbArc
 50
22.564077409
 51
67.435922591
  0
ARC
  5
3E6
100
AcDbEntity
  8
0
100
AcDbCircle
 62
7
  6
BYLAYER
 10
30.3083239396
 20
52.2177242888
 40
0.635
100
AcDbArc
 50
292.564077409
 51
337.435922591
  0
ARC
  5
3E7
100
AcDbEntity
  8
0
100
AcDbCircle
 62
7
  6
BYLAYER
 10
39.0027593713
 20
63.4097117437
 40
30.3452825341
100
AcDbArc
 50
201.6429439892
 51
202.1387567556
  0
ARC
  5
3E8
100
AcDbEntity
  8
0
100
AcDbCircle
 62
7
  6
BYLAYER
 10
59.0027593708
 20
43.4097117435
 40
30.3452825336
100
AcDbArc
 50
201.6429439892
 51
202.1387567556
  0
ARC
  5
3E9
100
AcDbEntity
  8
0
100
AcDbCircle
 62
7
  6
BYLAYER
 10
40.0691815106
 20
57.3504689083
 40
26.5068637954
100
AcDbArc
 50
247.825344022
 51
248.3929552331
  0
ARC
  5
3EA
100
AcDbEntity
  8
0
100
AcDbCircle
 62
7
  6
BYLAYER
 10
59.0027593707
 20
63.4097117435
 40
30.3452825335
100
AcDbArc
 50
201.6429439892
 51
202.1387567556
  0
ARC
  5
3EB
100
AcDbEntity
  8
0
100
AcDbCircle
 62
7
  6
BYLAYER
 10
40.069181511
 20
77.3504689093
 40
26.5068637965
100
AcDbArc
 50
247.825344022
 51
248.3929552331
  0
LINE
  5
3EC
100
AcDbEntity
  8
0
100
AcDbLine
 62
7
  6
BYLAYER
 10
31.9875906506
 20
34.519193431
 11
32.0317451362
 21
34.5438633958
  0
SPLINE
  5
3ED
100
AcDbEntity
  8
0
100
AcDbSpline
 62
7
  6
BYLAYER
 70
0
 71
3
 72
18
 73
14
 74
0
 42
0.0000001
 43
0.0000001
 44
0.0000000001
 40
0.0
 40
0.0
 40
0.0
 40
0.0
 40
0.0130447851
 40
0.0345497507
 40
0.0643370769
 40
0.1021740646
 40
0.1476843781
 40
0.2004351262
 40
0.3257878057
 40
0.4737119919
 40
0.6391587491
 40
0.8167236704
 40
1.0
 40
1.0
 40
1.0
 40
1.0
 10
32.6097930818
 20
33.8969909998
 30
0.0
 10
32.609147012
 20
33.8958357981
 30
0.0
 10
32.6070456365
 20
33.8930111048
 30
0.0
 10
32.6029467582
 20
33.8879397116
 30
0.0
 10
32.5970312516
 20
33.8810929726
 30
0.0
 10
32.5893916367
 20
33.8725267658
 30
0.0
 10
32.5800782885
 20
33.8623297975
 30
0.0
 10
32.5646398421
 20
33.8457032134
 30
0.0
 10
32.5418901485
 20
33.8216860051
 30
0.0
 10
32.5110154388
 20
33.7896177037
 30
0.0
 10
32.476236144
 20
33.7539559312
 30
0.0
 10
32.4387481689
 20
33.7159266347
 30
0.0
 10
32.4129199367
 20
33.6899763872
 30
0.0
 10
32.3997704519
 20
33.6768269025
 30
0.0
  0
SPLINE
  5
3EE
100
AcDbEntity
  8
0
100
AcDbSpline
 62
7
  6
BYLAYER
 70
0
 71
3
 72
18
 73
14
 74
0
 42
0.0000001
 43
0.0000001
 44
0.0000000001
 40
0.0
 40
0.0
 40
0.0
 40
0.0
 40
0.18327467
 40
0.3608384477
 40
0.5262889211
 40
0.6742177898
 40
0.7995740684
 40
0.852324119
 40
0.8978324132
 40
0.9356678548
 40
0.9654533599
 40
0.986956217
 40
1.0
 40
1.0
 40
1.0
 40
1.0
 10
28.849221326
 20
30.1262777765
 30
0.0
 10
28.8360719601
 20
30.1131284106
 30
0.0
 10
28.8101219202
 20
30.0873003722
 30
0.0
 10
28.7720925493
 20
30.0498123395
 30
0.0
 10
28.7364302605
 20
30.0150325186
 30
0.0
 10
28.7043610607
 20
29.9841569858
 30
0.0
 10
28.6803432917
 20
29.9614067645
 30
0.0
 10
28.6637166269
 20
29.9459682726
 30
0.0
 10
28.6535199519
 20
29.9366552447
 30
0.0
 10
28.6449541597
 20
29.929015985
 30
0.0
 10
28.6381078441
 20
29.9231008404
 30
0.0
 10
28.6330368217
 20
29.9190022922
 30
0.0
 10
28.6302123416
 20
29.9169011668
 30
0.0
 10
28.6290572287
 20
29.9162551467
 30
0.0
  0
LINE
  5
3EF
100
AcDbEntity
  8
0
100
AcDbLine
 62
7
  6
BYLAYER
 10
28.6290572287
 20
29.9162551467
 11
28.584902743
 21
29.8915851819
  0
LINE
  5
3F0
100
AcDbEntity
  8
0
100
AcDbLine
 62
7
  6
BYLAYER
 10
27.9821848326
 20
30.4943030922
 11
28.0068547974
 21
30.5384575779
  0
SPLINE
  5
3F1
100
AcDbEntity
  8
0
100
AcDbSpline
 62
7
  6
BYLAYER
 70
0
 71
3
 72
18
 73
14
 74
0
 42
0.0000001
 43
0.0000001
 44
0.0000000001
 40
0.0
 40
0.0
 40
0.0
 40
0.0
 40
0.0130447851
 40
0.0345497507
 40
0.0643370769
 40
0.1021740646
 40
0.1476843781
 40
0.2004351262
 40
0.3257878057
 40
0.4737119919
 40
0.6391587491
 40
0.8167236704
 40
1.0
 40
1.0
 40
1.0
 40
1.0
 10
28.0068547974
 20
30.5384575779
 30
0.0
 10
28.0075008672
 20
30.5396127796
 30
0.0
 10
28.0096022427
 20
30.5424374729
 30
0.0
 10
28.013701121
 20
30.5475088661
 30
0.0
 10
28.0196166276
 20
30.554355605
 30
0.0
 10
28.0272562425
 20
30.5629218119
 30
0.0
 10
28.0365695908
 20
30.5731187802
 30
0.0
 10
28.0520080372
 20
30.5897453643
 30
0.0
 10
28.0747577307
 20
30.6137625725
 30
0.0
 10
28.1056324404
 20
30.645830874
 30
0.0
 10
28.1404117353
 20
30.6814926464
 30
0.0
 10
28.1778997103
 20
30.719521943
 30
0.0
 10
28.2037279425
 20
30.7454721905
 30
0.0
 10
28.2168774273
 20
30.7586216752
 30
0.0
  0
SPLINE
  5
3F2
100
AcDbEntity
  8
0
100
AcDbSpline
 62
7
  6
BYLAYER
 70
0
 71
3
 72
18
 73
14
 74
0
 42
0.0000001
 43
0.0000001
 44
0.0000000001
 40
0.0
 40
0.0
 40
0.0
 40
0.0
 40
0.18327467
 40
0.3608384477
 40
0.5262889211
 40
0.6742177898
 40
0.7995740684
 40
0.852324119
 40
0.8978324132
 40
0.9356678548
 40
0.9654533599
 40
0.986956217
 40
1.0
 40
1.0
 40
1.0
 40
1.0
 10
31.7674265532
 20
34.3091708012
 30
0.0
 10
31.7805759191
 20
34.3223201671
 30
0.0
 10
31.806525959
 20
34.3481482055
 30
0.0
 10
31.8445553299
 20
34.3856362382
 30
0.0
 10
31.8802176187
 20
34.4204160591
 30
0.0
 10
31.9122868185
 20
34.4512915919
 30
0.0
 10
31.9363045875
 20
34.4740418132
 30
0.0
 10
31.9529312523
 20
34.4894803051
 30
0.0
 10
31.9631279273
 20
34.498793333
 30
0.0
 10
31.9716937195
 20
34.5064325926
 30
0.0
 10
31.9785400351
 20
34.5123477372
 30
0.0
 10
31.9836110575
 20
34.5164462855
 30
0.0
 10
31.9864355376
 20
34.5185474109
 30
0.0
 10
31.9875906506
 20
34.519193431
 30
0.0
  0
LINE
  5
3F3
100
AcDbEntity
  8
0
100
AcDbLine
 62
7
  6
BYLAYER
 10
32.6344630466
 20
33.9411454855
 11
32.6097930818
 21
33.8969909998
  0
SPLINE
  5
3F4
100
AcDbEntity
  8
0
100
AcDbSpline
 62
7
  6
BYLAYER
 70
0
 71
3
 72
18
 73
14
 74
0
 42
0.0000001
 43
0.0000001
 44
0.0000000001
 40
0.0
 40
0.0
 40
0.0
 40
0.0
 40
0.18327467
 40
0.3608384477
 40
0.5262889211
 40
0.6742177898
 40
0.7995740684
 40
0.852324119
 40
0.8978324132
 40
0.9356678548
 40
0.9654533599
 40
0.986956217
 40
1.0
 40
1.0
 40
1.0
 40
1.0
 10
8.849221326
 20
30.1262777765
 30
0.0
 10
8.8360719601
 20
30.1131284106
 30
0.0
 10
8.8101219202
 20
30.0873003722
 30
0.0
 10
8.7720925493
 20
30.0498123395
 30
0.0
 10
8.7364302605
 20
30.0150325186
 30
0.0
 10
8.7043610607
 20
29.9841569858
 30
0.0
 10
8.6803432917
 20
29.9614067645
 30
0.0
 10
8.6637166269
 20
29.9459682726
 30
0.0
 10
8.6535199519
 20
29.9366552447
 30
0.0
 10
8.6449541597
 20
29.929015985
 30
0.0
 10
8.6381078441
 20
29.9231008404
 30
0.0
 10
8.6330368217
 20
29.9190022922
 30
0.0
 10
8.6302123416
 20
29.9169011668
 30
0.0
 10
8.6290572287
 20
29.9162551467
 30
0.0
  0
LINE
  5
3F5
100
AcDbEntity
  8
0
100
AcDbLine
 62
7
  6
BYLAYER
 10
8.6290572287
 20
29.9162551467
 11
8.584902743
 21
29.8915851819
  0
LINE
  5
3F6
100
AcDbEntity
  8
0
100
AcDbLine
 62
7
  6
BYLAYER
 10
7.9821848326
 20
30.4943030922
 11
8.0068547974
 21
30.5384575779
  0
SPLINE
  5
3F7
100
AcDbEntity
  8
0
100
AcDbSpline
 62
7
  6
BYLAYER
 70
0
 71
3
 72
18
 73
14
 74
0
 42
0.0000001
 43
0.0000001
 44
0.0000000001
 40
0.0
 40
0.0
 40
0.0
 40
0.0
 40
0.0130447851
 40
0.0345497507
 40
0.0643370769
 40
0.1021740646
 40
0.1476843781
 40
0.2004351262
 40
0.3257878057
 40
0.4737119919
 40
0.6391587491
 40
0.8167236704
 40
1.0
 40
1.0
 40
1.0
 40
1.0
 10
8.0068547974
 20
30.5384575779
 30
0.0
 10
8.0075008672
 20
30.5396127796
 30
0.0
 10
8.0096022427
 20
30.5424374729
 30
0.0
 10
8.013701121
 20
30.5475088661
 30
0.0
 10
8.0196166276
 20
30.554355605
 30
0.0
 10
8.0272562425
 20
30.5629218119
 30
0.0
 10
8.0365695908
 20
30.5731187802
 30
0.0
 10
8.0520080372
 20
30.5897453643
 30
0.0
 10
8.0747577307
 20
30.6137625725
 30
0.0
 10
8.1056324404
 20
30.645830874
 30
0.0
 10
8.1404117353
 20
30.6814926464
 30
0.0
 10
8.1778997103
 20
30.719521943
 30
0.0
 10
8.2037279425
 20
30.7454721905
 30
0.0
 10
8.2168774273
 20
30.7586216752
 30
0.0
  0
LINE
  5
3F8
100
AcDbEntity
  8
0
100
AcDbLine
 62
7
  6
BYLAYER
 10
11.9875906506
 20
54.519193431
 11
12.0317451362
 21
54.5438633958
  0
SPLINE
  5
3F9
100
AcDbEntity
  8
0
100
AcDbSpline
 62
7
  6
BYLAYER
 70
0
 71
3
 72
18
 73
14
 74
0
 42
0.0000001
 43
0.0000001
 44
0.0000000001
 40
0.0
 40
0.0
 40
0.0
 40
0.0
 40
0.0130447851
 40
0.0345497507
 40
0.0643370769
 40
0.1021740646
 40
0.1476843781
 40
0.2004351262
 40
0.3257878057
 40
0.4737119919
 40
0.6391587491
 40
0.8167236704
 40
1.0
 40
1.0
 40
1.0
 40
1.0
 10
12.6097930818
 20
53.8969909998
 30
0.0
 10
12.609147012
 20
53.8958357981
 30
0.0
 10
12.6070456365
 20
53.8930111048
 30
0.0
 10
12.6029467582
 20
53.8879397116
 30
0.0
 10
12.5970312516
 20
53.8810929726
 30
0.0
 10
12.5893916367
 20
53.8725267658
 30
0.0
 10
12.5800782885
 20
53.8623297975
 30
0.0
 10
12.5646398421
 20
53.8457032134
 30
0.0
 10
12.5418901485
 20
53.8216860051
 30
0.0
 10
12.5110154388
 20
53.7896177037
 30
0.0
 10
12.476236144
 20
53.7539559312
 30
0.0
 10
12.4387481689
 20
53.7159266347
 30
0.0
 10
12.4129199367
 20
53.6899763872
 30
0.0
 10
12.3997704519
 20
53.6768269025
 30
0.0
  0
SPLINE
  5
3FA
100
AcDbEntity
  8
0
100
AcDbSpline
 62
7
  6
BYLAYER
 70
0
 71
3
 72
18
 73
14
 74
0
 42
0.0000001
 43
0.0000001
 44
0.0000000001
 40
0.0
 40
0.0
 40
0.0
 40
0.0
 40
0.18327467
 40
0.3608384477
 40
0.5262889211
 40
0.6742177898
 40
0.7995740684
 40
0.852324119
 40
0.8978324132
 40
0.9356678548
 40
0.9654533599
 40
0.986956217
 40
1.0
 40
1.0
 40
1.0
 40
1.0
 10
8.849221326
 20
50.1262777765
 30
0.0
 10
8.8360719601
 20
50.1131284106
 30
0.0
 10
8.8101219202
 20
50.0873003722
 30
0.0
 10
8.7720925493
 20
50.0498123395
 30
0.0
 10
8.7364302605
 20
50.0150325186
 30
0.0
 10
8.7043610607
 20
49.9841569858
 30
0.0
 10
8.6803432917
 20
49.9614067645
 30
0.0
 10
8.6637166269
 20
49.9459682726
 30
0.0
 10
8.6535199519
 20
49.9366552447
 30
0.0
 10
8.6449541597
 20
49.929015985
 30
0.0
 10
8.6381078441
 20
49.9231008404
 30
0.0
 10
8.6330368217
 20
49.9190022922
 30
0.0
 10
8.6302123416
 20
49.9169011668
 30
0.0
 10
8.6290572287
 20
49.9162551467
 30
0.0
  0
LINE
  5
3FB
100
AcDbEntity
  8
0
100
AcDbLine
 62
7
  6
BYLAYER
 10
8.6290572287
 20
49.9162551467
 11
8.584902743
 21
49.8915851819
  0
LINE
  5
3FC
100
AcDbEntity
  8
0
100
AcDbLine
 62
7
  6
BYLAYER
 10
7.9821848326
 20
50.4943030922
 11
8.0068547974
 21
50.5384575779
  0
SPLINE
  5
3FD
100
AcDbEntity
  8
0
100
AcDbSpline
 62
7
  6
BYLAYER
 70
0
 71
3
 72
18
 73
14
 74
0
 42
0.0000001
 43
0.0000001
 44
0.0000000001
 40
0.0
 40
0.0
 40
0.0
 40
0.0
 40
0.0130447851
 40
0.0345497507
 40
0.0643370769
 40
0.1021740646
 40
0.1476843781
 40
0.2004351262
 40
0.3257878057
 40
0.4737119919
 40
0.6391587491
 40
0.8167236704
 40
1.0
 40
1.0
 40
1.0
 40
1.0
 10
8.0068547974
 20
50.5384575779
 30
0.0
 10
8.0075008672
 20
50.5396127796
 30
0.0
 10
8.0096022427
 20
50.5424374729
 30
0.0
 10
8.013701121
 20
50.5475088661
 30
0.0
 10
8.0196166276
 20
50.554355605
 30
0.0
 10
8.0272562425
 20
50.5629218119
 30
0.0
 10
8.0365695908
 20
50.5731187802
 30
0.0
 10
8.0520080372
 20
50.5897453643
 30
0.0
 10
8.0747577307
 20
50.6137625725
 30
0.0
 10
8.1056324404
 20
50.645830874
 30
0.0
 10
8.1404117353
 20
50.6814926464
 30
0.0
 10
8.1778997103
 20
50.719521943
 30
0.0
 10
8.2037279425
 20
50.7454721905
 30
0.0
 10
8.2168774273
 20
50.7586216752
 30
0.0
  0
SPLINE
  5
3FE
100
AcDbEntity
  8
0
100
AcDbSpline
 62
7
  6
BYLAYER
 70
0
 71
3
 72
18
 73
14
 74
0
 42
0.0000001
 43
0.0000001
 44
0.0000000001
 40
0.0
 40
0.0
 40
0.0
 40
0.0
 40
0.18327467
 40
0.3608384477
 40
0.5262889211
 40
0.6742177898
 40
0.7995740684
 40
0.852324119
 40
0.8978324132
 40
0.9356678548
 40
0.9654533599
 40
0.986956217
 40
1.0
 40
1.0
 40
1.0
 40
1.0
 10
11.7674265532
 20
54.3091708012
 30
0.0
 10
11.7805759191
 20
54.3223201671
 30
0.0
 10
11.806525959
 20
54.3481482055
 30
0.0
 10
11.8445553299
 20
54.3856362382
 30
0.0
 10
11.8802176187
 20
54.4204160591
 30
0.0
 10
11.9122868185
 20
54.4512915919
 30
0.0
 10
11.9363045875
 20
54.4740418132
 30
0.0
 10
11.9529312523
 20
54.4894803051
 30
0.0
 10
11.9631279273
 20
54.498793333
 30
0.0
 10
11.9716937195
 20
54.5064325926
 30
0.0
 10
11.9785400351
 20
54.5123477372
 30
0.0
 10
11.9836110575
 20
54.5164462855
 30
0.0
 10
11.9864355376
 20
54.5185474109
 30
0.0
 10
11.9875906506
 20
54.519193431
 30
0.0
  0
LINE
  5
3FF
100
AcDbEntity
  8
0
100
AcDbLine
 62
7
  6
BYLAYER
 10
12.6344630466
 20
53.9411454855
 11
12.6097930818
 21
53.8969909998
  0
LINE
  5
400
100
AcDbEntity
  8
0
100
AcDbLine
 62
7
  6
BYLAYER
 10
31.9875906506
 20
54.519193431
 11
32.0317451362
 21
54.5438633958
  0
SPLINE
  5
401
100
AcDbEntity
  8
0
100
AcDbSpline
 62
7
  6
BYLAYER
 70
0
 71
3
 72
18
 73
14
 74
0
 42
0.0000001
 43
0.0000001
 44
0.0000000001
 40
0.0
 40
0.0
 40
0.0
 40
0.0
 40
0.0130447851
 40
0.0345497507
 40
0.0643370769
 40
0.1021740646
 40
0.1476843781
 40
0.2004351262
 40
0.3257878057
 40
0.4737119919
 40
0.6391587491
 40
0.8167236704
 40
1.0
 40
1.0
 40
1.0
 40
1.0
 10
32.6097930818
 20
53.8969909998
 30
0.0
 10
32.609147012
 20
53.8958357981
 30
0.0
 10
32.6070456365
 20
53.8930111048
 30
0.0
 10
32.6029467582
 20
53.8879397116
 30
0.0
 10
32.5970312516
 20
53.8810929726
 30
0.0
 10
32.5893916367
 20
53.8725267658
 30
0.0
 10
32.5800782885
 20
53.8623297975
 30
0.0
 10
32.5646398421
 20
53.8457032134
 30
0.0
 10
32.5418901485
 20
53.8216860051
 30
0.0
 10
32.5110154388
 20
53.7896177037
 30
0.0
 10
32.476236144
 20
53.7539559312
 30
0.0
 10
32.4387481689
 20
53.7159266347
 30
0.0
 10
32.4129199367
 20
53.6899763872
 30
0.0
 10
32.3997704519
 20
53.6768269025
 30
0.0
  0
SPLINE
  5
402
100
AcDbEntity
  8
0
100
AcDbSpline
 62
7
  6
BYLAYER
 70
0
 71
3
 72
18
 73
14
 74
0
 42
0.0000001
 43
0.0000001
 44
0.0000000001
 40
0.0
 40
0.0
 40
0.0
 40
0.0
 40
0.18327467
 40
0.3608384477
 40
0.5262889211
 40
0.6742177898
 40
0.7995740684
 40
0.852324119
 40
0.8978324132
 40
0.9356678548
 40
0.9654533599
 40
0.986956217
 40
1.0
 40
1.0
 40
1.0
 40
1.0
 10
28.849221326
 20
50.1262777765
 30
0.0
 10
28.8360719601
 20
50.1131284106
 30
0.0
 10
28.8101219202
 20
50.0873003722
 30
0.0
 10
28.7720925493
 20
50.0498123395
 30
0.0
 10
28.7364302605
 20
50.0150325186
 30
0.0
 10
28.7043610607
 20
49.9841569858
 30
0.0
 10
28.6803432917
 20
49.9614067645
 30
0.0
 10
28.6637166269
 20
49.9459682726
 30
0.0
 10
28.6535199519
 20
49.9366552447
 30
0.0
 10
28.6449541597
 20
49.929015985
 30
0.0
 10
28.6381078441
 20
49.9231008404
 30
0.0
 10
28.6330368217
 20
49.9190022922
 30
0.0
 10
28.6302123416
 20
49.9169011668
 30
0.0
 10
28.6290572287
 20
49.9162551467
 30
0.0
  0
LINE
  5
403
100
AcDbEntity
  8
0
100
AcDbLine
 62
7
  6
BYLAYER
 10
28.6290572287
 20
49.9162551467
 11
28.584902743
 21
49.8915851819
  0
LINE
  5
404
100
AcDbEntity
  8
0
100
AcDbLine
 62
7
  6
BYLAYER
 10
27.9821848326
 20
50.4943030922
 11
28.0068547974
 21
50.5384575779
  0
SPLINE
  5
405
100
AcDbEntity
  8
0
100
AcDbSpline
 62
7
  6
BYLAYER
 70
0
 71
3
 72
18
 73
14
 74
0
 42
0.0000001
 43
0.0000001
 44
0.0000000001
 40
0.0
 40
0.0
 40
0.0
 40
0.0
 40
0.0130447851
 40
0.0345497507
 40
0.0643370769
 40
0.1021740646
 40
0.1476843781
 40
0.2004351262
 40
0.3257878057
 40
0.4737119919
 40
0.6391587491
 40
0.8167236704
 40
1.0
 40
1.0
 40
1.0
 40
1.0
 10
28.0068547974
 20
50.5384575779
 30
0.0
 10
28.0075008672
 20
50.5396127796
 30
0.0
 10
28.0096022427
 20
50.5424374729
 30
0.0
 10
28.013701121
 20
50.5475088661
 30
0.0
 10
28.0196166276
 20
50.554355605
 30
0.0
 10
28.0272562425
 20
50.5629218119
 30
0.0
 10
28.0365695908
 20
50.5731187802
 30
0.0
 10
28.0520080372
 20
50.5897453643
 30
0.0
 10
28.0747577307
 20
50.6137625725
 30
0.0
 10
28.1056324404
 20
50.645830874
 30
0.0
 10
28.1404117353
 20
50.6814926464
 30
0.0
 10
28.1778997103
 20
50.719521943
 30
0.0
 10
28.2037279425
 20
50.7454721905
 30
0.0
 10
28.2168774273
 20
50.7586216752
 30
0.0
  0
SPLINE
  5
406
100
AcDbEntity
  8
0
100
AcDbSpline
 62
7
  6
BYLAYER
 70
0
 71
3
 72
18
 73
14
 74
0
 42
0.0000001
 43
0.0000001
 44
0.0000000001
 40
0.0
 40
0.0
 40
0.0
 40
0.0
 40
0.18327467
 40
0.3608384477
 40
0.5262889211
 40
0.6742177898
 40
0.7995740684
 40
0.852324119
 40
0.8978324132
 40
0.9356678548
 40
0.9654533599
 40
0.986956217
 40
1.0
 40
1.0
 40
1.0
 40
1.0
 10
31.7674265532
 20
54.3091708012
 30
0.0
 10
31.7805759191
 20
54.3223201671
 30
0.0
 10
31.806525959
 20
54.3481482055
 30
0.0
 10
31.8445553299
 20
54.3856362382
 30
0.0
 10
31.8802176187
 20
54.4204160591
 30
0.0
 10
31.9122868185
 20
54.4512915919
 30
0.0
 10
31.9363045875
 20
54.4740418132
 30
0.0
 10
31.9529312523
 20
54.4894803051
 30
0.0
 10
31.9631279273
 20
54.498793333
 30
0.0
 10
31.9716937195
 20
54.5064325926
 30
0.0
 10
31.9785400351
 20
54.5123477372
 30
0.0
 10
31.9836110575
 20
54.5164462855
 30
0.0
 10
31.9864355376
 20
54.5185474109
 30
0.0
 10
31.9875906506
 20
54.519193431
 30
0.0
  0
LINE
  5
407
100
AcDbEntity
  8
0
100
AcDbLine
 62
7
  6
BYLAYER
 10
32.6344630466
 20
53.9411454855
 11
32.6097930818
 21
53.8969909998
  0
ELLIPSE
  5
408
100
AcDbEntity
  8
0
100
AcDbEllipse
 62
7
  6
BYLAYER
 10
29.2891855905
 20
33.6867665585
 30
0.0
 11
0.3535533906
 21
-0.3535533906
 31
0.0
 40
0.0524077793
 41
0.4625122518
 42
1.5707963268
  0
ELLIPSE
  5
409
100
AcDbEntity
  8
0
100
AcDbEllipse
 62
7
  6
BYLAYER
 10
31.3274622888
 20
30.7486820192
 30
0.0
 11
0.3535533906
 21
-0.3535533906
 31
0.0
 40
0.0524077793
 41
-2.6790804018
 42
-1.5707963268
  0
ELLIPSE
  5
40A
100
AcDbEntity
  8
0
100
AcDbEllipse
 62
7
  6
BYLAYER
 10
28.83928167
 20
33.236862638
 30
0.0
 11
0.3535533906
 21
-0.3535533906
 31
0.0
 40
0.0524077793
 41
-1.5707963268
 42
-0.4625122518
  0
ELLIPSE
  5
40B
100
AcDbEntity
  8
0
100
AcDbEllipse
 62
7
  6
BYLAYER
 10
31.7773662093
 20
31.1985859397
 30
0.0
 11
0.3535533906
 21
-0.3535533906
 31
0.0
 40
0.0524077793
 41
1.5707963268
 42
2.6790804018
  0
ELLIPSE
  5
40C
100
AcDbEntity
  8
0
100
AcDbEllipse
 62
7
  6
BYLAYER
 10
9.2891855905
 20
33.6867665585
 30
0.0
 11
0.3535533906
 21
-0.3535533906
 31
0.0
 40
0.0524077793
 41
0.4625122518
 42
1.5707963268
  0
ELLIPSE
  5
40D
100
AcDbEntity
  8
0
100
AcDbEllipse
 62
7
  6
BYLAYER
 10
11.3274622888
 20
30.7486820192
 30
0.0
 11
0.3535533906
 21
-0.3535533906
 31
0.0
 40
0.0524077793
 41
-2.6790804018
 42
-1.5707963268
  0
ELLIPSE
  5
40E
100
AcDbEntity
  8
0
100
AcDbEllipse
 62
7
  6
BYLAYER
 10
8.83928167
 20
33.236862638
 30
0.0
 11
0.3535533906
 21
-0.3535533906
 31
0.0
 40
0.0524077793
 41
-1.5707963268
 42
-0.4625122518
  0
ELLIPSE
  5
40F
100
AcDbEntity
  8
0
100
AcDbEllipse
 62
7
  6
BYLAYER
 10
11.7773662093
 20
31.1985859397
 30
0.0
 11
0.3535533906
 21
-0.3535533906
 31
0.0
 40
0.0524077793
 41
1.5707963268
 42
2.6790804018
  0
ELLIPSE
  5
410
100
AcDbEntity
  8
0
100
AcDbEllipse
 62
7
  6
BYLAYER
 10
9.2891855905
 20
53.6867665585
 30
0.0
 11
0.3535533906
 21
-0.3535533906
 31
0.0
 40
0.0524077793
 41
0.4625122518
 42
1.5707963268
  0
ELLIPSE
  5
411
100
AcDbEntity
  8
0
100
AcDbEllipse
 62
7
  6
BYLAYER
 10
11.3274622888
 20
50.7486820192
 30
0.0
 11
0.3535533906
 21
-0.3535533906
 31
0.0
 40
0.0524077793
 41
-2.6790804018
 42
-1.5707963268
  0
ELLIPSE
  5
412
100
AcDbEntity
  8
0
100
AcDbEllipse
 62
7
  6
BYLAYER
 10
8.83928167
 20
53.236862638
 30
0.0
 11
0.3535533906
 21
-0.3535533906
 31
0.0
 40
0.0524077793
 41
-1.5707963268
 42
-0.4625122518
  0
ELLIPSE
  5
413
100
AcDbEntity
  8
0
100
AcDbEllipse
 62
7
  6
BYLAYER
 10
11.7773662093
 20
51.1985859397
 30
0.0
 11
0.3535533906
 21
-0.3535533906
 31
0.0
 40
0.0524077793
 41
1.5707963268
 42
2.6790804018
  0
ELLIPSE
  5
414
100
AcDbEntity
  8
0
100
AcDbEllipse
 62
7
  6
BYLAYER
 10
29.2891855905
 20
53.6867665585
 30
0.0
 11
0.3535533906
 21
-0.3535533906
 31
0.0
 40
0.0524077793
 41
0.4625122518
 42
1.5707963268
  0
ELLIPSE
  5
415
100
AcDbEntity
  8
0
100
AcDbEllipse
 62
7
  6
BYLAYER
 10
31.3274622888
 20
50.7486820192
 30
0.0
 11
0.3535533906
 21
-0.3535533906
 31
0.0
 40
0.0524077793
 41
-2.6790804018
 42
-1.5707963268
  0
ELLIPSE
  5
416
100
AcDbEntity
  8
0
100
AcDbEllipse
 62
7
  6
BYLAYER
 10
28.83928167
 20
53.236862638
 30
0.0
 11
0.3535533906
 21
-0.3535533906
 31
0.0
 40
0.0524077793
 41
-1.5707963268
 42
-0.4625122518
  0
ELLIPSE
  5
417
100
AcDbEntity
  8
0
100
AcDbEllipse
 62
7
  6
BYLAYER
 10
31.7773662093
 20
51.1985859397
 30
0.0
 11
0.3535533906
 21
-0.3535533906
 31
0.0
 40
0.0524077793
 41
1.5707963268
 42
2.6790804018
  0
ENDSEC
  0
SECTION
  2
OBJECTS
  0
DICTIONARY
  5
C
100
AcDbDictionary
280
0
281
1
  3
ACAD_GROUP
350
D
  3
ACAD_MLINESTYLE
350
17
  3
ACAD_LAYOUT
350
1A
  3
ACAD_PLOTSETTINGS
350
19
  3
ACAD_PLOTSTYLENAME
350
E
  0
DICTIONARY
  5
D
102
{ACAD_REACTORS
330
C
102
}
100
AcDbDictionary
280
0
281
1
  0
ACDBDICTIONARYWDFLT
  5
E
102
{ACAD_REACTORS
330
C
102
}
100
AcDbDictionary
281
1
  3
Normal
350
F
100
AcDbDictionaryWithDefault
340
F
  0
DICTIONARY
  5
17
102
{ACAD_REACTORS
330
C
102
}
100
AcDbDictionary
280
0
281
1
  3
Standard
350
18
  0
DICTIONARY
  5
19
102
{ACAD_REACTORS
330
C
102
}
100
AcDbDictionary
281
1
  0
DICTIONARY
  5
1A
102
{ACAD_REACTORS
330
C
102
}
100
AcDbDictionary
281
1
  3
Model
350
418
  3
Layout1
350
419
  0
ACDBPLACEHOLDER
  5
F
102
{ACAD_REACTORS
330
E
102
}
  0
MLINESTYLE
  5
18
102
{ACAD_REACTORS
330
17
102
}
100
AcDbMlineStyle
  2
STANDARD
 70
0
  3

 62
256
 51
90.0
 52
90.0
 71
2
 49
0.5
 62
256
  6
BYLAYER
 49
-0.5
 62
256
  6
BYLAYER
  0
LAYOUT
  5
418
102
{ACAD_REACTORS
330
1A
102
}
100
AcDbPlotSettings
  1

  2
none_device
  4

  6

 40
0.0
 41
0.0
 42
0.0
 43
0.0
 44
210.0
 45
297.0
 46
0.0
 47
0.0
 48
0.0
 49
0.0
140
0.0
141
0.0
142
1.0
143
1.0
 70
1024
 72
1
 73
0
 74
0
  7

 75
0
147
1.0
148
0.0
149
0.0
100
AcDbLayout
  1
Model
 70
0
 71
0
 10
0.0
 20
0.0
 11
210.0
 21
297.0
 12
0.0
 22
0.0
 32
0.0
 14
0.0
 24
0.0
 34
0.0
 15
0.0
 25
0.0
 35
0.0
146
0.0
 13
0.0
 23
0.0
 33
0.0
 16
1.0
 26
0.0
 36
0.0
 17
0.0
 27
1.0
 37
0.0
 76
0
330
210
345
0
346
0
  0
LAYOUT
  5
419
102
{ACAD_REACTORS
330
1A
102
}
100
AcDbPlotSettings
  1

  2
none_device
  4

  6

 40
0.0
 41
0.0
 42
0.0
 43
0.0
 44
210.0
 45
297.0
 46
0.0
 47
0.0
 48
0.0
 49
0.0
140
0.0
141
0.0
142
1.0
143
1.0
 70
0
 72
1
 73
0
 74
0
  7

 75
0
147
1.0
148
0.0
149
0.0
100
AcDbLayout
  1
Layout1
 70
0
 71
1
 10
0.0
 20
0.0
 11
210.0
 21
297.0
 12
0.0
 22
0.0
 32
0.0
 14
0.0
 24
0.0
 34
0.0
 15
0.0
 25
0.0
 35
0.0
146
0.0
 13
0.0
 23
0.0
 33
0.0
 16
1.0
 26
0.0
 36
0.0
 17
0.0
 27
1.0
 37
0.0
 76
0
330
211
345
0
346
0
  0
ENDSEC
  0
EOF
