999
DXF file: C:\Users\sesa63760\Dev\_Creo\CAD\MCADID0004323_3D-CAD\drw0001_2.dxf
999
Pro/ENGINEER 2019471 by Parametric Technology Corporation
  0
SECTION
  2
HEADER
  9
$ACADVER
  1
AC1024
  9
$DWGCODEPAGE
  3
ANSI_1252
  9
$EXTMAX
 10
80.4412397359
 20
113.7668961979
 30
0.0
  9
$EXTMIN
 10
0.0
 20
0.0
 30
0.0
  9
$LIMMIN
 10
0.0
 20
0.0
  9
$LIMMAX
 10
80.4412397359
 20
113.7668961979
  9
$VIEWCTR
 10
40.2206198679
 20
56.8834480989
  9
$VIEWSIZE
 40
113.7668961979
  9
$CLAYER
  8
0
  9
$LTSCALE
 40
7.4159161966
  9
$CELTYPE
  6
BYLAYER
  9
$DIMSCALE
 40
1.0
  9
$DIMASZ
 40
0.9576338064
  9
$DIMEXO
 40
1.0
  9
$DIMDLI
 40
5.1237239177
  9
$DIMEXE
 40
1.0
  9
$DIMCEN
 40
1.2135135594
  9
$DIMLFAC
 40
1.0
  9
$DIMBLK
  1
_FILLED
  9
$DIMALT
 70
0
  9
$DIMALTF
 40
0.0393700787
  9
$DIMTXT
 40
1.3406873289
  9
$DIMTOL
 70
1
  9
$DIMLIM
 70
0
  9
$DIMTFAC
 40
1.0
  9
$DIMTP
 40
0.01
  9
$DIMTM
 40
0.01
  9
$DIMGAP
 40
0.625
  9
$DIMDSEP
 70
46
  9
$AUNITS
 70
0
  9
$PDMODE
 70
3
  9
$PDSIZE
 40
0.3125
  9
$HANDSEED
  5
354
  9
$TILEMODE
 70
1
  9
$MEASUREMENT
 70
1
  9
$INSUNITS
 70
4
  0
ENDSEC
  0
SECTION
  2
CLASSES
  0
CLASS
  1
ACDBDICTIONARYWDFLT
  2
AcDbDictionaryWithDefault
  3
AutoCAD 2000
 90
0
 91
1
280
0
281
0
  0
CLASS
  1
ACDBPLACEHOLDER
  2
AcDbPlaceHolder
  3
AutoCAD 2000
 90
0
 91
1
280
0
281
0
  0
CLASS
  1
LAYOUT
  2
AcDbLayout
  3
AutoCAD 2000
 90
0
 91
0
280
0
281
0
  0
ENDSEC
  0
SECTION
  2
TABLES
  0
TABLE
  2
VPORT
  5
8
100
AcDbSymbolTable
 70
2
  0
VPORT
  5
1F4
100
AcDbSymbolTableRecord
100
AcDbViewportTableRecord
  2
*ACTIVE
 70
0
 10
0.0
 20
0.0
 11
1.0
 21
1.0
 12
40.2206198679
 22
56.8834480989
 13
0.0
 23
0.0
 14
1.0
 24
1.0
 15
0.0
 25
0.0
 16
0.0
 26
0.0
 36
1.0
 17
0.0
 27
0.0
 37
0.0
 40
113.7668961979
 41
0.7070707071
 42
50.0
 43
0.0
 44
0.0
 50
0.0
 51
0.0
 71
0
 72
100
 73
1
 74
1
 75
0
 76
0
 77
0
 78
0
  0
ENDTAB
  0
TABLE
  2
LTYPE
  5
5
100
AcDbSymbolTable
 70
6
  0
LTYPE
  5
14
100
AcDbSymbolTableRecord
100
AcDbLinetypeTableRecord
  2
BYBLOCK
 70
0
  3

 72
65
 73
0
 40
0.0
  0
LTYPE
  5
15
100
AcDbSymbolTableRecord
100
AcDbLinetypeTableRecord
  2
BYLAYER
 70
0
  3

 72
65
 73
0
 40
0.0
  0
LTYPE
  5
16
100
AcDbSymbolTableRecord
100
AcDbLinetypeTableRecord
  2
CONTINUOUS
 70
64
  3
Solid line
 72
65
 73
0
 40
0.0
  0
LTYPE
  5
1F5
100
AcDbSymbolTableRecord
100
AcDbLinetypeTableRecord
  2
CENTER
 70
64
  3
____ _ ____ _ ____ _ ____ _ ____ _ ____ _ ____
 72
65
 73
4
 40
0.6
 49
0.375
 74
0
 49
-0.075
 74
0
 49
0.075
 74
0
 49
-0.075
 74
0
  0
LTYPE
  5
1F6
100
AcDbSymbolTableRecord
100
AcDbLinetypeTableRecord
  2
HIDDEN
 70
64
  3
- - - - - - - - - - - - - - - - - - - -
 72
65
 73
2
 40
0.2
 49
0.1
 74
0
 49
-0.1
 74
0
  0
LTYPE
  5
1F7
100
AcDbSymbolTableRecord
100
AcDbLinetypeTableRecord
  2
PHANTOM
 70
64
  3
_____ _ _ _____ _ _ _____ _ _ _____
 72
65
 73
6
 40
0.8
 49
0.45
 74
0
 49
-0.05
 74
0
 49
0.1
 74
0
 49
-0.05
 74
0
 49
0.1
 74
0
 49
-0.05
 74
0
  0
LTYPE
  5
1F8
100
AcDbSymbolTableRecord
100
AcDbLinetypeTableRecord
  2
DOT
 70
64
  3
. . . . . . . . . . . . . . . . . . . .
 72
65
 73
2
 40
0.2
 49
0.1
 74
0
 49
-0.1
 74
0
  0
LTYPE
  5
1F9
100
AcDbSymbolTableRecord
100
AcDbLinetypeTableRecord
  2
DASHED
 70
64
  3
- - - - - - - - - - - - - - - - - - - -
 72
65
 73
2
 40
0.2
 49
0.1
 74
0
 49
-0.1
 74
0
  0
ENDTAB
  0
TABLE
  2
LAYER
  5
2
100
AcDbSymbolTable
 70
36
  0
LAYER
  5
10
100
AcDbSymbolTableRecord
100
AcDbLayerTableRecord
  2
0
 70
0
 62
7
  6
CONTINUOUS
370
-3
390
F
  0
LAYER
  5
1FA
100
AcDbSymbolTableRecord
100
AcDbLayerTableRecord
  2
DEFAULT_1
 70
0
 62
7
  6
CENTER
370
-3
390
F
  0
LAYER
  5
1FB
100
AcDbSymbolTableRecord
100
AcDbLayerTableRecord
  2
DEFAULT_2
 70
0
 62
7
  6
HIDDEN
370
-3
390
F
  0
LAYER
  5
1FC
100
AcDbSymbolTableRecord
100
AcDbLayerTableRecord
  2
DEFAULT_3
 70
0
 62
7
  6
PHANTOM
370
-3
390
F
  0
LAYER
  5
1FD
100
AcDbSymbolTableRecord
100
AcDbLayerTableRecord
  2
00_COMPONENTS
 70
0
 62
7
  6
CONTINUOUS
370
-3
390
F
  0
LAYER
  5
1FE
100
AcDbSymbolTableRecord
100
AcDbLayerTableRecord
  2
01_1_DEFAULT_DATUMS
 70
0
 62
7
  6
CONTINUOUS
370
-3
390
F
  0
LAYER
  5
1FF
100
AcDbSymbolTableRecord
100
AcDbLayerTableRecord
  2
01_PLANES
 70
0
 62
7
  6
CONTINUOUS
370
-3
390
F
  0
LAYER
  5
200
100
AcDbSymbolTableRecord
100
AcDbLayerTableRecord
  2
02_COORD_SYS
 70
0
 62
7
  6
CONTINUOUS
370
-3
390
F
  0
LAYER
  5
201
100
AcDbSymbolTableRecord
100
AcDbLayerTableRecord
  2
03_AXES
 70
0
 62
7
  6
CONTINUOUS
370
-3
390
F
  0
LAYER
  5
202
100
AcDbSymbolTableRecord
100
AcDbLayerTableRecord
  2
04_POINTS
 70
0
 62
7
  6
CONTINUOUS
370
-3
390
F
  0
LAYER
  5
203
100
AcDbSymbolTableRecord
100
AcDbLayerTableRecord
  2
05_CURVES
 70
0
 62
7
  6
CONTINUOUS
370
-3
390
F
  0
LAYER
  5
204
100
AcDbSymbolTableRecord
100
AcDbLayerTableRecord
  2
06_SURFS
 70
0
 62
7
  6
CONTINUOUS
370
-3
390
F
  0
LAYER
  5
205
100
AcDbSymbolTableRecord
100
AcDbLayerTableRecord
  2
07_COSMETICS
 70
0
 62
7
  6
CONTINUOUS
370
-3
390
F
  0
LAYER
  5
206
100
AcDbSymbolTableRecord
100
AcDbLayerTableRecord
  2
10_NOTES
 70
0
 62
7
  6
CONTINUOUS
370
-3
390
F
  0
LAYER
  5
207
100
AcDbSymbolTableRecord
100
AcDbLayerTableRecord
  2
11_NOTES_PUB
 70
0
 62
7
  6
CONTINUOUS
370
-3
390
F
  0
LAYER
  5
208
100
AcDbSymbolTableRecord
100
AcDbLayerTableRecord
  2
13_REF_GTOL
 70
0
 62
7
  6
CONTINUOUS
370
-3
390
F
  0
LAYER
  5
209
100
AcDbSymbolTableRecord
100
AcDbLayerTableRecord
  2
16_MISC
 70
0
 62
7
  6
CONTINUOUS
370
-3
390
F
  0
LAYER
  5
20A
100
AcDbSymbolTableRecord
100
AcDbLayerTableRecord
  2
17_NO_PRINT
 70
0
 62
7
  6
CONTINUOUS
370
-3
390
F
  0
LAYER
  5
20B
100
AcDbSymbolTableRecord
100
AcDbLayerTableRecord
  2
18_DATUM_CAMS_JOINTS
 70
0
 62
7
  6
CONTINUOUS
370
-3
390
F
  0
LAYER
  5
20C
100
AcDbSymbolTableRecord
100
AcDbLayerTableRecord
  2
19_DATUM_FUNCTIONAL
 70
0
 62
7
  6
CONTINUOUS
370
-3
390
F
  0
LAYER
  5
20D
100
AcDbSymbolTableRecord
100
AcDbLayerTableRecord
  2
20_DATUM_KINEMATIC_SCHEME
 70
0
 62
7
  6
CONTINUOUS
370
-3
390
F
  0
LAYER
  5
20E
100
AcDbSymbolTableRecord
100
AcDbLayerTableRecord
  2
_1
 70
0
 62
7
  6
CONTINUOUS
370
-3
390
F
  0
ENDTAB
  0
TABLE
  2
STYLE
  5
3
100
AcDbSymbolTable
 70
1
  0
STYLE
  5
11
100
AcDbSymbolTableRecord
100
AcDbTextStyleTableRecord
  2
STANDARD
 70
0
 40
0.0
 41
1.0
 50
0.0
 71
0
 42
0.2
  3
ARIAL.TTF
  4

  0
STYLE
  5
20F
100
AcDbSymbolTableRecord
100
AcDbTextStyleTableRecord
  2
TEXTSTYLE_1
 70
0
 40
0.0
 41
0.8
 50
0.0
 71
0
 42
0.2
  3
gdt
  4

  0
ENDTAB
  0
TABLE
  2
VIEW
  5
6
100
AcDbSymbolTable
 70
0
  0
ENDTAB
  0
TABLE
  2
UCS
  5
7
100
AcDbSymbolTable
 70
0
  0
ENDTAB
  0
TABLE
  2
APPID
  5
9
100
AcDbSymbolTable
 70
1
  0
APPID
  5
210
100
AcDbSymbolTableRecord
100
AcDbRegAppTableRecord
  2
ACAD
 70
0
  0
ENDTAB
  0
TABLE
  2
BLOCK_RECORD
  5
1
100
AcDbSymbolTable
 70
0
  0
BLOCK_RECORD
  5
211
100
AcDbSymbolTableRecord
100
AcDbBlockTableRecord
  2
*Model_Space
  0
BLOCK_RECORD
  5
212
100
AcDbSymbolTableRecord
100
AcDbBlockTableRecord
  2
*Paper_Space
  0
BLOCK_RECORD
  5
213
100
AcDbSymbolTableRecord
100
AcDbBlockTableRecord
  2
_FILLED
  0
ENDTAB
  0
TABLE
  2
DIMSTYLE
  5
A
100
AcDbSymbolTable
 70
1
100
AcDbDimStyleTable
 71
0
  0
DIMSTYLE
105
214
100
AcDbSymbolTableRecord
100
AcDbDimStyleTableRecord
  2
STANDARD
 70
0
  3

  4

 40
1.0
 41
0.9576338064
 42
1.0
 43
0.38
 44
1.0
 45
0.0
 46
0.0
 47
0.01
 48
0.01
140
1.3406873289
141
0.09
142
0.0
143
25.4
144
1.0
145
0.0
146
1.0
147
0.625
 71
1
 72
0
 73
0
 74
0
 75
0
 76
0
 77
1
 78
8
 79
2
170
0
171
1
172
0
173
0
174
0
175
0
176
0
177
0
178
0
270
2
179
2
271
2
272
2
273
2
274
2
275
0
280
0
281
0
282
0
283
1
284
8
285
0
286
0
287
3
288
0
340
11
278
46
341
213
342
213
343
213
344
213
  0
ENDTAB
  0
ENDSEC
  0
SECTION
  2
BLOCKS
  0
BLOCK
  5
20
100
AcDbEntity
  8
0
100
AcDbBlockBegin
  2
*Model_Space
 70
0
 10
0.0
 20
0.0
 30
0.0
  3
*Model_Space
  1

  0
ENDBLK
  5
21
100
AcDbEntity
  8
0
100
AcDbBlockEnd
  0
BLOCK
  5
1C
100
AcDbEntity
  8
0
100
AcDbBlockBegin
  2
*Paper_Space
 70
0
 10
0.0
 20
0.0
 30
0.0
  3
*Paper_Space
  1

  0
ENDBLK
  5
1D
100
AcDbEntity
  8
0
100
AcDbBlockEnd
  0
BLOCK
  5
215
100
AcDbEntity
  8
0
100
AcDbBlockBegin
  2
_FILLED
 70
64
 10
0.0
 20
0.0
  3
_FILLED
  1

  0
SOLID
  5
216
100
AcDbEntity
  8
0
  6
BYBLOCK
 62
0
100
AcDbTrace
 10
0.0
 20
0.0
 11
-1.0
 21
0.25
 12
-1.0
 22
-0.25
 13
-1.0
 23
-0.25
  0
ENDBLK
  5
217
100
AcDbEntity
  8
0
  6
BYBLOCK
 62
0
100
AcDbBlockEnd
  0
ENDSEC
  0
SECTION
  2
ENTITIES
  0
LINE
  5
218
100
AcDbEntity
  8
_1
100
AcDbLine
 62
7
  6
BYLAYER
 10
8.8198425208
 20
62.4796482219
 11
8.8198425208
 21
62.5796482219
  0
LINE
  5
219
100
AcDbEntity
  8
_1
100
AcDbLine
 62
7
  6
BYLAYER
 10
8.8198425208
 20
64.4796482219
 11
8.8198425208
 21
64.5796482219
  0
LINE
  5
21A
100
AcDbEntity
  8
_1
100
AcDbLine
 62
7
  6
BYLAYER
 10
8.9853937507
 20
59.8495773913
 11
8.9853937507
 21
66.4495701057
  0
LINE
  5
21B
100
AcDbEntity
  8
_1
100
AcDbLine
 62
7
  6
BYLAYER
 10
10.3853937507
 20
59.6995737485
 11
10.3853937507
 21
66.5995737485
  0
LINE
  5
21C
100
AcDbEntity
  8
_1
100
AcDbLine
 62
7
  6
BYLAYER
 10
10.7853937507
 20
66.5995280282
 11
10.7853937507
 21
59.6996194688
  0
LINE
  5
21D
100
AcDbEntity
  8
_1
100
AcDbLine
 62
7
  6
BYLAYER
 10
11.595790113
 20
61.820464712
 11
11.5853952653
 21
62.0695752046
  0
LINE
  5
21E
100
AcDbEntity
  8
_1
100
AcDbLine
 62
7
  6
BYLAYER
 10
11.595409732
 20
61.8299924786
 11
11.5853937507
 21
62.0695737485
  0
LINE
  5
21F
100
AcDbEntity
  8
_1
100
AcDbLine
 62
7
  6
BYLAYER
 10
11.5853937507
 20
59.34337606
 11
11.5853937507
 21
66.8544175982
  0
LINE
  5
220
100
AcDbEntity
  8
_1
100
AcDbLine
 62
7
  6
BYLAYER
 10
12.2748313332
 20
67.1467553829
 11
11.7853356974
 21
66.6527094801
  0
LWPOLYLINE
  5
221
100
AcDbEntity
  8
_1
100
AcDbPolyline
 62
7
  6
BYLAYER
 90
3
 70
0
 10
13.4517013205
 20
65.0309891376
 10
13.4817894669
 20
64.3161252466
 10
13.5303937507
 20
63.1495737485
  0
LINE
  5
222
100
AcDbEntity
  8
_1
100
AcDbLine
 62
7
  6
BYLAYER
 10
13.4512771812
 20
65.0496945017
 11
13.5303937507
 21
63.1495737485
  0
LINE
  5
223
100
AcDbEntity
  8
_1
100
AcDbLine
 62
7
  6
BYLAYER
 10
13.5403937507
 20
63.1495737485
 11
13.461219653
 21
65.0510659137
  0
LWPOLYLINE
  5
224
100
AcDbEntity
  8
_1
100
AcDbPolyline
 62
7
  6
BYLAYER
 90
3
 70
0
 10
13.5403937507
 20
63.1495737485
 10
13.4909462166
 20
64.3363669913
 10
13.4616332459
 20
65.0314107158
  0
LINE
  5
225
100
AcDbEntity
  8
_1
100
AcDbLine
 62
7
  6
BYLAYER
 10
14.2853937507
 20
67.1495737215
 11
14.2853937507
 21
67.149312186
  0
LINE
  5
226
100
AcDbEntity
  8
_1
100
AcDbLine
 62
7
  6
BYLAYER
 10
14.2853937507
 20
59.646458262
 11
14.2853937507
 21
67.147219902
  0
LINE
  5
227
100
AcDbEntity
  8
_1
100
AcDbLine
 62
7
  6
BYLAYER
 10
15.2853937507
 20
58.3995827457
 11
15.2853937507
 21
67.8995647513
  0
LINE
  5
228
100
AcDbEntity
  8
_1
100
AcDbLine
 62
7
  6
BYLAYER
 10
13.2748313332
 20
67.1467553829
 11
12.7853356796
 21
66.6527094623
  0
LINE
  5
229
100
AcDbEntity
  8
_1
100
AcDbLine
 62
7
  6
BYLAYER
 10
14.2748313332
 20
67.1467553829
 11
13.7853356796
 21
66.6527094623
  0
LINE
  5
22A
100
AcDbEntity
  8
_1
100
AcDbLine
 62
7
  6
BYLAYER
 10
16.0544763132
 20
58.332287743
 11
15.543617574
 21
49.4362278997
  0
LINE
  5
22B
100
AcDbEntity
  8
_1
100
AcDbLine
 62
7
  6
BYLAYER
 10
15.7804338377
 20
49.4226286592
 11
16.4680903139
 21
61.3974324452
  0
LINE
  5
22C
100
AcDbEntity
  8
_1
100
AcDbLine
 62
7
  6
BYLAYER
 10
16.6721304111
 20
64.9505730226
 11
16.7754995437
 21
66.7506361684
  0
LINE
  5
22D
100
AcDbEntity
  8
_1
100
AcDbLine
 62
7
  6
BYLAYER
 10
17.2739930558
 20
66.7220100383
 11
16.2789273498
 21
49.394002529
  0
LINE
  5
22E
100
AcDbEntity
  8
_1
100
AcDbLine
 62
7
  6
BYLAYER
 10
18.348118426
 20
57.1495737485
 11
18.348118426
 21
55.1495737485
  0
LINE
  5
22F
100
AcDbEntity
  8
_1
100
AcDbLine
 62
7
  6
BYLAYER
 10
18.4353937507
 20
57.1495737485
 11
18.4353937507
 21
55.1495737485
  0
LINE
  5
230
100
AcDbEntity
  8
_1
100
AcDbLine
 62
7
  6
BYLAYER
 10
18.5353937507
 20
67.9130525687
 11
18.5353937507
 21
68.6495737485
  0
LINE
  5
231
100
AcDbEntity
  8
_1
100
AcDbLine
 62
7
  6
BYLAYER
 10
18.8353937507
 20
68.6495737485
 11
18.8353937507
 21
68.1495737485
  0
LINE
  5
232
100
AcDbEntity
  8
_1
100
AcDbLine
 62
7
  6
BYLAYER
 10
19.0853937507
 20
68.6495737485
 11
19.0853937507
 21
68.1495737485
  0
LINE
  5
233
100
AcDbEntity
  8
_1
100
AcDbLine
 62
7
  6
BYLAYER
 10
11.7959561679
 20
59.1523921139
 11
12.285451824
 21
59.6464380348
  0
LINE
  5
234
100
AcDbEntity
  8
_1
100
AcDbLine
 62
7
  6
BYLAYER
 10
12.7959561679
 20
59.1523921139
 11
13.285451824
 21
59.6464380348
  0
LINE
  5
235
100
AcDbEntity
  8
_1
100
AcDbLine
 62
7
  6
BYLAYER
 10
13.7959561679
 20
59.1523921139
 11
14.2853937507
 21
59.6463796603
  0
LINE
  5
236
100
AcDbEntity
  8
_1
100
AcDbLine
 62
7
  6
BYLAYER
 10
12.274889261
 20
67.1467553026
 11
12.2804012686
 21
67.1495737485
  0
LINE
  5
237
100
AcDbEntity
  8
_1
100
AcDbLine
 62
7
  6
BYLAYER
 10
13.274889261
 20
67.1467553026
 11
13.2804012686
 21
67.1495737485
  0
LINE
  5
238
100
AcDbEntity
  8
_1
100
AcDbLine
 62
7
  6
BYLAYER
 10
14.2749265823
 20
67.1467552507
 11
14.2804377209
 21
67.1495737485
  0
LINE
  5
239
100
AcDbEntity
  8
_1
100
AcDbLine
 62
7
  6
BYLAYER
 10
20.5353937507
 20
44.1495737485
 11
20.5353937507
 21
44.8860949283
  0
LINE
  5
23A
100
AcDbEntity
  8
_1
100
AcDbLine
 62
7
  6
BYLAYER
 10
21.5353937507
 20
44.3495737485
 11
21.5353937507
 21
44.1495737485
  0
LINE
  5
23B
100
AcDbEntity
  8
_1
100
AcDbLine
 62
7
  6
BYLAYER
 10
22.0353937507
 20
44.1995737485
 11
22.0353937507
 21
44.3495737485
  0
LINE
  5
23C
100
AcDbEntity
  8
_1
100
AcDbLine
 62
7
  6
BYLAYER
 10
22.0853937507
 20
68.3495737485
 11
22.0853937507
 21
68.6495737485
  0
LINE
  5
23D
100
AcDbEntity
  8
0
100
AcDbLine
 62
7
  6
BYLAYER
 10
22.2853937507
 20
68.8995737485
 11
22.2853937507
 21
68.6495737485
  0
LINE
  5
23E
100
AcDbEntity
  8
_1
100
AcDbLine
 62
7
  6
BYLAYER
 10
22.6353937507
 20
55.1495737485
 11
22.6353937507
 21
57.1495737485
  0
LINE
  5
23F
100
AcDbEntity
  8
_1
100
AcDbLine
 62
7
  6
BYLAYER
 10
22.7226690753
 20
55.1495737485
 11
22.7226690753
 21
57.1495737485
  0
LINE
  5
240
100
AcDbEntity
  8
_1
100
AcDbLine
 62
7
  6
BYLAYER
 10
11.5853937507
 20
59.3436030428
 11
11.7748316486
 21
59.1523919455
  0
LINE
  5
241
100
AcDbEntity
  8
_1
100
AcDbLine
 62
7
  6
BYLAYER
 10
12.279064705
 20
59.652766814
 11
12.7748313332
 21
59.1523921141
  0
LINE
  5
242
100
AcDbEntity
  8
0
100
AcDbLine
 62
7
  6
BYLAYER
 10
22.7853937507
 20
68.8995737485
 11
22.7853937507
 21
68.6495737485
  0
LINE
  5
243
100
AcDbEntity
  8
_1
100
AcDbLine
 62
7
  6
BYLAYER
 10
23.0853937507
 20
68.6495737485
 11
22.0853937507
 21
68.3495737485
  0
LINE
  5
244
100
AcDbEntity
  8
_1
100
AcDbLine
 62
7
  6
BYLAYER
 10
14.2790852072
 20
59.6527648721
 11
14.2853937507
 21
59.646398407
  0
LINE
  5
245
100
AcDbEntity
  8
_1
100
AcDbLine
 62
7
  6
BYLAYER
 10
13.279064705
 20
59.652766814
 11
13.7748313332
 21
59.1523921141
  0
LINE
  5
246
100
AcDbEntity
  8
_1
100
AcDbLine
 62
7
  6
BYLAYER
 10
25.5285320207
 20
59.2298852442
 11
25.5285320207
 21
44.9896057187
  0
LINE
  5
247
100
AcDbEntity
  8
_1
100
AcDbLine
 62
7
  6
BYLAYER
 10
12.7958982401
 20
59.1523921942
 11
12.7903862328
 21
59.1495737485
  0
LINE
  5
248
100
AcDbEntity
  8
_1
100
AcDbLine
 62
7
  6
BYLAYER
 10
13.7958982401
 20
59.1523921942
 11
13.7903862328
 21
59.1495737485
  0
LINE
  5
249
100
AcDbEntity
  8
_1
100
AcDbLine
 62
7
  6
BYLAYER
 10
11.7959784535
 20
59.152392083
 11
11.7904159936
 21
59.1495737485
  0
LINE
  5
24A
100
AcDbEntity
  8
_1
100
AcDbLine
 62
7
  6
BYLAYER
 10
11.7917228129
 20
66.646380702
 11
11.5853937507
 21
66.8546144305
  0
LINE
  5
24B
100
AcDbEntity
  8
_1
100
AcDbLine
 62
7
  6
BYLAYER
 10
20.5353937507
 20
44.1495737485
 11
21.5353937507
 21
44.1495737485
  0
LINE
  5
24C
100
AcDbEntity
  8
_1
100
AcDbLine
 62
7
  6
BYLAYER
 10
21.5353937507
 20
44.1995737485
 11
72.0353937507
 21
44.1995737485
  0
LINE
  5
24D
100
AcDbEntity
  8
_1
100
AcDbLine
 62
7
  6
BYLAYER
 10
21.5353937507
 20
44.3495737485
 11
72.4358726106
 21
44.3495737485
  0
LINE
  5
24E
100
AcDbEntity
  8
_1
100
AcDbLine
 62
7
  6
BYLAYER
 10
20.5353937507
 20
44.3867801609
 11
71.7988725709
 21
44.3867801609
  0
LINE
  5
24F
100
AcDbEntity
  8
_1
100
AcDbLine
 62
7
  6
BYLAYER
 10
72.2981873383
 20
44.8860949283
 11
20.5353937507
 21
44.8860949283
  0
LINE
  5
250
100
AcDbEntity
  8
_1
100
AcDbLine
 62
7
  6
BYLAYER
 10
72.4653670058
 20
44.9002589811
 11
72.5353937507
 21
44.9002589811
  0
LINE
  5
251
100
AcDbEntity
  8
_1
100
AcDbLine
 62
7
  6
BYLAYER
 10
25.5285320207
 20
44.9896057187
 11
72.2981873383
 21
44.9896057187
  0
LINE
  5
252
100
AcDbEntity
  8
_1
100
AcDbLine
 62
7
  6
BYLAYER
 10
30.5353937507
 20
50.1495737485
 11
30.5216796945
 21
50.1632878047
  0
LINE
  5
253
100
AcDbEntity
  8
_1
100
AcDbLine
 62
7
  6
BYLAYER
 10
12.7917227967
 20
66.6463806827
 11
12.2959561679
 21
67.1467553832
  0
LINE
  5
254
100
AcDbEntity
  8
_1
100
AcDbLine
 62
7
  6
BYLAYER
 10
13.7917227967
 20
66.6463806827
 11
13.2959561679
 21
67.1467553832
  0
LINE
  5
255
100
AcDbEntity
  8
_1
100
AcDbLine
 62
7
  6
BYLAYER
 10
30.5216796945
 20
47.1358596923
 11
30.5216796945
 21
50.1632878047
  0
LINE
  5
256
100
AcDbEntity
  8
_1
100
AcDbLine
 62
7
  6
BYLAYER
 10
30.5353937507
 20
47.1495737485
 11
30.5353937507
 21
50.1495737485
  0
LINE
  5
257
100
AcDbEntity
  8
0
100
AcDbLine
 62
7
  6
BYLAYER
 10
30.6500645411
 20
68.8995737485
 11
30.6500645411
 21
68.9095737485
  0
LINE
  5
258
100
AcDbEntity
  8
0
100
AcDbLine
 62
7
  6
BYLAYER
 10
47.6181022769
 20
68.9095737485
 11
48.5666495362
 21
69.1995737485
  0
LINE
  5
259
100
AcDbEntity
  8
_1
100
AcDbLine
 62
7
  6
BYLAYER
 10
72.5200530694
 20
46.4921349436
 11
72.5353937507
 21
46.4921349436
  0
LINE
  5
25A
100
AcDbEntity
  8
_1
100
AcDbLine
 62
7
  6
BYLAYER
 10
71.0988427838
 20
46.8861247154
 11
67.9719447175
 21
46.8861247154
  0
LINE
  5
25B
100
AcDbEntity
  8
_1
100
AcDbLine
 62
7
  6
BYLAYER
 10
68.0353937507
 20
46.9495737485
 11
68.4749215093
 21
46.9495737485
  0
LINE
  5
25C
100
AcDbEntity
  8
_1
100
AcDbLine
 62
7
  6
BYLAYER
 10
70.595865992
 20
46.9495737485
 11
71.0353937507
 21
46.9495737485
  0
LINE
  5
25D
100
AcDbEntity
  8
_1
100
AcDbLine
 62
7
  6
BYLAYER
 10
71.873370023
 20
46.9868647882
 11
71.0895860005
 21
46.9868647882
  0
LINE
  5
25E
100
AcDbEntity
  8
_1
100
AcDbLine
 62
7
  6
BYLAYER
 10
67.9812015009
 20
46.9868647882
 11
29.4478447558
 21
46.9868647882
  0
LINE
  5
25F
100
AcDbEntity
  8
_1
100
AcDbLine
 62
7
  6
BYLAYER
 10
72.0360789833
 20
47.1495737485
 11
71.0353937507
 21
47.1495737485
  0
LINE
  5
260
100
AcDbEntity
  8
_1
100
AcDbLine
 62
7
  6
BYLAYER
 10
68.0353937507
 20
47.1495737485
 11
30.5353937507
 21
47.1495737485
  0
LINE
  5
261
100
AcDbEntity
  8
_1
100
AcDbLine
 62
7
  6
BYLAYER
 10
11.7748851732
 20
59.1523920203
 11
11.7804244347
 21
59.1495737485
  0
LINE
  5
262
100
AcDbEntity
  8
_1
100
AcDbLine
 62
7
  6
BYLAYER
 10
12.774889261
 20
59.1523921944
 11
12.7804012686
 21
59.1495737485
  0
LINE
  5
263
100
AcDbEntity
  8
_1
100
AcDbLine
 62
7
  6
BYLAYER
 10
13.774889261
 20
59.1523921944
 11
13.7804012686
 21
59.1495737485
  0
LINE
  5
264
100
AcDbEntity
  8
_1
100
AcDbLine
 62
7
  6
BYLAYER
 10
26.6737286893
 20
58.0846885756
 11
25.5285320207
 21
59.2298852442
  0
LINE
  5
265
100
AcDbEntity
  8
0
100
AcDbLine
 62
7
  6
BYLAYER
 10
32.8938093285
 20
68.9095737485
 11
32.8938093285
 21
68.8995737485
  0
LINE
  5
266
100
AcDbEntity
  8
0
100
AcDbLine
 62
7
  6
BYLAYER
 10
55.8181022769
 20
68.9095737485
 11
56.7666495362
 21
69.1995737485
  0
LINE
  5
267
100
AcDbEntity
  8
_1
100
AcDbLine
 62
7
  6
BYLAYER
 10
15.543617574
 20
49.4362278997
 11
16.2789273498
 21
49.394002529
  0
LINE
  5
268
100
AcDbEntity
  8
0
100
AcDbLine
 62
7
  6
BYLAYER
 10
34.4896478551
 20
68.8995737485
 11
34.4896478551
 21
68.9095737485
  0
LINE
  5
269
100
AcDbEntity
  8
_1
100
AcDbLine
 62
7
  6
BYLAYER
 10
30.5353937507
 20
50.1495737485
 11
68.0353937507
 21
50.1495737485
  0
LINE
  5
26A
100
AcDbEntity
  8
_1
100
AcDbLine
 62
7
  6
BYLAYER
 10
71.0353937507
 20
50.1495737485
 11
72.0360789833
 21
50.1495737485
  0
LINE
  5
26B
100
AcDbEntity
  8
_1
100
AcDbLine
 62
7
  6
BYLAYER
 10
29.7604709581
 20
50.289127043
 11
67.9889137844
 21
50.289127043
  0
LINE
  5
26C
100
AcDbEntity
  8
_1
100
AcDbLine
 62
7
  6
BYLAYER
 10
71.081873717
 20
50.289127043
 11
71.8965256888
 21
50.289127043
  0
LINE
  5
26D
100
AcDbEntity
  8
_1
100
AcDbLine
 62
7
  6
BYLAYER
 10
71.0353937507
 20
50.5495737485
 11
70.9372859065
 21
50.5495737485
  0
LINE
  5
26E
100
AcDbEntity
  8
_1
100
AcDbLine
 62
7
  6
BYLAYER
 10
68.1335015948
 20
50.5495737485
 11
68.0353937507
 21
50.5495737485
  0
LINE
  5
26F
100
AcDbEntity
  8
_1
100
AcDbLine
 62
7
  6
BYLAYER
 10
67.9812605517
 20
50.6037069475
 11
71.0895269497
 21
50.6037069475
  0
LINE
  5
270
100
AcDbEntity
  8
_1
100
AcDbLine
 62
7
  6
BYLAYER
 10
71.8965256888
 20
50.6739221435
 11
29.4329553817
 21
50.6739221435
  0
LINE
  5
271
100
AcDbEntity
  8
_1
100
AcDbLine
 62
7
  6
BYLAYER
 10
72.5353937507
 20
50.9187247491
 11
72.5175386295
 21
50.9187247491
  0
LINE
  5
272
100
AcDbEntity
  8
0
100
AcDbLine
 62
7
  6
BYLAYER
 10
36.8942413793
 20
68.8995737485
 11
36.8942413793
 21
68.9095737485
  0
LINE
  5
273
100
AcDbEntity
  8
0
100
AcDbLine
 62
7
  6
BYLAYER
 10
38.5862729556
 20
68.8995737485
 11
38.5862729556
 21
68.9095737485
  0
LINE
  5
274
100
AcDbEntity
  8
0
100
AcDbLine
 62
7
  6
BYLAYER
 10
38.627823785
 20
68.8995737485
 11
38.627823785
 21
68.9095737485
  0
LINE
  5
275
100
AcDbEntity
  8
0
100
AcDbLine
 62
7
  6
BYLAYER
 10
38.6693746144
 20
68.8995737485
 11
38.6693746144
 21
68.9095737485
  0
LINE
  5
276
100
AcDbEntity
  8
_1
100
AcDbLine
 62
7
  6
BYLAYER
 10
12.2958982401
 20
67.1467553028
 11
12.2903862328
 21
67.1495737485
  0
LINE
  5
277
100
AcDbEntity
  8
_1
100
AcDbLine
 62
7
  6
BYLAYER
 10
13.2958982401
 20
67.1467553028
 11
13.2903862328
 21
67.1495737485
  0
LINE
  5
278
100
AcDbEntity
  8
0
100
AcDbLine
 62
7
  6
BYLAYER
 10
39.6665945198
 20
68.8995737485
 11
39.6665945198
 21
68.9095737485
  0
LINE
  5
279
100
AcDbEntity
  8
0
100
AcDbLine
 62
7
  6
BYLAYER
 10
40.3314077901
 20
68.8995737485
 11
40.3314077901
 21
68.9095737485
  0
LINE
  5
27A
100
AcDbEntity
  8
0
100
AcDbLine
 62
7
  6
BYLAYER
 10
40.9131194017
 20
68.8995737485
 11
40.9131194017
 21
68.9095737485
  0
LINE
  5
27B
100
AcDbEntity
  8
_1
100
AcDbLine
 62
7
  6
BYLAYER
 10
30.5353937507
 20
47.1495737485
 11
30.5216796945
 21
47.1358596923
  0
LINE
  5
27C
100
AcDbEntity
  8
_1
100
AcDbLine
 62
7
  6
BYLAYER
 10
68.4513480896
 20
54.8904175776
 11
70.6194394118
 21
54.8904175776
  0
LINE
  5
27D
100
AcDbEntity
  8
_1
100
AcDbLine
 62
7
  6
BYLAYER
 10
70.8715836418
 20
55.1296223769
 11
68.1992038595
 21
55.1296223769
  0
LINE
  5
27E
100
AcDbEntity
  8
_1
100
AcDbLine
 62
7
  6
BYLAYER
 10
22.7226690753
 20
55.1495737485
 11
22.6353937507
 21
55.1495737485
  0
LINE
  5
27F
100
AcDbEntity
  8
_1
100
AcDbLine
 62
7
  6
BYLAYER
 10
18.4353937507
 20
55.1495737485
 11
18.348118426
 21
55.1495737485
  0
LINE
  5
280
100
AcDbEntity
  8
_1
100
AcDbLine
 62
7
  6
BYLAYER
 10
72.4653670058
 20
55.1495737485
 11
72.5353937507
 21
55.1495737485
  0
LINE
  5
281
100
AcDbEntity
  8
_1
100
AcDbLine
 62
7
  6
BYLAYER
 10
15.2853937507
 20
58.3995737485
 11
16.0544763132
 21
58.332287743
  0
LINE
  5
282
100
AcDbEntity
  8
_1
100
AcDbLine
 62
7
  6
BYLAYER
 10
8.9853937507
 20
59.8495737485
 11
10.3853937507
 21
59.6995737485
  0
LINE
  5
283
100
AcDbEntity
  8
_1
100
AcDbLine
 62
7
  6
BYLAYER
 10
14.2804377209
 20
67.1495737485
 11
14.2853937507
 21
67.147219902
  0
LINE
  5
284
100
AcDbEntity
  8
0
100
AcDbLine
 62
7
  6
BYLAYER
 10
42.4920509187
 20
68.8995737485
 11
42.4920509187
 21
68.9095737485
  0
LINE
  5
285
100
AcDbEntity
  8
_1
100
AcDbLine
 62
7
  6
BYLAYER
 10
18.348118426
 20
57.1495737485
 11
18.4353937507
 21
57.1495737485
  0
LINE
  5
286
100
AcDbEntity
  8
_1
100
AcDbLine
 62
7
  6
BYLAYER
 10
22.6353937507
 20
57.1495737485
 11
22.7226690753
 21
57.1495737485
  0
LINE
  5
287
100
AcDbEntity
  8
_1
100
AcDbLine
 62
7
  6
BYLAYER
 10
26.6737286893
 20
58.0846885756
 11
60.0353937507
 21
58.0846885756
  0
LINE
  5
288
100
AcDbEntity
  8
_1
100
AcDbLine
 62
7
  6
BYLAYER
 10
67.0353937507
 20
58.0846885756
 11
71.8051417332
 21
58.0846885756
  0
LINE
  5
289
100
AcDbEntity
  8
_1
100
AcDbLine
 62
7
  6
BYLAYER
 10
13.7903937507
 20
59.1495737485
 11
13.7803937507
 21
59.1495737485
  0
LINE
  5
28A
100
AcDbEntity
  8
_1
100
AcDbLine
 62
7
  6
BYLAYER
 10
12.7903937507
 20
59.1495737485
 11
12.7803937507
 21
59.1495737485
  0
LINE
  5
28B
100
AcDbEntity
  8
_1
100
AcDbLine
 62
7
  6
BYLAYER
 10
11.7903937507
 20
59.1495737485
 11
11.7803937507
 21
59.1495737485
  0
LINE
  5
28C
100
AcDbEntity
  8
_1
100
AcDbLine
 62
7
  6
BYLAYER
 10
72.2981873383
 20
59.2298852442
 11
67.0353937507
 21
59.2298852442
  0
LINE
  5
28D
100
AcDbEntity
  8
_1
100
AcDbLine
 62
7
  6
BYLAYER
 10
60.0353937507
 20
59.2298852442
 11
25.5285320207
 21
59.2298852442
  0
LINE
  5
28E
100
AcDbEntity
  8
0
100
AcDbLine
 62
7
  6
BYLAYER
 10
43.4892708242
 20
68.8995737485
 11
43.4892708242
 21
68.9095737485
  0
LINE
  5
28F
100
AcDbEntity
  8
0
100
AcDbLine
 62
7
  6
BYLAYER
 10
44.2371857533
 20
68.8995737485
 11
44.2371857533
 21
68.9095737485
  0
LINE
  5
290
100
AcDbEntity
  8
0
100
AcDbLine
 62
7
  6
BYLAYER
 10
44.8188973648
 20
68.8995737485
 11
44.8188973648
 21
68.9095737485
  0
LINE
  5
291
100
AcDbEntity
  8
_1
100
AcDbLine
 62
7
  6
BYLAYER
 10
15.2853937507
 20
59.6995737485
 11
14.2853937507
 21
59.6995737485
  0
LINE
  5
292
100
AcDbEntity
  8
_1
100
AcDbLine
 62
7
  6
BYLAYER
 10
10.7853937507
 20
59.6995737485
 11
10.3853937507
 21
59.6995737485
  0
LINE
  5
293
100
AcDbEntity
  8
_1
100
AcDbLine
 62
7
  6
BYLAYER
 10
11.5853937507
 20
59.8495737485
 11
10.7853937507
 21
59.8495737485
  0
LINE
  5
294
100
AcDbEntity
  8
0
100
AcDbLine
 62
7
  6
BYLAYER
 10
47.0853937507
 20
68.8995737485
 11
47.0853937507
 21
68.9095737485
  0
LINE
  5
295
100
AcDbEntity
  8
0
100
AcDbLine
 62
7
  6
BYLAYER
 10
47.8353937507
 20
68.9095737485
 11
47.8353937507
 21
68.8995737485
  0
LINE
  5
296
100
AcDbEntity
  8
_1
100
AcDbLine
 62
7
  6
BYLAYER
 10
16.7103730476
 20
66.7543760758
 11
17.2739930558
 21
66.7220100383
  0
LINE
  5
297
100
AcDbEntity
  8
0
100
AcDbLine
 62
7
  6
BYLAYER
 10
52.3353937507
 20
68.8995737485
 11
52.3353937507
 21
68.9095737485
  0
LINE
  5
298
100
AcDbEntity
  8
_1
100
AcDbLine
 62
7
  6
BYLAYER
 10
11.5853937507
 20
66.4495737485
 11
10.7853937507
 21
66.4495737485
  0
LINE
  5
299
100
AcDbEntity
  8
_1
100
AcDbLine
 62
7
  6
BYLAYER
 10
15.2853937507
 20
66.5995737485
 11
14.2853937507
 21
66.5995737485
  0
LINE
  5
29A
100
AcDbEntity
  8
_1
100
AcDbLine
 62
7
  6
BYLAYER
 10
10.7853937507
 20
66.5995737485
 11
10.3853937507
 21
66.5995737485
  0
LINE
  5
29B
100
AcDbEntity
  8
_1
100
AcDbLine
 62
7
  6
BYLAYER
 10
13.2903937507
 20
67.1495737485
 11
13.2803937507
 21
67.1495737485
  0
LINE
  5
29C
100
AcDbEntity
  8
_1
100
AcDbLine
 62
7
  6
BYLAYER
 10
12.2903937507
 20
67.1495737485
 11
12.2803937507
 21
67.1495737485
  0
LINE
  5
29D
100
AcDbEntity
  8
_1
100
AcDbLine
 62
7
  6
BYLAYER
 10
18.5353937507
 20
67.9130525687
 11
72.2981873383
 21
67.9130525687
  0
LINE
  5
29E
100
AcDbEntity
  8
_1
100
AcDbLine
 62
7
  6
BYLAYER
 10
18.8353937507
 20
68.1495737485
 11
72.5353937507
 21
68.1495737485
  0
LINE
  5
29F
100
AcDbEntity
  8
_1
100
AcDbLine
 62
7
  6
BYLAYER
 10
18.8353937507
 20
68.4123673361
 11
18.5353937507
 21
68.4123673361
  0
LINE
  5
2A0
100
AcDbEntity
  8
0
100
AcDbLine
 62
7
  6
BYLAYER
 10
53.0853937507
 20
68.9095737485
 11
53.0853937507
 21
68.8995737485
  0
LINE
  5
2A1
100
AcDbEntity
  8
_1
100
AcDbLine
 62
7
  6
BYLAYER
 10
8.9853937507
 20
66.4495737485
 11
10.3853937507
 21
66.5995737485
  0
LINE
  5
2A2
100
AcDbEntity
  8
_1
100
AcDbLine
 62
7
  6
BYLAYER
 10
15.2853937507
 20
67.8995737485
 11
17.1172437193
 21
68.059839854
  0
LINE
  5
2A3
100
AcDbEntity
  8
_1
100
AcDbLine
 62
7
  6
BYLAYER
 10
63.4853937507
 20
68.6495737485
 11
23.0853937507
 21
68.6495737485
  0
LINE
  5
2A4
100
AcDbEntity
  8
_1
100
AcDbLine
 62
7
  6
BYLAYER
 10
22.0853937507
 20
68.6495737485
 11
19.0853937507
 21
68.6495737485
  0
LINE
  5
2A5
100
AcDbEntity
  8
_1
100
AcDbLine
 62
7
  6
BYLAYER
 10
18.8353937507
 20
68.6495737485
 11
18.5353937507
 21
68.6495737485
  0
LINE
  5
2A6
100
AcDbEntity
  8
0
100
AcDbLine
 62
7
  6
BYLAYER
 10
22.2853937507
 20
68.6495737485
 11
23.0853937507
 21
68.6495737485
  0
LINE
  5
2A7
100
AcDbEntity
  8
0
100
AcDbLine
 62
7
  6
BYLAYER
 10
63.4853937507
 20
68.6495737485
 11
64.4853937507
 21
68.6495737485
  0
LINE
  5
2A8
100
AcDbEntity
  8
_1
100
AcDbLine
 62
7
  6
BYLAYER
 10
64.4853937507
 20
68.6495737485
 11
72.2853937507
 21
68.6495737485
  0
LINE
  5
2A9
100
AcDbEntity
  8
_1
100
AcDbLine
 62
7
  6
BYLAYER
 10
65.4853937507
 20
68.7495737485
 11
68.4853937507
 21
68.7495737485
  0
LINE
  5
2AA
100
AcDbEntity
  8
0
100
AcDbLine
 62
7
  6
BYLAYER
 10
22.2853937507
 20
68.8995737485
 11
64.4853937507
 21
68.8995737485
  0
LINE
  5
2AB
100
AcDbEntity
  8
0
100
AcDbLine
 62
7
  6
BYLAYER
 10
61.2853937507
 20
68.9095737485
 11
55.2853937507
 21
68.9095737485
  0
LINE
  5
2AC
100
AcDbEntity
  8
0
100
AcDbLine
 62
7
  6
BYLAYER
 10
53.0853937507
 20
68.9095737485
 11
47.0853937507
 21
68.9095737485
  0
LINE
  5
2AD
100
AcDbEntity
  8
0
100
AcDbLine
 62
7
  6
BYLAYER
 10
44.8188973648
 20
68.9095737485
 11
42.4920509187
 21
68.9095737485
  0
LINE
  5
2AE
100
AcDbEntity
  8
0
100
AcDbLine
 62
7
  6
BYLAYER
 10
40.9131194017
 20
68.9095737485
 11
38.5862729556
 21
68.9095737485
  0
LINE
  5
2AF
100
AcDbEntity
  8
0
100
AcDbLine
 62
7
  6
BYLAYER
 10
36.8941896598
 20
68.9095737485
 11
30.6501635199
 21
68.9095737485
  0
LINE
  5
2B0
100
AcDbEntity
  8
0
100
AcDbLine
 62
7
  6
BYLAYER
 10
59.8041379651
 20
69.1995737485
 11
56.7666495362
 21
69.1995737485
  0
LINE
  5
2B1
100
AcDbEntity
  8
0
100
AcDbLine
 62
7
  6
BYLAYER
 10
51.6041379651
 20
69.1995737485
 11
48.5666495362
 21
69.1995737485
  0
LINE
  5
2B2
100
AcDbEntity
  8
_1
100
AcDbLine
 62
7
  6
BYLAYER
 10
71.8360789833
 20
44.3495737485
 11
71.7988725709
 21
44.3867801609
  0
LINE
  5
2B3
100
AcDbEntity
  8
_1
100
AcDbLine
 62
7
  6
BYLAYER
 10
72.2981873383
 20
44.8860949283
 11
72.5353937507
 21
44.6488885159
  0
LINE
  5
2B4
100
AcDbEntity
  8
0
100
AcDbLine
 62
7
  6
BYLAYER
 10
55.2853937507
 20
68.8995737485
 11
55.2853937507
 21
68.9095737485
  0
LINE
  5
2B5
100
AcDbEntity
  8
0
100
AcDbLine
 62
7
  6
BYLAYER
 10
56.0353937507
 20
68.9095737485
 11
56.0353937507
 21
68.8995737485
  0
LINE
  5
2B6
100
AcDbEntity
  8
_1
100
AcDbLine
 62
7
  6
BYLAYER
 10
72.534708518
 20
68.1495737485
 11
72.2981873383
 21
67.9130525687
  0
LINE
  5
2B7
100
AcDbEntity
  8
0
100
AcDbLine
 62
7
  6
BYLAYER
 10
52.5526852245
 20
68.9095737485
 11
51.6041379651
 21
69.1995737485
  0
LINE
  5
2B8
100
AcDbEntity
  8
_1
100
AcDbLine
 62
7
  6
BYLAYER
 10
71.0353937507
 20
46.9495737485
 11
71.0988427838
 21
46.8861247154
  0
LINE
  5
2B9
100
AcDbEntity
  8
_1
100
AcDbLine
 62
7
  6
BYLAYER
 10
68.0353937507
 20
50.5495737485
 11
67.9812605517
 21
50.6037069475
  0
LINE
  5
2BA
100
AcDbEntity
  8
_1
100
AcDbLine
 62
7
  6
BYLAYER
 10
64.4853937507
 20
68.3495737485
 11
63.4853937507
 21
68.6495737485
  0
LINE
  5
2BB
100
AcDbEntity
  8
0
100
AcDbLine
 62
7
  6
BYLAYER
 10
60.7526852245
 20
68.9095737485
 11
59.8041379651
 21
69.1995737485
  0
LINE
  5
2BC
100
AcDbEntity
  8
_1
100
AcDbLine
 62
7
  6
BYLAYER
 10
72.0360789833
 20
50.1495737485
 11
71.8965256888
 21
50.289127043
  0
LINE
  5
2BD
100
AcDbEntity
  8
_1
100
AcDbLine
 62
7
  6
BYLAYER
 10
72.3958404562
 20
50.7884418103
 11
72.5334764141
 21
50.6508058525
  0
LINE
  5
2BE
100
AcDbEntity
  8
_1
100
AcDbLine
 62
7
  6
BYLAYER
 10
72.5334894471
 20
50.6507928195
 11
72.5353937507
 21
50.6488885159
  0
LINE
  5
2BF
100
AcDbEntity
  8
_1
100
AcDbLine
 62
7
  6
BYLAYER
 10
60.0353937507
 20
55.1495737485
 11
60.0353937507
 21
59.2298852442
  0
LINE
  5
2C0
100
AcDbEntity
  8
0
100
AcDbLine
 62
7
  6
BYLAYER
 10
60.5353937507
 20
68.8995737485
 11
60.5353937507
 21
68.9095737485
  0
LINE
  5
2C1
100
AcDbEntity
  8
0
100
AcDbLine
 62
7
  6
BYLAYER
 10
61.2853937507
 20
68.9095737485
 11
61.2853937507
 21
68.8995737485
  0
LINE
  5
2C2
100
AcDbEntity
  8
0
100
AcDbLine
 62
7
  6
BYLAYER
 10
63.9853937507
 20
68.8995737485
 11
63.9853937507
 21
68.6495737485
  0
LINE
  5
2C3
100
AcDbEntity
  8
0
100
AcDbLine
 62
7
  6
BYLAYER
 10
64.4853937507
 20
68.8995737485
 11
64.4853937507
 21
68.6495737485
  0
LINE
  5
2C4
100
AcDbEntity
  8
_1
100
AcDbLine
 62
7
  6
BYLAYER
 10
64.4853937507
 20
68.6495737485
 11
64.4853937507
 21
68.3495737485
  0
LINE
  5
2C5
100
AcDbEntity
  8
_1
100
AcDbLine
 62
7
  6
BYLAYER
 10
65.4853937507
 20
68.6495737485
 11
65.4853937507
 21
68.7495737485
  0
LINE
  5
2C6
100
AcDbEntity
  8
_1
100
AcDbLine
 62
7
  6
BYLAYER
 10
67.9889137844
 20
50.289127043
 11
68.0353937507
 21
50.1495737485
  0
LINE
  5
2C7
100
AcDbEntity
  8
_1
100
AcDbLine
 62
7
  6
BYLAYER
 10
67.0353937507
 20
55.1495737485
 11
67.0353937507
 21
59.2298852442
  0
LINE
  5
2C8
100
AcDbEntity
  8
_1
100
AcDbLine
 62
7
  6
BYLAYER
 10
68.0353937507
 20
50.5495737485
 11
68.0353937507
 21
50.1495737485
  0
LINE
  5
2C9
100
AcDbEntity
  8
_1
100
AcDbLine
 62
7
  6
BYLAYER
 10
68.0353937507
 20
47.1495737485
 11
68.0353937507
 21
46.9495737485
  0
LINE
  5
2CA
100
AcDbEntity
  8
_1
100
AcDbLine
 62
7
  6
BYLAYER
 10
68.4853937507
 20
68.6495737485
 11
68.4853937507
 21
68.7495737485
  0
LINE
  5
2CB
100
AcDbEntity
  8
_1
100
AcDbLine
 62
7
  6
BYLAYER
 10
71.0353937507
 20
50.5495737485
 11
71.0895269497
 21
50.6037069475
  0
LINE
  5
2CC
100
AcDbEntity
  8
_1
100
AcDbLine
 62
7
  6
BYLAYER
 10
68.0353937507
 20
46.9495737485
 11
67.9719447175
 21
46.8861247154
  0
LINE
  5
2CD
100
AcDbEntity
  8
_1
100
AcDbLine
 62
7
  6
BYLAYER
 10
71.0895860005
 20
46.9868647882
 11
71.0353937507
 21
47.1495737485
  0
LINE
  5
2CE
100
AcDbEntity
  8
_1
100
AcDbLine
 62
7
  6
BYLAYER
 10
68.1992038595
 20
55.1296223769
 11
69.1854012444
 21
51.0145868837
  0
LINE
  5
2CF
100
AcDbEntity
  8
_1
100
AcDbLine
 62
7
  6
BYLAYER
 10
69.1858388513
 20
51.0134489066
 11
68.1999611801
 21
55.1271503532
  0
LINE
  5
2D0
100
AcDbEntity
  8
_1
100
AcDbLine
 62
7
  6
BYLAYER
 10
68.4513480896
 20
54.8904175776
 11
69.3853305671
 21
50.9932555045
  0
LINE
  5
2D1
100
AcDbEntity
  8
_1
100
AcDbLine
 62
7
  6
BYLAYER
 10
69.6854569342
 20
50.9932555045
 11
70.6194394118
 21
54.8904175776
  0
LINE
  5
2D2
100
AcDbEntity
  8
_1
100
AcDbLine
 62
7
  6
BYLAYER
 10
70.8708263212
 20
55.1271503532
 11
69.88494865
 21
51.0134489066
  0
LINE
  5
2D3
100
AcDbEntity
  8
_1
100
AcDbLine
 62
7
  6
BYLAYER
 10
69.8853862569
 20
51.0145868837
 11
70.8715836418
 21
55.1296223769
  0
LINE
  5
2D4
100
AcDbEntity
  8
_1
100
AcDbLine
 62
7
  6
BYLAYER
 10
68.0353937507
 20
47.1495737485
 11
67.9812015009
 21
46.9868647882
  0
LINE
  5
2D5
100
AcDbEntity
  8
_1
100
AcDbLine
 62
7
  6
BYLAYER
 10
71.873370023
 20
46.9868647882
 11
72.0360789833
 21
47.1495737485
  0
LINE
  5
2D6
100
AcDbEntity
  8
_1
100
AcDbLine
 62
7
  6
BYLAYER
 10
72.5353937507
 20
46.6502589811
 11
72.5334894471
 21
46.6483546775
  0
LINE
  5
2D7
100
AcDbEntity
  8
_1
100
AcDbLine
 62
7
  6
BYLAYER
 10
72.5334764141
 20
46.6483416445
 11
72.3726847903
 21
46.4875500208
  0
LINE
  5
2D8
100
AcDbEntity
  8
_1
100
AcDbLine
 62
7
  6
BYLAYER
 10
71.8965256888
 20
50.6739221435
 11
71.8051417332
 21
58.0846885756
  0
LINE
  5
2D9
100
AcDbEntity
  8
_1
100
AcDbLine
 62
7
  6
BYLAYER
 10
72.3044565006
 20
58.1992082425
 11
72.3958404562
 21
50.7884418103
  0
LINE
  5
2DA
100
AcDbEntity
  8
_1
100
AcDbLine
 62
7
  6
BYLAYER
 10
72.5175386294
 20
50.9187247491
 11
72.4653670058
 21
55.1495737485
  0
LINE
  5
2DB
100
AcDbEntity
  8
_1
100
AcDbLine
 62
7
  6
BYLAYER
 10
71.0353937507
 20
46.9495737485
 11
71.0353937507
 21
47.1495737485
  0
LINE
  5
2DC
100
AcDbEntity
  8
_1
100
AcDbLine
 62
7
  6
BYLAYER
 10
71.0353937507
 20
50.1495737485
 11
71.0353937507
 21
50.5495737485
  0
LINE
  5
2DD
100
AcDbEntity
  8
_1
100
AcDbLine
 62
7
  6
BYLAYER
 10
71.5353937507
 20
44.3495737485
 11
71.5353937507
 21
44.1995737485
  0
LINE
  5
2DE
100
AcDbEntity
  8
_1
100
AcDbLine
 62
7
  6
BYLAYER
 10
71.5853937507
 20
68.6495737485
 11
71.5853937507
 21
68.1495737485
  0
LINE
  5
2DF
100
AcDbEntity
  8
_1
100
AcDbLine
 62
7
  6
BYLAYER
 10
71.7988725709
 20
68.1495737485
 11
71.7988725709
 21
59.2298852442
  0
LINE
  5
2E0
100
AcDbEntity
  8
_1
100
AcDbLine
 62
7
  6
BYLAYER
 10
71.7988725709
 20
44.9896057187
 11
71.7988725709
 21
44.3867801609
  0
LINE
  5
2E1
100
AcDbEntity
  8
_1
100
AcDbLine
 62
7
  6
BYLAYER
 10
71.8965256888
 20
50.6739221435
 11
71.8965256888
 21
50.289127043
  0
LINE
  5
2E2
100
AcDbEntity
  8
_1
100
AcDbLine
 62
7
  6
BYLAYER
 10
72.0353937507
 20
44.1995737485
 11
72.0353937507
 21
44.3495737485
  0
LINE
  5
2E3
100
AcDbEntity
  8
_1
100
AcDbLine
 62
7
  6
BYLAYER
 10
72.2853937507
 20
68.1495737485
 11
72.2853937507
 21
68.6495737485
  0
LINE
  5
2E4
100
AcDbEntity
  8
_1
100
AcDbLine
 62
7
  6
BYLAYER
 10
72.2981873383
 20
44.8860949283
 11
72.2981873383
 21
44.9896057187
  0
LINE
  5
2E5
100
AcDbEntity
  8
_1
100
AcDbLine
 62
7
  6
BYLAYER
 10
72.2981873383
 20
59.2298852442
 11
72.2981873383
 21
67.9130525687
  0
LINE
  5
2E6
100
AcDbEntity
  8
_1
100
AcDbLine
 62
7
  6
BYLAYER
 10
72.5353937507
 20
44.6488885159
 11
72.5353937507
 21
46.4921349436
  0
LINE
  5
2E7
100
AcDbEntity
  8
_1
100
AcDbLine
 62
7
  6
BYLAYER
 10
72.5353937507
 20
50.9187247491
 11
72.5353937507
 21
68.1495737485
  0
LINE
  5
2E8
100
AcDbEntity
  8
_1
100
AcDbLine
 62
7
  6
BYLAYER
 10
72.7353937507
 20
54.9495737485
 11
72.7353937507
 21
50.848894838
  0
LINE
  5
2E9
100
AcDbEntity
  8
_1
100
AcDbLine
 62
7
  6
BYLAYER
 10
72.7353937507
 20
46.4502589811
 11
72.7353937507
 21
45.1002589811
  0
LINE
  5
2EA
100
AcDbEntity
  8
_1
100
AcDbLine
 62
7
  6
BYLAYER
 10
72.4653670058
 20
44.9002589811
 11
72.5200530694
 21
46.4921349437
  0
LINE
  5
2EB
100
AcDbEntity
  8
_1
100
AcDbLine
 62
7
  6
BYLAYER
 10
71.0353937507
 20
50.1495737485
 11
71.081873717
 21
50.289127043
  0
ARC
  5
2EC
100
AcDbEntity
  8
_1
100
AcDbCircle
 62
7
  6
BYLAYER
 10
20.5353937507
 20
49.1495737485
 40
5.0
100
AcDbArc
 50
176.7133832894
 51
270.0
  0
ARC
  5
2ED
100
AcDbEntity
  8
_1
100
AcDbCircle
 62
7
  6
BYLAYER
 10
20.5353937507
 20
49.1495737485
 40
4.7627935876
100
AcDbArc
 50
176.7133832894
 51
270.0
  0
ARC
  5
2EE
100
AcDbEntity
  8
_1
100
AcDbCircle
 62
7
  6
BYLAYER
 10
20.5353937507
 20
49.1495737485
 40
4.2634788202
100
AcDbArc
 50
176.7133832894
 51
270.0
  0
CIRCLE
  5
2EF
100
AcDbEntity
  8
_1
100
AcDbCircle
 62
7
  6
BYLAYER
 10
20.5353937507
 20
49.1495737485
 40
2.1872753246
  0
ARC
  5
2F0
100
AcDbEntity
  8
_1
100
AcDbCircle
 62
7
  6
BYLAYER
 10
20.5353937507
 20
55.1495737485
 40
2.1872753246
100
AcDbArc
 50
180.0
 51
360.0
  0
ARC
  5
2F1
100
AcDbEntity
  8
_1
100
AcDbCircle
 62
7
  6
BYLAYER
 10
20.5353937507
 20
55.1495737485
 40
2.1
100
AcDbArc
 50
180.0
 51
360.0
  0
CIRCLE
  5
2F2
100
AcDbEntity
  8
_1
100
AcDbCircle
 62
7
  6
BYLAYER
 10
20.5353937507
 20
49.1495737485
 40
2.1
  0
ARC
  5
2F3
100
AcDbEntity
  8
_1
100
AcDbCircle
 62
7
  6
BYLAYER
 10
20.5353937507
 20
57.1495737485
 40
2.1872753246
100
AcDbArc
 50
0.0
 51
180.0
  0
ARC
  5
2F4
100
AcDbEntity
  8
_1
100
AcDbCircle
 62
7
  6
BYLAYER
 10
20.5353937507
 20
57.1495737485
 40
2.1
100
AcDbArc
 50
0.0
 51
180.0
  0
ARC
  5
2F5
100
AcDbEntity
  8
_1
100
AcDbCircle
 62
7
  6
BYLAYER
 10
18.5353937507
 20
66.6495737485
 40
2.0
100
AcDbArc
 50
90.0
 51
135.1597058166
  0
ARC
  5
2F6
100
AcDbEntity
  8
_1
100
AcDbCircle
 62
7
  6
BYLAYER
 10
18.5353937507
 20
66.6495737485
 40
1.7627935876
100
AcDbArc
 50
90.0
 51
176.7133832894
  0
ARC
  5
2F7
100
AcDbEntity
  8
_1
100
AcDbCircle
 62
7
  6
BYLAYER
 10
18.5353937507
 20
66.6495737485
 40
1.2634788202
100
AcDbArc
 50
90.0
 51
176.7133832894
  0
ARC
  5
2F8
100
AcDbEntity
  8
_1
100
AcDbCircle
 62
7
  6
BYLAYER
 10
9.2698425208
 20
64.5796482219
 40
0.45
100
AcDbArc
 50
126.0104113433
 51
180.0
  0
ARC
  5
2F9
100
AcDbEntity
  8
_1
100
AcDbCircle
 62
7
  6
BYLAYER
 10
9.2698425208
 20
64.4796482219
 40
0.45
100
AcDbArc
 50
180.0
 51
233.9895886567
  0
ARC
  5
2FA
100
AcDbEntity
  8
_1
100
AcDbCircle
 62
7
  6
BYLAYER
 10
9.2698425208
 20
62.4796482219
 40
0.45
100
AcDbArc
 50
180.0
 51
233.9895886567
  0
ARC
  5
2FB
100
AcDbEntity
  8
_1
100
AcDbCircle
 62
7
  6
BYLAYER
 10
9.2698425208
 20
62.5796482219
 40
0.45
100
AcDbArc
 50
126.0104113433
 51
180.0
  0
ARC
  5
2FC
100
AcDbEntity
  8
_1
100
AcDbCircle
 62
7
  6
BYLAYER
 10
63.5353937507
 20
55.1495737485
 40
3.5
100
AcDbArc
 50
180.0
 51
360.0
  0
ARC
  5
2FD
100
AcDbEntity
  8
_1
100
AcDbCircle
 62
7
  6
BYLAYER
 10
69.5353937507
 20
53.2495737485
 40
3.0
100
AcDbArc
 50
244.3199418744
 51
295.6800578411
  0
CIRCLE
  5
2FE
100
AcDbEntity
  8
_1
100
AcDbCircle
 62
7
  6
BYLAYER
 10
63.5353937507
 20
55.1495737485
 40
2.1872753246
  0
CIRCLE
  5
2FF
100
AcDbEntity
  8
_1
100
AcDbCircle
 62
7
  6
BYLAYER
 10
63.5353937507
 20
55.1495737485
 40
2.1
  0
ARC
  5
300
100
AcDbEntity
  8
_1
100
AcDbCircle
 62
7
  6
BYLAYER
 10
69.5353937507
 20
45.7095737485
 40
1.34
100
AcDbArc
 50
66.1322880423
 51
113.86767369
  0
ARC
  5
301
100
AcDbEntity
  8
_1
100
AcDbCircle
 62
7
  6
BYLAYER
 10
72.0363044498
 20
50.6486630494
 40
0.4990887421
100
AcDbArc
 50
269.9741163003
 51
0.0258836997
  0
ARC
  5
302
100
AcDbEntity
  8
_1
100
AcDbCircle
 62
7
  6
BYLAYER
 10
72.0363044498
 20
46.6504844476
 40
0.4990887421
100
AcDbArc
 50
359.9741163003
 51
90.0258836997
  0
ARC
  5
303
100
AcDbEntity
  8
_1
100
AcDbCircle
 62
7
  6
BYLAYER
 10
69.5129865351
 20
51.0145746899
 40
0.3275852908
100
AcDbArc
 50
179.9978672791
 51
182.1061221276
  0
ARC
  5
304
100
AcDbEntity
  8
_1
100
AcDbCircle
 62
7
  6
BYLAYER
 10
69.5614276401
 20
51.0145080939
 40
0.3239586263
100
AcDbArc
 50
357.8820757321
 51
0.0139348612
  0
ARC
  5
305
100
AcDbEntity
  8
_1
100
AcDbCircle
 62
7
  6
BYLAYER
 10
72.5353937507
 20
54.9495737485
 40
0.2
100
AcDbArc
 50
0.0
 51
90.0
  0
ARC
  5
306
100
AcDbEntity
  8
_1
100
AcDbCircle
 62
7
  6
BYLAYER
 10
72.5353937507
 20
46.4502589811
 40
0.2
100
AcDbArc
 50
0.0
 51
90.0
  0
ARC
  5
307
100
AcDbEntity
  8
_1
100
AcDbCircle
 62
7
  6
BYLAYER
 10
72.5353937507
 20
50.8488885159
 40
0.2
100
AcDbArc
 50
270.0
 51
360.0
  0
ARC
  5
308
100
AcDbEntity
  8
_1
100
AcDbCircle
 62
7
  6
BYLAYER
 10
72.5353937507
 20
45.1002589811
 40
0.2
100
AcDbArc
 50
270.0
 51
360.0
  0
ARC
  5
309
100
AcDbEntity
  8
_1
100
AcDbCircle
 62
7
  6
BYLAYER
 10
68.9022796192
 20
57.1135484443
 40
2.8090832319
100
AcDbArc
 50
307.6827158882
 51
309.1858166926
  0
ARC
  5
30A
100
AcDbEntity
  8
_1
100
AcDbCircle
 62
7
  6
BYLAYER
 10
70.1685078821
 20
57.1135484443
 40
2.8090832318
100
AcDbArc
 50
230.8141833074
 51
232.3172841118
  0
ARC
  5
30B
100
AcDbEntity
  8
_1
100
AcDbCircle
 62
7
  6
BYLAYER
 10
71.7982090334
 20
67.9118509406
 40
0.499899314
100
AcDbArc
 50
26.2139456345
 51
28.3946048553
  0
SPLINE
  5
30C
100
AcDbEntity
  8
_1
100
AcDbSpline
 62
7
  6
BYLAYER
 70
0
 71
3
 72
46
 73
42
 74
0
 42
0.0000001
 43
0.0000001
 44
0.0000000001
 40
0.0
 40
0.0
 40
0.0
 40
0.0
 40
0.0007921147
 40
0.0018134077
 40
0.0030844266
 40
0.004617731
 40
0.0084977569
 40
0.0134867694
 40
0.0196043352
 40
0.0268567917
 40
0.0352374741
 40
0.0447366298
 40
0.0669884054
 40
0.093338497
 40
0.1233783491
 40
0.1566438404
 40
0.2112283845
 40
0.2701215962
 40
0.3014437412
 40
0.3342463287
 40
0.403459177
 40
0.4756471274
 40
0.5486218183
 40
0.6200444586
 40
0.6877893818
 40
0.750021175
 40
0.8074620966
 40
0.8603645609
 40
0.8844555092
 40
0.906664285
 40
0.9267970519
 40
0.9446722246
 40
0.960154738
 40
0.9731460276
 40
0.9835989751
 40
0.987868232
 40
0.9915049894
 40
0.994517861
 40
0.9969184302
 40
0.9987295562
 40
1.0
 40
1.0
 40
1.0
 40
1.0
 10
11.7917227952
 20
66.6463806841
 30
0.0
 10
11.7930274555
 20
66.6450640489
 30
0.0
 10
11.7955729544
 20
66.6416232727
 30
0.0
 10
11.7989723146
 20
66.6352465305
 30
0.0
 10
11.8024347961
 20
66.626979626
 30
0.0
 10
11.8075533601
 20
66.6121931685
 30
0.0
 10
11.8138955157
 20
66.5886673723
 30
0.0
 10
11.8213182245
 20
66.5543873257
 30
0.0
 10
11.828926187
 20
66.5120982426
 30
0.0
 10
11.8366833629
 20
66.4617927539
 30
0.0
 10
11.8445692501
 20
66.4035113118
 30
0.0
 10
11.8558159261
 20
66.3102764669
 30
0.0
 10
11.8697029149
 20
66.1750209532
 30
0.0
 10
11.8856804962
 20
65.9916892077
 30
0.0
 10
11.9014647709
 20
65.7824854445
 30
0.0
 10
11.9197714194
 20
65.5072274949
 30
0.0
 10
11.9393169407
 20
65.1643970387
 30
0.0
 10
11.9556880599
 20
64.8259583188
 30
0.0
 10
11.9692556146
 20
64.5384153562
 30
0.0
 10
11.9840705003
 20
64.2267561324
 30
0.0
 10
12.0035073417
 20
63.8195823858
 30
0.0
 10
12.0273392015
 20
63.318508305
 30
0.0
 10
12.0514691644
 20
62.8122716247
 30
0.0
 10
12.0750338327
 20
62.3164165793
 30
0.0
 10
12.0975774114
 20
61.8456796823
 30
0.0
 10
12.1180814569
 20
61.4076007092
 30
0.0
 10
12.13842855
 20
61.0042830187
 30
0.0
 10
12.1574846322
 20
60.690275561
 30
0.0
 10
12.1736342727
 20
60.4587026108
 30
0.0
 10
12.1855792626
 20
60.3037079638
 30
0.0
 10
12.1976367429
 20
60.1633148446
 30
0.0
 10
12.2097107355
 20
60.0387276245
 30
0.0
 10
12.2216781034
 20
59.9309273461
 30
0.0
 10
12.2334403604
 20
59.8405962283
 30
0.0
 10
12.2435212148
 20
59.7765177124
 30
0.0
 10
12.2516789637
 20
59.7343354016
 30
0.0
 10
12.2572650952
 20
59.7093965099
 30
0.0
 10
12.2627052185
 20
59.6889272852
 30
0.0
 10
12.2679728426
 20
59.6728351149
 30
0.0
 10
12.273042719
 20
59.6610583603
 30
0.0
 10
12.2769722082
 20
59.6548785173
 30
0.0
 10
12.279064705
 20
59.652766814
 30
0.0
  0
SPLINE
  5
30D
100
AcDbEntity
  8
_1
100
AcDbSpline
 62
7
  6
BYLAYER
 70
0
 71
3
 72
11
 73
7
 74
0
 42
0.0000001
 43
0.0000001
 44
0.0000000001
 40
0.0
 40
0.0
 40
0.0
 40
0.0
 40
0.1704456414
 40
0.3801241054
 40
0.6527086115
 40
1.0
 40
1.0
 40
1.0
 40
1.0
 10
13.2803937507
 20
67.1495737485
 30
0.0
 10
13.2813733873
 20
67.1495737485
 30
0.0
 10
13.2835673188
 20
67.1489320925
 30
0.0
 10
13.2864636873
 20
67.1464559357
 30
0.0
 10
13.2892991118
 20
67.1425967736
 30
0.0
 10
13.2909813101
 20
67.1394453808
 30
0.0
 10
13.2918496643
 20
67.1376481029
 30
0.0
  0
SPLINE
  5
30E
100
AcDbEntity
  8
_1
100
AcDbSpline
 62
7
  6
BYLAYER
 70
0
 71
3
 72
18
 73
14
 74
0
 42
0.0000001
 43
0.0000001
 44
0.0000000001
 40
0.0
 40
0.0
 40
0.0
 40
0.0
 40
0.0153964409
 40
0.0370191748
 40
0.0650695192
 40
0.0996575149
 40
0.1408574207
 40
0.188656981
 40
0.3038520962
 40
0.4443970442
 40
0.6087854799
 40
0.794813752
 40
1.0
 40
1.0
 40
1.0
 40
1.0
 10
13.2918496643
 20
67.1376481029
 30
0.0
 10
13.2944958937
 20
67.1321710636
 30
0.0
 10
13.2993681883
 20
67.118315579
 30
0.0
 10
13.3058925389
 20
67.0934532708
 30
0.0
 10
13.3126697406
 20
67.060843104
 30
0.0
 10
13.3196542195
 20
67.0204153274
 30
0.0
 10
13.326774643
 20
66.9721058244
 30
0.0
 10
13.3370820761
 20
66.892091332
 30
0.0
 10
13.3498295898
 20
66.7728365564
 30
0.0
 10
13.3646247947
 20
66.6075093088
 30
0.0
 10
13.3794566872
 20
66.4141043643
 30
0.0
 10
13.3941448363
 20
66.1950872255
 30
0.0
 10
13.4033174448
 20
66.0407977746
 30
0.0
 10
13.4078921526
 20
65.9598622844
 30
0.0
  0
SPLINE
  5
30F
100
AcDbEntity
  8
_1
100
AcDbSpline
 62
7
  6
BYLAYER
 70
0
 71
3
 72
9
 73
5
 74
0
 42
0.0000001
 43
0.0000001
 44
0.0000000001
 40
0.0
 40
0.0
 40
0.0
 40
0.0
 40
0.4803245728
 40
1.0
 40
1.0
 40
1.0
 40
1.0
 10
13.4078921526
 20
65.9598622844
 30
0.0
 10
13.4161252395
 20
65.8142029435
 30
0.0
 10
13.4316539387
 20
65.5108585789
 30
0.0
 10
13.4446622455
 20
65.2073999342
 30
0.0
 10
13.4512771812
 20
65.0496945017
 30
0.0
  0
SPLINE
  5
310
100
AcDbEntity
  8
_1
100
AcDbSpline
 62
7
  6
BYLAYER
 70
0
 71
3
 72
29
 73
25
 74
0
 42
0.0000001
 43
0.0000001
 44
0.0000000001
 40
0.0
 40
0.0
 40
0.0
 40
0.0
 40
0.1938321522
 40
0.2873689044
 40
0.3769534795
 40
0.4613847781
 40
0.5411290468
 40
0.6169838035
 40
0.6889266858
 40
0.7555172491
 40
0.8155680316
 40
0.8681414849
 40
0.8913557765
 40
0.912418335
 40
0.9312653067
 40
0.9478516713
 40
0.9621577119
 40
0.9741694763
 40
0.9839012077
 40
0.9913901878
 40
0.9943110616
 40
0.9967006233
 40
0.9985831361
 40
1.0
 40
1.0
 40
1.0
 40
1.0
 10
13.5303937507
 20
63.1495737485
 30
0.0
 10
13.5411793192
 20
62.8907651683
 30
0.0
 10
13.5571573416
 20
62.5070639251
 30
0.0
 10
13.5781359551
 20
62.0037482228
 30
0.0
 10
13.5930649727
 20
61.6465082963
 30
0.0
 10
13.6070169511
 20
61.3076756978
 30
0.0
 10
13.6205560091
 20
60.9871898924
 30
0.0
 10
13.6344879823
 20
60.6834256404
 30
0.0
 10
13.6493620632
 20
60.3973062398
 30
0.0
 10
13.66482254
 20
60.1323709099
 30
0.0
 10
13.6806794869
 20
59.8933947364
 30
0.0
 10
13.694549587
 20
59.7123884206
 30
0.0
 10
13.7058515476
 20
59.583452872
 30
0.0
 10
13.7139303382
 20
59.4994820203
 30
0.0
 10
13.7219337788
 20
59.4244059128
 30
0.0
 10
13.7298356701
 20
59.3584040384
 30
0.0
 10
13.7376056124
 20
59.3015937982
 30
0.0
 10
13.7452214444
 20
59.2540161508
 30
0.0
 10
13.7526418625
 20
59.2156569428
 30
0.0
 10
13.7589805503
 20
59.189471993
 30
0.0
 10
13.7641123291
 20
59.1731493956
 30
0.0
 10
13.767565828
 20
59.1641652127
 30
0.0
 10
13.7709510751
 20
59.1573502952
 30
0.0
 10
13.7735239039
 20
59.1537118438
 30
0.0
 10
13.7748565043
 20
59.1523667065
 30
0.0
  0
SPLINE
  5
311
100
AcDbEntity
  8
_1
100
AcDbSpline
 62
7
  6
BYLAYER
 70
0
 71
3
 72
11
 73
7
 74
0
 42
0.0000001
 43
0.0000001
 44
0.0000000001
 40
0.0
 40
0.0
 40
0.0
 40
0.0
 40
0.1704456414
 40
0.3801241054
 40
0.6527086115
 40
1.0
 40
1.0
 40
1.0
 40
1.0
 10
12.7903937506
 20
59.1495737485
 30
0.0
 10
12.789414114
 20
59.1495737485
 30
0.0
 10
12.7872201825
 20
59.1502154045
 30
0.0
 10
12.7843238141
 20
59.1526915613
 30
0.0
 10
12.7814883896
 20
59.1565507234
 30
0.0
 10
12.7798061912
 20
59.1597021162
 30
0.0
 10
12.7789378371
 20
59.1614993941
 30
0.0
  0
SPLINE
  5
312
100
AcDbEntity
  8
_1
100
AcDbSpline
 62
7
  6
BYLAYER
 70
0
 71
3
 72
26
 73
22
 74
0
 42
0.0000001
 43
0.0000001
 44
0.0000000001
 40
0.0
 40
0.0
 40
0.0
 40
0.0
 40
0.0021834233
 40
0.004865317
 40
0.0117829264
 40
0.0208219346
 40
0.0320191264
 40
0.0453952507
 40
0.0609411117
 40
0.0984606479
 40
0.1442365278
 40
0.1976863585
 40
0.2580038917
 40
0.3243008384
 40
0.39536638
 40
0.4700061215
 40
0.5484343362
 40
0.6314368691
 40
0.7192799389
 40
0.8107654349
 40
1.0
 40
1.0
 40
1.0
 40
1.0
 10
12.7789378371
 20
59.1614993941
 30
0.0
 10
12.7776719141
 20
59.1641195409
 30
0.0
 10
12.7751986278
 20
59.1701248844
 30
0.0
 10
12.770224459
 20
59.1850259678
 30
0.0
 10
12.7640967681
 20
59.2091260497
 30
0.0
 10
12.7569196014
 20
59.2446006337
 30
0.0
 10
12.7495424037
 20
59.2887935829
 30
0.0
 10
12.7420123404
 20
59.3417321587
 30
0.0
 10
12.7311042545
 20
59.4296107679
 30
0.0
 10
12.7176296098
 20
59.5606617656
 30
0.0
 10
12.7020299204
 20
59.7422433903
 30
0.0
 10
12.6864437884
 20
59.9543056239
 30
0.0
 10
12.6710861219
 20
60.1937951774
 30
0.0
 10
12.6561371994
 20
60.4568287696
 30
0.0
 10
12.6418225527
 20
60.7390115755
 30
0.0
 10
12.6283920697
 20
61.037422318
 30
0.0
 10
12.6151993695
 20
61.3517663504
 30
0.0
 10
12.6015184304
 20
61.6837018302
 30
0.0
 10
12.586912124
 20
62.0330158575
 30
0.0
 10
12.5664637013
 20
62.52378902
 30
0.0
 10
12.5508948221
 20
62.897591911
 30
0.0
 10
12.5403937507
 20
63.1495737485
 30
0.0
  0
SPLINE
  5
313
100
AcDbEntity
  8
_1
100
AcDbSpline
 62
7
  6
BYLAYER
 70
0
 71
3
 72
11
 73
7
 74
0
 42
0.0000001
 43
0.0000001
 44
0.0000000001
 40
0.0
 40
0.0
 40
0.0
 40
0.0
 40
0.1704456414
 40
0.3801241054
 40
0.6527086115
 40
1.0
 40
1.0
 40
1.0
 40
1.0
 10
12.2803937507
 20
67.1495737485
 30
0.0
 10
12.2813733873
 20
67.1495737485
 30
0.0
 10
12.2835673188
 20
67.1489320925
 30
0.0
 10
12.2864636873
 20
67.1464559357
 30
0.0
 10
12.2892991118
 20
67.1425967736
 30
0.0
 10
12.2909813101
 20
67.1394453808
 30
0.0
 10
12.2918496643
 20
67.1376481029
 30
0.0
  0
SPLINE
  5
314
100
AcDbEntity
  8
_1
100
AcDbSpline
 62
7
  6
BYLAYER
 70
0
 71
3
 72
26
 73
22
 74
0
 42
0.0000001
 43
0.0000001
 44
0.0000000001
 40
0.0
 40
0.0
 40
0.0
 40
0.0
 40
0.0021834233
 40
0.004865317
 40
0.0117829264
 40
0.0208219346
 40
0.0320191264
 40
0.0453952507
 40
0.0609411117
 40
0.0984606479
 40
0.1442365278
 40
0.1976863585
 40
0.2580038917
 40
0.3243008384
 40
0.39536638
 40
0.4700061215
 40
0.5484343362
 40
0.6314368691
 40
0.7192799389
 40
0.8107654349
 40
1.0
 40
1.0
 40
1.0
 40
1.0
 10
12.2918496643
 20
67.1376481029
 30
0.0
 10
12.2931155872
 20
67.1350279561
 30
0.0
 10
12.2955888736
 20
67.1290226126
 30
0.0
 10
12.3005630423
 20
67.1141215292
 30
0.0
 10
12.3066907333
 20
67.0900214473
 30
0.0
 10
12.3138679
 20
67.0545468634
 30
0.0
 10
12.3212450977
 20
67.0103539141
 30
0.0
 10
12.328775161
 20
66.9574153383
 30
0.0
 10
12.3396832469
 20
66.8695367291
 30
0.0
 10
12.3531578915
 20
66.7384857314
 30
0.0
 10
12.368757581
 20
66.5569041067
 30
0.0
 10
12.384343713
 20
66.3448418732
 30
0.0
 10
12.3997013794
 20
66.1053523196
 30
0.0
 10
12.4146503019
 20
65.8423187274
 30
0.0
 10
12.4289649487
 20
65.5601359215
 30
0.0
 10
12.4423954316
 20
65.261725179
 30
0.0
 10
12.4555881318
 20
64.9473811466
 30
0.0
 10
12.469269071
 20
64.6154456668
 30
0.0
 10
12.4838753773
 20
64.2661316396
 30
0.0
 10
12.5043238
 20
63.775358477
 30
0.0
 10
12.5198926793
 20
63.401555586
 30
0.0
 10
12.5303937507
 20
63.1495737485
 30
0.0
  0
SPLINE
  5
315
100
AcDbEntity
  8
_1
100
AcDbSpline
 62
7
  6
BYLAYER
 70
0
 71
3
 72
46
 73
42
 74
0
 42
0.0000001
 43
0.0000001
 44
0.0000000001
 40
0.0
 40
0.0
 40
0.0
 40
0.0
 40
0.0007921148
 40
0.0018134079
 40
0.0030844269
 40
0.0046177313
 40
0.0084977575
 40
0.0134867703
 40
0.0196043363
 40
0.026856793
 40
0.0352374756
 40
0.0447366314
 40
0.0669884073
 40
0.0933384992
 40
0.1233783515
 40
0.156643843
 40
0.2112283871
 40
0.2701215988
 40
0.3014437439
 40
0.3342463314
 40
0.4034591797
 40
0.4756471299
 40
0.5486218206
 40
0.6200444606
 40
0.6877893835
 40
0.7500211763
 40
0.8074620977
 40
0.8603645617
 40
0.8844555099
 40
0.9066642856
 40
0.9267970523
 40
0.9446722249
 40
0.9601547382
 40
0.9731460278
 40
0.9835989752
 40
0.9878682321
 40
0.9915049894
 40
0.994517861
 40
0.9969184302
 40
0.9987295562
 40
1.0
 40
1.0
 40
1.0
 40
1.0
 10
12.7917227967
 20
66.6463806827
 30
0.0
 10
12.793027457
 20
66.6450640471
 30
0.0
 10
12.7955729558
 20
66.6416232703
 30
0.0
 10
12.798972316
 20
66.6352465274
 30
0.0
 10
12.8024347975
 20
66.6269796222
 30
0.0
 10
12.8075533615
 20
66.6121931636
 30
0.0
 10
12.8138955172
 20
66.5886673661
 30
0.0
 10
12.821318226
 20
66.5543873181
 30
0.0
 10
12.8289261885
 20
66.5120982335
 30
0.0
 10
12.8366833644
 20
66.4617927433
 30
0.0
 10
12.8445692516
 20
66.4035112999
 30
0.0
 10
12.8558159276
 20
66.3102764534
 30
0.0
 10
12.8697029163
 20
66.1750209379
 30
0.0
 10
12.8856804976
 20
65.9916891907
 30
0.0
 10
12.9014647722
 20
65.7824854261
 30
0.0
 10
12.9197714206
 20
65.5072274756
 30
0.0
 10
12.9393169418
 20
65.1643970189
 30
0.0
 10
12.9556880609
 20
64.8259582987
 30
0.0
 10
12.9692556155
 20
64.5384153359
 30
0.0
 10
12.9840705013
 20
64.2267561122
 30
0.0
 10
13.0035073426
 20
63.8195823661
 30
0.0
 10
13.0273392024
 20
63.3185082864
 30
0.0
 10
13.0514691652
 20
62.8122716078
 30
0.0
 10
13.0750338334
 20
62.3164165646
 30
0.0
 10
13.097577412
 20
61.8456796701
 30
0.0
 10
13.1180814573
 20
61.4076006993
 30
0.0
 10
13.1384285504
 20
61.0042830108
 30
0.0
 10
13.1574846326
 20
60.6902755548
 30
0.0
 10
13.1736342731
 20
60.4587026059
 30
0.0
 10
13.1855792629
 20
60.3037079598
 30
0.0
 10
13.1976367432
 20
60.1633148415
 30
0.0
 10
13.2097107357
 20
60.0387276221
 30
0.0
 10
13.2216781036
 20
59.9309273444
 30
0.0
 10
13.2334403605
 20
59.8405962272
 30
0.0
 10
13.2435212149
 20
59.7765177117
 30
0.0
 10
13.2516789638
 20
59.7343354011
 30
0.0
 10
13.2572650953
 20
59.7093965096
 30
0.0
 10
13.2627052186
 20
59.688927285
 30
0.0
 10
13.2679728426
 20
59.6728351148
 30
0.0
 10
13.273042719
 20
59.6610583603
 30
0.0
 10
13.2769722082
 20
59.6548785173
 30
0.0
 10
13.279064705
 20
59.652766814
 30
0.0
  0
LINE
  5
316
100
AcDbEntity
  8
_1
100
AcDbLine
 62
7
  6
BYLAYER
 10
11.7903937503
 20
59.1495737485
 11
11.7884348483
 21
59.1499225274
  0
LINE
  5
317
100
AcDbEntity
  8
_1
100
AcDbLine
 62
7
  6
BYLAYER
 10
11.7884348483
 20
59.1499225274
 11
11.7862388829
 21
59.1511454417
  0
SPLINE
  5
318
100
AcDbEntity
  8
_1
100
AcDbSpline
 62
7
  6
BYLAYER
 70
0
 71
3
 72
26
 73
22
 74
0
 42
0.0000001
 43
0.0000001
 44
0.0000000001
 40
0.0
 40
0.0
 40
0.0
 40
0.0
 40
0.0014230625
 40
0.003238474
 40
0.0082187756
 40
0.0151524758
 40
0.0241279355
 40
0.0351855747
 40
0.0483538916
 40
0.0810817162
 40
0.1222777149
 40
0.1717625194
 40
0.2291791967
 40
0.2940222847
 40
0.3656423504
 40
0.4433473936
 40
0.5263386281
 40
0.6134525646
 40
0.7039529367
 40
0.798142841
 40
1.0
 40
1.0
 40
1.0
 40
1.0
 10
11.7862388829
 20
59.1511454417
 30
0.0
 10
11.7852251996
 20
59.1519131823
 30
0.0
 10
11.7832172615
 20
59.1540459966
 30
0.0
 10
11.779233663
 20
59.1602351398
 30
0.0
 10
11.7744957098
 20
59.17162775
 30
0.0
 10
11.7690189565
 20
59.1894695472
 30
0.0
 10
11.7633392029
 20
59.2129042739
 30
0.0
 10
11.7574811151
 20
59.2419903611
 30
0.0
 10
11.7488581753
 20
59.2921530984
 30
0.0
 10
11.7382303232
 20
59.3692634449
 30
0.0
 10
11.7258380846
 20
59.4788441336
 30
0.0
 10
11.7132200377
 20
59.6105819832
 30
0.0
 10
11.7004962976
 20
59.7635220249
 30
0.0
 10
11.687805575
 20
59.9363038972
 30
0.0
 10
11.6752671456
 20
60.127268375
 30
0.0
 10
11.6629777877
 20
60.33449619
 30
0.0
 10
11.6510275201
 20
60.5556100287
 30
0.0
 10
11.6395977862
 20
60.7881993802
 30
0.0
 10
11.6287297109
 20
61.0308325187
 30
0.0
 10
11.614142198
 20
61.3759313989
 30
0.0
 10
11.6033032392
 20
61.6402478773
 30
0.0
 10
11.595790113
 20
61.820464712
 30
0.0
  0
SPLINE
  5
319
100
AcDbEntity
  8
_1
100
AcDbSpline
 62
7
  6
BYLAYER
 70
0
 71
3
 72
26
 73
22
 74
0
 42
0.0000001
 43
0.0000001
 44
0.0000000001
 40
0.0
 40
0.0
 40
0.0
 40
0.0
 40
0.1028146874
 40
0.2006986651
 40
0.3839413223
 40
0.4705440951
 40
0.5530892254
 40
0.6304861485
 40
0.7019623375
 40
0.7668394198
 40
0.8244457492
 40
0.8742582829
 40
0.9159332043
 40
0.9492796572
 40
0.9628037169
 40
0.9742423681
 40
0.9836223555
 40
0.9909789246
 40
0.9963829174
 40
0.9983988822
 40
1.0
 40
1.0
 40
1.0
 40
1.0
 10
11.585388892
 20
61.829574386
 30
0.0
 10
11.5892251109
 20
61.7375326582
 30
0.0
 10
11.5967444573
 20
61.5578644915
 30
0.0
 10
11.6109599401
 20
61.2141484585
 30
0.0
 10
11.6248896277
 20
60.8849565681
 30
0.0
 10
11.6403162717
 20
60.569591552
 30
0.0
 10
11.6521568142
 20
60.3490048379
 30
0.0
 10
11.6643666732
 20
60.1420134852
 30
0.0
 10
11.6768249884
 20
59.9508982115
 30
0.0
 10
11.6894171231
 20
59.7775657359
 30
0.0
 10
11.7020562725
 20
59.6237047064
 30
0.0
 10
11.7146216191
 20
59.4907043027
 30
0.0
 10
11.7269727179
 20
59.3795328248
 30
0.0
 10
11.7375596015
 20
59.3008907585
 30
0.0
 10
11.7461403024
 20
59.2493499725
 30
0.0
 10
11.7519975835
 20
59.2191387985
 30
0.0
 10
11.7576885286
 20
59.1945306905
 30
0.0
 10
11.7631883081
 20
59.1754696596
 30
0.0
 10
11.767923377
 20
59.163050432
 30
0.0
 10
11.7718665425
 20
59.155981282
 30
0.0
 10
11.7738470266
 20
59.153385831
 30
0.0
 10
11.7748566791
 20
59.1523666798
 30
0.0
  0
SPLINE
  5
31A
100
AcDbEntity
  8
_1
100
AcDbSpline
 62
7
  6
BYLAYER
 70
0
 71
3
 72
46
 73
42
 74
0
 42
0.0000001
 43
0.0000001
 44
0.0000000001
 40
0.0
 40
0.0
 40
0.0
 40
0.0
 40
0.0007921282
 40
0.0018134421
 40
0.0030844902
 40
0.0046178323
 40
0.0084979597
 40
0.0134871089
 40
0.0196048472
 40
0.0268575108
 40
0.0352384343
 40
0.0447378639
 40
0.0669902751
 40
0.0933411004
 40
0.1233817565
 40
0.1566480962
 40
0.2112338774
 40
0.270128457
 40
0.3014514101
 40
0.3342548593
 40
0.4034692941
 40
0.475658611
 40
0.5486343028
 40
0.6200574894
 40
0.6878024101
 40
0.7500338932
 40
0.8074747166
 40
0.860376062
 40
0.8844657937
 40
0.906677361
 40
0.9268097835
 40
0.944666786
 40
0.9601307978
 40
0.9731319634
 40
0.9836039038
 40
0.9878759644
 40
0.9915114321
 40
0.9945212697
 40
0.9969193994
 40
0.998729681
 40
1.0
 40
1.0
 40
1.0
 40
1.0
 10
13.7917227967
 20
66.6463806827
 30
0.0
 10
13.7930274808
 20
66.6450640231
 30
0.0
 10
13.7955730237
 20
66.6416231699
 30
0.0
 10
13.7989724379
 20
66.6352462766
 30
0.0
 10
13.8024349763
 20
66.6269791594
 30
0.0
 10
13.8075536303
 20
66.6121922933
 30
0.0
 10
13.8138958965
 20
66.588665823
 30
0.0
 10
13.8213187341
 20
66.5543847717
 30
0.0
 10
13.828926827
 20
66.5120944241
 30
0.0
 10
13.8366841376
 20
66.4617874155
 30
0.0
 10
13.8445701614
 20
66.4035042048
 30
0.0
 10
13.8558170295
 20
66.3102665407
 30
0.0
 10
13.8697042451
 20
66.1750069964
 30
0.0
 10
13.8856820702
 20
65.9916699127
 30
0.0
 10
13.9014665581
 20
65.7824602763
 30
0.0
 10
13.9197734225
 20
65.5071951834
 30
0.0
 10
13.9393190676
 20
65.1643561659
 30
0.0
 10
13.9556904031
 20
64.8259089931
 30
0.0
 10
13.9692582951
 20
64.538358533
 30
0.0
 10
13.984073608
 20
64.2266912704
 30
0.0
 10
14.0035108727
 20
63.8195080445
 30
0.0
 10
14.0273432186
 20
63.3184240316
 30
0.0
 10
14.0514735311
 20
62.8121798427
 30
0.0
 10
14.0750384161
 20
62.3163205039
 30
0.0
 10
14.0975820314
 20
61.8455824109
 30
0.0
 10
14.118086015
 20
61.4075037918
 30
0.0
 10
14.1384337491
 20
61.0041891527
 30
0.0
 10
14.1574903065
 20
60.6901869946
 30
0.0
 10
14.1736408081
 20
60.4586127127
 30
0.0
 10
14.1855868389
 20
60.3036150445
 30
0.0
 10
14.1976410767
 20
60.16325838
 30
0.0
 10
14.2097094989
 20
60.0387574458
 30
0.0
 10
14.2216788009
 20
59.931020302
 30
0.0
 10
14.2334447388
 20
59.8406652183
 30
0.0
 10
14.2435237128
 20
59.7765113264
 30
0.0
 10
14.2516837919
 20
59.7342804862
 30
0.0
 10
14.2572688269
 20
59.7093449161
 30
0.0
 10
14.2627095559
 20
59.688892067
 30
0.0
 10
14.2679821887
 20
59.6728170122
 30
0.0
 10
14.2730598591
 20
59.6610519594
 30
0.0
 10
14.2769920139
 20
59.6548772778
 30
0.0
 10
14.2790843083
 20
59.6527657793
 30
0.0
  0
SPLINE
  5
31B
100
AcDbEntity
  8
_1
100
AcDbSpline
 62
7
  6
BYLAYER
 70
0
 71
3
 72
29
 73
25
 74
0
 42
0.0000001
 43
0.0000001
 44
0.0000000001
 40
0.0
 40
0.0
 40
0.0
 40
0.0
 40
0.1938321524
 40
0.2873689046
 40
0.3769534798
 40
0.4613847785
 40
0.5411290472
 40
0.616983804
 40
0.6889266863
 40
0.7555172496
 40
0.8155680321
 40
0.8681414853
 40
0.8913557769
 40
0.9124183354
 40
0.9312653071
 40
0.9478516716
 40
0.9621577122
 40
0.9741694765
 40
0.9839012079
 40
0.9913901879
 40
0.9943110617
 40
0.9967006233
 40
0.9985831361
 40
1.0
 40
1.0
 40
1.0
 40
1.0
 10
12.5403937507
 20
63.1495737485
 30
0.0
 10
12.5296081821
 20
63.4083823289
 30
0.0
 10
12.5136301597
 20
63.7920835725
 30
0.0
 10
12.4926515462
 20
64.2953992752
 30
0.0
 10
12.4777225286
 20
64.652639202
 30
0.0
 10
12.4637705501
 20
64.9914718008
 30
0.0
 10
12.4502314921
 20
65.3119576063
 30
0.0
 10
12.4362995189
 20
65.6157218586
 30
0.0
 10
12.421425438
 20
65.9018412593
 30
0.0
 10
12.4059649612
 20
66.1667765893
 30
0.0
 10
12.3901080143
 20
66.4057527628
 30
0.0
 10
12.3762379142
 20
66.5867590784
 30
0.0
 10
12.3649359536
 20
66.7156946269
 30
0.0
 10
12.356857163
 20
66.7996654785
 30
0.0
 10
12.3488537224
 20
66.8747415859
 30
0.0
 10
12.3409518311
 20
66.9407434602
 30
0.0
 10
12.3331818888
 20
66.9975537001
 30
0.0
 10
12.3255660567
 20
67.0451313474
 30
0.0
 10
12.3181456386
 20
67.0834905552
 30
0.0
 10
12.3118069509
 20
67.1096755048
 30
0.0
 10
12.306675172
 20
67.125998102
 30
0.0
 10
12.3032216731
 20
67.1349822848
 30
0.0
 10
12.299836426
 20
67.1417972021
 30
0.0
 10
12.2972635972
 20
67.1454356535
 30
0.0
 10
12.2959309969
 20
67.1467807907
 30
0.0
  0
SPLINE
  5
31C
100
AcDbEntity
  8
_1
100
AcDbSpline
 62
7
  6
BYLAYER
 70
0
 71
3
 72
29
 73
25
 74
0
 42
0.0000001
 43
0.0000001
 44
0.0000000001
 40
0.0
 40
0.0
 40
0.0
 40
0.0
 40
0.1938321522
 40
0.2873689044
 40
0.3769534795
 40
0.4613847781
 40
0.5411290468
 40
0.6169838035
 40
0.6889266858
 40
0.7555172491
 40
0.8155680316
 40
0.8681414849
 40
0.8913557765
 40
0.912418335
 40
0.9312653067
 40
0.9478516713
 40
0.9621577119
 40
0.9741694763
 40
0.9839012077
 40
0.9913901878
 40
0.9943110616
 40
0.9967006233
 40
0.9985831361
 40
1.0
 40
1.0
 40
1.0
 40
1.0
 10
12.5303937507
 20
63.1495737485
 30
0.0
 10
12.5411793192
 20
62.8907651683
 30
0.0
 10
12.5571573416
 20
62.5070639251
 30
0.0
 10
12.5781359551
 20
62.0037482228
 30
0.0
 10
12.5930649727
 20
61.6465082963
 30
0.0
 10
12.6070169511
 20
61.3076756978
 30
0.0
 10
12.6205560091
 20
60.9871898924
 30
0.0
 10
12.6344879823
 20
60.6834256404
 30
0.0
 10
12.6493620632
 20
60.3973062398
 30
0.0
 10
12.66482254
 20
60.1323709099
 30
0.0
 10
12.6806794869
 20
59.8933947364
 30
0.0
 10
12.694549587
 20
59.7123884206
 30
0.0
 10
12.7058515476
 20
59.583452872
 30
0.0
 10
12.7139303382
 20
59.4994820203
 30
0.0
 10
12.7219337788
 20
59.4244059128
 30
0.0
 10
12.7298356701
 20
59.3584040384
 30
0.0
 10
12.7376056124
 20
59.3015937982
 30
0.0
 10
12.7452214444
 20
59.2540161508
 30
0.0
 10
12.7526418625
 20
59.2156569428
 30
0.0
 10
12.7589805503
 20
59.189471993
 30
0.0
 10
12.7641123291
 20
59.1731493956
 30
0.0
 10
12.767565828
 20
59.1641652127
 30
0.0
 10
12.7709510751
 20
59.1573502952
 30
0.0
 10
12.7735239039
 20
59.1537118438
 30
0.0
 10
12.7748565043
 20
59.1523667065
 30
0.0
  0
SPLINE
  5
31D
100
AcDbEntity
  8
_1
100
AcDbSpline
 62
7
  6
BYLAYER
 70
0
 71
3
 72
11
 73
7
 74
0
 42
0.0000001
 43
0.0000001
 44
0.0000000001
 40
0.0
 40
0.0
 40
0.0
 40
0.0
 40
0.1704456414
 40
0.3801241054
 40
0.6527086115
 40
1.0
 40
1.0
 40
1.0
 40
1.0
 10
13.7903937506
 20
59.1495737485
 30
0.0
 10
13.789414114
 20
59.1495737485
 30
0.0
 10
13.7872201825
 20
59.1502154045
 30
0.0
 10
13.7843238141
 20
59.1526915613
 30
0.0
 10
13.7814883896
 20
59.1565507234
 30
0.0
 10
13.7798061912
 20
59.1597021162
 30
0.0
 10
13.7789378371
 20
59.1614993941
 30
0.0
  0
SPLINE
  5
31E
100
AcDbEntity
  8
_1
100
AcDbSpline
 62
7
  6
BYLAYER
 70
0
 71
3
 72
26
 73
22
 74
0
 42
0.0000001
 43
0.0000001
 44
0.0000000001
 40
0.0
 40
0.0
 40
0.0
 40
0.0
 40
0.0021834233
 40
0.004865317
 40
0.0117829264
 40
0.0208219346
 40
0.0320191264
 40
0.0453952507
 40
0.0609411117
 40
0.0984606479
 40
0.1442365278
 40
0.1976863585
 40
0.2580038917
 40
0.3243008384
 40
0.39536638
 40
0.4700061215
 40
0.5484343362
 40
0.6314368691
 40
0.7192799389
 40
0.8107654349
 40
1.0
 40
1.0
 40
1.0
 40
1.0
 10
13.7789378371
 20
59.1614993941
 30
0.0
 10
13.7776719141
 20
59.1641195409
 30
0.0
 10
13.7751986278
 20
59.1701248844
 30
0.0
 10
13.770224459
 20
59.1850259678
 30
0.0
 10
13.7640967681
 20
59.2091260497
 30
0.0
 10
13.7569196014
 20
59.2446006337
 30
0.0
 10
13.7495424037
 20
59.2887935829
 30
0.0
 10
13.7420123404
 20
59.3417321587
 30
0.0
 10
13.7311042545
 20
59.4296107679
 30
0.0
 10
13.7176296098
 20
59.5606617656
 30
0.0
 10
13.7020299204
 20
59.7422433903
 30
0.0
 10
13.6864437884
 20
59.9543056239
 30
0.0
 10
13.6710861219
 20
60.1937951774
 30
0.0
 10
13.6561371994
 20
60.4568287696
 30
0.0
 10
13.6418225527
 20
60.7390115755
 30
0.0
 10
13.6283920697
 20
61.037422318
 30
0.0
 10
13.6151993695
 20
61.3517663504
 30
0.0
 10
13.6015184304
 20
61.6837018302
 30
0.0
 10
13.586912124
 20
62.0330158575
 30
0.0
 10
13.5664637013
 20
62.52378902
 30
0.0
 10
13.5508948221
 20
62.897591911
 30
0.0
 10
13.5403937507
 20
63.1495737485
 30
0.0
  0
SPLINE
  5
31F
100
AcDbEntity
  8
_1
100
AcDbSpline
 62
7
  6
BYLAYER
 70
0
 71
3
 72
9
 73
5
 74
0
 42
0.0000001
 43
0.0000001
 44
0.0000000001
 40
0.0
 40
0.0
 40
0.0
 40
0.0
 40
0.5196283466
 40
1.0
 40
1.0
 40
1.0
 40
1.0
 10
13.461219653
 20
65.0510659137
 30
0.0
 10
13.4546190599
 20
65.2084048538
 30
0.0
 10
13.4416360917
 20
65.5111856446
 30
0.0
 10
13.426142675
 20
65.8138525749
 30
0.0
 10
13.4179295248
 20
65.9592010024
 30
0.0
  0
SPLINE
  5
320
100
AcDbEntity
  8
_1
100
AcDbSpline
 62
7
  6
BYLAYER
 70
0
 71
3
 72
22
 73
18
 74
0
 42
0.0000001
 43
0.0000001
 44
0.0000000001
 40
0.0
 40
0.0
 40
0.0
 40
0.0
 40
0.2145800902
 40
0.4077441493
 40
0.576593153
 40
0.6510867019
 40
0.718654047
 40
0.7790986291
 40
0.8322979943
 40
0.8781945076
 40
0.916749337
 40
0.9480188182
 40
0.9721225942
 40
0.9815439642
 40
0.9892698027
 40
0.9953778203
 40
1.0
 40
1.0
 40
1.0
 40
1.0
 10
13.4179295248
 20
65.9592010024
 30
0.0
 10
13.4130999845
 20
66.044669559
 30
0.0
 10
13.4034242722
 20
66.2070493371
 30
0.0
 10
13.3878761756
 20
66.4365528496
 30
0.0
 10
13.3743043309
 20
66.6101689482
 30
0.0
 10
13.3632610928
 20
66.7337124341
 30
0.0
 10
13.3553757481
 20
66.8141157457
 30
0.0
 10
13.3475666196
 20
66.8859870075
 30
0.0
 10
13.3398584728
 20
66.9491683648
 30
0.0
 10
13.3322789918
 20
67.0035602829
 30
0.0
 10
13.3248479418
 20
67.0491315479
 30
0.0
 10
13.3176100274
 20
67.0859024485
 30
0.0
 10
13.3114274605
 20
67.1110259701
 30
0.0
 10
13.3064224583
 20
67.1267088558
 30
0.0
 10
13.3030488012
 20
67.1353640592
 30
0.0
 10
13.2997389269
 20
67.1419490118
 30
0.0
 10
13.2972287682
 20
67.1454708102
 30
0.0
 10
13.2959309969
 20
67.1467807907
 30
0.0
  0
SPLINE
  5
321
100
AcDbEntity
  8
_1
100
AcDbSpline
 62
7
  6
BYLAYER
 70
0
 71
3
 72
9
 73
5
 74
0
 42
0.0000001
 43
0.0000001
 44
0.0000000001
 40
0.0
 40
0.0
 40
0.0
 40
0.0
 40
0.5000039064
 40
1.0
 40
1.0
 40
1.0
 40
1.0
 10
72.5353937507
 20
44.6488885159
 30
0.0
 10
72.5353937507
 20
44.5956313956
 30
0.0
 10
72.5181775962
 20
44.488413609
 30
0.0
 10
72.4677807823
 20
44.3922129417
 30
0.0
 10
72.4358726106
 20
44.3495737485
 30
0.0
  0
SPLINE
  5
322
100
AcDbEntity
  8
_1
100
AcDbSpline
 62
7
  6
BYLAYER
 70
0
 71
3
 72
11
 73
7
 74
0
 42
0.0000001
 43
0.0000001
 44
0.0000000001
 40
0.0
 40
0.0
 40
0.0
 40
0.0
 40
0.191214004
 40
0.4178257603
 40
0.6875683795
 40
1.0
 40
1.0
 40
1.0
 40
1.0
 10
29.7604709581
 20
50.289127043
 30
0.0
 10
29.7264331222
 20
50.2919620409
 30
0.0
 10
29.6533332127
 20
50.3170137129
 30
0.0
 10
29.5582907025
 20
50.3977369405
 30
0.0
 10
29.4766182016
 20
50.5188422096
 30
0.0
 10
29.4432786385
 20
50.6190769869
 30
0.0
 10
29.4329553817
 20
50.6739221435
 30
0.0
  0
SPLINE
  5
323
100
AcDbEntity
  8
_1
100
AcDbSpline
 62
7
  6
BYLAYER
 70
0
 71
3
 72
14
 73
10
 74
0
 42
0.0000001
 43
0.0000001
 44
0.0000000001
 40
0.0
 40
0.0
 40
0.0
 40
0.0
 40
0.3722372688
 40
0.53659272
 40
0.6809768183
 40
0.8020445467
 40
0.8970225012
 40
0.9635331607
 40
1.0
 40
1.0
 40
1.0
 40
1.0
 10
72.5353937507
 20
50.9187247491
 30
0.0
 10
72.5353937507
 20
50.8854794628
 30
0.0
 10
72.5354211158
 20
50.8375551538
 30
0.0
 10
72.5353557185
 20
50.7767359215
 30
0.0
 10
72.5353530212
 20
50.738348458
 30
0.0
 10
72.5355383785
 20
50.7061591516
 30
0.0
 10
72.5355334392
 20
50.6809207033
 30
0.0
 10
72.5350366391
 20
50.6632478053
 30
0.0
 10
72.5344350877
 20
50.6540627819
 30
0.0
 10
72.5344350824
 20
50.6508058525
 30
0.0
  0
SPLINE
  5
324
100
AcDbEntity
  8
_1
100
AcDbSpline
 62
7
  6
BYLAYER
 70
0
 71
3
 72
15
 73
11
 74
0
 42
0.0000001
 43
0.0000001
 44
0.0000000001
 40
0.0
 40
0.0
 40
0.0
 40
0.0
 40
0.045773893
 40
0.076228692
 40
0.1132176447
 40
0.2080276832
 40
0.3296135016
 40
0.4748377741
 40
0.639029152
 40
1.0
 40
1.0
 40
1.0
 40
1.0
 10
72.7353937507
 20
50.9645326158
 30
0.0
 10
72.7353937507
 20
50.9612941124
 30
0.0
 10
72.7325463675
 20
50.956040313
 30
0.0
 10
72.7265260959
 20
50.9508318554
 30
0.0
 10
72.7167439436
 20
50.9446952265
 30
0.0
 10
72.6999963556
 20
50.9380560291
 30
0.0
 10
72.6752709755
 20
50.931387209
 30
0.0
 10
72.6452406963
 20
50.9259158706
 30
0.0
 10
72.598131026
 20
50.9202759098
 30
0.0
 10
72.5609324424
 20
50.9187247491
 30
0.0
 10
72.5353937507
 20
50.9187247491
 30
0.0
  0
SPLINE
  5
325
100
AcDbEntity
  8
_1
100
AcDbSpline
 62
7
  6
BYLAYER
 70
0
 71
3
 72
23
 73
19
 74
0
 42
0.0000001
 43
0.0000001
 44
0.0000000001
 40
0.0
 40
0.0
 40
0.0
 40
0.0
 40
0.0055199185
 40
0.0097841842
 40
0.0146097033
 40
0.0213168734
 40
0.0419943422
 40
0.0729384845
 40
0.1136174062
 40
0.1631192055
 40
0.2205069871
 40
0.2849731676
 40
0.3558284995
 40
0.4324759721
 40
0.5145069049
 40
0.6017012665
 40
0.7911069161
 40
1.0
 40
1.0
 40
1.0
 40
1.0
 10
17.1172437193
 20
68.059839854
 30
0.0
 10
17.1198106341
 20
68.06006443
 30
0.0
 10
17.124569733
 20
68.0600950324
 30
0.0
 10
17.1305726308
 20
68.0558096689
 30
0.0
 10
17.132168253
 20
68.0481570093
 30
0.0
 10
17.1300311358
 20
68.0332495433
 30
0.0
 10
17.1193380519
 20
68.0078493277
 30
0.0
 10
17.0988925141
 20
67.9700427431
 30
0.0
 10
17.0700938679
 20
67.9213232461
 30
0.0
 10
17.0348616912
 20
67.8621513827
 30
0.0
 10
16.9949285331
 20
67.7928289041
 30
0.0
 10
16.9521228429
 20
67.7136940521
 30
0.0
 10
16.9081910309
 20
67.6250029194
 30
0.0
 10
16.8648980862
 20
67.5269479851
 30
0.0
 10
16.8238969499
 20
67.4196854383
 30
0.0
 10
16.7729339432
 20
67.2601371485
 30
0.0
 10
16.7243528379
 20
67.0381087467
 30
0.0
 10
16.7103492996
 20
66.8518882011
 30
0.0
 10
16.7103730476
 20
66.7543760758
 30
0.0
  0
SPLINE
  5
326
100
AcDbEntity
  8
_1
100
AcDbSpline
 62
7
  6
BYLAYER
 70
0
 71
3
 72
15
 73
11
 74
0
 42
0.0000001
 43
0.0000001
 44
0.0000000001
 40
0.0
 40
0.0
 40
0.0
 40
0.0
 40
0.0487846941
 40
0.0814074086
 40
0.1204436013
 40
0.2181249035
 40
0.3408609607
 40
0.4852782156
 40
0.6469220678
 40
1.0
 40
1.0
 40
1.0
 40
1.0
 10
72.3958404562
 20
50.7884418103
 30
0.0
 10
72.3939855582
 20
50.78009104
 30
0.0
 10
72.3845920276
 20
50.7679245427
 30
0.0
 10
72.3678656149
 20
50.7552633677
 30
0.0
 10
72.3419120842
 20
50.7405429472
 30
0.0
 10
72.2992860851
 20
50.7242248437
 30
0.0
 10
72.2374009228
 20
50.7077444232
 30
0.0
 10
72.1634314319
 20
50.6939303196
 30
0.0
 10
72.04873242
 20
50.6793761857
 30
0.0
 10
71.9584329675
 20
50.6746454903
 30
0.0
 10
71.8965256888
 20
50.6739221435
 30
0.0
  0
SPLINE
  5
327
100
AcDbEntity
  8
_1
100
AcDbSpline
 62
7
  6
BYLAYER
 70
0
 71
3
 72
11
 73
7
 74
0
 42
0.0000001
 43
0.0000001
 44
0.0000000001
 40
0.0
 40
0.0
 40
0.0
 40
0.0
 40
0.2499388493
 40
0.5
 40
0.7500611507
 40
1.0
 40
1.0
 40
1.0
 40
1.0
 10
71.8965256888
 20
50.289127043
 30
0.0
 10
71.9613965739
 20
50.2893047277
 30
0.0
 10
72.0925137171
 20
50.3155774452
 30
0.0
 10
72.2581698743
 20
50.4267976249
 30
0.0
 10
72.369390054
 20
50.5924537821
 30
0.0
 10
72.3956627715
 20
50.7235709253
 30
0.0
 10
72.3958404562
 20
50.7884418103
 30
0.0
  0
SPLINE
  5
328
100
AcDbEntity
  8
_1
100
AcDbSpline
 62
7
  6
BYLAYER
 70
0
 71
3
 72
15
 73
11
 74
0
 42
0.0000001
 43
0.0000001
 44
0.0000000001
 40
0.0
 40
0.0
 40
0.0
 40
0.0
 40
0.3403758223
 40
0.5073007776
 40
0.659118615
 40
0.7868163391
 40
0.8857388648
 40
0.9237503421
 40
0.9547417589
 40
1.0
 40
1.0
 40
1.0
 40
1.0
 10
71.8051417332
 20
58.0846885756
 30
0.0
 10
71.8648264467
 20
58.0853859538
 30
0.0
 10
71.9538299048
 20
58.0898884707
 30
0.0
 10
72.068563234
 20
58.1041777306
 30
0.0
 10
72.1456447361
 20
58.1182882675
 30
0.0
 10
72.2097803185
 20
58.1356055901
 30
0.0
 10
72.2532070342
 20
58.1524755674
 30
0.0
 10
72.278696996
 20
58.1675042885
 30
0.0
 10
72.294299585
 20
58.1799102836
 30
0.0
 10
72.302735554
 20
58.1914605228
 30
0.0
 10
72.3044565006
 20
58.1992082425
 30
0.0
  0
LINE
  5
329
100
AcDbEntity
  8
_1
100
AcDbLine
 62
7
  6
BYLAYER
 10
69.1854012444
 20
51.0145868837
 11
69.1858388513
 21
51.0134489066
  0
SPLINE
  5
32A
100
AcDbEntity
  8
_1
100
AcDbSpline
 62
7
  6
BYLAYER
 70
0
 71
3
 72
17
 73
13
 74
0
 42
0.0000001
 43
0.0000001
 44
0.0000000001
 40
0.0
 40
0.0
 40
0.0
 40
0.0
 40
0.1245937117
 40
0.187242711
 40
0.2499011168
 40
0.3748646768
 40
0.4999946999
 40
0.6251273448
 40
0.7500953015
 40
0.812754778
 40
0.8754046961
 40
1.0
 40
1.0
 40
1.0
 40
1.0
 10
69.8851712807
 20
51.0025355144
 30
0.0
 10
69.8834609077
 20
50.9587931237
 30
0.0
 10
69.8673822378
 20
50.8926672501
 30
0.0
 10
69.8224011098
 20
50.8167921655
 30
0.0
 10
69.7636458966
 20
50.7507036429
 30
0.0
 10
69.6679464144
 20
50.6911151947
 30
0.0
 10
69.5353986513
 20
50.6665101044
 30
0.0
 10
69.4028486725
 20
50.6911122387
 30
0.0
 10
69.3071453746
 20
50.750700285
 30
0.0
 10
69.2483877031
 20
50.8167897267
 30
0.0
 10
69.2034059407
 20
50.892665918
 30
0.0
 10
69.1873265898
 20
50.9587925637
 30
0.0
 10
69.1856162207
 20
51.0025355144
 30
0.0
  0
SPLINE
  5
32B
100
AcDbEntity
  8
_1
100
AcDbSpline
 62
7
  6
BYLAYER
 70
0
 71
3
 72
9
 73
5
 74
0
 42
0.0000001
 43
0.0000001
 44
0.0000000001
 40
0.0
 40
0.0
 40
0.0
 40
0.0
 40
0.2470824491
 40
1.0
 40
1.0
 40
1.0
 40
1.0
 10
71.8051407305
 20
58.0846885651
 30
0.0
 10
71.8040940093
 20
58.1790037755
 30
0.0
 10
71.8004132131
 20
58.5607253099
 30
0.0
 10
71.7988715689
 20
58.9424672161
 30
0.0
 10
71.7988715689
 20
59.2298852442
 30
0.0
  0
SPLINE
  5
32C
100
AcDbEntity
  8
_1
100
AcDbSpline
 62
7
  6
BYLAYER
 70
0
 71
3
 72
9
 73
5
 74
0
 42
0.0000001
 43
0.0000001
 44
0.0000000001
 40
0.0
 40
0.0
 40
0.0
 40
0.0
 40
0.4998277194
 40
1.0
 40
1.0
 40
1.0
 40
1.0
 10
72.2981873383
 20
67.9130525687
 30
0.0
 10
72.2980837292
 20
67.9508791772
 30
0.0
 10
72.289222952
 20
68.0267829124
 30
0.0
 10
72.2634151086
 20
68.098709107
 30
0.0
 10
72.2466941437
 20
68.1326685801
 30
0.0
  0
SPLINE
  5
32D
100
AcDbEntity
  8
_1
100
AcDbSpline
 62
7
  6
BYLAYER
 70
0
 71
3
 72
15
 73
11
 74
0
 42
0.0000001
 43
0.0000001
 44
0.0000000001
 40
0.0
 40
0.0
 40
0.0
 40
0.0
 40
0.0279605235
 40
0.0653030031
 40
0.1631689242
 40
0.2828213545
 40
0.4157893564
 40
0.556740246
 40
0.7023799551
 40
1.0
 40
1.0
 40
1.0
 40
1.0
 10
68.1999611801
 20
55.1271503532
 30
0.0
 10
68.2006963725
 20
55.12471171
 30
0.0
 10
68.2033217146
 20
55.1193138244
 30
0.0
 10
68.2114384482
 20
55.106860557
 30
0.0
 10
68.2263298222
 20
55.0889627863
 30
0.0
 10
68.2481949822
 20
55.0657052246
 30
0.0
 10
68.273816821
 20
55.0406094194
 30
0.0
 10
68.3018544675
 20
55.0146329624
 30
0.0
 10
68.3416772912
 20
54.9793241186
 30
0.0
 10
68.3726103672
 20
54.9533564254
 30
0.0
 10
68.3936238979
 20
54.9362254444
 30
0.0
  0
SPLINE
  5
32E
100
AcDbEntity
  8
_1
100
AcDbSpline
 62
7
  6
BYLAYER
 70
0
 71
3
 72
15
 73
11
 74
0
 42
0.0000001
 43
0.0000001
 44
0.0000000001
 40
0.0
 40
0.0
 40
0.0
 40
0.0
 40
0.2976200099
 40
0.443259713
 40
0.5842106069
 40
0.7171785548
 40
0.8368310035
 40
0.9346968938
 40
0.9720394111
 40
1.0
 40
1.0
 40
1.0
 40
1.0
 10
70.6771636034
 20
54.9362254444
 30
0.0
 10
70.6981771316
 20
54.9533564234
 30
0.0
 10
70.7291102048
 20
54.9793241141
 30
0.0
 10
70.7689330263
 20
55.0146329553
 30
0.0
 10
70.7969706682
 20
55.0406094092
 30
0.0
 10
70.8225925079
 20
55.0657052102
 30
0.0
 10
70.8444576571
 20
55.0889627717
 30
0.0
 10
70.8593490494
 20
55.106860533
 30
0.0
 10
70.8674657711
 20
55.1193138147
 30
0.0
 10
70.8700911271
 20
55.1247117043
 30
0.0
 10
70.8708263212
 20
55.1271503532
 30
0.0
  0
SPLINE
  5
32F
100
AcDbEntity
  8
_1
100
AcDbSpline
 62
7
  6
BYLAYER
 70
0
 71
3
 72
13
 73
9
 74
0
 42
0.0000001
 43
0.0000001
 44
0.0000000001
 40
0.0
 40
0.0
 40
0.0
 40
0.0
 40
0.0484575173
 40
0.1190886833
 40
0.2163269992
 40
0.3385213197
 40
0.644669968
 40
1.0
 40
1.0
 40
1.0
 40
1.0
 10
69.1858388513
 20
51.0134489066
 30
0.0
 10
69.1868570682
 20
51.0102809879
 30
0.0
 10
69.1929297286
 20
51.0039310098
 30
0.0
 10
69.2065796533
 20
50.9980008497
 30
0.0
 10
69.2259513451
 20
50.9930147178
 30
0.0
 10
69.2617955374
 20
50.988299753
 30
0.0
 10
69.3156206149
 20
50.987949692
 30
0.0
 10
69.361335598
 20
50.9888271387
 30
0.0
 10
69.3853305671
 20
50.9932555045
 30
0.0
  0
SPLINE
  5
330
100
AcDbEntity
  8
_1
100
AcDbSpline
 62
7
  6
BYLAYER
 70
0
 71
3
 72
13
 73
9
 74
0
 42
0.0000001
 43
0.0000001
 44
0.0000000001
 40
0.0
 40
0.0
 40
0.0
 40
0.0
 40
0.1279441611
 40
0.2259743755
 40
0.3477318866
 40
0.4908384431
 40
0.6509353973
 40
1.0
 40
1.0
 40
1.0
 40
1.0
 10
69.8849525368
 20
51.0117760955
 30
0.0
 10
69.8826554063
 20
51.0031055581
 30
0.0
 10
69.8677769083
 20
50.9923824547
 30
0.0
 10
69.8452747784
 20
50.98462493
 30
0.0
 10
69.8202604991
 20
50.978865461
 30
0.0
 10
69.7909033446
 20
50.9741038537
 30
0.0
 10
69.7453871205
 20
50.9692591518
 30
0.0
 10
69.7096504289
 20
50.9682228334
 30
0.0
 10
69.685180025
 20
50.968462321
 30
0.0
  0
SPLINE
  5
331
100
AcDbEntity
  8
_1
100
AcDbSpline
 62
7
  6
BYLAYER
 70
0
 71
3
 72
8
 73
4
 74
0
 42
0.0000001
 43
0.0000001
 44
0.0000000001
 40
0.0
 40
0.0
 40
0.0
 40
0.0
 40
1.0
 40
1.0
 40
1.0
 40
1.0
 10
69.6851801378
 20
50.9684622327
 30
0.0
 10
69.6854793402
 20
50.9767217541
 30
0.0
 10
69.6854890524
 20
50.984990628
 30
0.0
 10
69.6854569342
 20
50.9932555045
 30
0.0
  0
SPLINE
  5
332
100
AcDbEntity
  8
_1
100
AcDbSpline
 62
7
  6
BYLAYER
 70
0
 71
3
 72
16
 73
12
 74
0
 42
0.0000001
 43
0.0000001
 44
0.0000000001
 40
0.0
 40
0.0
 40
0.0
 40
0.0
 40
0.1234496455
 40
0.1854130203
 40
0.2479258206
 40
0.3732279392
 40
0.4996896892
 40
0.6262181931
 40
0.7522021163
 40
0.8765936016
 40
1.0
 40
1.0
 40
1.0
 40
1.0
 10
69.3853305671
 20
50.9932555045
 30
0.0
 10
69.3841319034
 20
50.9737018813
 30
0.0
 10
69.385727236
 20
50.9435907872
 30
0.0
 10
69.4000912277
 20
50.9066170196
 30
0.0
 10
69.4224540773
 20
50.8735437765
 30
0.0
 10
69.4630654312
 20
50.8420885403
 30
0.0
 10
69.5222900321
 20
50.8257117918
 30
0.0
 10
69.5835653321
 20
50.8322576415
 30
0.0
 10
69.6375710697
 20
50.8613261342
 30
0.0
 10
69.6758402172
 20
50.9090977538
 30
0.0
 10
69.684532145
 20
50.9488894907
 30
0.0
 10
69.6851801378
 20
50.9684622327
 30
0.0
  0
SPLINE
  5
333
100
AcDbEntity
  8
_1
100
AcDbSpline
 62
7
  6
BYLAYER
 70
0
 71
3
 72
13
 73
9
 74
0
 42
0.0000001
 43
0.0000001
 44
0.0000000001
 40
0.0
 40
0.0
 40
0.0
 40
0.0
 40
0.3553624718
 40
0.6615381793
 40
0.7837278052
 40
0.8809905095
 40
0.9516892674
 40
1.0
 40
1.0
 40
1.0
 40
1.0
 10
69.6854569342
 20
50.9932555045
 30
0.0
 10
69.7094529853
 20
50.9888281862
 30
0.0
 10
69.7551693225
 20
50.9879508966
 30
0.0
 10
69.8089957828
 20
50.9883070669
 30
0.0
 10
69.8448401951
 20
50.9930136354
 30
0.0
 10
69.864220161
 20
50.9980072021
 30
0.0
 10
69.8778457915
 20
51.003964428
 30
0.0
 10
69.8839311814
 20
51.0102915292
 30
0.0
 10
69.88494865
 20
51.0134489066
 30
0.0
  0
LINE
  5
334
100
AcDbEntity
  8
_1
100
AcDbLine
 62
7
  6
BYLAYER
 10
69.88494865
 20
51.0134489066
 11
69.8853862569
 21
51.0145868837
  0
SPLINE
  5
335
100
AcDbEntity
  8
_1
100
AcDbSpline
 62
7
  6
BYLAYER
 70
0
 71
3
 72
10
 73
6
 74
0
 42
0.0000001
 43
0.0000001
 44
0.0000000001
 40
0.0
 40
0.0
 40
0.0
 40
0.0
 40
0.242322513
 40
0.4911283035
 40
1.0
 40
1.0
 40
1.0
 40
1.0
 10
16.4680903139
 20
61.3974324452
 30
0.0
 10
16.4792490198
 20
61.54025246
 30
0.0
 10
16.5194847286
 20
61.8283641359
 30
0.0
 10
16.635168204
 20
62.4076068347
 30
0.0
 10
16.7210142239
 20
62.8493525162
 30
0.0
 10
16.7401863384
 20
63.1495737485
 30
0.0
  0
SPLINE
  5
336
100
AcDbEntity
  8
_1
100
AcDbSpline
 62
7
  6
BYLAYER
 70
0
 71
3
 72
11
 73
7
 74
0
 42
0.0000001
 43
0.0000001
 44
0.0000000001
 40
0.0
 40
0.0
 40
0.0
 40
0.0
 40
0.2469097528
 40
0.4956686929
 40
0.7469455025
 40
1.0
 40
1.0
 40
1.0
 40
1.0
 10
69.8851649643
 20
51.0025357706
 30
0.0
 10
69.8835845583
 20
50.959177905
 30
0.0
 10
69.8628212025
 20
50.8718384202
 30
0.0
 10
69.783938007
 20
50.7629387136
 30
0.0
 10
69.669372572
 20
50.690707461
 30
0.0
 10
69.5798601563
 20
50.6739221434
 30
0.0
 10
69.5353937507
 20
50.6739221435
 30
0.0
  0
SPLINE
  5
337
100
AcDbEntity
  8
_1
100
AcDbSpline
 62
7
  6
BYLAYER
 70
0
 71
3
 72
11
 73
7
 74
0
 42
0.0000001
 43
0.0000001
 44
0.0000000001
 40
0.0
 40
0.0
 40
0.0
 40
0.0
 40
0.2530544975
 40
0.5043313071
 40
0.7530902472
 40
1.0
 40
1.0
 40
1.0
 40
1.0
 10
69.5353937507
 20
50.6739221435
 30
0.0
 10
69.490927345
 20
50.6739221435
 30
0.0
 10
69.4014149293
 20
50.6907074609
 30
0.0
 10
69.2868494943
 20
50.7629387136
 30
0.0
 10
69.2079662988
 20
50.8718384202
 30
0.0
 10
69.187202943
 20
50.959177905
 30
0.0
 10
69.185622537
 20
51.0025357706
 30
0.0
  0
SPLINE
  5
338
100
AcDbEntity
  8
_1
100
AcDbSpline
 62
7
  6
BYLAYER
 70
0
 71
3
 72
14
 73
10
 74
0
 42
0.0000001
 43
0.0000001
 44
0.0000000001
 40
0.0
 40
0.0
 40
0.0
 40
0.0
 40
0.0377129237
 40
0.1046255659
 40
0.1996976133
 40
0.3206506922
 40
0.4647551753
 40
0.6287191205
 40
1.0
 40
1.0
 40
1.0
 40
1.0
 10
72.5334764141
 20
50.6508058525
 30
0.0
 10
72.5319685095
 20
50.6538299675
 30
0.0
 10
72.5301199169
 20
50.6631822476
 30
0.0
 10
72.5275239783
 20
50.6807910189
 30
0.0
 10
72.525240573
 20
50.706095466
 30
0.0
 10
72.5230374563
 20
50.7382709378
 30
0.0
 10
72.5211344291
 20
50.7766743551
 30
0.0
 10
72.5189085179
 20
50.8375037508
 30
0.0
 10
72.5179488346
 20
50.88545923
 30
0.0
 10
72.5175386294
 20
50.9187247491
 30
0.0
  0
SPLINE
  5
339
100
AcDbEntity
  8
_1
100
AcDbSpline
 62
7
  6
BYLAYER
 70
0
 71
3
 72
10
 73
6
 74
0
 42
0.0000001
 43
0.0000001
 44
0.0000000001
 40
0.0
 40
0.0
 40
0.0
 40
0.0
 40
0.2558667412
 40
0.5093220729
 40
1.0
 40
1.0
 40
1.0
 40
1.0
 10
16.7401863384
 20
63.1495737485
 30
0.0
 10
16.7499862324
 20
63.30303289
 30
0.0
 10
16.7486432665
 20
63.6099180176
 30
0.0
 10
16.7015540895
 20
64.2086412704
 30
0.0
 10
16.6613096769
 20
64.6558821965
 30
0.0
 10
16.6721304111
 20
64.9505730226
 30
0.0
  0
SPLINE
  5
33A
100
AcDbEntity
  8
_1
100
AcDbSpline
 62
7
  6
BYLAYER
 70
0
 71
3
 72
9
 73
5
 74
0
 42
0.0000001
 43
0.0000001
 44
0.0000000001
 40
0.0
 40
0.0
 40
0.0
 40
0.0
 40
0.5001844301
 40
1.0
 40
1.0
 40
1.0
 40
1.0
 10
72.1514588829
 20
44.5335086163
 30
0.0
 10
72.19735846
 20
44.5794081934
 30
0.0
 10
72.2718640036
 20
44.6902481652
 30
0.0
 10
72.2980096732
 20
44.8212312362
 30
0.0
 10
72.2981873383
 20
44.8860949283
 30
0.0
  0
SPLINE
  5
33B
100
AcDbEntity
  8
_1
100
AcDbSpline
 62
7
  6
BYLAYER
 70
0
 71
3
 72
9
 73
5
 74
0
 42
0.0000001
 43
0.0000001
 44
0.0000000001
 40
0.0
 40
0.0
 40
0.0
 40
0.0
 40
0.4998155699
 40
1.0
 40
1.0
 40
1.0
 40
1.0
 10
71.7988725709
 20
44.3867801609
 30
0.0
 10
71.863736263
 20
44.3869578259
 30
0.0
 10
71.994719334
 20
44.4131034955
 30
0.0
 10
72.1055593057
 20
44.4876090392
 30
0.0
 10
72.1514588829
 20
44.5335086163
 30
0.0
  0
SPLINE
  5
33C
100
AcDbEntity
  8
_1
100
AcDbSpline
 62
7
  6
BYLAYER
 70
0
 71
3
 72
12
 73
8
 74
0
 42
0.0000001
 43
0.0000001
 44
0.0000000001
 40
0.0
 40
0.0
 40
0.0
 40
0.0
 40
0.2397382051
 40
0.3688463709
 40
0.5006501424
 40
0.760261796
 40
1.0
 40
1.0
 40
1.0
 40
1.0
 10
72.3726847903
 20
46.4875500208
 30
0.0
 10
72.3725141392
 20
46.5498529977
 30
0.0
 10
72.3538949484
 20
46.6469395751
 30
0.0
 10
72.2930364711
 20
46.7626793275
 30
0.0
 10
72.2076236727
 20
46.8686634801
 30
0.0
 10
72.0665244261
 20
46.961563329
 30
0.0
 10
71.9356729996
 20
46.9866941337
 30
0.0
 10
71.873370023
 20
46.9868647882
 30
0.0
  0
SPLINE
  5
33D
100
AcDbEntity
  8
_1
100
AcDbSpline
 62
7
  6
BYLAYER
 70
0
 71
3
 72
9
 73
5
 74
0
 42
0.0000001
 43
0.0000001
 44
0.0000000001
 40
0.0
 40
0.0
 40
0.0
 40
0.0
 40
0.5270022231
 40
1.0
 40
1.0
 40
1.0
 40
1.0
 10
72.5353937507
 20
46.4921349436
 30
0.0
 10
72.5610572178
 20
46.4921349436
 30
0.0
 10
72.6098658319
 20
46.4871156589
 30
0.0
 10
72.6566175052
 20
46.4710938025
 30
0.0
 10
72.6768151069
 20
46.4600211332
 30
0.0
  0
SPLINE
  5
33E
100
AcDbEntity
  8
_1
100
AcDbSpline
 62
7
  6
BYLAYER
 70
0
 71
3
 72
11
 73
7
 74
0
 42
0.0000001
 43
0.0000001
 44
0.0000000001
 40
0.0
 40
0.0
 40
0.0
 40
0.0
 40
0.2941821683
 40
0.5548808516
 40
0.7865381061
 40
1.0
 40
1.0
 40
1.0
 40
1.0
 10
72.6768151069
 20
46.4600211332
 30
0.0
 10
72.6855528497
 20
46.4552309537
 30
0.0
 10
72.7013839972
 20
46.4448876909
 30
0.0
 10
72.72045661
 20
46.4259404635
 30
0.0
 10
72.7325037711
 20
46.4048951219
 30
0.0
 10
72.7353937507
 20
46.3897219885
 30
0.0
 10
72.7353937507
 20
46.3824915365
 30
0.0
  0
SPLINE
  5
33F
100
AcDbEntity
  8
_1
100
AcDbSpline
 62
7
  6
BYLAYER
 70
0
 71
3
 72
11
 73
7
 74
0
 42
0.0000001
 43
0.0000001
 44
0.0000000001
 40
0.0
 40
0.0
 40
0.0
 40
0.0
 40
0.1059642408
 40
0.3154409978
 40
0.6186013916
 40
1.0
 40
1.0
 40
1.0
 40
1.0
 10
72.5344350824
 20
46.6483416445
 30
0.0
 10
72.5344350913
 20
46.6428235934
 30
0.0
 10
72.535716846
 20
46.6264254305
 30
0.0
 10
72.5354472966
 20
46.5941949336
 30
0.0
 10
72.5353236569
 20
46.5476468189
 30
0.0
 10
72.5353937507
 20
46.5119961441
 30
0.0
 10
72.5353937507
 20
46.4921349436
 30
0.0
  0
SPLINE
  5
340
100
AcDbEntity
  8
_1
100
AcDbSpline
 62
7
  6
BYLAYER
 70
0
 71
3
 72
13
 73
9
 74
0
 42
0.0000001
 43
0.0000001
 44
0.0000000001
 40
0.0
 40
0.0
 40
0.0
 40
0.0
 40
0.3797807803
 40
0.6819923069
 40
0.7990604737
 40
0.891598197
 40
0.9587016143
 40
1.0
 40
1.0
 40
1.0
 40
1.0
 10
72.5200530694
 20
46.4921349437
 30
0.0
 10
72.5207357937
 20
46.5120086088
 30
0.0
 10
72.5222337531
 20
46.5476855524
 30
0.0
 10
72.5248702328
 20
46.5894552509
 30
0.0
 10
72.5274137476
 20
46.6161270921
 30
0.0
 10
72.5292030035
 20
46.6305244748
 30
0.0
 10
72.5310702944
 20
46.6408496071
 30
0.0
 10
72.5325114901
 20
46.6464064816
 30
0.0
 10
72.5334764141
 20
46.6483416445
 30
0.0
  0
SPLINE
  5
341
100
AcDbEntity
  8
_1
100
AcDbSpline
 62
7
  6
BYLAYER
 70
0
 71
3
 72
20
 73
16
 74
0
 42
0.0000001
 43
0.0000001
 44
0.0000000001
 40
0.0
 40
0.0
 40
0.0
 40
0.0
 40
0.004376473
 40
0.0107280543
 40
0.0297047699
 40
0.0571335552
 40
0.0929099818
 40
0.1368222271
 40
0.1884428303
 40
0.2472857692
 40
0.3128601608
 40
0.4619274894
 40
0.6301858787
 40
0.8117152265
 40
1.0
 40
1.0
 40
1.0
 40
1.0
 10
72.3726846441
 20
46.4876023733
 30
0.0
 10
72.3711340788
 20
46.4860517806
 30
0.0
 10
72.3683008477
 20
46.4813641514
 30
0.0
 10
72.3628289338
 20
46.4675382226
 30
0.0
 10
72.356716922
 20
46.4416939397
 30
0.0
 10
72.3498495116
 20
46.4011229079
 30
0.0
 10
72.3431679501
 20
46.3478396219
 30
0.0
 10
72.3367014955
 20
46.2823672646
 30
0.0
 10
72.330553394
 20
46.2052555075
 30
0.0
 10
72.3247814956
 20
46.1172385549
 30
0.0
 10
72.3173658728
 20
45.9804060895
 30
0.0
 10
72.3097423709
 20
45.7886947498
 30
0.0
 10
72.3031427262
 20
45.5388230067
 30
0.0
 10
72.2991019549
 20
45.2692447224
 30
0.0
 10
72.298184661
 20
45.0839465842
 30
0.0
 10
72.298184661
 20
44.9896057187
 30
0.0
  0
SPLINE
  5
342
100
AcDbEntity
  8
_1
100
AcDbSpline
 62
7
  6
BYLAYER
 70
0
 71
3
 72
21
 73
17
 74
0
 42
0.0000001
 43
0.0000001
 44
0.0000000001
 40
0.0
 40
0.0
 40
0.0
 40
0.0
 40
0.188561341
 40
0.3703489829
 40
0.5388286643
 40
0.6880608352
 40
0.7536889399
 40
0.8125621311
 40
0.8641850913
 40
0.9080652622
 40
0.9437645913
 40
0.9710525372
 40
0.981495074
 40
0.9897869772
 40
0.9959351602
 40
1.0
 40
1.0
 40
1.0
 40
1.0
 10
71.7988718208
 20
44.9896057187
 30
0.0
 10
71.7988718208
 20
45.1153885642
 30
0.0
 10
71.799789052
 20
45.3624366759
 30
0.0
 10
71.8038294199
 20
45.7218520665
 30
0.0
 10
71.8104285478
 20
46.0549898333
 30
0.0
 10
71.8180509804
 20
46.3105963398
 30
0.0
 10
71.8254673053
 20
46.4930455354
 30
0.0
 10
71.8312369617
 20
46.6103923283
 30
0.0
 10
71.8373886064
 20
46.7131891108
 30
0.0
 10
71.843839046
 20
46.800478441
 30
0.0
 10
71.8505536723
 20
46.8714491084
 30
0.0
 10
71.856627998
 20
46.9200801626
 30
0.0
 10
71.8618583054
 20
46.9503280193
 30
0.0
 10
71.8654139666
 20
46.9665687846
 30
0.0
 10
71.868944617
 20
46.9783695376
 30
0.0
 10
71.8717423445
 20
46.9846955769
 30
0.0
 10
71.8733692542
 20
46.9868647897
 30
0.0
  0
SPLINE
  5
343
100
AcDbEntity
  8
_1
100
AcDbSpline
 62
7
  6
BYLAYER
 70
0
 71
3
 72
16
 73
12
 74
0
 42
0.0000001
 43
0.0000001
 44
0.0000000001
 40
0.0
 40
0.0
 40
0.0
 40
0.0
 40
0.0455511072
 40
0.0948768899
 40
0.1476513113
 40
0.2035305454
 40
0.3229913717
 40
0.4504178992
 40
0.5834731325
 40
0.7203428116
 40
1.0
 40
1.0
 40
1.0
 40
1.0
 10
29.4478447558
 20
46.9868647882
 30
0.0
 10
29.3807598425
 20
46.9824265068
 30
0.0
 10
29.2416761319
 20
46.9627143319
 30
0.0
 10
29.0300169845
 20
46.9098462486
 30
0.0
 10
28.8085477403
 20
46.8363397738
 30
0.0
 10
28.4955188476
 20
46.7120080573
 30
0.0
 10
28.0913616256
 20
46.5204232792
 30
0.0
 10
27.5973703395
 20
46.2547762953
 30
0.0
 10
27.0900600547
 20
45.9603723763
 30
0.0
 10
26.3968856213
 20
45.5390194778
 30
0.0
 10
25.8773800564
 20
45.2102365887
 30
0.0
 10
25.5285320207
 20
44.9896057187
 30
0.0
  0
SPLINE
  5
344
100
AcDbEntity
  8
_1
100
AcDbSpline
 62
7
  6
BYLAYER
 70
0
 71
3
 72
9
 73
5
 74
0
 42
0.0000001
 43
0.0000001
 44
0.0000000001
 40
0.0
 40
0.0
 40
0.0
 40
0.0
 40
0.252099383
 40
1.0
 40
1.0
 40
1.0
 40
1.0
 10
72.2981860637
 20
59.2298852442
 30
0.0
 10
72.2981860637
 20
59.1432718564
 30
0.0
 10
72.2987093403
 20
58.7997036942
 30
0.0
 10
72.3012869256
 20
58.4561381587
 30
0.0
 10
72.3044552591
 20
58.1992026559
 30
0.0
  0
ELLIPSE
  5
345
100
AcDbEntity
  8
_1
100
AcDbEllipse
 62
7
  6
BYLAYER
 10
69.5353937507
 20
46.9495709288
 30
0.0
 11
1.0604722537
 21
-0.0
 31
0.0
 40
0.0174550651
 41
3.1414403255
 42
6.2833376352
  0
ELLIPSE
  5
346
100
AcDbEntity
  8
_1
100
AcDbEllipse
 62
7
  6
BYLAYER
 10
69.5353937507
 20
50.549581204
 30
0.0
 11
1.4018922209
 21
-0.0
 31
0.0
 40
0.0174550657
 41
6.2828806279
 42
9.4250826401
  0
ELLIPSE
  5
347
100
AcDbEntity
  8
_1
100
AcDbEllipse
 62
7
  6
BYLAYER
 10
25.5285320207
 20
50.1495737485
 30
0.0
 11
5.0
 21
0.0
 31
0.0
 40
0.0524077793
 41
0.0523598776
 42
0.5616306851
  0
ELLIPSE
  5
348
100
AcDbEntity
  8
_1
100
AcDbEllipse
 62
7
  6
BYLAYER
 10
68.2454546738
 20
54.9362254444
 30
0.0
 11
-0.0487913545
 21
0.1999982886
 31
0.0
 40
0.0169577304
 41
-0.3065367827
 42
-0.2618135956
  0
ELLIPSE
  5
349
100
AcDbEntity
  8
_1
100
AcDbEllipse
 62
7
  6
BYLAYER
 10
70.8253328275
 20
54.9362254444
 30
0.0
 11
0.0487913545
 21
0.1999982886
 31
0.0
 40
0.0169577304
 41
0.2618135956
 42
0.3065367827
  0
ELLIPSE
  5
34A
100
AcDbEntity
  8
_1
100
AcDbEllipse
 62
7
  6
BYLAYER
 10
25.5285320207
 20
37.3995737485
 30
0.0
 11
0.0
 21
21.25
 31
0.0
 40
0.2352941176
 41
-0.8960807778
 42
-0.2310906672
  0
ELLIPSE
  5
34B
100
AcDbEntity
  8
_1
100
AcDbEllipse
 62
7
  6
BYLAYER
 10
16.3336744628
 20
63.1738988089
 30
0.0
 11
0.2788041293
 21
4.8416396418
 31
0.0
 40
0.0523209914
 41
-1.1920493994
 42
-0.7354351461
  0
ELLIPSE
  5
34C
100
AcDbEntity
  8
_1
100
AcDbEllipse
 62
7
  6
BYLAYER
 10
16.3336744628
 20
63.1738988089
 30
0.0
 11
0.2788041293
 21
4.8416396418
 31
0.0
 40
0.0523209914
 41
-3.1431494169
 42
-1.9434713519
  0
ELLIPSE
  5
34D
100
AcDbEntity
  8
_1
100
AcDbEllipse
 62
7
  6
BYLAYER
 10
71.0877589455
 20
44.9896057187
 30
0.0
 11
-0.0
 21
2.0
 31
0.0
 40
0.0174550649
 41
-0.3230880438
 42
-0.0523598776
  0
ELLIPSE
  5
34E
100
AcDbEntity
  8
_1
100
AcDbEllipse
 62
7
  6
BYLAYER
 10
67.9830285559
 20
44.9896057187
 30
0.0
 11
0.0
 21
2.0
 31
0.0
 40
0.0174550649
 41
0.0523598776
 42
0.3230880438
  0
ELLIPSE
  5
34F
100
AcDbEntity
  8
_1
100
AcDbEllipse
 62
7
  6
BYLAYER
 10
71.0814169532
 20
50.7884418103
 30
0.0
 11
-0.0
 21
0.5
 31
0.0
 40
0.0174550649
 41
-3.089232776
 42
-1.9492346307
  0
ELLIPSE
  5
350
100
AcDbEntity
  8
_1
100
AcDbEllipse
 62
7
  6
BYLAYER
 10
67.9893705481
 20
50.7884418103
 30
0.0
 11
0.0
 21
0.5
 31
0.0
 40
0.0174550649
 41
-4.3339506765
 42
-3.1939525311
  0
ELLIPSE
  5
351
100
AcDbEntity
  8
_1
100
AcDbEllipse
 62
7
  6
BYLAYER
 10
25.5285320207
 20
47.1495737485
 30
0.0
 11
5.0
 21
-0.0
 31
0.0
 40
0.0524077793
 41
-0.6699341646
 42
-0.0523598776
  0
ENDSEC
  0
SECTION
  2
OBJECTS
  0
DICTIONARY
  5
C
100
AcDbDictionary
280
0
281
1
  3
ACAD_GROUP
350
D
  3
ACAD_MLINESTYLE
350
17
  3
ACAD_LAYOUT
350
1A
  3
ACAD_PLOTSETTINGS
350
19
  3
ACAD_PLOTSTYLENAME
350
E
  0
DICTIONARY
  5
D
102
{ACAD_REACTORS
330
C
102
}
100
AcDbDictionary
280
0
281
1
  0
ACDBDICTIONARYWDFLT
  5
E
102
{ACAD_REACTORS
330
C
102
}
100
AcDbDictionary
281
1
  3
Normal
350
F
100
AcDbDictionaryWithDefault
340
F
  0
DICTIONARY
  5
17
102
{ACAD_REACTORS
330
C
102
}
100
AcDbDictionary
280
0
281
1
  3
Standard
350
18
  0
DICTIONARY
  5
19
102
{ACAD_REACTORS
330
C
102
}
100
AcDbDictionary
281
1
  0
DICTIONARY
  5
1A
102
{ACAD_REACTORS
330
C
102
}
100
AcDbDictionary
281
1
  3
Model
350
352
  3
Layout1
350
353
  0
ACDBPLACEHOLDER
  5
F
102
{ACAD_REACTORS
330
E
102
}
  0
MLINESTYLE
  5
18
102
{ACAD_REACTORS
330
17
102
}
100
AcDbMlineStyle
  2
STANDARD
 70
0
  3

 62
256
 51
90.0
 52
90.0
 71
2
 49
0.5
 62
256
  6
BYLAYER
 49
-0.5
 62
256
  6
BYLAYER
  0
LAYOUT
  5
352
102
{ACAD_REACTORS
330
1A
102
}
100
AcDbPlotSettings
  1

  2
none_device
  4

  6

 40
0.0
 41
0.0
 42
0.0
 43
0.0
 44
210.0
 45
297.0
 46
0.0
 47
0.0
 48
0.0
 49
0.0
140
0.0
141
0.0
142
1.0
143
1.0
 70
1024
 72
1
 73
0
 74
0
  7

 75
0
147
1.0
148
0.0
149
0.0
100
AcDbLayout
  1
Model
 70
0
 71
0
 10
0.0
 20
0.0
 11
210.0
 21
297.0
 12
0.0
 22
0.0
 32
0.0
 14
0.0
 24
0.0
 34
0.0
 15
0.0
 25
0.0
 35
0.0
146
0.0
 13
0.0
 23
0.0
 33
0.0
 16
1.0
 26
0.0
 36
0.0
 17
0.0
 27
1.0
 37
0.0
 76
0
330
211
345
0
346
0
  0
LAYOUT
  5
353
102
{ACAD_REACTORS
330
1A
102
}
100
AcDbPlotSettings
  1

  2
none_device
  4

  6

 40
0.0
 41
0.0
 42
0.0
 43
0.0
 44
210.0
 45
297.0
 46
0.0
 47
0.0
 48
0.0
 49
0.0
140
0.0
141
0.0
142
1.0
143
1.0
 70
0
 72
1
 73
0
 74
0
  7

 75
0
147
1.0
148
0.0
149
0.0
100
AcDbLayout
  1
Layout1
 70
0
 71
1
 10
0.0
 20
0.0
 11
210.0
 21
297.0
 12
0.0
 22
0.0
 32
0.0
 14
0.0
 24
0.0
 34
0.0
 15
0.0
 25
0.0
 35
0.0
146
0.0
 13
0.0
 23
0.0
 33
0.0
 16
1.0
 26
0.0
 36
0.0
 17
0.0
 27
1.0
 37
0.0
 76
0
330
212
345
0
346
0
  0
ENDSEC
  0
EOF
