999
DXF file: C:\Users\sesa63760\Dev\_Creo\CAD\MCADID0004831_3D-CAD\drw0001_1.dxf
999
Pro/ENGINEER 2019471 by Parametric Technology Corporation
  0
SECTION
  2
HEADER
  9
$ACADVER
  1
AC1024
  9
$DWGCODEPAGE
  3
ANSI_1252
  9
$EXTMAX
 10
50.3344013291
 20
71.1872247369
 30
0.0
  9
$EXTMIN
 10
0.0
 20
0.0
 30
0.0
  9
$LIMMIN
 10
0.0
 20
0.0
  9
$LIMMAX
 10
50.3344013291
 20
71.1872247369
  9
$VIEWCTR
 10
25.1672006646
 20
35.5936123685
  9
$VIEWSIZE
 40
71.1872247369
  9
$CLAYER
  8
0
  9
$LTSCALE
 40
4.6403524273
  9
$CELTYPE
  6
BYLAYER
  9
$DIMSCALE
 40
1.0
  9
$DIMASZ
 40
0.5992190634
  9
$DIMEXO
 40
1.0
  9
$DIMDLI
 40
3.206061677
  9
$DIMEXE
 40
1.0
  9
$DIMCEN
 40
0.7593303972
  9
$DIMLFAC
 40
1.0
  9
$DIMBLK
  1
_FILLED
  9
$DIMALT
 70
0
  9
$DIMALTF
 40
0.0393700787
  9
$DIMTXT
 40
0.8389066888
  9
$DIMTOL
 70
1
  9
$DIMLIM
 70
0
  9
$DIMTFAC
 40
1.0
  9
$DIMTP
 40
0.01
  9
$DIMTM
 40
0.01
  9
$DIMGAP
 40
0.625
  9
$DIMDSEP
 70
46
  9
$AUNITS
 70
0
  9
$PDMODE
 70
3
  9
$PDSIZE
 40
0.3125
  9
$HANDSEED
  5
2CC
  9
$TILEMODE
 70
1
  9
$MEASUREMENT
 70
1
  9
$INSUNITS
 70
4
  0
ENDSEC
  0
SECTION
  2
CLASSES
  0
CLASS
  1
ACDBDICTIONARYWDFLT
  2
AcDbDictionaryWithDefault
  3
AutoCAD 2000
 90
0
 91
1
280
0
281
0
  0
CLASS
  1
ACDBPLACEHOLDER
  2
AcDbPlaceHolder
  3
AutoCAD 2000
 90
0
 91
1
280
0
281
0
  0
CLASS
  1
LAYOUT
  2
AcDbLayout
  3
AutoCAD 2000
 90
0
 91
0
280
0
281
0
  0
ENDSEC
  0
SECTION
  2
TABLES
  0
TABLE
  2
VPORT
  5
8
100
AcDbSymbolTable
 70
2
  0
VPORT
  5
1F4
100
AcDbSymbolTableRecord
100
AcDbViewportTableRecord
  2
*ACTIVE
 70
0
 10
0.0
 20
0.0
 11
1.0
 21
1.0
 12
25.1672006646
 22
35.5936123685
 13
0.0
 23
0.0
 14
1.0
 24
1.0
 15
0.0
 25
0.0
 16
0.0
 26
0.0
 36
1.0
 17
0.0
 27
0.0
 37
0.0
 40
71.1872247369
 41
0.7070707071
 42
50.0
 43
0.0
 44
0.0
 50
0.0
 51
0.0
 71
0
 72
100
 73
1
 74
1
 75
0
 76
0
 77
0
 78
0
  0
ENDTAB
  0
TABLE
  2
LTYPE
  5
5
100
AcDbSymbolTable
 70
6
  0
LTYPE
  5
14
100
AcDbSymbolTableRecord
100
AcDbLinetypeTableRecord
  2
BYBLOCK
 70
0
  3

 72
65
 73
0
 40
0.0
  0
LTYPE
  5
15
100
AcDbSymbolTableRecord
100
AcDbLinetypeTableRecord
  2
BYLAYER
 70
0
  3

 72
65
 73
0
 40
0.0
  0
LTYPE
  5
16
100
AcDbSymbolTableRecord
100
AcDbLinetypeTableRecord
  2
CONTINUOUS
 70
64
  3
Solid line
 72
65
 73
0
 40
0.0
  0
LTYPE
  5
1F5
100
AcDbSymbolTableRecord
100
AcDbLinetypeTableRecord
  2
CENTER
 70
64
  3
____ _ ____ _ ____ _ ____ _ ____ _ ____ _ ____
 72
65
 73
4
 40
0.6
 49
0.375
 74
0
 49
-0.075
 74
0
 49
0.075
 74
0
 49
-0.075
 74
0
  0
LTYPE
  5
1F6
100
AcDbSymbolTableRecord
100
AcDbLinetypeTableRecord
  2
HIDDEN
 70
64
  3
- - - - - - - - - - - - - - - - - - - -
 72
65
 73
2
 40
0.2
 49
0.1
 74
0
 49
-0.1
 74
0
  0
LTYPE
  5
1F7
100
AcDbSymbolTableRecord
100
AcDbLinetypeTableRecord
  2
PHANTOM
 70
64
  3
_____ _ _ _____ _ _ _____ _ _ _____
 72
65
 73
6
 40
0.8
 49
0.45
 74
0
 49
-0.05
 74
0
 49
0.1
 74
0
 49
-0.05
 74
0
 49
0.1
 74
0
 49
-0.05
 74
0
  0
LTYPE
  5
1F8
100
AcDbSymbolTableRecord
100
AcDbLinetypeTableRecord
  2
DOT
 70
64
  3
. . . . . . . . . . . . . . . . . . . .
 72
65
 73
2
 40
0.2
 49
0.1
 74
0
 49
-0.1
 74
0
  0
LTYPE
  5
1F9
100
AcDbSymbolTableRecord
100
AcDbLinetypeTableRecord
  2
DASHED
 70
64
  3
- - - - - - - - - - - - - - - - - - - -
 72
65
 73
2
 40
0.2
 49
0.1
 74
0
 49
-0.1
 74
0
  0
ENDTAB
  0
TABLE
  2
LAYER
  5
2
100
AcDbSymbolTable
 70
36
  0
LAYER
  5
10
100
AcDbSymbolTableRecord
100
AcDbLayerTableRecord
  2
0
 70
0
 62
7
  6
CONTINUOUS
370
-3
390
F
  0
LAYER
  5
1FA
100
AcDbSymbolTableRecord
100
AcDbLayerTableRecord
  2
DEFAULT_1
 70
0
 62
7
  6
CENTER
370
-3
390
F
  0
LAYER
  5
1FB
100
AcDbSymbolTableRecord
100
AcDbLayerTableRecord
  2
DEFAULT_2
 70
0
 62
7
  6
HIDDEN
370
-3
390
F
  0
LAYER
  5
1FC
100
AcDbSymbolTableRecord
100
AcDbLayerTableRecord
  2
DEFAULT_3
 70
0
 62
7
  6
PHANTOM
370
-3
390
F
  0
LAYER
  5
1FD
100
AcDbSymbolTableRecord
100
AcDbLayerTableRecord
  2
00_COMPONENTS
 70
0
 62
7
  6
CONTINUOUS
370
-3
390
F
  0
LAYER
  5
1FE
100
AcDbSymbolTableRecord
100
AcDbLayerTableRecord
  2
01_1_DEFAULT_DATUMS
 70
0
 62
7
  6
CONTINUOUS
370
-3
390
F
  0
LAYER
  5
1FF
100
AcDbSymbolTableRecord
100
AcDbLayerTableRecord
  2
01_PLANES
 70
0
 62
7
  6
CONTINUOUS
370
-3
390
F
  0
LAYER
  5
200
100
AcDbSymbolTableRecord
100
AcDbLayerTableRecord
  2
02_COORD_SYS
 70
0
 62
7
  6
CONTINUOUS
370
-3
390
F
  0
LAYER
  5
201
100
AcDbSymbolTableRecord
100
AcDbLayerTableRecord
  2
03_AXES
 70
0
 62
7
  6
CONTINUOUS
370
-3
390
F
  0
LAYER
  5
202
100
AcDbSymbolTableRecord
100
AcDbLayerTableRecord
  2
04_POINTS
 70
0
 62
7
  6
CONTINUOUS
370
-3
390
F
  0
LAYER
  5
203
100
AcDbSymbolTableRecord
100
AcDbLayerTableRecord
  2
05_CURVES
 70
0
 62
7
  6
CONTINUOUS
370
-3
390
F
  0
LAYER
  5
204
100
AcDbSymbolTableRecord
100
AcDbLayerTableRecord
  2
06_SURFS
 70
0
 62
7
  6
CONTINUOUS
370
-3
390
F
  0
LAYER
  5
205
100
AcDbSymbolTableRecord
100
AcDbLayerTableRecord
  2
07_COSMETICS
 70
0
 62
7
  6
CONTINUOUS
370
-3
390
F
  0
LAYER
  5
206
100
AcDbSymbolTableRecord
100
AcDbLayerTableRecord
  2
10_NOTES
 70
0
 62
7
  6
CONTINUOUS
370
-3
390
F
  0
LAYER
  5
207
100
AcDbSymbolTableRecord
100
AcDbLayerTableRecord
  2
11_NOTES_PUB
 70
0
 62
7
  6
CONTINUOUS
370
-3
390
F
  0
LAYER
  5
208
100
AcDbSymbolTableRecord
100
AcDbLayerTableRecord
  2
13_REF_GTOL
 70
0
 62
7
  6
CONTINUOUS
370
-3
390
F
  0
LAYER
  5
209
100
AcDbSymbolTableRecord
100
AcDbLayerTableRecord
  2
16_MISC
 70
0
 62
7
  6
CONTINUOUS
370
-3
390
F
  0
LAYER
  5
20A
100
AcDbSymbolTableRecord
100
AcDbLayerTableRecord
  2
17_NO_PRINT
 70
0
 62
7
  6
CONTINUOUS
370
-3
390
F
  0
LAYER
  5
20B
100
AcDbSymbolTableRecord
100
AcDbLayerTableRecord
  2
18_DATUM_CAMS_JOINTS
 70
0
 62
7
  6
CONTINUOUS
370
-3
390
F
  0
LAYER
  5
20C
100
AcDbSymbolTableRecord
100
AcDbLayerTableRecord
  2
19_DATUM_FUNCTIONAL
 70
0
 62
7
  6
CONTINUOUS
370
-3
390
F
  0
LAYER
  5
20D
100
AcDbSymbolTableRecord
100
AcDbLayerTableRecord
  2
20_DATUM_KINEMATIC_SCHEME
 70
0
 62
7
  6
CONTINUOUS
370
-3
390
F
  0
ENDTAB
  0
TABLE
  2
STYLE
  5
3
100
AcDbSymbolTable
 70
1
  0
STYLE
  5
11
100
AcDbSymbolTableRecord
100
AcDbTextStyleTableRecord
  2
STANDARD
 70
0
 40
0.0
 41
1.0
 50
0.0
 71
0
 42
0.2
  3
ARIAL.TTF
  4

  0
STYLE
  5
20E
100
AcDbSymbolTableRecord
100
AcDbTextStyleTableRecord
  2
TEXTSTYLE_1
 70
0
 40
0.0
 41
0.8
 50
0.0
 71
0
 42
0.2
  3
gdt
  4

  0
ENDTAB
  0
TABLE
  2
VIEW
  5
6
100
AcDbSymbolTable
 70
0
  0
ENDTAB
  0
TABLE
  2
UCS
  5
7
100
AcDbSymbolTable
 70
0
  0
ENDTAB
  0
TABLE
  2
APPID
  5
9
100
AcDbSymbolTable
 70
1
  0
APPID
  5
20F
100
AcDbSymbolTableRecord
100
AcDbRegAppTableRecord
  2
ACAD
 70
0
  0
ENDTAB
  0
TABLE
  2
BLOCK_RECORD
  5
1
100
AcDbSymbolTable
 70
0
  0
BLOCK_RECORD
  5
210
100
AcDbSymbolTableRecord
100
AcDbBlockTableRecord
  2
*Model_Space
  0
BLOCK_RECORD
  5
211
100
AcDbSymbolTableRecord
100
AcDbBlockTableRecord
  2
*Paper_Space
  0
BLOCK_RECORD
  5
212
100
AcDbSymbolTableRecord
100
AcDbBlockTableRecord
  2
_FILLED
  0
ENDTAB
  0
TABLE
  2
DIMSTYLE
  5
A
100
AcDbSymbolTable
 70
1
100
AcDbDimStyleTable
 71
0
  0
DIMSTYLE
105
213
100
AcDbSymbolTableRecord
100
AcDbDimStyleTableRecord
  2
STANDARD
 70
0
  3

  4

 40
1.0
 41
0.5992190634
 42
1.0
 43
0.38
 44
1.0
 45
0.0
 46
0.0
 47
0.01
 48
0.01
140
0.8389066888
141
0.09
142
0.0
143
25.4
144
1.0
145
0.0
146
1.0
147
0.625
 71
1
 72
0
 73
0
 74
0
 75
0
 76
0
 77
1
 78
8
 79
2
170
0
171
1
172
0
173
0
174
0
175
0
176
0
177
0
178
0
270
2
179
2
271
2
272
2
273
2
274
2
275
0
280
0
281
0
282
0
283
1
284
8
285
0
286
0
287
3
288
0
340
11
278
46
341
212
342
212
343
212
344
212
  0
ENDTAB
  0
ENDSEC
  0
SECTION
  2
BLOCKS
  0
BLOCK
  5
20
100
AcDbEntity
  8
0
100
AcDbBlockBegin
  2
*Model_Space
 70
0
 10
0.0
 20
0.0
 30
0.0
  3
*Model_Space
  1

  0
ENDBLK
  5
21
100
AcDbEntity
  8
0
100
AcDbBlockEnd
  0
BLOCK
  5
1C
100
AcDbEntity
  8
0
100
AcDbBlockBegin
  2
*Paper_Space
 70
0
 10
0.0
 20
0.0
 30
0.0
  3
*Paper_Space
  1

  0
ENDBLK
  5
1D
100
AcDbEntity
  8
0
100
AcDbBlockEnd
  0
BLOCK
  5
214
100
AcDbEntity
  8
0
100
AcDbBlockBegin
  2
_FILLED
 70
64
 10
0.0
 20
0.0
  3
_FILLED
  1

  0
SOLID
  5
215
100
AcDbEntity
  8
0
  6
BYBLOCK
 62
0
100
AcDbTrace
 10
0.0
 20
0.0
 11
-1.0
 21
0.25
 12
-1.0
 22
-0.25
 13
-1.0
 23
-0.25
  0
ENDBLK
  5
216
100
AcDbEntity
  8
0
  6
BYBLOCK
 62
0
100
AcDbBlockEnd
  0
ENDSEC
  0
SECTION
  2
ENTITIES
  0
LINE
  5
217
100
AcDbEntity
  8
0
100
AcDbLine
 62
7
  6
BYLAYER
 10
11.7011822231
 20
47.4487431718
 11
7.8121111184
 21
45.2034003255
  0
LINE
  5
218
100
AcDbEntity
  8
0
100
AcDbLine
 62
7
  6
BYLAYER
 10
10.3704524718
 20
40.4450769755
 11
9.9039897308
 21
40.175766194
  0
LWPOLYLINE
  5
219
100
AcDbEntity
  8
0
100
AcDbPolyline
 62
7
  6
BYLAYER
 90
3
 70
0
 10
22.9265107947
 20
41.9077727984
 10
22.903346503
 20
41.8800312738
 10
22.881366472
 20
41.8643987096
  0
LINE
  5
21A
100
AcDbEntity
  8
0
100
AcDbLine
 62
7
  6
BYLAYER
 10
22.881366472
 20
41.8643987096
 11
21.6511304036
 21
41.1541258241
  0
LINE
  5
21B
100
AcDbEntity
  8
0
100
AcDbLine
 62
7
  6
BYLAYER
 10
33.5569460963
 20
29.7651262791
 11
33.4930492102
 21
29.7533654319
  0
LINE
  5
21C
100
AcDbEntity
  8
0
100
AcDbLine
 62
7
  6
BYLAYER
 10
33.556566857
 20
29.7658153401
 11
33.4926551492
 21
29.7540801606
  0
LINE
  5
21D
100
AcDbEntity
  8
0
100
AcDbLine
 62
7
  6
BYLAYER
 10
34.4595966358
 20
30.3262720527
 11
34.5066564746
 21
30.330666036
  0
LINE
  5
21E
100
AcDbEntity
  8
0
100
AcDbLine
 62
7
  6
BYLAYER
 10
22.9359567942
 20
41.9321063591
 11
22.9297459317
 21
41.9161067394
  0
LINE
  5
21F
100
AcDbEntity
  8
0
100
AcDbLine
 62
7
  6
BYLAYER
 10
22.6939132901
 20
31.5940339808
 11
28.2075541358
 21
30.5672414967
  0
LINE
  5
220
100
AcDbEntity
  8
0
100
AcDbLine
 62
7
  6
BYLAYER
 10
22.6939132901
 20
40.7939608671
 11
22.9376437122
 21
41.9400386442
  0
LINE
  5
221
100
AcDbEntity
  8
0
100
AcDbLine
 62
7
  6
BYLAYER
 10
14.5744300858
 20
33.3459648687
 11
14.0289712637
 21
33.0310459508
  0
LINE
  5
222
100
AcDbEntity
  8
0
100
AcDbLine
 62
7
  6
BYLAYER
 10
22.6939132901
 20
31.5940339808
 11
22.6939132901
 21
32.721999835
  0
LINE
  5
223
100
AcDbEntity
  8
0
100
AcDbLine
 62
7
  6
BYLAYER
 10
22.6939132901
 20
38.4808880601
 11
22.6939132901
 21
40.7939608671
  0
LINE
  5
224
100
AcDbEntity
  8
0
100
AcDbLine
 62
7
  6
BYLAYER
 10
28.5001734489
 20
30.446468841
 11
36.3733490566
 21
24.6938312148
  0
LINE
  5
225
100
AcDbEntity
  8
0
100
AcDbLine
 62
7
  6
BYLAYER
 10
29.2425400422
 20
42.0695424677
 11
28.3658052327
 21
41.0317172279
  0
LINE
  5
226
100
AcDbEntity
  8
0
100
AcDbLine
 62
7
  6
BYLAYER
 10
34.5954977677
 20
28.2845720937
 11
34.5929874575
 21
28.2865752729
  0
LINE
  5
227
100
AcDbEntity
  8
0
100
AcDbLine
 62
7
  6
BYLAYER
 10
32.0697288452
 20
33.414970884
 11
30.0047871148
 21
34.6071385775
  0
LINE
  5
228
100
AcDbEntity
  8
0
100
AcDbLine
 62
7
  6
BYLAYER
 10
32.1261162902
 20
33.8723177642
 11
30.0047871148
 21
35.0970400277
  0
LINE
  5
229
100
AcDbEntity
  8
0
100
AcDbLine
 62
7
  6
BYLAYER
 10
34.5945291606
 20
28.2804729316
 11
34.592039305
 21
28.282603847
  0
LINE
  5
22A
100
AcDbEntity
  8
0
100
AcDbLine
 62
7
  6
BYLAYER
 10
28.2075541358
 20
41.0390707493
 11
28.2075541358
 21
30.5672414967
  0
LINE
  5
22B
100
AcDbEntity
  8
0
100
AcDbLine
 62
7
  6
BYLAYER
 10
28.5001734489
 20
30.446468841
 11
28.5001734489
 21
40.9950486703
  0
LINE
  5
22C
100
AcDbEntity
  8
0
100
AcDbLine
 62
7
  6
BYLAYER
 10
21.2261395808
 20
30.9509346102
 11
17.3370684761
 21
28.7055917639
  0
LINE
  5
22D
100
AcDbEntity
  8
0
100
AcDbLine
 62
7
  6
BYLAYER
 10
34.176677782
 20
36.4792668125
 11
33.7207836187
 21
36.3057961733
  0
LINE
  5
22E
100
AcDbEntity
  8
0
100
AcDbLine
 62
7
  6
BYLAYER
 10
43.1775570284
 20
35.9790029287
 11
42.5867404595
 21
36.059531821
  0
LINE
  5
22F
100
AcDbEntity
  8
0
100
AcDbLine
 62
7
  6
BYLAYER
 10
43.9356441146
 20
36.2036799232
 11
43.6371745226
 21
36.2443616287
  0
LINE
  5
230
100
AcDbEntity
  8
0
100
AcDbLine
 62
7
  6
BYLAYER
 10
30.0047871148
 20
34.6071385775
 11
30.0047871148
 21
35.0970400277
  0
LINE
  5
231
100
AcDbEntity
  8
0
100
AcDbLine
 62
7
  6
BYLAYER
 10
30.0047871148
 20
34.6071385775
 11
30.2169182659
 21
34.9745625488
  0
LINE
  5
232
100
AcDbEntity
  8
0
100
AcDbLine
 62
7
  6
BYLAYER
 10
36.3733490566
 20
37.6567318485
 11
37.787556731
 21
38.4732201562
  0
LINE
  5
233
100
AcDbEntity
  8
0
100
AcDbLine
 62
7
  6
BYLAYER
 10
20.587384864
 20
42.9141153662
 11
22.8159050102
 21
41.9495804223
  0
LINE
  5
234
100
AcDbEntity
  8
0
100
AcDbLine
 62
7
  6
BYLAYER
 10
34.2273687153
 20
33.7438955573
 11
33.0086926587
 21
33.0402968079
  0
LINE
  5
235
100
AcDbEntity
  8
0
100
AcDbLine
 62
7
  6
BYLAYER
 10
28.2075541358
 20
41.0390707493
 11
22.6939132901
 21
40.7939608671
  0
LINE
  5
236
100
AcDbEntity
  8
0
100
AcDbLine
 62
7
  6
BYLAYER
 10
22.9376437122
 20
41.9400386442
 11
28.4512845579
 21
42.1168878621
  0
LINE
  5
237
100
AcDbEntity
  8
0
100
AcDbLine
 62
7
  6
BYLAYER
 10
36.3733490566
 20
37.6567318485
 11
28.5001734489
 21
40.9950486703
  0
LINE
  5
238
100
AcDbEntity
  8
0
100
AcDbLine
 62
7
  6
BYLAYER
 10
29.9143811234
 20
41.8808415799
 11
37.787556731
 21
38.4732201562
  0
LINE
  5
239
100
AcDbEntity
  8
0
100
AcDbLine
 62
7
  6
BYLAYER
 10
34.4595966358
 20
32.7822411913
 11
34.4595966358
 21
30.3262720527
  0
LINE
  5
23A
100
AcDbEntity
  8
0
100
AcDbLine
 62
7
  6
BYLAYER
 10
34.4595966358
 20
29.1718666135
 11
34.4595966358
 21
26.715897475
  0
LINE
  5
23B
100
AcDbEntity
  8
0
100
AcDbLine
 62
7
  6
BYLAYER
 10
34.5377351939
 20
31.0772485554
 11
34.5377351939
 21
30.3993132634
  0
LINE
  5
23C
100
AcDbEntity
  8
0
100
AcDbLine
 62
7
  6
BYLAYER
 10
34.5377351939
 20
29.0086008089
 11
34.5377351939
 21
28.3306655169
  0
LINE
  5
23D
100
AcDbEntity
  8
0
100
AcDbLine
 62
7
  6
BYLAYER
 10
42.0913482366
 20
35.9747415188
 11
41.3192822284
 21
35.5289916619
  0
LINE
  5
23E
100
AcDbEntity
  8
0
100
AcDbLine
 62
7
  6
BYLAYER
 10
43.2408607443
 20
36.1765293869
 11
42.9519860218
 21
36.0097484836
  0
LINE
  5
23F
100
AcDbEntity
  8
0
100
AcDbLine
 62
7
  6
BYLAYER
 10
34.7237612696
 20
30.5067148272
 11
34.5377351939
 21
30.3993132634
  0
LINE
  5
240
100
AcDbEntity
  8
0
100
AcDbLine
 62
7
  6
BYLAYER
 10
33.5609284093
 20
29.7846224006
 11
34.7082798352
 21
30.4470450942
  0
LINE
  5
241
100
AcDbEntity
  8
0
100
AcDbLine
 62
7
  6
BYLAYER
 10
33.5540993845
 20
29.7806796848
 11
33.5641628113
 21
29.7883856476
  0
LINE
  5
242
100
AcDbEntity
  8
0
100
AcDbLine
 62
7
  6
BYLAYER
 10
34.5631834025
 20
29.6146515046
 11
33.485928745
 21
28.9927019506
  0
LINE
  5
243
100
AcDbEntity
  8
0
100
AcDbLine
 62
7
  6
BYLAYER
 10
33.1388845806
 20
28.4966424974
 11
35.6388949891
 21
29.940065448
  0
LINE
  5
244
100
AcDbEntity
  8
0
100
AcDbLine
 62
7
  6
BYLAYER
 10
34.5377351939
 20
29.0086008089
 11
34.6903256592
 21
29.0966984292
  0
LINE
  5
245
100
AcDbEntity
  8
0
100
AcDbLine
 62
7
  6
BYLAYER
 10
34.6084742731
 20
28.3008410818
 11
35.4743211059
 21
28.8007349998
  0
LINE
  5
246
100
AcDbEntity
  8
0
100
AcDbLine
 62
7
  6
BYLAYER
 10
34.6903174656
 20
28.2973635293
 11
35.5317576935
 21
28.7831663715
  0
LINE
  5
247
100
AcDbEntity
  8
0
100
AcDbLine
 62
7
  6
BYLAYER
 10
34.6084850916
 20
28.3008473278
 11
34.5980608337
 21
28.2929330404
  0
LINE
  5
248
100
AcDbEntity
  8
0
100
AcDbLine
 62
7
  6
BYLAYER
 10
44.8408535813
 20
33.4052439592
 11
44.5519788588
 21
33.238463056
  0
LINE
  5
249
100
AcDbEntity
  8
0
100
AcDbLine
 62
7
  6
BYLAYER
 10
44.0913392828
 20
32.5106347342
 11
43.3192690918
 21
32.0648824624
  0
LINE
  5
24A
100
AcDbEntity
  8
0
100
AcDbLine
 62
7
  6
BYLAYER
 10
38.2273508078
 20
26.8156819882
 11
37.0086747512
 21
26.1120832387
  0
LINE
  5
24B
100
AcDbEntity
  8
0
100
AcDbLine
 62
7
  6
BYLAYER
 10
44.6381390198
 20
33.4491856101
 11
44.4124679487
 21
32.8972601728
  0
LINE
  5
24C
100
AcDbEntity
  8
0
100
AcDbLine
 62
7
  6
BYLAYER
 10
40.5708990398
 20
25.4040846097
 11
40.1927203851
 21
25.0960059575
  0
LINE
  5
24D
100
AcDbEntity
  8
0
100
AcDbLine
 62
7
  6
BYLAYER
 10
42.4900741331
 20
24.657956496
 11
41.0758664587
 21
23.8414681882
  0
LINE
  5
24E
100
AcDbEntity
  8
0
100
AcDbLine
 62
7
  6
BYLAYER
 10
44.50556321
 20
33.4262066174
 11
44.4124679487
 21
32.8972601728
  0
LINE
  5
24F
100
AcDbEntity
  8
0
100
AcDbLine
 62
7
  6
BYLAYER
 10
44.6381390198
 20
33.4491856101
 11
44.7126152288
 21
33.8723427658
  0
LINE
  5
250
100
AcDbEntity
  8
0
100
AcDbLine
 62
7
  6
BYLAYER
 10
45.172232723
 20
34.1377014658
 11
45.097756514
 21
33.7145443101
  0
LINE
  5
251
100
AcDbEntity
  8
0
100
AcDbLine
 62
7
  6
BYLAYER
 10
45.2768315695
 20
34.363081188
 11
45.2117506679
 21
33.9933777036
  0
LINE
  5
252
100
AcDbEntity
  8
0
100
AcDbLine
 62
7
  6
BYLAYER
 10
45.2117613609
 20
33.9933668225
 11
45.097756514
 21
33.7145443101
  0
ARC
  5
253
100
AcDbEntity
  8
0
100
AcDbCircle
 62
7
  6
BYLAYER
 10
80.9540745543
 20
-228.4228905291
 40
262.5032086022
100
AcDbArc
 50
100.4165472598
 51
100.5688479989
  0
ARC
  5
254
100
AcDbEntity
  8
0
100
AcDbCircle
 62
7
  6
BYLAYER
 10
-66.1251703427
 20
113.8892455142
 40
132.1109047816
100
AcDbArc
 50
319.6370792259
 51
319.9864017862
  0
ARC
  5
255
100
AcDbEntity
  8
0
100
AcDbCircle
 62
7
  6
BYLAYER
 10
55.9264046661
 20
-91.7472889394
 40
123.5550248077
100
AcDbArc
 50
99.9328636474
 51
100.4310198735
  0
ARC
  5
256
100
AcDbEntity
  8
0
100
AcDbCircle
 62
7
  6
BYLAYER
 10
5.75125553
 20
94.6112135292
 40
71.2433727029
100
AcDbArc
 50
293.8314515529
 51
294.8041670369
  0
ARC
  5
257
100
AcDbEntity
  8
0
100
AcDbCircle
 62
7
  6
BYLAYER
 10
73.8861559476
 20
-24.3407473818
 40
66.4022283057
100
AcDbArc
 50
125.1689609
 51
126.275461132
  0
ARC
  5
258
100
AcDbEntity
  8
0
100
AcDbCircle
 62
7
  6
BYLAYER
 10
73.9331936277
 20
12.1492730632
 40
42.5170106969
100
AcDbArc
 50
157.7580390069
 51
157.9108384085
  0
ARC
  5
259
100
AcDbEntity
  8
0
100
AcDbCircle
 62
7
  6
BYLAYER
 10
70.3442896732
 20
12.7571740391
 40
39.9916019886
100
AcDbArc
 50
156.4195552071
 51
156.5815284209
  0
ARC
  5
25A
100
AcDbEntity
  8
0
100
AcDbCircle
 62
7
  6
BYLAYER
 10
41.1512410044
 20
36.1423025545
 40
9.7254373393
100
AcDbArc
 50
219.5007382675
 51
219.9164317241
  0
ARC
  5
25B
100
AcDbEntity
  8
0
100
AcDbCircle
 62
7
  6
BYLAYER
 10
41.7171183612
 20
35.1990071717
 40
9.2030102889
100
AcDbArc
 50
218.7212195868
 51
219.1450361252
  0
ARC
  5
25C
100
AcDbEntity
  8
0
100
AcDbCircle
 62
7
  6
BYLAYER
 10
41.1358007129
 20
32.6986363043
 40
7.8836696008
100
AcDbArc
 50
213.9760411839
 51
214.1942910203
  0
ARC
  5
25D
100
AcDbEntity
  8
0
100
AcDbCircle
 62
7
  6
BYLAYER
 10
41.1214778199
 20
32.6888613832
 40
7.8663290971
100
AcDbArc
 50
214.1940308831
 51
215.0814138404
  0
ARC
  5
25E
100
AcDbEntity
  8
0
100
AcDbCircle
 62
7
  6
BYLAYER
 10
40.4883409918
 20
33.0827345095
 40
7.7376941115
100
AcDbArc
 50
219.7226264558
 51
231.19370013
  0
ARC
  5
25F
100
AcDbEntity
  8
0
100
AcDbCircle
 62
7
  6
BYLAYER
 10
40.6377822019
 20
33.2555725355
 40
7.7304067499
100
AcDbArc
 50
204.9086339776
 51
205.2664681762
  0
ARC
  5
260
100
AcDbEntity
  8
0
100
AcDbCircle
 62
7
  6
BYLAYER
 10
40.7656680764
 20
32.5630007439
 40
7.7175044878
100
AcDbArc
 50
188.7885697029
 51
201.0703216592
  0
ARC
  5
261
100
AcDbEntity
  8
0
100
AcDbCircle
 62
7
  6
BYLAYER
 10
15.9400947921
 20
38.9310374234
 40
7.0160056349
100
AcDbArc
 50
202.4218730833
 51
203.1783929596
  0
ARC
  5
262
100
AcDbEntity
  8
0
100
AcDbCircle
 62
7
  6
BYLAYER
 10
38.6315128081
 20
31.6678188959
 40
6.5
100
AcDbArc
 50
194.882299393
 51
225.117793544
  0
ARC
  5
263
100
AcDbEntity
  8
0
100
AcDbCircle
 62
7
  6
BYLAYER
 10
10.0399326737
 20
36.6956158865
 40
3.924542743
100
AcDbArc
 50
59.9970308473
 51
61.0150222171
  0
ARC
  5
264
100
AcDbEntity
  8
0
100
AcDbCircle
 62
7
  6
BYLAYER
 10
36.0824947996
 20
30.0213551491
 40
2.2901339855
100
AcDbArc
 50
227.5824889032
 51
229.3968583174
  0
ARC
  5
265
100
AcDbEntity
  8
0
100
AcDbCircle
 62
7
  6
BYLAYER
 10
36.0468972477
 20
29.9799752816
 40
2.2355494399
100
AcDbArc
 50
229.4833185095
 51
229.8423161456
  0
ARC
  5
266
100
AcDbEntity
  8
0
100
AcDbCircle
 62
7
  6
BYLAYER
 10
36.0347943212
 20
29.9656352813
 40
2.2167846741
100
AcDbArc
 50
229.8423720396
 51
230.1580533358
  0
ARC
  5
267
100
AcDbEntity
  8
0
100
AcDbCircle
 62
7
  6
BYLAYER
 10
33.3964658399
 20
30.0188323714
 40
0.2850052047
100
AcDbArc
 50
306.0435267231
 51
315.3340031518
  0
SPLINE
  5
268
100
AcDbEntity
  8
0
100
AcDbSpline
 62
7
  6
BYLAYER
 70
0
 71
3
 72
17
 73
13
 74
0
 42
0.0000001
 43
0.0000001
 44
0.0000000001
 40
0.0
 40
0.0
 40
0.0
 40
0.0
 40
0.0539146729
 40
0.1080880479
 40
0.1627720726
 40
0.21820714
 40
0.3321235061
 40
0.451458811
 40
0.5773541646
 40
0.7105543844
 40
0.8514217017
 40
1.0
 40
1.0
 40
1.0
 40
1.0
 10
9.9039897966
 20
40.1757660801
 30
0.0
 10
9.8702250302
 20
40.1562718986
 30
0.0
 10
9.804164127
 20
40.1142842847
 30
0.0
 10
9.7104238464
 20
40.0428775317
 30
0.0
 10
9.6221479746
 20
39.9631515333
 30
0.0
 10
9.5110586496
 20
39.8450168313
 30
0.0
 10
9.3867349807
 20
39.6761964255
 30
0.0
 10
9.2644053968
 20
39.4461836127
 30
0.0
 10
9.1684196546
 20
39.1891499204
 30
0.0
 10
9.099551605
 20
38.9076250231
 30
0.0
 10
9.0583047452
 20
38.6042999037
 30
0.0
 10
9.049652881
 20
38.3948431419
 30
0.0
 10
9.049652881
 20
38.287399185
 30
0.0
  0
SPLINE
  5
269
100
AcDbEntity
  8
0
100
AcDbSpline
 62
7
  6
BYLAYER
 70
0
 71
3
 72
30
 73
26
 74
0
 42
0.0000001
 43
0.0000001
 44
0.0000000001
 40
0.0
 40
0.0
 40
0.0
 40
0.0
 40
0.0623712401
 40
0.1286969884
 40
0.1982748051
 40
0.2702363536
 40
0.3435985292
 40
0.4173154447
 40
0.4903258436
 40
0.5615990842
 40
0.6301831363
 40
0.6632160335
 40
0.6952829092
 40
0.7263118524
 40
0.7562473459
 40
0.785051985
 40
0.8127103802
 40
0.8392308033
 40
0.8646484579
 40
0.8890300644
 40
0.9124747424
 40
0.9351148463
 40
0.9571158432
 40
0.9786720561
 40
1.0
 40
1.0
 40
1.0
 40
1.0
 10
9.049652881
 20
38.287399185
 30
0.0
 10
9.049652881
 20
38.116267217
 30
0.0
 10
9.0728365145
 20
37.7629172279
 30
0.0
 10
9.1682376091
 20
37.2264069992
 30
0.0
 10
9.323337277
 20
36.6766587218
 30
0.0
 10
9.534821839
 20
36.1254290566
 30
0.0
 10
9.7981892839
 20
35.5843972902
 30
0.0
 10
10.1078218748
 20
35.0651106557
 30
0.0
 10
10.457124631
 20
34.5786338108
 30
0.0
 10
10.8386218988
 20
34.1353762842
 30
0.0
 10
11.1809033911
 20
33.8057196557
 30
0.0
 10
11.4642254298
 20
33.5725270223
 30
0.0
 10
11.6768121752
 20
33.4161667819
 30
0.0
 10
11.8909820085
 20
33.2770107713
 30
0.0
 10
12.1055973775
 20
33.1558065612
 30
0.0
 10
12.3195153205
 20
33.0532112808
 30
0.0
 10
12.5316002812
 20
32.9697863342
 30
0.0
 10
12.7407271105
 20
32.9059975621
 30
0.0
 10
12.9457870013
 20
32.8622138891
 30
0.0
 10
13.1456903617
 20
32.8387084295
 30
0.0
 10
13.3393670014
 20
32.8356582633
 30
0.0
 10
13.5257565648
 20
32.8531387837
 30
0.0
 10
13.7038214879
 20
32.8911213091
 30
0.0
 10
13.8724986203
 20
32.9494281206
 30
0.0
 10
13.9782924453
 20
33.0017865463
 30
0.0
 10
14.0289711979
 20
33.0310460647
 30
0.0
  0
SPLINE
  5
26A
100
AcDbEntity
  8
0
100
AcDbSpline
 62
7
  6
BYLAYER
 70
0
 71
3
 72
17
 73
13
 74
0
 42
0.0000001
 43
0.0000001
 44
0.0000000001
 40
0.0
 40
0.0
 40
0.0
 40
0.0
 40
0.0539146729
 40
0.1080880479
 40
0.1627720726
 40
0.21820714
 40
0.3321235061
 40
0.451458811
 40
0.5773541646
 40
0.7105543844
 40
0.8514217017
 40
1.0
 40
1.0
 40
1.0
 40
1.0
 10
14.0289711979
 20
33.0310460647
 30
0.0
 10
14.0627359643
 20
33.0505402462
 30
0.0
 10
14.1287968675
 20
33.0925278601
 30
0.0
 10
14.2225371481
 20
33.163934613
 30
0.0
 10
14.3108130199
 20
33.2436606115
 30
0.0
 10
14.4219023449
 20
33.3617953135
 30
0.0
 10
14.5462260139
 20
33.5306157193
 30
0.0
 10
14.6685555977
 20
33.7606285321
 30
0.0
 10
14.7645413399
 20
34.0176622245
 30
0.0
 10
14.8334093895
 20
34.2991871218
 30
0.0
 10
14.8746562493
 20
34.6025122413
 30
0.0
 10
14.8833081135
 20
34.811969003
 30
0.0
 10
14.8833081135
 20
34.91941296
 30
0.0
  0
SPLINE
  5
26B
100
AcDbEntity
  8
0
100
AcDbSpline
 62
7
  6
BYLAYER
 70
0
 71
3
 72
30
 73
26
 74
0
 42
0.0000001
 43
0.0000001
 44
0.0000000001
 40
0.0
 40
0.0
 40
0.0
 40
0.0
 40
0.0665312163
 40
0.1383199063
 40
0.2138828779
 40
0.2914107878
 40
0.3689397671
 40
0.4445024421
 40
0.5162886392
 40
0.5828189862
 40
0.6431472297
 40
0.6709411021
 40
0.6972100473
 40
0.7221114246
 40
0.7458811672
 40
0.7688403809
 40
0.791374188
 40
0.8139080893
 40
0.8368672032
 40
0.8606387352
 40
0.885537137
 40
0.9118037983
 40
0.939607504
 40
0.969027733
 40
1.0
 40
1.0
 40
1.0
 40
1.0
 10
11.0896658512
 20
36.91366823
 30
0.0
 10
11.0897598655
 20
36.8577732178
 30
0.0
 10
11.0998688187
 20
36.7414589721
 30
0.0
 10
11.140722783
 20
36.5659793209
 30
0.0
 10
11.2061025788
 20
36.3882418169
 30
0.0
 10
11.2936053204
 20
36.2149152351
 30
0.0
 10
11.3999633308
 20
36.0524710341
 30
0.0
 10
11.5211854959
 20
35.9069876603
 30
0.0
 10
11.652797348
 20
35.7838779425
 30
0.0
 10
11.7899321719
 20
35.6877230675
 30
0.0
 10
11.9080421215
 20
35.6315295328
 30
0.0
 10
12.000477171
 20
35.6045613913
 30
0.0
 10
12.066075255
 20
35.5935665777
 30
0.0
 10
12.1291973321
 20
35.5913624522
 30
0.0
 10
12.189237113
 20
35.5980650235
 30
0.0
 10
12.2455737855
 20
35.613641933
 30
0.0
 10
12.2975846139
 20
35.6379931561
 30
0.0
 10
12.3446799683
 20
35.6708578372
 30
0.0
 10
12.3863418104
 20
35.7118585833
 30
0.0
 10
12.4221500674
 20
35.7605125341
 30
0.0
 10
12.4518274075
 20
35.8162628292
 30
0.0
 10
12.4751107159
 20
35.8785700342
 30
0.0
 10
12.4917962738
 20
35.9468512586
 30
0.0
 10
12.5017103622
 20
36.0203987255
 30
0.0
 10
12.5038429949
 20
36.071165922
 30
0.0
 10
12.5038853015
 20
36.0971867209
 30
0.0
  0
SPLINE
  5
26C
100
AcDbEntity
  8
0
100
AcDbSpline
 62
7
  6
BYLAYER
 70
0
 71
3
 72
30
 73
26
 74
0
 42
0.0000001
 43
0.0000001
 44
0.0000000001
 40
0.0
 40
0.0
 40
0.0
 40
0.0
 40
0.0665312163
 40
0.1383199063
 40
0.2138828779
 40
0.2914107878
 40
0.3689397671
 40
0.4445024421
 40
0.5162886392
 40
0.5828189862
 40
0.6431472297
 40
0.6709411021
 40
0.6972100473
 40
0.7221114246
 40
0.7458811672
 40
0.7688403809
 40
0.791374188
 40
0.8139080893
 40
0.8368672032
 40
0.8606387352
 40
0.885537137
 40
0.9118037983
 40
0.939607504
 40
0.969027733
 40
1.0
 40
1.0
 40
1.0
 40
1.0
 10
12.5038853015
 20
36.0971867209
 30
0.0
 10
12.5037912871
 20
36.1530817331
 30
0.0
 10
12.4936823339
 20
36.2693959788
 30
0.0
 10
12.4528283696
 20
36.4448756301
 30
0.0
 10
12.3874485739
 20
36.622613134
 30
0.0
 10
12.2999458322
 20
36.7959397158
 30
0.0
 10
12.1935878218
 20
36.9583839168
 30
0.0
 10
12.0723656567
 20
37.1038672906
 30
0.0
 10
11.9407538046
 20
37.2269770084
 30
0.0
 10
11.8036189807
 20
37.3231318834
 30
0.0
 10
11.6855090311
 20
37.3793254181
 30
0.0
 10
11.5930739816
 20
37.4062935596
 30
0.0
 10
11.5274758976
 20
37.4172883732
 30
0.0
 10
11.4643538205
 20
37.4194924987
 30
0.0
 10
11.4043140396
 20
37.4127899274
 30
0.0
 10
11.3479773672
 20
37.3972130179
 30
0.0
 10
11.2959665387
 20
37.3728617948
 30
0.0
 10
11.2488711843
 20
37.3399971137
 30
0.0
 10
11.2072093423
 20
37.2989963676
 30
0.0
 10
11.1714010852
 20
37.2503424168
 30
0.0
 10
11.1417237451
 20
37.1945921217
 30
0.0
 10
11.1184404368
 20
37.1322849167
 30
0.0
 10
11.1017548789
 20
37.0640036923
 30
0.0
 10
11.0918407904
 20
36.9904562254
 30
0.0
 10
11.0897081577
 20
36.9396890289
 30
0.0
 10
11.0896658512
 20
36.91366823
 30
0.0
  0
SPLINE
  5
26D
100
AcDbEntity
  8
0
100
AcDbSpline
 62
7
  6
BYLAYER
 70
0
 71
3
 72
30
 73
26
 74
0
 42
0.0000001
 43
0.0000001
 44
0.0000000001
 40
0.0
 40
0.0
 40
0.0
 40
0.0
 40
0.0623712401
 40
0.1286969884
 40
0.1982748051
 40
0.2702363536
 40
0.3435985292
 40
0.4173154447
 40
0.4903258436
 40
0.5615990842
 40
0.6301831363
 40
0.6632160335
 40
0.6952829092
 40
0.7263118524
 40
0.7562473459
 40
0.785051985
 40
0.8127103802
 40
0.8392308033
 40
0.8646484579
 40
0.8890300644
 40
0.9124747424
 40
0.9351148463
 40
0.9571158432
 40
0.9786720561
 40
1.0
 40
1.0
 40
1.0
 40
1.0
 10
14.8833081135
 20
34.91941296
 30
0.0
 10
14.8833081135
 20
35.090544928
 30
0.0
 10
14.8601244799
 20
35.443894917
 30
0.0
 10
14.7647233853
 20
35.9804051458
 30
0.0
 10
14.6096237174
 20
36.5301534232
 30
0.0
 10
14.3981391554
 20
37.0813830884
 30
0.0
 10
14.1347717105
 20
37.6224148547
 30
0.0
 10
13.8251391196
 20
38.1417014892
 30
0.0
 10
13.4758363633
 20
38.6281783341
 30
0.0
 10
13.0943390956
 20
39.0714358607
 30
0.0
 10
12.7520576033
 20
39.4010924891
 30
0.0
 10
12.4687355646
 20
39.6342851225
 30
0.0
 10
12.2561488192
 20
39.7906453629
 30
0.0
 10
12.0419789859
 20
39.9298013735
 30
0.0
 10
11.8273636169
 20
40.0510055836
 30
0.0
 10
11.6134456739
 20
40.153600864
 30
0.0
 10
11.4013607132
 20
40.2370258106
 30
0.0
 10
11.1922338839
 20
40.3008145827
 30
0.0
 10
10.9871739931
 20
40.3445982557
 30
0.0
 10
10.7872706328
 20
40.3681037152
 30
0.0
 10
10.593593993
 20
40.3711538815
 30
0.0
 10
10.4072044296
 20
40.3536733611
 30
0.0
 10
10.2291395065
 20
40.3156908357
 30
0.0
 10
10.0604623742
 20
40.2573840242
 30
0.0
 10
9.9546685492
 20
40.2050255985
 30
0.0
 10
9.9039897966
 20
40.1757660801
 30
0.0
  0
SPLINE
  5
26E
100
AcDbEntity
  8
0
100
AcDbSpline
 62
7
  6
BYLAYER
 70
0
 71
3
 72
18
 73
14
 74
0
 42
0.0000001
 43
0.0000001
 44
0.0000000001
 40
0.0
 40
0.0
 40
0.0
 40
0.0
 40
0.1502681259
 40
0.291804762
 40
0.4246855784
 40
0.5495441896
 40
0.667517762
 40
0.7244928703
 40
0.7804370641
 40
0.8356414067
 40
0.8904192453
 40
0.9450958741
 40
1.0
 40
1.0
 40
1.0
 40
1.0
 10
36.6552272248
 20
25.2195509819
 30
0.0
 10
36.8186641645
 20
25.1251927555
 30
0.0
 10
37.1447683178
 20
24.9564205971
 30
0.0
 10
37.6427655847
 20
24.7624397991
 30
0.0
 10
38.1298383857
 20
24.6375007106
 30
0.0
 10
38.6001881897
 20
24.5834031101
 30
0.0
 10
38.9782720921
 20
24.5986678983
 30
0.0
 10
39.2643548921
 20
24.6479909284
 30
0.0
 10
39.4686928823
 20
24.7023439439
 30
0.0
 10
39.6645561631
 20
24.7743664253
 30
0.0
 10
39.8513391878
 20
24.8638399074
 30
0.0
 10
40.0284386115
 20
24.9704531851
 30
0.0
 10
40.1392581455
 20
25.052459807
 30
0.0
 10
40.1927172702
 20
25.0960107395
 30
0.0
  0
SPLINE
  5
26F
100
AcDbEntity
  8
0
100
AcDbSpline
 62
7
  6
BYLAYER
 70
0
 71
3
 72
10
 73
6
 74
0
 42
0.0000001
 43
0.0000001
 44
0.0000000001
 40
0.0
 40
0.0
 40
0.0
 40
0.0
 40
0.2398288866
 40
0.486776931
 40
1.0
 40
1.0
 40
1.0
 40
1.0
 10
36.6552272248
 20
25.2195509819
 30
0.0
 10
36.559558771
 20
25.27478394
 30
0.0
 10
36.368380051
 20
25.3921697874
 30
0.0
 10
35.9882964467
 20
25.6525838127
 30
0.0
 10
35.7139225945
 20
25.8711462568
 30
0.0
 10
35.5353473901
 20
26.0260462964
 30
0.0
  0
SPLINE
  5
270
100
AcDbEntity
  8
0
100
AcDbSpline
 62
7
  6
BYLAYER
 70
0
 71
3
 72
11
 73
7
 74
0
 42
0.0000001
 43
0.0000001
 44
0.0000000001
 40
0.0
 40
0.0
 40
0.0
 40
0.0
 40
0.2666132605
 40
0.5227067984
 40
0.7673648484
 40
1.0
 40
1.0
 40
1.0
 40
1.0
 10
32.1992885467
 20
31.7982346205
 30
0.0
 10
32.1635529778
 20
31.9820280072
 30
0.0
 10
32.1054416361
 20
32.3448361917
 30
0.0
 10
32.0590879495
 20
32.8822483478
 30
0.0
 10
32.0556198759
 20
33.3978309017
 30
0.0
 10
32.0826693767
 20
33.7324980126
 30
0.0
 10
32.1039186216
 20
33.8944835705
 30
0.0
  0
SPLINE
  5
271
100
AcDbEntity
  8
0
100
AcDbSpline
 62
7
  6
BYLAYER
 70
0
 71
3
 72
15
 73
11
 74
0
 42
0.0000001
 43
0.0000001
 44
0.0000000001
 40
0.0
 40
0.0
 40
0.0
 40
0.0
 40
0.1451555727
 40
0.2828073069
 40
0.4134090996
 40
0.5377535396
 40
0.6569832094
 40
0.7725762056
 40
0.8862817195
 40
1.0
 40
1.0
 40
1.0
 40
1.0
 10
32.1039186216
 20
33.8944835705
 30
0.0
 10
32.1231234357
 20
34.0408841852
 30
0.0
 10
32.1734282404
 20
34.3246682743
 30
0.0
 10
32.2891286642
 20
34.7297905601
 30
0.0
 10
32.4422801292
 20
35.0996676935
 30
0.0
 10
32.6317859131
 20
35.4310513086
 30
0.0
 10
32.8562659233
 20
35.7209275124
 30
0.0
 10
33.11397234
 20
35.9664845243
 30
0.0
 10
33.4025125967
 20
36.1652070199
 30
0.0
 10
33.6126704615
 20
36.2646556486
 30
0.0
 10
33.7207837816
 20
36.3057958525
 30
0.0
  0
SPLINE
  5
272
100
AcDbEntity
  8
0
100
AcDbSpline
 62
7
  6
BYLAYER
 70
0
 71
3
 72
15
 73
11
 74
0
 42
0.0000001
 43
0.0000001
 44
0.0000000001
 40
0.0
 40
0.0
 40
0.0
 40
0.0
 40
0.1077479001
 40
0.2186055943
 40
0.3338082131
 40
0.4543365879
 40
0.5808886299
 40
0.7139132524
 40
0.8536506029
 40
1.0
 40
1.0
 40
1.0
 40
1.0
 10
34.1766779429
 20
36.4792664956
 30
0.0
 10
34.2784594445
 20
36.5179972618
 30
0.0
 10
34.4911301631
 20
36.5812075974
 30
0.0
 10
34.8258417818
 20
36.6308925508
 30
0.0
 10
35.1770517671
 20
36.6362965935
 30
0.0
 10
35.5419712493
 20
36.5975516669
 30
0.0
 10
35.9179273498
 20
36.5151812393
 30
0.0
 10
36.302208218
 20
36.3898709406
 30
0.0
 10
36.6919455178
 20
36.2226481484
 30
0.0
 10
36.9477843313
 20
36.0871743352
 30
0.0
 10
37.0758843662
 20
36.0132174187
 30
0.0
  0
SPLINE
  5
273
100
AcDbEntity
  8
0
100
AcDbSpline
 62
7
  6
BYLAYER
 70
0
 71
3
 72
32
 73
28
 74
0
 42
0.0000001
 43
0.0000001
 44
0.0000000001
 40
0.0
 40
0.0
 40
0.0
 40
0.0
 40
0.0213656425
 40
0.0431963465
 40
0.065663936
 40
0.0889148188
 40
0.113065329
 40
0.1382035983
 40
0.1643878883
 40
0.1916515119
 40
0.2200022316
 40
0.2494278403
 40
0.2798957316
 40
0.3113579661
 40
0.3769786995
 40
0.4456686775
 40
0.5166348994
 40
0.588984617
 40
0.6617676985
 40
0.7340165675
 40
0.8047850481
 40
0.8393435532
 40
0.8732075315
 40
0.9062817151
 40
0.9384873634
 40
0.969753323
 40
1.0
 40
1.0
 40
1.0
 40
1.0
 10
40.5708959623
 20
25.4040893343
 30
0.0
 10
40.6397529913
 20
25.4601843011
 30
0.0
 10
40.7721969866
 20
25.5821736464
 30
0.0
 10
40.9504017826
 20
25.789666604
 30
0.0
 10
41.109017768
 20
26.0220318612
 30
0.0
 10
41.2472053958
 20
26.2780362354
 30
0.0
 10
41.3644020132
 20
26.5563363111
 30
0.0
 10
41.4600237643
 20
26.8555419606
 30
0.0
 10
41.5337014041
 20
27.1741438051
 30
0.0
 10
41.5850558815
 20
27.5105719415
 30
0.0
 10
41.6139103969
 20
27.8631589282
 30
0.0
 10
41.6200968512
 20
28.2301624934
 30
0.0
 10
41.6036400933
 20
28.6097792163
 30
0.0
 10
41.5508310402
 20
29.1375886231
 30
0.0
 10
41.4272109754
 20
29.8168140304
 30
0.0
 10
41.1951777954
 20
30.639142844
 30
0.0
 10
40.8819414734
 20
31.464038602
 30
0.0
 10
40.4936884949
 20
32.2752112749
 30
0.0
 10
40.0380546606
 20
33.0567198609
 30
0.0
 10
39.5240500323
 20
33.7931073737
 30
0.0
 10
39.0517156163
 20
34.3616772086
 30
0.0
 10
38.652866911
 20
34.7810704988
 30
0.0
 10
38.348210302
 20
35.073178763
 30
0.0
 10
38.0371976506
 20
35.3438374429
 30
0.0
 10
37.7213536498
 20
35.5917397363
 30
0.0
 10
37.4022752895
 20
35.8155743752
 30
0.0
 10
37.1847714785
 20
35.9503528373
 30
0.0
 10
37.0758843662
 20
36.0132174187
 30
0.0
  0
SPLINE
  5
274
100
AcDbEntity
  8
0
100
AcDbSpline
 62
7
  6
BYLAYER
 70
0
 71
3
 72
32
 73
28
 74
0
 42
0.0000001
 43
0.0000001
 44
0.0000000001
 40
0.0
 40
0.0
 40
0.0
 40
0.0
 40
0.0213656425
 40
0.0431963465
 40
0.065663936
 40
0.0889148188
 40
0.113065329
 40
0.1382035983
 40
0.1643878883
 40
0.1916515119
 40
0.2200022316
 40
0.2494278403
 40
0.2798957316
 40
0.3113579661
 40
0.3769786995
 40
0.4456686775
 40
0.5166348994
 40
0.588984617
 40
0.6617676985
 40
0.7340165675
 40
0.8047850481
 40
0.8393435532
 40
0.8732075315
 40
0.9062817151
 40
0.9384873634
 40
0.969753323
 40
1.0
 40
1.0
 40
1.0
 40
1.0
 10
40.1927172702
 20
25.0960107395
 30
0.0
 10
40.2624111892
 20
25.1527874858
 30
0.0
 10
40.3964649117
 20
25.2762594922
 30
0.0
 10
40.5768356128
 20
25.4862743239
 30
0.0
 10
40.7373794204
 20
25.7214637537
 30
0.0
 10
40.8772465838
 20
25.9805796109
 30
0.0
 10
40.9958676115
 20
26.2622621519
 30
0.0
 10
41.0926515515
 20
26.5651043536
 30
0.0
 10
41.167224671
 20
26.887578492
 30
0.0
 10
41.2192033118
 20
27.2280955836
 30
0.0
 10
41.2484085257
 20
27.5849679204
 30
0.0
 10
41.2546701703
 20
27.9564320552
 30
0.0
 10
41.2380133966
 20
28.3406626482
 30
0.0
 10
41.1845625011
 20
28.8748870624
 30
0.0
 10
41.0594399552
 20
29.5623677905
 30
0.0
 10
40.8245866387
 20
30.394691207
 30
0.0
 10
40.5075432355
 20
31.2296127666
 30
0.0
 10
40.1145714216
 20
32.0506444503
 30
0.0
 10
39.6533998035
 20
32.8416515092
 30
0.0
 10
39.1331479513
 20
33.5869890924
 30
0.0
 10
38.6550727722
 20
34.1624693378
 30
0.0
 10
38.2513764508
 20
34.5869599434
 30
0.0
 10
37.9430170385
 20
34.882618498
 30
0.0
 10
37.6282243324
 20
35.1565667696
 30
0.0
 10
37.3085415566
 20
35.4074820731
 30
0.0
 10
36.9855851107
 20
35.6340372031
 30
0.0
 10
36.7654377535
 20
35.7704537657
 30
0.0
 10
36.6552272248
 20
35.8340824046
 30
0.0
  0
SPLINE
  5
275
100
AcDbEntity
  8
0
100
AcDbSpline
 62
7
  6
BYLAYER
 70
0
 71
3
 72
15
 73
11
 74
0
 42
0.0000001
 43
0.0000001
 44
0.0000000001
 40
0.0
 40
0.0
 40
0.0
 40
0.0
 40
0.1077479001
 40
0.2186055943
 40
0.3338082131
 40
0.4543365879
 40
0.5808886299
 40
0.7139132524
 40
0.8536506029
 40
1.0
 40
1.0
 40
1.0
 40
1.0
 10
33.7207837816
 20
36.3057958525
 30
0.0
 10
33.8238023378
 20
36.3449973533
 30
0.0
 10
34.0390578611
 20
36.4089759488
 30
0.0
 10
34.3778375723
 20
36.4592647741
 30
0.0
 10
34.7333161717
 20
36.4647344977
 30
0.0
 10
35.1026708934
 20
36.4255186644
 30
0.0
 10
35.4831963728
 20
36.3421471048
 30
0.0
 10
35.8721477993
 20
36.2153137819
 30
0.0
 10
36.266621975
 20
36.0460585601
 30
0.0
 10
36.5255702592
 20
35.9089381952
 30
0.0
 10
36.6552272248
 20
35.8340824046
 30
0.0
  0
SPLINE
  5
276
100
AcDbEntity
  8
0
100
AcDbSpline
 62
7
  6
BYLAYER
 70
0
 71
3
 72
15
 73
11
 74
0
 42
0.0000001
 43
0.0000001
 44
0.0000000001
 40
0.0
 40
0.0
 40
0.0
 40
0.0
 40
0.1485793398
 40
0.2895082608
 40
0.422723481
 40
0.5486405212
 40
0.6680008704
 40
0.781938221
 40
0.8919868556
 40
1.0
 40
1.0
 40
1.0
 40
1.0
 10
39.0557986622
 20
28.6468257547
 30
0.0
 10
39.0557986622
 20
28.5426567055
 30
0.0
 10
39.0473949931
 20
28.3395426697
 30
0.0
 10
39.0074205829
 20
28.0454086576
 30
0.0
 10
38.9406300584
 20
27.7723981862
 30
0.0
 10
38.8475522662
 20
27.523168463
 30
0.0
 10
38.7289174288
 20
27.3001067674
 30
0.0
 10
38.5856319025
 20
27.1054968851
 30
0.0
 10
38.419018239
 20
26.9415400049
 30
0.0
 10
38.2929329124
 20
26.8535466007
 30
0.0
 10
38.2273486308
 20
26.81568577
 30
0.0
  0
SPLINE
  5
277
100
AcDbEntity
  8
0
100
AcDbSpline
 62
7
  6
BYLAYER
 70
0
 71
3
 72
19
 73
15
 74
0
 42
0.0000001
 43
0.0000001
 44
0.0000000001
 40
0.0
 40
0.0
 40
0.0
 40
0.0
 40
0.1560424182
 40
0.3038781791
 40
0.4422845589
 40
0.5706086247
 40
0.6310328873
 40
0.6890443145
 40
0.7448010941
 40
0.7985290616
 40
0.8505234211
 40
0.9011459282
 40
0.9508167776
 40
1.0
 40
1.0
 40
1.0
 40
1.0
 10
34.0447777422
 20
27.0621854413
 30
0.0
 10
34.167466081
 20
26.9399998736
 30
0.0
 10
34.417336624
 20
26.7126693206
 30
0.0
 10
34.8126869104
 20
26.4203135086
 30
0.0
 10
35.2122800779
 20
26.1902008199
 30
0.0
 10
35.5492505338
 20
26.0514304338
 30
0.0
 10
35.8132501375
 20
25.9777456125
 30
0.0
 10
36.0033929387
 20
25.9416108418
 30
0.0
 10
36.1886712999
 20
25.9237105747
 30
0.0
 10
36.368170736
 20
25.9241770066
 30
0.0
 10
36.5409767182
 20
25.9430552922
 30
0.0
 10
36.7061992087
 20
25.9803031162
 30
0.0
 10
36.8629271185
 20
26.035752734
 30
0.0
 10
36.9614102052
 20
26.084795574
 30
0.0
 10
37.0086745884
 20
26.1120835206
 30
0.0
  0
SPLINE
  5
278
100
AcDbEntity
  8
0
100
AcDbSpline
 62
7
  6
BYLAYER
 70
0
 71
3
 72
13
 73
9
 74
0
 42
0.0000001
 43
0.0000001
 44
0.0000000001
 40
0.0
 40
0.0
 40
0.0
 40
0.0
 40
0.2772524106
 40
0.5348710798
 40
0.6568836358
 40
0.7747509636
 40
0.8889446805
 40
1.0
 40
1.0
 40
1.0
 40
1.0
 10
34.5369407378
 20
28.1377519415
 30
0.0
 10
34.5584433779
 20
27.9453759696
 30
0.0
 10
34.6208856966
 20
27.5761040167
 30
0.0
 10
34.7579668423
 20
27.1365818834
 30
0.0
 10
34.9003683912
 20
26.819381432
 30
0.0
 10
35.020380266
 20
26.6028869171
 30
0.0
 10
35.1551068242
 20
26.4044099986
 30
0.0
 10
35.2556678972
 20
26.2831045116
 30
0.0
 10
35.308128306
 20
26.2260085695
 30
0.0
  0
SPLINE
  5
279
100
AcDbEntity
  8
0
100
AcDbSpline
 62
7
  6
BYLAYER
 70
0
 71
3
 72
9
 73
5
 74
0
 42
0.0000001
 43
0.0000001
 44
0.0000000001
 40
0.0
 40
0.0
 40
0.0
 40
0.0
 40
0.5037480058
 40
1.0
 40
1.0
 40
1.0
 40
1.0
 10
34.6841759575
 20
28.1677687944
 30
0.0
 10
34.826012048
 20
27.965819385
 30
0.0
 10
35.1266157404
 20
27.577935073
 30
0.0
 10
35.4635927503
 20
27.221102552
 30
0.0
 10
35.6392295213
 20
27.0530139527
 30
0.0
  0
SPLINE
  5
27A
100
AcDbEntity
  8
0
100
AcDbSpline
 62
7
  6
BYLAYER
 70
0
 71
3
 72
9
 73
5
 74
0
 42
0.0000001
 43
0.0000001
 44
0.0000000001
 40
0.0
 40
0.0
 40
0.0
 40
0.0
 40
0.5156234417
 40
1.0
 40
1.0
 40
1.0
 40
1.0
 10
35.8286331709
 20
28.2819225416
 30
0.0
 10
35.8286331709
 20
28.2167038237
 30
0.0
 10
35.8225972143
 20
28.0901163516
 30
0.0
 10
35.8025756361
 20
27.9648765549
 30
0.0
 10
35.7889902781
 20
27.9051353128
 30
0.0
  0
SPLINE
  5
27B
100
AcDbEntity
  8
0
100
AcDbSpline
 62
7
  6
BYLAYER
 70
0
 71
3
 72
10
 73
6
 74
0
 42
0.0000001
 43
0.0000001
 44
0.0000000001
 40
0.0
 40
0.0
 40
0.0
 40
0.0
 40
0.2366083098
 40
0.4827184829
 40
1.0
 40
1.0
 40
1.0
 40
1.0
 10
32.1802448043
 20
31.2091530414
 30
0.0
 10
32.1802448043
 20
31.112503656
 30
0.0
 10
32.1878100957
 20
30.9152536376
 30
0.0
 10
32.2316426119
 20
30.5089188401
 30
0.0
 10
32.2952830923
 20
30.2026066083
 30
0.0
 10
32.349552377
 20
29.9983963515
 30
0.0
  0
SPLINE
  5
27C
100
AcDbEntity
  8
0
100
AcDbSpline
 62
7
  6
BYLAYER
 70
0
 71
3
 72
15
 73
11
 74
0
 42
0.0000001
 43
0.0000001
 44
0.0000000001
 40
0.0
 40
0.0
 40
0.0
 40
0.0
 40
0.1080130275
 40
0.2180624487
 40
0.3320008145
 40
0.4513594926
 40
0.5772799838
 40
0.7105030975
 40
0.8513952776
 40
1.0
 40
1.0
 40
1.0
 40
1.0
 10
33.0086928068
 20
33.0402965513
 30
0.0
 10
32.9431103353
 20
33.0024325035
 30
0.0
 10
32.817018532
 20
32.9144473938
 30
0.0
 10
32.6504119805
 20
32.7504798255
 30
0.0
 10
32.5071236089
 20
32.5558728054
 30
0.0
 10
32.3884818567
 20
32.3328113799
 30
0.0
 10
32.2954113432
 20
32.0835707585
 30
0.0
 10
32.2286298747
 20
31.810576933
 30
0.0
 10
32.1886344584
 20
31.5164475224
 30
0.0
 10
32.1802448043
 20
31.3133400554
 30
0.0
 10
32.1802448043
 20
31.2091530414
 30
0.0
  0
SPLINE
  5
27D
100
AcDbEntity
  8
0
100
AcDbSpline
 62
7
  6
BYLAYER
 70
0
 71
3
 72
27
 73
23
 74
0
 42
0.0000001
 43
0.0000001
 44
0.0000000001
 40
0.0
 40
0.0
 40
0.0
 40
0.0
 40
0.0213299433
 40
0.0428881712
 40
0.0648913104
 40
0.0875335971
 40
0.1109806849
 40
0.1353648427
 40
0.1607853105
 40
0.1873078633
 40
0.2437392583
 40
0.3046803277
 40
0.3697607619
 40
0.4383503079
 40
0.5096287214
 40
0.5826447425
 40
0.6563680196
 40
0.7297369627
 40
0.8017055562
 40
0.8712908354
 40
0.9376231128
 40
1.0
 40
1.0
 40
1.0
 40
1.0
 10
34.2273708923
 20
33.7438917755
 30
0.0
 10
34.2765154642
 20
33.7722622062
 30
0.0
 10
34.3791017576
 20
33.8230371794
 30
0.0
 10
34.5426686659
 20
33.87957645
 30
0.0
 10
34.7153385403
 20
33.9164065751
 30
0.0
 10
34.896081083
 20
33.9333592038
 30
0.0
 10
35.0838908135
 20
33.9303981573
 30
0.0
 10
35.2777382092
 20
33.9076069171
 30
0.0
 10
35.4765900136
 20
33.8651459714
 30
0.0
 10
35.752643959
 20
33.7809345601
 30
0.0
 10
36.1041688679
 20
33.6255772207
 30
0.0
 10
36.5192042155
 20
33.3716511576
 30
0.0
 10
36.9276850987
 20
33.0518657708
 30
0.0
 10
37.3210257021
 20
32.6730433592
 30
0.0
 10
37.6909787598
 20
32.2432005427
 30
0.0
 10
38.0296870058
 20
31.771478901
 30
0.0
 10
38.3299375483
 20
31.2679303461
 30
0.0
 10
38.5853256828
 20
30.7432946392
 30
0.0
 10
38.7904037239
 20
30.2087651038
 30
0.0
 10
38.9408069569
 20
29.6756713992
 30
0.0
 10
39.0333168634
 20
29.1554150452
 30
0.0
 10
39.0557986622
 20
28.8127717107
 30
0.0
 10
39.0557986622
 20
28.6468257547
 30
0.0
  0
SPLINE
  5
27E
100
AcDbEntity
  8
0
100
AcDbSpline
 62
7
  6
BYLAYER
 70
0
 71
3
 72
12
 73
8
 74
0
 42
0.0000001
 43
0.0000001
 44
0.0000000001
 40
0.0
 40
0.0
 40
0.0
 40
0.0
 40
0.0971912978
 40
0.206251712
 40
0.4518949729
 40
0.7207293049
 40
1.0
 40
1.0
 40
1.0
 40
1.0
 10
34.7065111964
 20
29.401742205
 30
0.0
 10
34.7028897957
 20
29.3996513364
 30
0.0
 10
34.6947677378
 20
29.3959633501
 30
0.0
 10
34.6761102847
 20
29.3903661592
 30
0.0
 10
34.6493982636
 20
29.3866651623
 30
0.0
 10
34.6152079495
 20
29.3861533041
 30
0.0
 10
34.5916606853
 20
29.3879419674
 30
0.0
 10
34.5797196996
 20
29.3892792328
 30
0.0
  0
SPLINE
  5
27F
100
AcDbEntity
  8
0
100
AcDbSpline
 62
7
  6
BYLAYER
 70
0
 71
3
 72
10
 73
6
 74
0
 42
0.0000001
 43
0.0000001
 44
0.0000000001
 40
0.0
 40
0.0
 40
0.0
 40
0.0
 40
0.4961423971
 40
0.7472470973
 40
1.0
 40
1.0
 40
1.0
 40
1.0
 10
33.1387534708
 20
31.3838499394
 30
0.0
 10
33.1964848653
 20
31.1477843761
 30
0.0
 10
33.3015666184
 20
30.7963459257
 30
0.0
 10
33.4756765697
 20
30.3383940911
 30
0.0
 10
33.5743104015
 20
30.1120259492
 30
0.0
 10
33.6264535778
 20
29.9997378585
 30
0.0
  0
SPLINE
  5
280
100
AcDbEntity
  8
0
100
AcDbSpline
 62
7
  6
BYLAYER
 70
0
 71
3
 72
11
 73
7
 74
0
 42
0.0000001
 43
0.0000001
 44
0.0000000001
 40
0.0
 40
0.0
 40
0.0
 40
0.0
 40
0.2895061989
 40
0.5460741024
 40
0.777296019
 40
1.0
 40
1.0
 40
1.0
 40
1.0
 10
33.485928745
 20
29.7920510424
 30
0.0
 10
33.4915622029
 20
29.787804747
 30
0.0
 10
33.5029289748
 20
29.7806856167
 30
0.0
 10
33.5210695237
 20
29.7745158786
 30
0.0
 10
33.5387045809
 20
29.774115226
 30
0.0
 10
33.5493840028
 20
29.7779711978
 30
0.0
 10
33.5540847031
 20
29.7806828571
 30
0.0
  0
SPLINE
  5
281
100
AcDbEntity
  8
0
100
AcDbSpline
 62
7
  6
BYLAYER
 70
0
 71
3
 72
11
 73
7
 74
0
 42
0.0000001
 43
0.0000001
 44
0.0000000001
 40
0.0
 40
0.0
 40
0.0
 40
0.0
 40
0.1188590941
 40
0.2394018587
 40
0.6115441306
 40
1.0
 40
1.0
 40
1.0
 40
1.0
 10
32.8065506853
 20
30.4263577523
 30
0.0
 10
32.8303666664
 20
30.3981814875
 30
0.0
 10
32.8792800098
 20
30.3422220804
 30
0.0
 10
33.0083080502
 20
30.2029719615
 30
0.0
 10
33.2062116106
 20
30.0136649313
 30
0.0
 10
33.3896435268
 20
29.8646273349
 30
0.0
 10
33.485928745
 20
29.7920510424
 30
0.0
  0
SPLINE
  5
282
100
AcDbEntity
  8
0
100
AcDbSpline
 62
7
  6
BYLAYER
 70
0
 71
3
 72
9
 73
5
 74
0
 42
0.0000001
 43
0.0000001
 44
0.0000000001
 40
0.0
 40
0.0
 40
0.0
 40
0.0
 40
0.5124637592
 40
1.0
 40
1.0
 40
1.0
 40
1.0
 10
35.7889902781
 20
28.7044844046
 30
0.0
 10
35.801854095
 20
28.6330625992
 30
0.0
 10
35.8214732756
 20
28.4926327283
 30
0.0
 10
35.8286331709
 20
28.3509635201
 30
0.0
 10
35.8286331709
 20
28.2819225416
 30
0.0
  0
SPLINE
  5
283
100
AcDbEntity
  8
0
100
AcDbSpline
 62
7
  6
BYLAYER
 70
0
 71
3
 72
9
 73
5
 74
0
 42
0.0000001
 43
0.0000001
 44
0.0000000001
 40
0.0
 40
0.0
 40
0.0
 40
0.0
 40
0.4908798903
 40
1.0
 40
1.0
 40
1.0
 40
1.0
 10
34.6903174656
 20
29.0967126211
 30
0.0
 10
34.8650040081
 20
29.0194653535
 30
0.0
 10
35.2270904396
 20
28.8759083751
 30
0.0
 10
35.5983119772
 20
28.7582053297
 30
0.0
 10
35.7889902781
 20
28.7044844046
 30
0.0
  0
SPLINE
  5
284
100
AcDbEntity
  8
0
100
AcDbSpline
 62
7
  6
BYLAYER
 70
0
 71
3
 72
11
 73
7
 74
0
 42
0.0000001
 43
0.0000001
 44
0.0000000001
 40
0.0
 40
0.0
 40
0.0
 40
0.0
 40
0.2595940916
 40
0.5172562369
 40
0.7659324003
 40
1.0
 40
1.0
 40
1.0
 40
1.0
 10
34.5980608339
 20
29.1914778577
 30
0.0
 10
34.6029960318
 20
29.1809060541
 30
0.0
 10
34.6146303424
 20
29.1606357669
 30
0.0
 10
34.6365133506
 20
29.1338594491
 30
0.0
 10
34.661801083
 20
29.1119775383
 30
0.0
 10
34.6806963997
 20
29.1009671048
 30
0.0
 10
34.6903174656
 20
29.0967126211
 30
0.0
  0
SPLINE
  5
285
100
AcDbEntity
  8
0
100
AcDbSpline
 62
7
  6
BYLAYER
 70
0
 71
3
 72
11
 73
7
 74
0
 42
0.0000001
 43
0.0000001
 44
0.0000000001
 40
0.0
 40
0.0
 40
0.0
 40
0.0
 40
0.2614903419
 40
0.5168475128
 40
0.7637134066
 40
1.0
 40
1.0
 40
1.0
 40
1.0
 10
35.308128306
 20
32.2923522858
 30
0.0
 10
35.2053252953
 20
32.0553753361
 30
0.0
 10
35.0181854166
 20
31.5798040246
 30
0.0
 10
34.7928997798
 20
30.8590848281
 30
0.0
 10
34.6286761745
 20
30.1475357746
 30
0.0
 10
34.5597988666
 20
29.674528194
 30
0.0
 10
34.5369408311
 20
29.442232987
 30
0.0
  0
SPLINE
  5
286
100
AcDbEntity
  8
0
100
AcDbSpline
 62
7
  6
BYLAYER
 70
0
 71
3
 72
11
 73
7
 74
0
 42
0.0000001
 43
0.0000001
 44
0.0000000001
 40
0.0
 40
0.0
 40
0.0
 40
0.0
 40
0.266205365
 40
0.5190067911
 40
0.7620680974
 40
1.0
 40
1.0
 40
1.0
 40
1.0
 10
44.412468145
 20
32.8972599729
 30
0.0
 10
44.3952921949
 20
32.8552567187
 30
0.0
 10
44.3562985023
 20
32.7754420344
 30
0.0
 10
44.2818621799
 20
32.6683047128
 30
0.0
 10
44.1938480407
 20
32.5785634711
 30
0.0
 10
44.1264649615
 20
32.5309145877
 30
0.0
 10
44.0913374145
 20
32.5106379704
 30
0.0
  0
SPLINE
  5
287
100
AcDbEntity
  8
0
100
AcDbSpline
 62
7
  6
BYLAYER
 70
0
 71
3
 72
9
 73
5
 74
0
 42
0.0000001
 43
0.0000001
 44
0.0000000001
 40
0.0
 40
0.0
 40
0.0
 40
0.0
 40
0.4825265985
 40
1.0
 40
1.0
 40
1.0
 40
1.0
 10
34.5377351939
 20
31.0772485554
 30
0.0
 10
34.5885112306
 20
31.0649973605
 30
0.0
 10
34.6918926198
 20
31.0316096693
 30
0.0
 10
34.7901462337
 20
30.9855427264
 30
0.0
 10
34.8395182732
 20
30.9590813958
 30
0.0
  0
SPLINE
  5
288
100
AcDbEntity
  8
0
100
AcDbSpline
 62
7
  6
BYLAYER
 70
0
 71
3
 72
11
 73
7
 74
0
 42
0.0000001
 43
0.0000001
 44
0.0000000001
 40
0.0
 40
0.0
 40
0.0
 40
0.0
 40
0.266205365
 40
0.5190067911
 40
0.7620680974
 40
1.0
 40
1.0
 40
1.0
 40
1.0
 10
45.097756671
 20
33.7145441502
 30
0.0
 10
45.084015911
 20
33.6809415469
 30
0.0
 10
45.0528209569
 20
33.6170897994
 30
0.0
 10
44.993271899
 20
33.5313799421
 30
0.0
 10
44.9228605876
 20
33.4595869487
 30
0.0
 10
44.8689541243
 20
33.421467842
 30
0.0
 10
44.8408520867
 20
33.4052465482
 30
0.0
  0
SPLINE
  5
289
100
AcDbEntity
  8
0
100
AcDbSpline
 62
7
  6
BYLAYER
 70
0
 71
3
 72
20
 73
16
 74
0
 42
0.0000001
 43
0.0000001
 44
0.0000000001
 40
0.0
 40
0.0
 40
0.0
 40
0.0
 40
0.099170645
 40
0.1541445143
 40
0.2125501124
 40
0.2741049229
 40
0.338401512
 40
0.4049293964
 40
0.4731036641
 40
0.6117318493
 40
0.7490377728
 40
0.8155951251
 40
0.8799301787
 40
0.9415593524
 40
1.0
 40
1.0
 40
1.0
 40
1.0
 10
43.9356450503
 20
36.2036765452
 30
0.0
 10
44.0152642616
 20
36.1928183681
 30
0.0
 10
44.1365127685
 20
36.1552389086
 30
0.0
 10
44.2900263339
 20
36.0769750945
 30
0.0
 10
44.4091696144
 20
35.9996541821
 30
0.0
 10
44.5264397529
 20
35.906963727
 30
0.0
 10
44.6402531278
 20
35.8001921526
 30
0.0
 10
44.7489559267
 20
35.6808818812
 30
0.0
 10
44.8857206089
 20
35.5064671432
 30
0.0
 10
45.033952118
 20
35.2691820261
 30
0.0
 10
45.1476961957
 20
35.014949367
 30
0.0
 10
45.2139580667
 20
34.807790448
 30
0.0
 10
45.2497485683
 20
34.6557692019
 30
0.0
 10
45.271591976
 20
34.5077734392
 30
0.0
 10
45.2768315695
 20
34.4104345993
 30
0.0
 10
45.2768315695
 20
34.363081188
 30
0.0
  0
SPLINE
  5
28A
100
AcDbEntity
  8
0
100
AcDbSpline
 62
7
  6
BYLAYER
 70
0
 71
3
 72
11
 73
7
 74
0
 42
0.0000001
 43
0.0000001
 44
0.0000000001
 40
0.0
 40
0.0
 40
0.0
 40
0.0
 40
0.2379329496
 40
0.480993245
 40
0.7337794062
 40
1.0
 40
1.0
 40
1.0
 40
1.0
 10
43.2408622389
 20
36.1765267979
 30
0.0
 10
43.2689645469
 20
36.1927482479
 30
0.0
 10
43.3289247662
 20
36.2203851153
 30
0.0
 10
43.42630832
 20
36.2454471579
 30
0.0
 10
43.5303076396
 20
36.2541895728
 30
0.0
 10
43.6012025733
 20
36.2492600321
 30
0.0
 10
43.6371757583
 20
36.2443571797
 30
0.0
  0
SPLINE
  5
28B
100
AcDbEntity
  8
0
100
AcDbSpline
 62
7
  6
BYLAYER
 70
0
 71
3
 72
11
 73
7
 74
0
 42
0.0000001
 43
0.0000001
 44
0.0000000001
 40
0.0
 40
0.0
 40
0.0
 40
0.0
 40
0.2379329496
 40
0.480993245
 40
0.7337794062
 40
1.0
 40
1.0
 40
1.0
 40
1.0
 10
42.0913501049
 20
35.9747382826
 30
0.0
 10
42.1264779898
 20
35.995015095
 30
0.0
 10
42.201428264
 20
36.0295611793
 30
0.0
 10
42.3231577062
 20
36.0608887326
 30
0.0
 10
42.4531568556
 20
36.0718167512
 30
0.0
 10
42.5417755229
 20
36.0656548252
 30
0.0
 10
42.5867420041
 20
36.0595262597
 30
0.0
  0
SPLINE
  5
28C
100
AcDbEntity
  8
0
100
AcDbSpline
 62
7
  6
BYLAYER
 70
0
 71
3
 72
9
 73
5
 74
0
 42
0.0000001
 43
0.0000001
 44
0.0000000001
 40
0.0
 40
0.0
 40
0.0
 40
0.0
 40
0.5064670862
 40
1.0
 40
1.0
 40
1.0
 40
1.0
 10
34.6385242557
 20
29.3117585846
 30
0.0
 10
34.6293138222
 20
29.2923779186
 30
0.0
 10
34.6137552789
 20
29.2528404458
 30
0.0
 10
34.6025097615
 20
29.2119090118
 30
0.0
 10
34.5980608339
 20
29.1914778577
 30
0.0
  0
SPLINE
  5
28D
100
AcDbEntity
  8
0
100
AcDbSpline
 62
7
  6
BYLAYER
 70
0
 71
3
 72
12
 73
8
 74
0
 42
0.0000001
 43
0.0000001
 44
0.0000000001
 40
0.0
 40
0.0
 40
0.0
 40
0.0
 40
0.0979308297
 40
0.2070088844
 40
0.4513295213
 40
0.7196548909
 40
1.0
 40
1.0
 40
1.0
 40
1.0
 10
34.7065111964
 20
29.401742205
 30
0.0
 10
34.7032839265
 20
29.3998788936
 30
0.0
 10
34.6968116267
 20
29.395329426
 30
0.0
 10
34.6840517865
 20
29.3837926705
 30
0.0
 10
34.668950655
 20
29.3654307411
 30
0.0
 10
34.6527135112
 20
29.3399506507
 30
0.0
 10
34.643094711
 20
29.3213888627
 30
0.0
 10
34.6385156823
 20
29.3117536348
 30
0.0
  0
SPLINE
  5
28E
100
AcDbEntity
  8
0
100
AcDbSpline
 62
7
  6
BYLAYER
 70
0
 71
3
 72
15
 73
11
 74
0
 42
0.0000001
 43
0.0000001
 44
0.0000000001
 40
0.0
 40
0.0
 40
0.0
 40
0.0
 40
0.1080128375
 40
0.2180619985
 40
0.3319997387
 40
0.451357819
 40
0.5772776605
 40
0.7105008397
 40
0.8513935735
 40
1.0
 40
1.0
 40
1.0
 40
1.0
 10
37.0086745884
 20
26.1120835206
 30
0.0
 10
37.0742570353
 20
26.149947345
 30
0.0
 10
37.2003485803
 20
26.2379323175
 30
0.0
 10
37.3669545376
 20
26.4018993858
 30
0.0
 10
37.5102425056
 20
26.596505382
 30
0.0
 10
37.6288841431
 20
26.8195653778
 30
0.0
 10
37.7219547429
 20
27.0688050849
 30
0.0
 10
37.7887366767
 20
27.3417987713
 30
0.0
 10
37.8287328101
 20
27.6359297377
 30
0.0
 10
37.8371226055
 20
27.8390387962
 30
0.0
 10
37.8371226055
 20
27.9432270052
 30
0.0
  0
SPLINE
  5
28F
100
AcDbEntity
  8
0
100
AcDbSpline
 62
7
  6
BYLAYER
 70
0
 71
3
 72
9
 73
5
 74
0
 42
0.0000001
 43
0.0000001
 44
0.0000000001
 40
0.0
 40
0.0
 40
0.0
 40
0.0
 40
0.5156233422
 40
1.0
 40
1.0
 40
1.0
 40
1.0
 10
32.7669077926
 20
30.0495705234
 30
0.0
 10
32.7669077926
 20
30.1147892288
 30
0.0
 10
32.772943748
 20
30.2413767008
 30
0.0
 10
32.7929653246
 20
30.3666164979
 30
0.0
 10
32.8065506853
 20
30.4263577523
 30
0.0
  0
SPLINE
  5
290
100
AcDbEntity
  8
0
100
AcDbSpline
 62
7
  6
BYLAYER
 70
0
 71
3
 72
15
 73
11
 74
0
 42
0.0000001
 43
0.0000001
 44
0.0000000001
 40
0.0
 40
0.0
 40
0.0
 40
0.0
 40
0.1109237356
 40
0.2286256077
 40
0.3519863695
 40
0.4796145887
 40
0.6099324902
 40
0.741250782
 40
0.8718400173
 40
1.0
 40
1.0
 40
1.0
 40
1.0
 10
37.8371226055
 20
27.9432270052
 30
0.0
 10
37.8371226055
 20
28.1016484254
 30
0.0
 10
37.8166477579
 20
28.4283770366
 30
0.0
 10
37.7320448984
 20
28.9247050217
 30
0.0
 10
37.5942646843
 20
29.4337042664
 30
0.0
 10
37.4060011621
 20
29.9454141608
 30
0.0
 10
37.1709274251
 20
30.4499065172
 30
0.0
 10
36.893620503
 20
30.9373431965
 30
0.0
 10
36.5795331331
 20
31.3981645689
 30
0.0
 10
36.3464649595
 20
31.6856315398
 30
0.0
 10
36.2250027747
 20
31.8225619552
 30
0.0
  0
SPLINE
  5
291
100
AcDbEntity
  8
0
100
AcDbSpline
 62
7
  6
BYLAYER
 70
0
 71
3
 72
20
 73
16
 74
0
 42
0.0000001
 43
0.0000001
 44
0.0000000001
 40
0.0
 40
0.0
 40
0.0
 40
0.0
 40
0.1567991625
 40
0.3058968697
 40
0.4455971855
 40
0.5115969328
 40
0.5749072157
 40
0.6355253957
 40
0.6935166909
 40
0.7490219234
 40
0.8022639909
 40
0.8535523619
 40
0.9032811291
 40
0.9519208042
 40
1.0
 40
1.0
 40
1.0
 40
1.0
 10
36.2250027747
 20
31.8225619552
 30
0.0
 10
36.0967825898
 20
31.9671110033
 30
0.0
 10
35.8332228069
 20
32.237642939
 30
0.0
 10
35.4106690419
 20
32.5898585789
 30
0.0
 10
35.0435667569
 20
32.8297054399
 30
0.0
 10
34.7486917165
 20
32.98170369
 30
0.0
 10
34.5331509538
 20
33.0735131113
 30
0.0
 10
34.3203157958
 20
33.1447361071
 30
0.0
 10
34.1114038666
 20
33.1949285612
 30
0.0
 10
33.9076235289
 20
33.223755494
 30
0.0
 10
33.7101598599
 20
33.2309901479
 30
0.0
 10
33.5201872157
 20
33.216521519
 30
0.0
 10
33.3388551254
 20
33.1803550353
 30
0.0
 10
33.1673457984
 20
33.1226666226
 30
0.0
 10
33.0600027202
 20
33.069920336
 30
0.0
 10
33.0086928068
 20
33.0402965513
 30
0.0
  0
SPLINE
  5
292
100
AcDbEntity
  8
0
100
AcDbSpline
 62
7
  6
BYLAYER
 70
0
 71
3
 72
9
 73
5
 74
0
 42
0.0000001
 43
0.0000001
 44
0.0000000001
 40
0.0
 40
0.0
 40
0.0
 40
0.0
 40
0.480033774
 40
1.0
 40
1.0
 40
1.0
 40
1.0
 10
34.4595966358
 20
32.7822411913
 30
0.0
 10
34.6059710533
 20
32.7250328448
 30
0.0
 10
34.9009649965
 20
32.5797352431
 30
0.0
 10
35.1728480421
 20
32.3956845903
 30
0.0
 10
35.308128306
 20
32.2923522858
 30
0.0
  0
SPLINE
  5
293
100
AcDbEntity
  8
0
100
AcDbSpline
 62
7
  6
BYLAYER
 70
0
 71
3
 72
11
 73
7
 74
0
 42
0.0000001
 43
0.0000001
 44
0.0000000001
 40
0.0
 40
0.0
 40
0.0
 40
0.0
 40
0.2363519834
 40
0.4831116269
 40
0.7383855314
 40
1.0
 40
1.0
 40
1.0
 40
1.0
 10
33.6469341794
 20
29.9560669853
 30
0.0
 10
33.6710003584
 20
30.1874683913
 30
0.0
 10
33.7435376829
 20
30.6582539839
 30
0.0
 10
33.9166684853
 20
31.3649777859
 30
0.0
 10
34.1541521044
 20
32.0789564226
 30
0.0
 10
34.3513273101
 20
32.5485910855
 30
0.0
 10
34.4595966358
 20
32.7822411913
 30
0.0
  0
SPLINE
  5
294
100
AcDbEntity
  8
0
100
AcDbSpline
 62
7
  6
BYLAYER
 70
0
 71
3
 72
9
 73
5
 74
0
 42
0.0000001
 43
0.0000001
 44
0.0000000001
 40
0.0
 40
0.0
 40
0.0
 40
0.0
 40
0.7493441978
 40
1.0
 40
1.0
 40
1.0
 40
1.0
 10
33.646268723
 20
29.8846249357
 30
0.0
 10
33.6517977338
 20
29.8962586548
 30
0.0
 10
33.6577614794
 20
29.9125568202
 30
0.0
 10
33.661206449
 20
29.9294096637
 30
0.0
 10
33.6618968225
 20
29.9336626037
 30
0.0
  0
SPLINE
  5
295
100
AcDbEntity
  8
0
100
AcDbSpline
 62
7
  6
BYLAYER
 70
0
 71
3
 72
9
 73
5
 74
0
 42
0.0000001
 43
0.0000001
 44
0.0000000001
 40
0.0
 40
0.0
 40
0.0
 40
0.0
 40
0.7491784309
 40
1.0
 40
1.0
 40
1.0
 40
1.0
 10
33.5991663268
 20
29.8184814809
 30
0.0
 10
33.6134453945
 20
29.8329539186
 30
0.0
 10
33.6304969894
 20
29.8545330719
 30
0.0
 10
33.6433370893
 20
29.8784715211
 30
0.0
 10
33.6462588306
 20
29.8846192244
 30
0.0
  0
SPLINE
  5
296
100
AcDbEntity
  8
0
100
AcDbSpline
 62
7
  6
BYLAYER
 70
0
 71
3
 72
11
 73
7
 74
0
 42
0.0000001
 43
0.0000001
 44
0.0000000001
 40
0.0
 40
0.0
 40
0.0
 40
0.0
 40
0.2176755864
 40
0.4508334182
 40
0.7104800541
 40
1.0
 40
1.0
 40
1.0
 40
1.0
 10
34.5066667049
 20
30.3306483166
 30
0.0
 10
34.511612097
 20
30.3335036186
 30
0.0
 10
34.5208699384
 20
30.3412812947
 30
0.0
 10
34.5307320402
 20
30.3573988738
 30
0.0
 10
34.536573519
 20
30.3772637929
 30
0.0
 10
34.5377351939
 20
30.3917180174
 30
0.0
 10
34.5377351939
 20
30.3993132634
 30
0.0
  0
SPLINE
  5
297
100
AcDbEntity
  8
0
100
AcDbSpline
 62
7
  6
BYLAYER
 70
0
 71
3
 72
9
 73
5
 74
0
 42
0.0000001
 43
0.0000001
 44
0.0000000001
 40
0.0
 40
0.0
 40
0.0
 40
0.0
 40
0.2365636293
 40
1.0
 40
1.0
 40
1.0
 40
1.0
 10
43.6371757583
 20
36.2443571797
 30
0.0
 10
43.6603717849
 20
36.24119575
 30
0.0
 10
43.7578513708
 20
36.2236452621
 30
0.0
 10
43.852150914
 20
36.1904088937
 30
0.0
 10
43.9209377471
 20
36.1591648526
 30
0.0
  0
SPLINE
  5
298
100
AcDbEntity
  8
0
100
AcDbSpline
 62
7
  6
BYLAYER
 70
0
 71
3
 72
19
 73
15
 74
0
 42
0.0000001
 43
0.0000001
 44
0.0000000001
 40
0.0
 40
0.0
 40
0.0
 40
0.0
 40
0.053560299
 40
0.1100021254
 40
0.1691310502
 40
0.2306624838
 40
0.3594147092
 40
0.4929785594
 40
0.6275366559
 40
0.7591864215
 40
0.8227917025
 40
0.88435387
 40
0.9435389598
 40
1.0
 40
1.0
 40
1.0
 40
1.0
 10
43.9209377471
 20
36.1591648526
 30
0.0
 10
43.9613448429
 20
36.1408113261
 30
0.0
 10
44.0424074327
 20
36.0987719428
 30
0.0
 10
44.1606197991
 20
36.0232064319
 30
0.0
 10
44.2774957683
 20
35.9342069976
 30
0.0
 10
44.4321666317
 20
35.7969040807
 30
0.0
 10
44.613477218
 20
35.5979090546
 30
0.0
 10
44.803374711
 20
35.328470779
 30
0.0
 10
44.9608543892
 20
35.0361684192
 30
0.0
 10
45.0606567527
 20
34.7808995753
 30
0.0
 10
45.1181217146
 20
34.5758610177
 30
0.0
 10
45.1489990612
 20
34.4261164151
 30
0.0
 10
45.1677729897
 20
34.2803475607
 30
0.0
 10
45.172232723
 20
34.1844850276
 30
0.0
 10
45.172232723
 20
34.1377014658
 30
0.0
  0
SPLINE
  5
299
100
AcDbEntity
  8
0
100
AcDbSpline
 62
7
  6
BYLAYER
 70
0
 71
3
 72
11
 73
7
 74
0
 42
0.0000001
 43
0.0000001
 44
0.0000000001
 40
0.0
 40
0.0
 40
0.0
 40
0.0
 40
0.2687364696
 40
0.5324610812
 40
0.7794480636
 40
1.0
 40
1.0
 40
1.0
 40
1.0
 10
33.5641628171
 20
28.8898408338
 30
0.0
 10
33.5592051548
 20
28.9004096189
 30
0.0
 10
33.5482625082
 20
28.9208413838
 30
0.0
 10
33.5292999262
 20
28.9489674252
 30
0.0
 10
33.5086858546
 20
28.9732217834
 30
0.0
 10
33.4935794497
 20
28.986935128
 30
0.0
 10
33.485928745
 20
28.9927019506
 30
0.0
  0
SPLINE
  5
29A
100
AcDbEntity
  8
0
100
AcDbSpline
 62
7
  6
BYLAYER
 70
0
 71
3
 72
13
 73
9
 74
0
 42
0.0000001
 43
0.0000001
 44
0.0000000001
 40
0.0
 40
0.0
 40
0.0
 40
0.0
 40
0.0882266972
 40
0.1870451546
 40
0.4163972567
 40
0.5468328069
 40
0.6876611793
 40
1.0
 40
1.0
 40
1.0
 40
1.0
 10
33.1388067027
 20
28.4966014081
 30
0.0
 10
33.1498668732
 20
28.5095807663
 30
0.0
 10
33.1739910459
 20
28.5365230067
 30
0.0
 10
33.2296972524
 20
28.594624152
 30
0.0
 10
33.2937570047
 20
28.6559486244
 30
0.0
 10
33.3654672968
 20
28.7209115241
 30
0.0
 10
33.4502855958
 20
28.7952814351
 30
0.0
 10
33.5174941686
 20
28.8514688775
 30
0.0
 10
33.5641566234
 20
28.8897712779
 30
0.0
  0
SPLINE
  5
29B
100
AcDbEntity
  8
0
100
AcDbSpline
 62
7
  6
BYLAYER
 70
0
 71
3
 72
12
 73
8
 74
0
 42
0.0000001
 43
0.0000001
 44
0.0000000001
 40
0.0
 40
0.0
 40
0.0
 40
0.0
 40
0.3098205236
 40
0.5801529869
 40
0.8103215291
 40
0.9102253583
 40
1.0
 40
1.0
 40
1.0
 40
1.0
 10
33.6469350715
 20
28.6515815859
 30
0.0
 10
33.5954262486
 20
28.6325343411
 30
0.0
 10
33.4986185173
 20
28.5978044751
 30
0.0
 10
33.3620740365
 20
28.5531692438
 30
0.0
 10
33.2597209135
 20
28.5238551759
 30
0.0
 10
33.1873847233
 20
28.5063267928
 30
0.0
 10
33.1544565481
 20
28.4994842068
 30
0.0
 10
33.1388067027
 20
28.4966014081
 30
0.0
  0
SPLINE
  5
29C
100
AcDbEntity
  8
0
100
AcDbSpline
 62
7
  6
BYLAYER
 70
0
 71
3
 72
14
 73
10
 74
0
 42
0.0000001
 43
0.0000001
 44
0.0000000001
 40
0.0
 40
0.0
 40
0.0
 40
0.0
 40
0.1130541659
 40
0.2286560398
 40
0.3473307789
 40
0.4695611597
 40
0.5957146729
 40
0.7260745388
 40
1.0
 40
1.0
 40
1.0
 40
1.0
 10
34.4595966358
 20
26.715897475
 30
0.0
 10
34.4044627615
 20
26.7744651916
 30
0.0
 10
34.298766644
 20
26.8985289602
 30
0.0
 10
34.1567304477
 20
27.1011528135
 30
0.0
 10
34.0301831916
 20
27.321357537
 30
0.0
 10
33.919620456
 20
27.5582742234
 30
0.0
 10
33.8253730883
 20
27.8110232255
 30
0.0
 10
33.7201649332
 20
28.1737264026
 30
0.0
 10
33.6696566211
 20
28.4580226225
 30
0.0
 10
33.64693425
 20
28.6515860935
 30
0.0
  0
SPLINE
  5
29D
100
AcDbEntity
  8
0
100
AcDbSpline
 62
7
  6
BYLAYER
 70
0
 71
3
 72
10
 73
6
 74
0
 42
0.0000001
 43
0.0000001
 44
0.0000000001
 40
0.0
 40
0.0
 40
0.0
 40
0.0
 40
0.4799116651
 40
0.7352130773
 40
1.0
 40
1.0
 40
1.0
 40
1.0
 10
35.308128306
 20
26.2260085695
 30
0.0
 10
35.1617518819
 20
26.2832177002
 30
0.0
 10
34.9446881967
 20
26.3901262351
 30
0.0
 10
34.6669589491
 20
26.5638158429
 30
0.0
 10
34.5285050539
 20
26.6632625566
 30
0.0
 10
34.4595966358
 20
26.715897475
 30
0.0
  0
SPLINE
  5
29E
100
AcDbEntity
  8
0
100
AcDbSpline
 62
7
  6
BYLAYER
 70
0
 71
3
 72
22
 73
18
 74
0
 42
0.0000001
 43
0.0000001
 44
0.0000000001
 40
0.0
 40
0.0
 40
0.0
 40
0.0
 40
0.0991525952
 40
0.1541186177
 40
0.2125133913
 40
0.2740592576
 40
0.3383455971
 40
0.404862126
 40
0.4730256148
 40
0.5421989529
 40
0.6117159099
 40
0.680899876
 40
0.7490854267
 40
0.815632399
 40
0.8799532363
 40
0.9415655208
 40
1.0
 40
1.0
 40
1.0
 40
1.0
 10
42.5867420041
 20
36.0595262597
 30
0.0
 10
42.7006527033
 20
36.0440011584
 30
0.0
 10
42.8741269721
 20
35.9902397952
 30
0.0
 10
43.0937472679
 20
35.8782506163
 30
0.0
 10
43.2642165075
 20
35.7676417068
 30
0.0
 10
43.4319906715
 20
35.6350224202
 30
0.0
 10
43.5948212605
 20
35.4822576579
 30
0.0
 10
43.7503456307
 20
35.311572319
 30
0.0
 10
43.8963200103
 20
35.1254119789
 30
0.0
 10
44.0306387251
 20
34.9264747531
 30
0.0
 10
44.1513683592
 20
34.7176443903
 30
0.0
 10
44.2567457885
 20
34.5019327174
 30
0.0
 10
44.3452496023
 20
34.2824661065
 30
0.0
 10
44.4156138741
 20
34.0624283507
 30
0.0
 10
44.4668141979
 20
33.8449491118
 30
0.0
 10
44.498072716
 20
33.6332184003
 30
0.0
 10
44.50556321
 20
33.4939592565
 30
0.0
 10
44.50556321
 20
33.4262066174
 30
0.0
  0
SPLINE
  5
29F
100
AcDbEntity
  8
0
100
AcDbSpline
 62
7
  6
BYLAYER
 70
0
 71
3
 72
22
 73
18
 74
0
 42
0.0000001
 43
0.0000001
 44
0.0000000001
 40
0.0
 40
0.0
 40
0.0
 40
0.0
 40
0.0584344792
 40
0.1200467637
 40
0.184367601
 40
0.2509145733
 40
0.319100124
 40
0.3882840901
 40
0.4578010471
 40
0.5269743852
 40
0.595137874
 40
0.6616544029
 40
0.7259407424
 40
0.7874866087
 40
0.8458813823
 40
0.9008474048
 40
1.0
 40
1.0
 40
1.0
 40
1.0
 10
44.7126152288
 20
33.8723427658
 30
0.0
 10
44.7126152288
 20
33.926544877
 30
0.0
 10
44.7066228337
 20
34.0379521921
 30
0.0
 10
44.6816160192
 20
34.2073367613
 30
0.0
 10
44.6406557601
 20
34.3813201524
 30
0.0
 10
44.5843643427
 20
34.5573503571
 30
0.0
 10
44.5135612917
 20
34.7329236458
 30
0.0
 10
44.4292593482
 20
34.9054929841
 30
0.0
 10
44.3326756409
 20
35.0725572743
 30
0.0
 10
44.2252206691
 20
35.231707055
 30
0.0
 10
44.1084411654
 20
35.3806353271
 30
0.0
 10
43.9840216692
 20
35.5171835982
 30
0.0
 10
43.8537571981
 20
35.639395408
 30
0.0
 10
43.7195378669
 20
35.7454908373
 30
0.0
 10
43.5831624752
 20
35.8339779649
 30
0.0
 10
43.4074662385
 20
35.923569308
 30
0.0
 10
43.2686868235
 20
35.9665783985
 30
0.0
 10
43.1775582641
 20
35.9789984796
 30
0.0
  0
SPLINE
  5
2A0
100
AcDbEntity
  8
0
100
AcDbSpline
 62
7
  6
BYLAYER
 70
0
 71
3
 72
11
 73
7
 74
0
 42
0.0000001
 43
0.0000001
 44
0.0000000001
 40
0.0
 40
0.0
 40
0.0
 40
0.0
 40
0.2309016005
 40
0.4858577638
 40
0.7483026457
 40
1.0
 40
1.0
 40
1.0
 40
1.0
 10
34.5377351939
 20
29.0086008089
 30
0.0
 10
34.5377351939
 20
29.0228771394
 30
0.0
 10
34.5332984674
 20
29.0529484204
 30
0.0
 10
34.5170992796
 20
29.096561189
 30
0.0
 10
34.49251898
 20
29.137564904
 30
0.0
 10
34.4712070629
 20
29.1615043237
 30
0.0
 10
34.4595966358
 20
29.1718666135
 30
0.0
  0
SPLINE
  5
2A1
100
AcDbEntity
  8
0
100
AcDbSpline
 62
7
  6
BYLAYER
 70
0
 71
3
 72
14
 73
10
 74
0
 42
0.0000001
 43
0.0000001
 44
0.0000000001
 40
0.0
 40
0.0
 40
0.0
 40
0.0
 40
0.1247267313
 40
0.2299819749
 40
0.3286363494
 40
0.4331885731
 40
0.5510460247
 40
0.6849289124
 40
1.0
 40
1.0
 40
1.0
 40
1.0
 10
33.6521231004
 20
28.7929735488
 30
0.0
 10
33.6545215472
 20
28.7943583391
 30
0.0
 10
33.6592539188
 20
28.7964768208
 30
0.0
 10
33.6667081948
 20
28.7970854712
 30
0.0
 10
33.6733498176
 20
28.7947537226
 30
0.0
 10
33.6788536708
 20
28.7900393154
 30
0.0
 10
33.6833688879
 20
28.7834718699
 30
0.0
 10
33.6885548602
 20
28.7719574093
 30
0.0
 10
33.6908416265
 20
28.7621617575
 30
0.0
 10
33.6920137884
 20
28.7552646151
 30
0.0
  0
SPLINE
  5
2A2
100
AcDbEntity
  8
0
100
AcDbSpline
 62
7
  6
BYLAYER
 70
0
 71
3
 72
9
 73
5
 74
0
 42
0.0000001
 43
0.0000001
 44
0.0000000001
 40
0.0
 40
0.0
 40
0.0
 40
0.0
 40
0.2833064235
 40
1.0
 40
1.0
 40
1.0
 40
1.0
 10
34.6903174656
 20
28.2973635293
 30
0.0
 10
34.6843077192
 20
28.3000210693
 30
0.0
 10
34.6627076968
 20
28.3081331151
 30
0.0
 10
34.6380293746
 20
28.3108515492
 30
0.0
 10
34.6220029183
 20
28.3064373066
 30
0.0
  0
SPLINE
  5
2A3
100
AcDbEntity
  8
0
100
AcDbSpline
 62
7
  6
BYLAYER
 70
0
 71
3
 72
9
 73
5
 74
0
 42
0.0000001
 43
0.0000001
 44
0.0000000001
 40
0.0
 40
0.0
 40
0.0
 40
0.0
 40
0.2556957385
 40
1.0
 40
1.0
 40
1.0
 40
1.0
 10
34.6220029183
 20
28.3064373066
 30
0.0
 10
34.6207986134
 20
28.3061055993
 30
0.0
 10
34.6161289201
 20
28.3046682202
 30
0.0
 10
34.6116333203
 20
28.3026524087
 30
0.0
 10
34.6084837523
 20
28.3008353142
 30
0.0
  0
SPLINE
  5
2A4
100
AcDbEntity
  8
0
100
AcDbSpline
 62
7
  6
BYLAYER
 70
0
 71
3
 72
9
 73
5
 74
0
 42
0.0000001
 43
0.0000001
 44
0.0000000001
 40
0.0
 40
0.0
 40
0.0
 40
0.0
 40
0.5091201097
 40
1.0
 40
1.0
 40
1.0
 40
1.0
 10
35.7889902781
 20
27.9051353128
 30
0.0
 10
35.5983119772
 20
27.9588562378
 30
0.0
 10
35.2270904396
 20
28.0765592832
 30
0.0
 10
34.8650040081
 20
28.2201162616
 30
0.0
 10
34.6903174656
 20
28.2973635293
 30
0.0
  0
SPLINE
  5
2A5
100
AcDbEntity
  8
0
100
AcDbSpline
 62
7
  6
BYLAYER
 70
0
 71
3
 72
10
 73
6
 74
0
 42
0.0000001
 43
0.0000001
 44
0.0000000001
 40
0.0
 40
0.0
 40
0.0
 40
0.0
 40
0.2126966761
 40
0.4532837839
 40
1.0
 40
1.0
 40
1.0
 40
1.0
 10
33.6462684527
 20
28.8403249627
 30
0.0
 10
33.6413197107
 20
28.8450238631
 30
0.0
 10
33.6299314942
 20
28.8541501034
 30
0.0
 10
33.6029766713
 20
28.8715989601
 30
0.0
 10
33.5802363091
 20
28.8828174679
 30
0.0
 10
33.5641628171
 20
28.8898408338
 30
0.0
  0
SPLINE
  5
2A6
100
AcDbEntity
  8
0
100
AcDbSpline
 62
7
  6
BYLAYER
 70
0
 71
3
 72
14
 73
10
 74
0
 42
0.0000001
 43
0.0000001
 44
0.0000000001
 40
0.0
 40
0.0
 40
0.0
 40
0.0
 40
0.1305814066
 40
0.2426861763
 40
0.3457345194
 40
0.4509583563
 40
0.5665675311
 40
0.6962279185
 40
1.0
 40
1.0
 40
1.0
 40
1.0
 10
33.6521231004
 20
28.7929735488
 30
0.0
 10
33.6542905704
 20
28.7942249801
 30
0.0
 10
33.6581148104
 20
28.7969672949
 30
0.0
 10
33.6622604239
 20
28.8022872477
 30
0.0
 10
33.664104838
 20
28.8082945146
 30
0.0
 10
33.6637081283
 20
28.8145959664
 30
0.0
 10
33.6614860348
 20
28.820995827
 30
0.0
 10
33.6561658676
 20
28.8301249083
 30
0.0
 10
33.6504820397
 20
28.8363109982
 30
0.0
 10
33.6462598704
 20
28.8403200077
 30
0.0
  0
SPLINE
  5
2A7
100
AcDbEntity
  8
0
100
AcDbSpline
 62
7
  6
BYLAYER
 70
0
 71
3
 72
9
 73
5
 74
0
 42
0.0000001
 43
0.0000001
 44
0.0000000001
 40
0.0
 40
0.0
 40
0.0
 40
0.0
 40
0.5124638588
 40
1.0
 40
1.0
 40
1.0
 40
1.0
 10
32.8065506853
 20
29.6270086605
 30
0.0
 10
32.7936868659
 20
29.6984304798
 30
0.0
 10
32.7740676864
 20
29.8388603509
 30
0.0
 10
32.7669077926
 20
29.9805295591
 30
0.0
 10
32.7669077926
 20
30.0495705234
 30
0.0
  0
SPLINE
  5
2A8
100
AcDbEntity
  8
0
100
AcDbSpline
 62
7
  6
BYLAYER
 70
0
 71
3
 72
9
 73
5
 74
0
 42
0.0000001
 43
0.0000001
 44
0.0000000001
 40
0.0
 40
0.0
 40
0.0
 40
0.0
 40
0.2610183282
 40
1.0
 40
1.0
 40
1.0
 40
1.0
 10
33.485928745
 20
28.9927019506
 30
0.0
 10
33.4212775075
 20
29.0414337
 30
0.0
 10
33.1782465673
 20
29.2341272161
 30
0.0
 10
32.954515221
 20
29.4519544427
 30
0.0
 10
32.8065506853
 20
29.6270086605
 30
0.0
  0
SPLINE
  5
2A9
100
AcDbEntity
  8
0
100
AcDbSpline
 62
7
  6
BYLAYER
 70
0
 71
3
 72
15
 73
11
 74
0
 42
0.0000001
 43
0.0000001
 44
0.0000000001
 40
0.0
 40
0.0
 40
0.0
 40
0.0
 40
0.148589144
 40
0.2895060316
 40
0.4227210419
 40
0.5486420091
 40
0.6680001866
 40
0.781937362
 40
0.8919870258
 40
1.0
 40
1.0
 40
1.0
 40
1.0
 10
23.1988810339
 20
35.3113457042
 30
0.0
 10
23.1988810339
 20
35.0632766321
 30
0.0
 10
23.1788824401
 20
34.5796139837
 30
0.0
 10
23.0836758817
 20
33.8792124947
 30
0.0
 10
22.9246262373
 20
33.2291231863
 30
0.0
 10
22.703014287
 20
32.6356302546
 30
0.0
 10
22.4204932895
 20
32.1044699124
 30
0.0
 10
22.0792857713
 20
31.6410692232
 30
0.0
 10
21.682567262
 20
31.2506090055
 30
0.0
 10
21.3823011936
 20
31.0411093392
 30
0.0
 10
21.2261359495
 20
30.9509408883
 30
0.0
  0
SPLINE
  5
2AA
100
AcDbEntity
  8
0
100
AcDbSpline
 62
7
  6
BYLAYER
 70
0
 71
3
 72
23
 73
19
 74
0
 42
0.0000001
 43
0.0000001
 44
0.0000000001
 40
0.0
 40
0.0
 40
0.0
 40
0.0
 40
0.0558345591
 40
0.1141825323
 40
0.1747837393
 40
0.2373547992
 40
0.3015505214
 40
0.3669943487
 40
0.4332845156
 40
0.5000019379
 40
0.566719286
 40
0.6330092447
 40
0.698452744
 40
0.7626479878
 40
0.8252184814
 40
0.8858190622
 40
0.9441661342
 40
1.0
 40
1.0
 40
1.0
 40
1.0
 10
5.8393696652
 20
40.8429892315
 30
0.0
 10
5.8393696652
 20
40.5824434283
 30
0.0
 10
5.8625178383
 20
40.0494290528
 30
0.0
 10
5.9606660993
 20
39.2390486246
 30
0.0
 10
6.1221515249
 20
38.4068500692
 30
0.0
 10
6.345342767
 20
37.5608655522
 30
0.0
 10
6.6281560874
 20
36.7090999379
 30
0.0
 10
6.9678636414
 20
35.8597006865
 30
0.0
 10
7.3612140271
 20
35.0207798472
 30
0.0
 10
7.8044509193
 20
34.2003629373
 30
0.0
 10
8.2933390177
 20
33.4063040932
 30
0.0
 10
8.823193511
 20
32.6461977649
 30
0.0
 10
9.3889427336
 20
31.9273100939
 30
0.0
 10
9.9851871891
 20
31.2565127347
 30
0.0
 10
10.6062347223
 20
30.6402413174
 30
0.0
 10
11.2461940818
 20
30.0843029995
 30
0.0
 10
11.8989255329
 20
29.5941251966
 30
0.0
 10
12.3489520386
 20
29.3075795952
 30
0.0
 10
12.5745897972
 20
29.1773105216
 30
0.0
  0
SPLINE
  5
2AB
100
AcDbEntity
  8
0
100
AcDbSpline
 62
7
  6
BYLAYER
 70
0
 71
3
 72
25
 73
21
 74
0
 42
0.0000001
 43
0.0000001
 44
0.0000000001
 40
0.0
 40
0.0
 40
0.0
 40
0.0
 40
0.0623831515
 40
0.128721269
 40
0.1983135797
 40
0.2702898729
 40
0.3436668109
 40
0.4173982671
 40
0.4904226219
 40
0.5617092558
 40
0.630306688
 40
0.6953945407
 40
0.7563425154
 40
0.8127802978
 40
0.8646814106
 40
0.9124568023
 40
0.9351016915
 40
0.9571072151
 40
0.9786678138
 40
1.0
 40
1.0
 40
1.0
 40
1.0
 10
12.002380171
 20
40.0942679078
 30
0.0
 10
12.1550763973
 20
40.0061106949
 30
0.0
 10
12.4584168086
 20
39.8033992847
 30
0.0
 10
12.8879854229
 20
39.4418936531
 30
0.0
 10
13.298613579
 20
39.0202983141
 30
0.0
 10
13.6815176547
 20
38.547625743
 30
0.0
 10
14.0285923153
 20
38.0339147795
 30
0.0
 10
14.3324299868
 20
37.4901239707
 30
0.0
 10
14.5865512853
 20
36.9278521533
 30
0.0
 10
14.7855381531
 20
36.3590793705
 30
0.0
 10
14.9251525596
 20
35.7958838294
 30
0.0
 10
15.0024003164
 20
35.2501456914
 30
0.0
 10
15.0155618334
 20
34.7332804479
 30
0.0
 10
14.9640506202
 20
34.255914345
 30
0.0
 10
14.8484632894
 20
33.8279855946
 30
0.0
 10
14.6968261188
 20
33.5143325334
 30
0.0
 10
14.5453510258
 20
33.3008820335
 30
0.0
 10
14.4197252931
 20
33.1615564711
 30
0.0
 10
14.2808047246
 20
33.0410894801
 30
0.0
 10
14.1795855369
 20
32.9736653468
 30
0.0
 10
14.1273706443
 20
32.9435191995
 30
0.0
  0
SPLINE
  5
2AC
100
AcDbEntity
  8
0
100
AcDbSpline
 62
7
  6
BYLAYER
 70
0
 71
3
 72
15
 73
11
 74
0
 42
0.0000001
 43
0.0000001
 44
0.0000000001
 40
0.0
 40
0.0
 40
0.0
 40
0.0
 40
0.1485922289
 40
0.2895036282
 40
0.4227188886
 40
0.5486405881
 40
0.6679989052
 40
0.7819366388
 40
0.8919864603
 40
1.0
 40
1.0
 40
1.0
 40
1.0
 10
12.5745897972
 20
29.1773105216
 30
0.0
 10
12.7894239021
 20
29.0532787993
 30
0.0
 10
13.2182725428
 20
28.8287745838
 30
0.0
 10
13.8724256537
 20
28.5610452168
 30
0.0
 10
14.514921749
 20
28.3737561067
 30
0.0
 10
15.1396925065
 20
28.2689305159
 30
0.0
 10
15.7409378862
 20
28.2480245809
 30
0.0
 10
16.312845298
 20
28.3118207592
 30
0.0
 10
16.8493352149
 20
28.4601677598
 30
0.0
 10
17.1809037319
 20
28.6154301086
 30
0.0
 10
17.3370684735
 20
28.7055917684
 30
0.0
  0
SPLINE
  5
2AD
100
AcDbEntity
  8
0
100
AcDbSpline
 62
7
  6
BYLAYER
 70
0
 71
3
 72
15
 73
11
 74
0
 42
0.0000001
 43
0.0000001
 44
0.0000000001
 40
0.0
 40
0.0
 40
0.0
 40
0.0
 40
0.1086072612
 40
0.2191574936
 40
0.3334311149
 40
0.4529191085
 40
0.5787278681
 40
0.7116206817
 40
0.852048211
 40
1.0
 40
1.0
 40
1.0
 40
1.0
 10
9.8773922922
 20
40.3047415765
 30
0.0
 10
9.9452747596
 20
40.3439272717
 30
0.0
 10
10.0891292974
 20
40.411697924
 30
0.0
 10
10.3215834003
 20
40.4775851988
 30
0.0
 10
10.569179253
 20
40.5077340577
 30
0.0
 10
10.8294139615
 20
40.5019736789
 30
0.0
 10
11.0998998555
 20
40.4606929696
 30
0.0
 10
11.378252224
 20
40.3843519083
 30
0.0
 10
11.6619618291
 20
40.2737681985
 30
0.0
 10
11.8482862615
 20
40.180336325
 30
0.0
 10
11.9416887324
 20
40.128597045
 30
0.0
  0
SPLINE
  5
2AE
100
AcDbEntity
  8
0
100
AcDbSpline
 62
7
  6
BYLAYER
 70
0
 71
3
 72
15
 73
11
 74
0
 42
0.0000001
 43
0.0000001
 44
0.0000000001
 40
0.0
 40
0.0
 40
0.0
 40
0.0
 40
0.1080137822
 40
0.2180638466
 40
0.3320018782
 40
0.4513604811
 40
0.5772824594
 40
0.7104979039
 40
0.8514080733
 40
1.0
 40
1.0
 40
1.0
 40
1.0
 10
7.81211113
 20
45.2034003054
 30
0.0
 10
7.6559412619
 20
45.1132370533
 30
0.0
 10
7.3556870654
 20
44.9037152212
 30
0.0
 10
6.9589585775
 20
44.5132631215
 30
0.0
 10
6.6177481027
 20
44.0498594403
 30
0.0
 10
6.3352268441
 20
43.5186946765
 30
0.0
 10
6.1136228087
 20
42.9251951533
 30
0.0
 10
5.9545747739
 20
42.275114853
 30
0.0
 10
5.8593623514
 20
41.5747196061
 30
0.0
 10
5.8393696652
 20
41.0910630263
 30
0.0
 10
5.8393696652
 20
40.8429892315
 30
0.0
  0
SPLINE
  5
2AF
100
AcDbEntity
  8
0
100
AcDbSpline
 62
7
  6
BYLAYER
 70
0
 71
3
 72
30
 73
26
 74
0
 42
0.0000001
 43
0.0000001
 44
0.0000000001
 40
0.0
 40
0.0
 40
0.0
 40
0.0
 40
0.0213278571
 40
0.0428840936
 40
0.0648851391
 40
0.0875253047
 40
0.1109702861
 40
0.1353521894
 40
0.1607704622
 40
0.1872905867
 40
0.2149491915
 40
0.2437540664
 40
0.2736899586
 40
0.3047190652
 40
0.3697934722
 40
0.4383766445
 40
0.5096482897
 40
0.5826573368
 40
0.6563735484
 40
0.7297356161
 40
0.801697143
 40
0.8712762196
 40
0.9376005152
 40
0.9693360554
 40
1.0
 40
1.0
 40
1.0
 40
1.0
 10
11.7011858544
 20
47.4487368937
 30
0.0
 10
11.8182055805
 20
47.5163030638
 30
0.0
 10
12.0624976827
 20
47.6371950445
 30
0.0
 10
12.4519859062
 20
47.7718412813
 30
0.0
 10
12.8631587614
 20
47.8595328229
 30
0.0
 10
13.2935515401
 20
47.899913595
 30
0.0
 10
13.7407735936
 20
47.8928493366
 30
0.0
 10
14.2023796135
 20
47.8385912964
 30
0.0
 10
14.675882051
 20
47.7374667178
 30
0.0
 10
15.1587837616
 20
47.5901873874
 30
0.0
 10
15.6485031165
 20
47.3975321827
 30
0.0
 10
16.1424671161
 20
47.1606377299
 30
0.0
 10
16.6380430553
 20
46.8807503461
 30
0.0
 10
17.3079964271
 20
46.4454275415
 30
0.0
 10
18.1313630981
 20
45.8007915914
 30
0.0
 10
19.0679487588
 20
44.8987779988
 30
0.0
 10
19.948913702
 20
43.8751964814
 30
0.0
 10
20.7554555112
 20
42.7519149258
 30
0.0
 10
21.4704288517
 20
41.5528366478
 30
0.0
 10
22.0785649336
 20
40.3035596809
 30
0.0
 10
22.5669216403
 20
39.0306729599
 30
0.0
 10
22.9250263865
 20
37.7613903232
 30
0.0
 10
23.1113770325
 20
36.7135475633
 30
0.0
 10
23.1860468752
 20
35.9010563822
 30
0.0
 10
23.1988810339
 20
35.5056207226
 30
0.0
 10
23.1988810339
 20
35.3113457042
 30
0.0
  0
SPLINE
  5
2B0
100
AcDbEntity
  8
0
100
AcDbSpline
 62
7
  6
BYLAYER
 70
0
 71
3
 72
14
 73
10
 74
0
 42
0.0000001
 43
0.0000001
 44
0.0000000001
 40
0.0
 40
0.0
 40
0.0
 40
0.0
 40
0.1108813983
 40
0.2278783061
 40
0.3501054672
 40
0.4765780082
 40
0.6061129351
 40
0.7374431828
 40
1.0
 40
1.0
 40
1.0
 40
1.0
 10
12.002380171
 20
33.1539973622
 30
0.0
 10
11.8747813429
 20
33.2276649134
 30
0.0
 10
11.6207373709
 20
33.3935654534
 30
0.0
 10
11.2565931934
 20
33.6840257468
 30
0.0
 10
10.9037811296
 20
34.0189985246
 30
0.0
 10
10.5676499679
 20
34.3933015541
 30
0.0
 10
10.2532090724
 20
34.801413677
 30
0.0
 10
9.8695080462
 20
35.3819722828
 30
0.0
 10
9.6277096097
 20
35.8488483238
 30
0.0
 10
9.4903942264
 20
36.1695708418
 30
0.0
  0
SPLINE
  5
2B1
100
AcDbEntity
  8
0
100
AcDbSpline
 62
7
  6
BYLAYER
 70
0
 71
3
 72
19
 73
15
 74
0
 42
0.0000001
 43
0.0000001
 44
0.0000000001
 40
0.0
 40
0.0
 40
0.0
 40
0.0
 40
0.1569896165
 40
0.3072096173
 40
0.4483545767
 40
0.5150180947
 40
0.5788653032
 40
0.69783439
 40
0.7532074053
 40
0.8060460928
 40
0.8566686157
 40
0.9055026062
 40
0.9530771776
 40
1.0
 40
1.0
 40
1.0
 40
1.0
 10
9.4544957465
 20
36.2549693957
 30
0.0
 10
9.3666694335
 20
36.4678266956
 30
0.0
 10
9.2151311501
 20
36.8931879128
 30
0.0
 10
9.0613496315
 20
37.5338669573
 30
0.0
 10
8.9997607305
 20
38.0569800257
 30
0.0
 10
8.9947689208
 20
38.455757243
 30
0.0
 10
9.0175393971
 20
38.821164898
 30
0.0
 10
9.0809841734
 20
39.167041261
 30
0.0
 10
9.1900297334
 20
39.4824763805
 30
0.0
 10
9.2898984883
 20
39.6935301106
 30
0.0
 10
9.4091620965
 20
39.8830845108
 30
0.0
 10
9.5470762905
 20
40.0497349322
 30
0.0
 10
9.7026624223
 20
40.1921139641
 30
0.0
 10
9.817786567
 20
40.2703336968
 30
0.0
 10
9.8773922922
 20
40.3047415765
 30
0.0
  0
SPLINE
  5
2B2
100
AcDbEntity
  8
0
100
AcDbSpline
 62
7
  6
BYLAYER
 70
0
 71
3
 72
15
 73
11
 74
0
 42
0.0000001
 43
0.0000001
 44
0.0000000001
 40
0.0
 40
0.0
 40
0.0
 40
0.0
 40
0.1485915419
 40
0.289502692
 40
0.4227179285
 40
0.5486397629
 40
0.6679983185
 40
0.7819362889
 40
0.8919863353
 40
1.0
 40
1.0
 40
1.0
 40
1.0
 10
12.5745897972
 20
44.7316815679
 30
0.0
 10
12.3597566866
 20
44.8557127162
 30
0.0
 10
11.9309094862
 20
45.0802162925
 30
0.0
 10
11.2767579911
 20
45.3479453339
 30
0.0
 10
10.6342623064
 20
45.5352350031
 30
0.0
 10
10.0094910601
 20
45.6400611997
 30
0.0
 10
9.4082446216
 20
45.6609674032
 30
0.0
 10
8.8363361659
 20
45.5971712753
 30
0.0
 10
8.2998445833
 20
45.448825721
 30
0.0
 10
7.9682766438
 20
45.2935610437
 30
0.0
 10
7.81211113
 20
45.2034003054
 30
0.0
  0
SPLINE
  5
2B3
100
AcDbEntity
  8
0
100
AcDbSpline
 62
7
  6
BYLAYER
 70
0
 71
3
 72
23
 73
19
 74
0
 42
0.0000001
 43
0.0000001
 44
0.0000000001
 40
0.0
 40
0.0
 40
0.0
 40
0.0
 40
0.0558338491
 40
0.1141805292
 40
0.1747812323
 40
0.2373518964
 40
0.3015473863
 40
0.3669912396
 40
0.4332815765
 40
0.4999993026
 40
0.5667170672
 40
0.6330074906
 40
0.698451457
 40
0.7626471619
 40
0.8252180285
 40
0.8858188789
 40
0.9441661231
 40
1.0
 40
1.0
 40
1.0
 40
1.0
 10
19.3098099293
 20
33.0660028579
 30
0.0
 10
19.3098099293
 20
33.3265453482
 30
0.0
 10
19.2866637381
 20
33.8595504439
 30
0.0
 10
19.1885166166
 20
34.6699192313
 30
0.0
 10
19.0270354123
 20
35.5021081196
 30
0.0
 10
18.8038482571
 20
36.3480882553
 30
0.0
 10
18.5210385792
 20
37.199852125
 30
0.0
 10
18.1813330969
 20
38.0492520434
 30
0.0
 10
17.7879834506
 20
38.8881757973
 30
0.0
 10
17.3447470039
 20
39.7085976664
 30
0.0
 10
16.8558578605
 20
40.5026623923
 30
0.0
 10
16.3260006911
 20
41.2627745421
 30
0.0
 10
15.7602483961
 20
41.981668068
 30
0.0
 10
15.1640007336
 20
42.6524707169
 30
0.0
 10
14.5429499711
 20
43.2687462159
 30
0.0
 10
13.9029878739
 20
43.8246871921
 30
0.0
 10
13.2502548313
 20
44.3148664051
 30
0.0
 10
12.8002276014
 20
44.601412468
 30
0.0
 10
12.5745897972
 20
44.7316815679
 30
0.0
  0
SPLINE
  5
2B4
100
AcDbEntity
  8
0
100
AcDbSpline
 62
7
  6
BYLAYER
 70
0
 71
3
 72
15
 73
11
 74
0
 42
0.0000001
 43
0.0000001
 44
0.0000000001
 40
0.0
 40
0.0
 40
0.0
 40
0.0
 40
0.1080107137
 40
0.2180576541
 40
0.3319940908
 40
0.4513508102
 40
0.5772706015
 40
0.7104937136
 40
0.8513910253
 40
1.0
 40
1.0
 40
1.0
 40
1.0
 10
14.1273706443
 20
32.9435191995
 30
0.0
 10
14.0576925501
 20
32.9032907132
 30
0.0
 10
13.9097536218
 20
32.8340130449
 30
0.0
 10
13.6703805664
 20
32.7678192989
 30
0.0
 10
13.415202613
 20
32.7393547733
 30
0.0
 10
13.1469342115
 20
32.748683138
 30
0.0
 10
12.8681599436
 20
32.7954471576
 30
0.0
 10
12.5814893444
 20
32.8790192025
 30
0.0
 10
12.2895978051
 20
32.9984694681
 30
0.0
 10
12.0982487822
 20
33.0986488459
 30
0.0
 10
12.002380171
 20
33.1539973622
 30
0.0
  0
SPLINE
  5
2B5
100
AcDbEntity
  8
0
100
AcDbSpline
 62
7
  6
BYLAYER
 70
0
 71
3
 72
15
 73
11
 74
0
 42
0.0000001
 43
0.0000001
 44
0.0000000001
 40
0.0
 40
0.0
 40
0.0
 40
0.0
 40
0.1080127289
 40
0.2180619026
 40
0.3319991771
 40
0.4513573107
 40
0.5772790619
 40
0.7104946272
 40
0.8514071457
 40
1.0
 40
1.0
 40
1.0
 40
1.0
 10
17.3370684735
 20
28.7055917684
 30
0.0
 10
17.4932362271
 20
28.7957551673
 30
0.0
 10
17.7934893304
 20
29.005272563
 30
0.0
 10
18.1902144193
 20
29.3957220102
 30
0.0
 10
18.5314238639
 20
29.8591218218
 30
0.0
 10
18.813946248
 20
30.3902832451
 30
0.0
 10
19.0355524092
 20
30.9837809549
 30
0.0
 10
19.1946030956
 20
31.6338645626
 30
0.0
 10
19.2898154828
 20
32.3342655444
 30
0.0
 10
19.3098099293
 20
32.8179275135
 30
0.0
 10
19.3098099293
 20
33.0660028579
 30
0.0
  0
SPLINE
  5
2B6
100
AcDbEntity
  8
0
100
AcDbSpline
 62
7
  6
BYLAYER
 70
0
 71
3
 72
15
 73
11
 74
0
 42
0.0000001
 43
0.0000001
 44
0.0000000001
 40
0.0
 40
0.0
 40
0.0
 40
0.0
 40
0.1485725082
 40
0.2895091254
 40
0.4227252101
 40
0.5486386722
 40
0.6680004252
 40
0.7819381441
 40
0.8919866204
 40
1.0
 40
1.0
 40
1.0
 40
1.0
 10
37.0758844097
 20
24.2376623952
 30
0.0
 10
37.2562982516
 20
24.1335027731
 30
0.0
 10
37.6165024087
 20
23.9449599437
 30
0.0
 10
38.1659159806
 20
23.7200626824
 30
0.0
 10
38.7055691922
 20
23.562744652
 30
0.0
 10
39.2303110157
 20
23.4747516167
 30
0.0
 10
39.7352837211
 20
23.4571548237
 30
0.0
 10
40.2156298419
 20
23.5107456101
 30
0.0
 10
40.6662158364
 20
23.635357121
 30
0.0
 10
40.9447017904
 20
23.7657474636
 30
0.0
 10
41.0758635253
 20
23.8414732691
 30
0.0
  0
SPLINE
  5
2B7
100
AcDbEntity
  8
0
100
AcDbSpline
 62
7
  6
BYLAYER
 70
0
 71
3
 72
9
 73
5
 74
0
 42
0.0000001
 43
0.0000001
 44
0.0000000001
 40
0.0
 40
0.0
 40
0.0
 40
0.0
 40
0.2554475674
 40
1.0
 40
1.0
 40
1.0
 40
1.0
 10
36.3733490566
 20
24.6938312148
 30
0.0
 10
36.4311941642
 20
24.6520751272
 30
0.0
 10
36.6595758639
 20
24.4913214553
 30
0.0
 10
36.8958027037
 20
24.3416302631
 30
0.0
 10
37.0758844097
 20
24.2376623952
 30
0.0
  0
SPLINE
  5
2B8
100
AcDbEntity
  8
0
100
AcDbSpline
 62
7
  6
BYLAYER
 70
0
 71
3
 72
15
 73
11
 74
0
 42
0.0000001
 43
0.0000001
 44
0.0000000001
 40
0.0
 40
0.0
 40
0.0
 40
0.0
 40
0.1485730552
 40
0.2895101007
 40
0.4227264568
 40
0.5486400073
 40
0.6680016525
 40
0.7819390827
 40
0.8919871287
 40
1.0
 40
1.0
 40
1.0
 40
1.0
 10
44.1469698418
 20
28.320244029
 30
0.0
 10
44.1469698418
 20
28.1119148964
 30
0.0
 10
44.1301540457
 20
27.7056851056
 30
0.0
 10
44.0502169811
 20
27.1174121212
 30
0.0
 10
43.9166325195
 20
26.5713828649
 30
0.0
 10
43.7304643265
 20
26.0729315175
 30
0.0
 10
43.493213592
 20
25.6268009722
 30
0.0
 10
43.2066238416
 20
25.2375938973
 30
0.0
 10
42.8734064589
 20
24.9096729939
 30
0.0
 10
42.6212358333
 20
24.7336890558
 30
0.0
 10
42.4900711998
 20
24.6579615768
 30
0.0
  0
SPLINE
  5
2B9
100
AcDbEntity
  8
0
100
AcDbSpline
 62
7
  6
BYLAYER
 70
0
 71
3
 72
23
 73
19
 74
0
 42
0.0000001
 43
0.0000001
 44
0.0000000001
 40
0.0
 40
0.0
 40
0.0
 40
0.0
 40
0.0558274497
 40
0.1141832551
 40
0.1747842371
 40
0.2373526062
 40
0.3015485892
 40
0.3669922553
 40
0.4332817353
 40
0.4999989211
 40
0.5667161447
 40
0.633005737
 40
0.6984495881
 40
0.7626458248
 40
0.8252145109
 40
0.8858158664
 40
0.9441720929
 40
1.0
 40
1.0
 40
1.0
 40
1.0
 10
38.4900920913
 20
38.1181893729
 30
0.0
 10
38.6795822659
 20
38.0087896426
 30
0.0
 10
39.0575532874
 20
37.7680992468
 30
0.0
 10
39.6058052281
 20
37.3564200362
 30
0.0
 10
40.1433259739
 20
36.8894719393
 30
0.0
 10
40.6649139626
 20
36.3718485161
 30
0.0
 10
41.1657128539
 20
35.808470918
 30
0.0
 10
41.6408782612
 20
35.2046744156
 30
0.0
 10
42.0858906456
 20
34.5662613667
 30
0.0
 10
42.4965135584
 20
33.8993444444
 30
0.0
 10
42.868772606
 20
33.2102775041
 30
0.0
 10
43.1991523513
 20
32.5056793866
 30
0.0
 10
43.4844772497
 20
31.7922752967
 30
0.0
 10
43.7219820385
 20
31.0768804554
 30
0.0
 10
43.9094683836
 20
30.3663578756
 30
0.0
 10
44.0451025641
 20
29.6673738729
 30
0.0
 10
44.1275071682
 20
28.9867299455
 30
0.0
 10
44.1469698418
 20
28.5390489916
 30
0.0
 10
44.1469698418
 20
28.320244029
 30
0.0
  0
SPLINE
  5
2BA
100
AcDbEntity
  8
0
100
AcDbSpline
 62
7
  6
BYLAYER
 70
0
 71
3
 72
9
 73
5
 74
0
 42
0.0000001
 43
0.0000001
 44
0.0000000001
 40
0.0
 40
0.0
 40
0.0
 40
0.0
 40
0.2438624201
 40
1.0
 40
1.0
 40
1.0
 40
1.0
 10
37.787556731
 20
38.4732201562
 30
0.0
 10
37.8462964425
 20
38.4477967808
 30
0.0
 10
38.0855447208
 20
38.3398117349
 30
0.0
 10
38.3182196676
 20
38.21741772
 30
0.0
 10
38.4900920913
 20
38.1181893729
 30
0.0
  0
SPLINE
  5
2BB
100
AcDbEntity
  8
0
100
AcDbSpline
 62
7
  6
BYLAYER
 70
0
 71
3
 72
9
 73
5
 74
0
 42
0.0000001
 43
0.0000001
 44
0.0000000001
 40
0.0
 40
0.0
 40
0.0
 40
0.0
 40
0.4924774352
 40
1.0
 40
1.0
 40
1.0
 40
1.0
 10
22.0337151149
 20
31.732646506
 30
0.0
 10
22.1390586531
 20
31.6979896099
 30
0.0
 10
22.3572635608
 20
31.6402654017
 30
0.0
 10
22.5802365081
 20
31.6058176912
 30
0.0
 10
22.6939132901
 20
31.5940339808
 30
0.0
  0
SPLINE
  5
2BC
100
AcDbEntity
  8
0
100
AcDbSpline
 62
7
  6
BYLAYER
 70
0
 71
3
 72
9
 73
5
 74
0
 42
0.0000001
 43
0.0000001
 44
0.0000000001
 40
0.0
 40
0.0
 40
0.0
 40
0.0
 40
0.5109918829
 40
1.0
 40
1.0
 40
1.0
 40
1.0
 10
28.4512845579
 20
42.1169021602
 30
0.0
 10
28.5863836123
 20
42.1212354425
 30
0.0
 10
28.8512900728
 20
42.1180594616
 30
0.0
 10
29.1148196698
 20
42.0900387844
 30
0.0
 10
29.2425394856
 20
42.0695464361
 30
0.0
  0
SPLINE
  5
2BD
100
AcDbEntity
  8
0
100
AcDbSpline
 62
7
  6
BYLAYER
 70
0
 71
3
 72
9
 73
5
 74
0
 42
0.0000001
 43
0.0000001
 44
0.0000000001
 40
0.0
 40
0.0
 40
0.0
 40
0.0
 40
0.5207651798
 40
1.0
 40
1.0
 40
1.0
 40
1.0
 10
29.2425394856
 20
42.0695464361
 30
0.0
 10
29.362366817
 20
42.0502708693
 30
0.0
 10
29.5907882752
 20
42.0014620258
 30
0.0
 10
29.8118809849
 20
41.9252052254
 30
0.0
 10
29.9143811234
 20
41.8808417185
 30
0.0
  0
SPLINE
  5
2BE
100
AcDbEntity
  8
0
100
AcDbSpline
 62
7
  6
BYLAYER
 70
0
 71
3
 72
9
 73
5
 74
0
 42
0.0000001
 43
0.0000001
 44
0.0000000001
 40
0.0
 40
0.0
 40
0.0
 40
0.0
 40
0.2531754462
 40
1.0
 40
1.0
 40
1.0
 40
1.0
 10
28.2075541358
 20
30.5672407762
 30
0.0
 10
28.2212589452
 20
30.5646885615
 30
0.0
 10
28.2751210096
 20
30.5532288407
 30
0.0
 10
28.3278445264
 20
30.5362798967
 30
0.0
 10
28.3658052062
 20
30.520468586
 30
0.0
  0
SPLINE
  5
2BF
100
AcDbEntity
  8
0
100
AcDbSpline
 62
7
  6
BYLAYER
 70
0
 71
3
 72
9
 73
5
 74
0
 42
0.0000001
 43
0.0000001
 44
0.0000000001
 40
0.0
 40
0.0
 40
0.0
 40
0.0
 40
0.2594381458
 40
1.0
 40
1.0
 40
1.0
 40
1.0
 10
28.3658052062
 20
30.520468586
 30
0.0
 10
28.3780988268
 20
30.5154372013
 30
0.0
 10
28.4249361603
 20
30.4947608372
 30
0.0
 10
28.4695579204
 20
30.4688384407
 30
0.0
 10
28.5001734489
 20
30.4464688087
 30
0.0
  0
SPLINE
  5
2C0
100
AcDbEntity
  8
0
100
AcDbSpline
 62
7
  6
BYLAYER
 70
0
 71
3
 72
9
 73
5
 74
0
 42
0.0000001
 43
0.0000001
 44
0.0000000001
 40
0.0
 40
0.0
 40
0.0
 40
0.0
 40
0.2562018827
 40
1.0
 40
1.0
 40
1.0
 40
1.0
 10
37.0758844169
 20
37.3017010652
 30
0.0
 10
37.0176495266
 20
37.3353222348
 30
0.0
 10
36.7886111154
 20
37.4635016176
 30
0.0
 10
36.5525076195
 20
37.5791894961
 30
0.0
 10
36.3733490566
 20
37.6567318485
 30
0.0
  0
SPLINE
  5
2C1
100
AcDbEntity
  8
0
100
AcDbSpline
 62
7
  6
BYLAYER
 70
0
 71
3
 72
23
 73
19
 74
0
 42
0.0000001
 43
0.0000001
 44
0.0000000001
 40
0.0
 40
0.0
 40
0.0
 40
0.0
 40
0.0558279071
 40
0.1141841336
 40
0.1747854891
 40
0.2373541752
 40
0.3015504119
 40
0.366994263
 40
0.4332838553
 40
0.5000010789
 40
0.5667182647
 40
0.6330077447
 40
0.6984514108
 40
0.7626473938
 40
0.8252157629
 40
0.8858167449
 40
0.9441725503
 40
1.0
 40
1.0
 40
1.0
 40
1.0
 10
42.7327621674
 20
27.5037557212
 30
0.0
 10
42.7327621674
 20
27.7225606839
 30
0.0
 10
42.7132994938
 20
28.1702416378
 30
0.0
 10
42.6308948896
 20
28.8508855651
 30
0.0
 10
42.4952607092
 20
29.5498695678
 30
0.0
 10
42.3077743641
 20
30.2603921476
 30
0.0
 10
42.0702695753
 20
30.975786989
 30
0.0
 10
41.7849446769
 20
31.6891910788
 30
0.0
 10
41.4545649316
 20
32.3937891964
 30
0.0
 10
41.0823058839
 20
33.0828561366
 30
0.0
 10
40.6716829712
 20
33.749773059
 30
0.0
 10
40.2266705868
 20
34.3881861079
 30
0.0
 10
39.7515051794
 20
34.9919826103
 30
0.0
 10
39.2507062882
 20
35.5553602083
 30
0.0
 10
38.7291182995
 20
36.0729836315
 30
0.0
 10
38.1915975537
 20
36.5399317284
 30
0.0
 10
37.643345613
 20
36.9516109391
 30
0.0
 10
37.2653745915
 20
37.1923013349
 30
0.0
 10
37.0758844169
 20
37.3017010652
 30
0.0
  0
SPLINE
  5
2C2
100
AcDbEntity
  8
0
100
AcDbSpline
 62
7
  6
BYLAYER
 70
0
 71
3
 72
11
 73
7
 74
0
 42
0.0000001
 43
0.0000001
 44
0.0000000001
 40
0.0
 40
0.0
 40
0.0
 40
0.0
 40
0.2625070073
 40
0.5186679641
 40
0.7652390099
 40
1.0
 40
1.0
 40
1.0
 40
1.0
 10
22.6939132901
 20
40.7939608671
 30
0.0
 10
22.60661688
 20
40.7972879699
 30
0.0
 10
22.4343097419
 20
40.8104983088
 30
0.0
 10
22.1824501876
 20
40.8499973581
 30
0.0
 10
21.9437489805
 20
40.908325614
 30
0.0
 10
21.7919709739
 20
40.9604423222
 30
0.0
 10
21.719493085
 20
40.9896083335
 30
0.0
  0
SPLINE
  5
2C3
100
AcDbEntity
  8
0
100
AcDbSpline
 62
7
  6
BYLAYER
 70
0
 71
3
 72
9
 73
5
 74
0
 42
0.0000001
 43
0.0000001
 44
0.0000000001
 40
0.0
 40
0.0
 40
0.0
 40
0.0
 40
0.241075851
 40
1.0
 40
1.0
 40
1.0
 40
1.0
 10
28.3658052908
 20
41.0317168562
 30
0.0
 10
28.3531986766
 20
41.033565654
 30
0.0
 10
28.3007057834
 20
41.0398432416
 30
0.0
 10
28.2476255901
 20
41.0408520945
 30
0.0
 10
28.2075541358
 20
41.0390707112
 30
0.0
  0
SPLINE
  5
2C4
100
AcDbEntity
  8
0
100
AcDbSpline
 62
7
  6
BYLAYER
 70
0
 71
3
 72
9
 73
5
 74
0
 42
0.0000001
 43
0.0000001
 44
0.0000000001
 40
0.0
 40
0.0
 40
0.0
 40
0.0
 40
0.2341061478
 40
1.0
 40
1.0
 40
1.0
 40
1.0
 10
28.5001734489
 20
40.9950483143
 30
0.0
 10
28.4901520589
 20
40.9992974987
 30
0.0
 10
28.4466572741
 20
41.015820874
 30
0.0
 10
28.4010019852
 20
41.0262999726
 30
0.0
 10
28.3658052908
 20
41.0317168562
 30
0.0
  0
SPLINE
  5
2C5
100
AcDbEntity
  8
0
100
AcDbSpline
 62
7
  6
BYLAYER
 70
0
 71
3
 72
15
 73
11
 74
0
 42
0.0000001
 43
0.0000001
 44
0.0000000001
 40
0.0
 40
0.0
 40
0.0
 40
0.0
 40
0.1080128713
 40
0.2180609173
 40
0.3319983475
 40
0.4513599927
 40
0.5772735432
 40
0.7104898993
 40
0.8514269448
 40
1.0
 40
1.0
 40
1.0
 40
1.0
 10
41.0758635253
 20
23.8414732691
 30
0.0
 10
41.2070281589
 20
23.917200748
 30
0.0
 10
41.4591987844
 20
24.0931846862
 30
0.0
 10
41.7924161671
 20
24.4211055896
 30
0.0
 10
42.0790059175
 20
24.8103126644
 30
0.0
 10
42.3162566521
 20
25.2564432097
 30
0.0
 10
42.502424845
 20
25.7548945572
 30
0.0
 10
42.6360093066
 20
26.3009238134
 30
0.0
 10
42.7159463713
 20
26.8891967978
 30
0.0
 10
42.7327621674
 20
27.2954265887
 30
0.0
 10
42.7327621674
 20
27.5037557212
 30
0.0
  0
ELLIPSE
  5
2C6
100
AcDbEntity
  8
0
100
AcDbEllipse
 62
7
  6
BYLAYER
 10
33.3651541172
 20
29.8448005504
 30
0.0
 11
4.1562266732
 21
2.2786418546
 31
0.0
 40
0.0226593488
 41
-1.5045000495
 42
-1.316771423
  0
ELLIPSE
  5
2C7
100
AcDbEntity
  8
0
100
AcDbEllipse
 62
7
  6
BYLAYER
 10
34.2695415887
 20
27.931951558
 30
0.0
 11
3.9440392176
 21
2.4012294443
 31
0.0
 40
0.0226577413
 41
1.4692149512
 42
1.4782840288
  0
ELLIPSE
  5
2C8
100
AcDbEntity
  8
0
100
AcDbEllipse
 62
7
  6
BYLAYER
 10
33.3651541172
 20
28.4540880958
 30
0.0
 11
4.1562266732
 21
2.2786418546
 31
0.0
 40
0.0226593488
 41
1.2919268279
 42
1.4796554543
  0
ELLIPSE
  5
2C9
100
AcDbEntity
  8
0
100
AcDbEllipse
 62
7
  6
BYLAYER
 10
23.1694569288
 20
42.1537024992
 30
0.0
 11
0.4994119546
 21
0.0483330055
 31
0.0
 40
0.5015727036
 41
3.8784909314
 42
4.1612913532
  0
ENDSEC
  0
SECTION
  2
OBJECTS
  0
DICTIONARY
  5
C
100
AcDbDictionary
280
0
281
1
  3
ACAD_GROUP
350
D
  3
ACAD_MLINESTYLE
350
17
  3
ACAD_LAYOUT
350
1A
  3
ACAD_PLOTSETTINGS
350
19
  3
ACAD_PLOTSTYLENAME
350
E
  0
DICTIONARY
  5
D
102
{ACAD_REACTORS
330
C
102
}
100
AcDbDictionary
280
0
281
1
  0
ACDBDICTIONARYWDFLT
  5
E
102
{ACAD_REACTORS
330
C
102
}
100
AcDbDictionary
281
1
  3
Normal
350
F
100
AcDbDictionaryWithDefault
340
F
  0
DICTIONARY
  5
17
102
{ACAD_REACTORS
330
C
102
}
100
AcDbDictionary
280
0
281
1
  3
Standard
350
18
  0
DICTIONARY
  5
19
102
{ACAD_REACTORS
330
C
102
}
100
AcDbDictionary
281
1
  0
DICTIONARY
  5
1A
102
{ACAD_REACTORS
330
C
102
}
100
AcDbDictionary
281
1
  3
Model
350
2CA
  3
Layout1
350
2CB
  0
ACDBPLACEHOLDER
  5
F
102
{ACAD_REACTORS
330
E
102
}
  0
MLINESTYLE
  5
18
102
{ACAD_REACTORS
330
17
102
}
100
AcDbMlineStyle
  2
STANDARD
 70
0
  3

 62
256
 51
90.0
 52
90.0
 71
2
 49
0.5
 62
256
  6
BYLAYER
 49
-0.5
 62
256
  6
BYLAYER
  0
LAYOUT
  5
2CA
102
{ACAD_REACTORS
330
1A
102
}
100
AcDbPlotSettings
  1

  2
none_device
  4

  6

 40
0.0
 41
0.0
 42
0.0
 43
0.0
 44
210.0
 45
297.0
 46
0.0
 47
0.0
 48
0.0
 49
0.0
140
0.0
141
0.0
142
1.0
143
1.0
 70
1024
 72
1
 73
0
 74
0
  7

 75
0
147
1.0
148
0.0
149
0.0
100
AcDbLayout
  1
Model
 70
0
 71
0
 10
0.0
 20
0.0
 11
210.0
 21
297.0
 12
0.0
 22
0.0
 32
0.0
 14
0.0
 24
0.0
 34
0.0
 15
0.0
 25
0.0
 35
0.0
146
0.0
 13
0.0
 23
0.0
 33
0.0
 16
1.0
 26
0.0
 36
0.0
 17
0.0
 27
1.0
 37
0.0
 76
0
330
210
345
0
346
0
  0
LAYOUT
  5
2CB
102
{ACAD_REACTORS
330
1A
102
}
100
AcDbPlotSettings
  1

  2
none_device
  4

  6

 40
0.0
 41
0.0
 42
0.0
 43
0.0
 44
210.0
 45
297.0
 46
0.0
 47
0.0
 48
0.0
 49
0.0
140
0.0
141
0.0
142
1.0
143
1.0
 70
0
 72
1
 73
0
 74
0
  7

 75
0
147
1.0
148
0.0
149
0.0
100
AcDbLayout
  1
Layout1
 70
0
 71
1
 10
0.0
 20
0.0
 11
210.0
 21
297.0
 12
0.0
 22
0.0
 32
0.0
 14
0.0
 24
0.0
 34
0.0
 15
0.0
 25
0.0
 35
0.0
146
0.0
 13
0.0
 23
0.0
 33
0.0
 16
1.0
 26
0.0
 36
0.0
 17
0.0
 27
1.0
 37
0.0
 76
0
330
211
345
0
346
0
  0
ENDSEC
  0
EOF
