999
DXF file: C:\Users\sesa63760\Dev\_Creo\CAD\MCADID0004134_3D-CAD\drw0001_4.dxf
999
Pro/ENGINEER 2019471 by Parametric Technology Corporation
  0
SECTION
  2
HEADER
  9
$ACADVER
  1
AC1024
  9
$DWGCODEPAGE
  3
ANSI_1252
  9
$EXTMAX
 10
62.3396594861
 20
88.1660898446
 30
0.0
  9
$EXTMIN
 10
0.0
 20
0.0
 30
0.0
  9
$LIMMIN
 10
0.0
 20
0.0
  9
$LIMMAX
 10
62.3396594861
 20
88.1660898446
  9
$VIEWCTR
 10
31.169829743
 20
44.0830449223
  9
$VIEWSIZE
 40
88.1660898446
  9
$CLAYER
  8
0
  9
$LTSCALE
 40
5.7471228936
  9
$CELTYPE
  6
BYLAYER
  9
$DIMSCALE
 40
1.0
  9
$DIMASZ
 40
0.7421388034
  9
$DIMEXO
 40
1.0
  9
$DIMDLI
 40
3.9707394537
  9
$DIMEXE
 40
1.0
  9
$DIMCEN
 40
0.9404382917
  9
$DIMLFAC
 40
1.0
  9
$DIMBLK
  1
_FILLED
  9
$DIMALT
 70
0
  9
$DIMALTF
 40
0.0393700787
  9
$DIMTXT
 40
1.0389943248
  9
$DIMTOL
 70
1
  9
$DIMLIM
 70
0
  9
$DIMTFAC
 40
1.0
  9
$DIMTP
 40
0.01
  9
$DIMTM
 40
0.01
  9
$DIMGAP
 40
0.625
  9
$DIMDSEP
 70
46
  9
$AUNITS
 70
0
  9
$PDMODE
 70
3
  9
$PDSIZE
 40
0.3125
  9
$HANDSEED
  5
2BD
  9
$TILEMODE
 70
1
  9
$MEASUREMENT
 70
1
  9
$INSUNITS
 70
4
  0
ENDSEC
  0
SECTION
  2
CLASSES
  0
CLASS
  1
ACDBDICTIONARYWDFLT
  2
AcDbDictionaryWithDefault
  3
AutoCAD 2000
 90
0
 91
1
280
0
281
0
  0
CLASS
  1
ACDBPLACEHOLDER
  2
AcDbPlaceHolder
  3
AutoCAD 2000
 90
0
 91
1
280
0
281
0
  0
CLASS
  1
LAYOUT
  2
AcDbLayout
  3
AutoCAD 2000
 90
0
 91
0
280
0
281
0
  0
ENDSEC
  0
SECTION
  2
TABLES
  0
TABLE
  2
VPORT
  5
8
100
AcDbSymbolTable
 70
2
  0
VPORT
  5
1F4
100
AcDbSymbolTableRecord
100
AcDbViewportTableRecord
  2
*ACTIVE
 70
0
 10
0.0
 20
0.0
 11
1.0
 21
1.0
 12
31.169829743
 22
44.0830449223
 13
0.0
 23
0.0
 14
1.0
 24
1.0
 15
0.0
 25
0.0
 16
0.0
 26
0.0
 36
1.0
 17
0.0
 27
0.0
 37
0.0
 40
88.1660898446
 41
0.7070707071
 42
50.0
 43
0.0
 44
0.0
 50
0.0
 51
0.0
 71
0
 72
100
 73
1
 74
1
 75
0
 76
0
 77
0
 78
0
  0
ENDTAB
  0
TABLE
  2
LTYPE
  5
5
100
AcDbSymbolTable
 70
6
  0
LTYPE
  5
14
100
AcDbSymbolTableRecord
100
AcDbLinetypeTableRecord
  2
BYBLOCK
 70
0
  3

 72
65
 73
0
 40
0.0
  0
LTYPE
  5
15
100
AcDbSymbolTableRecord
100
AcDbLinetypeTableRecord
  2
BYLAYER
 70
0
  3

 72
65
 73
0
 40
0.0
  0
LTYPE
  5
16
100
AcDbSymbolTableRecord
100
AcDbLinetypeTableRecord
  2
CONTINUOUS
 70
64
  3
Solid line
 72
65
 73
0
 40
0.0
  0
LTYPE
  5
1F5
100
AcDbSymbolTableRecord
100
AcDbLinetypeTableRecord
  2
CENTER
 70
64
  3
____ _ ____ _ ____ _ ____ _ ____ _ ____ _ ____
 72
65
 73
4
 40
0.6
 49
0.375
 74
0
 49
-0.075
 74
0
 49
0.075
 74
0
 49
-0.075
 74
0
  0
LTYPE
  5
1F6
100
AcDbSymbolTableRecord
100
AcDbLinetypeTableRecord
  2
HIDDEN
 70
64
  3
- - - - - - - - - - - - - - - - - - - -
 72
65
 73
2
 40
0.2
 49
0.1
 74
0
 49
-0.1
 74
0
  0
LTYPE
  5
1F7
100
AcDbSymbolTableRecord
100
AcDbLinetypeTableRecord
  2
PHANTOM
 70
64
  3
_____ _ _ _____ _ _ _____ _ _ _____
 72
65
 73
6
 40
0.8
 49
0.45
 74
0
 49
-0.05
 74
0
 49
0.1
 74
0
 49
-0.05
 74
0
 49
0.1
 74
0
 49
-0.05
 74
0
  0
LTYPE
  5
1F8
100
AcDbSymbolTableRecord
100
AcDbLinetypeTableRecord
  2
DOT
 70
64
  3
. . . . . . . . . . . . . . . . . . . .
 72
65
 73
2
 40
0.2
 49
0.1
 74
0
 49
-0.1
 74
0
  0
LTYPE
  5
1F9
100
AcDbSymbolTableRecord
100
AcDbLinetypeTableRecord
  2
DASHED
 70
64
  3
- - - - - - - - - - - - - - - - - - - -
 72
65
 73
2
 40
0.2
 49
0.1
 74
0
 49
-0.1
 74
0
  0
ENDTAB
  0
TABLE
  2
LAYER
  5
2
100
AcDbSymbolTable
 70
36
  0
LAYER
  5
10
100
AcDbSymbolTableRecord
100
AcDbLayerTableRecord
  2
0
 70
0
 62
7
  6
CONTINUOUS
370
-3
390
F
  0
LAYER
  5
1FA
100
AcDbSymbolTableRecord
100
AcDbLayerTableRecord
  2
DEFAULT_1
 70
0
 62
7
  6
CENTER
370
-3
390
F
  0
LAYER
  5
1FB
100
AcDbSymbolTableRecord
100
AcDbLayerTableRecord
  2
DEFAULT_2
 70
0
 62
7
  6
HIDDEN
370
-3
390
F
  0
LAYER
  5
1FC
100
AcDbSymbolTableRecord
100
AcDbLayerTableRecord
  2
DEFAULT_3
 70
0
 62
7
  6
PHANTOM
370
-3
390
F
  0
LAYER
  5
1FD
100
AcDbSymbolTableRecord
100
AcDbLayerTableRecord
  2
00_COMPONENTS
 70
0
 62
7
  6
CONTINUOUS
370
-3
390
F
  0
LAYER
  5
1FE
100
AcDbSymbolTableRecord
100
AcDbLayerTableRecord
  2
01_1_DEFAULT_DATUMS
 70
0
 62
7
  6
CONTINUOUS
370
-3
390
F
  0
LAYER
  5
1FF
100
AcDbSymbolTableRecord
100
AcDbLayerTableRecord
  2
01_PLANES
 70
0
 62
7
  6
CONTINUOUS
370
-3
390
F
  0
LAYER
  5
200
100
AcDbSymbolTableRecord
100
AcDbLayerTableRecord
  2
02_COORD_SYS
 70
0
 62
7
  6
CONTINUOUS
370
-3
390
F
  0
LAYER
  5
201
100
AcDbSymbolTableRecord
100
AcDbLayerTableRecord
  2
03_AXES
 70
0
 62
7
  6
CONTINUOUS
370
-3
390
F
  0
LAYER
  5
202
100
AcDbSymbolTableRecord
100
AcDbLayerTableRecord
  2
04_POINTS
 70
0
 62
7
  6
CONTINUOUS
370
-3
390
F
  0
LAYER
  5
203
100
AcDbSymbolTableRecord
100
AcDbLayerTableRecord
  2
05_CURVES
 70
0
 62
7
  6
CONTINUOUS
370
-3
390
F
  0
LAYER
  5
204
100
AcDbSymbolTableRecord
100
AcDbLayerTableRecord
  2
06_SURFS
 70
0
 62
7
  6
CONTINUOUS
370
-3
390
F
  0
LAYER
  5
205
100
AcDbSymbolTableRecord
100
AcDbLayerTableRecord
  2
07_COSMETICS
 70
0
 62
7
  6
CONTINUOUS
370
-3
390
F
  0
LAYER
  5
206
100
AcDbSymbolTableRecord
100
AcDbLayerTableRecord
  2
10_NOTES
 70
0
 62
7
  6
CONTINUOUS
370
-3
390
F
  0
LAYER
  5
207
100
AcDbSymbolTableRecord
100
AcDbLayerTableRecord
  2
11_NOTES_PUB
 70
0
 62
7
  6
CONTINUOUS
370
-3
390
F
  0
LAYER
  5
208
100
AcDbSymbolTableRecord
100
AcDbLayerTableRecord
  2
13_REF_GTOL
 70
0
 62
7
  6
CONTINUOUS
370
-3
390
F
  0
LAYER
  5
209
100
AcDbSymbolTableRecord
100
AcDbLayerTableRecord
  2
16_MISC
 70
0
 62
7
  6
CONTINUOUS
370
-3
390
F
  0
LAYER
  5
20A
100
AcDbSymbolTableRecord
100
AcDbLayerTableRecord
  2
17_NO_PRINT
 70
0
 62
7
  6
CONTINUOUS
370
-3
390
F
  0
LAYER
  5
20B
100
AcDbSymbolTableRecord
100
AcDbLayerTableRecord
  2
18_DATUM_CAMS_JOINTS
 70
0
 62
7
  6
CONTINUOUS
370
-3
390
F
  0
LAYER
  5
20C
100
AcDbSymbolTableRecord
100
AcDbLayerTableRecord
  2
19_DATUM_FUNCTIONAL
 70
0
 62
7
  6
CONTINUOUS
370
-3
390
F
  0
LAYER
  5
20D
100
AcDbSymbolTableRecord
100
AcDbLayerTableRecord
  2
20_DATUM_KINEMATIC_SCHEME
 70
0
 62
7
  6
CONTINUOUS
370
-3
390
F
  0
ENDTAB
  0
TABLE
  2
STYLE
  5
3
100
AcDbSymbolTable
 70
1
  0
STYLE
  5
11
100
AcDbSymbolTableRecord
100
AcDbTextStyleTableRecord
  2
STANDARD
 70
0
 40
0.0
 41
1.0
 50
0.0
 71
0
 42
0.2
  3
ARIAL.TTF
  4

  0
STYLE
  5
20E
100
AcDbSymbolTableRecord
100
AcDbTextStyleTableRecord
  2
TEXTSTYLE_1
 70
0
 40
0.0
 41
0.8
 50
0.0
 71
0
 42
0.2
  3
gdt
  4

  0
ENDTAB
  0
TABLE
  2
VIEW
  5
6
100
AcDbSymbolTable
 70
0
  0
ENDTAB
  0
TABLE
  2
UCS
  5
7
100
AcDbSymbolTable
 70
0
  0
ENDTAB
  0
TABLE
  2
APPID
  5
9
100
AcDbSymbolTable
 70
1
  0
APPID
  5
20F
100
AcDbSymbolTableRecord
100
AcDbRegAppTableRecord
  2
ACAD
 70
0
  0
ENDTAB
  0
TABLE
  2
BLOCK_RECORD
  5
1
100
AcDbSymbolTable
 70
0
  0
BLOCK_RECORD
  5
210
100
AcDbSymbolTableRecord
100
AcDbBlockTableRecord
  2
*Model_Space
  0
BLOCK_RECORD
  5
211
100
AcDbSymbolTableRecord
100
AcDbBlockTableRecord
  2
*Paper_Space
  0
BLOCK_RECORD
  5
212
100
AcDbSymbolTableRecord
100
AcDbBlockTableRecord
  2
_FILLED
  0
ENDTAB
  0
TABLE
  2
DIMSTYLE
  5
A
100
AcDbSymbolTable
 70
1
100
AcDbDimStyleTable
 71
0
  0
DIMSTYLE
105
213
100
AcDbSymbolTableRecord
100
AcDbDimStyleTableRecord
  2
STANDARD
 70
0
  3

  4

 40
1.0
 41
0.7421388034
 42
1.0
 43
0.38
 44
1.0
 45
0.0
 46
0.0
 47
0.01
 48
0.01
140
1.0389943248
141
0.09
142
0.0
143
25.4
144
1.0
145
0.0
146
1.0
147
0.625
 71
1
 72
0
 73
0
 74
0
 75
0
 76
0
 77
1
 78
8
 79
2
170
0
171
1
172
0
173
0
174
0
175
0
176
0
177
0
178
0
270
2
179
2
271
2
272
2
273
2
274
2
275
0
280
0
281
0
282
0
283
1
284
8
285
0
286
0
287
3
288
0
340
11
278
46
341
212
342
212
343
212
344
212
  0
ENDTAB
  0
ENDSEC
  0
SECTION
  2
BLOCKS
  0
BLOCK
  5
20
100
AcDbEntity
  8
0
100
AcDbBlockBegin
  2
*Model_Space
 70
0
 10
0.0
 20
0.0
 30
0.0
  3
*Model_Space
  1

  0
ENDBLK
  5
21
100
AcDbEntity
  8
0
100
AcDbBlockEnd
  0
BLOCK
  5
1C
100
AcDbEntity
  8
0
100
AcDbBlockBegin
  2
*Paper_Space
 70
0
 10
0.0
 20
0.0
 30
0.0
  3
*Paper_Space
  1

  0
ENDBLK
  5
1D
100
AcDbEntity
  8
0
100
AcDbBlockEnd
  0
BLOCK
  5
214
100
AcDbEntity
  8
0
100
AcDbBlockBegin
  2
_FILLED
 70
64
 10
0.0
 20
0.0
  3
_FILLED
  1

  0
SOLID
  5
215
100
AcDbEntity
  8
0
  6
BYBLOCK
 62
0
100
AcDbTrace
 10
0.0
 20
0.0
 11
-1.0
 21
0.25
 12
-1.0
 22
-0.25
 13
-1.0
 23
-0.25
  0
ENDBLK
  5
216
100
AcDbEntity
  8
0
  6
BYBLOCK
 62
0
100
AcDbBlockEnd
  0
ENDSEC
  0
SECTION
  2
ENTITIES
  0
LINE
  5
217
100
AcDbEntity
  8
0
100
AcDbLine
 62
7
  6
BYLAYER
 10
7.9153358847
 20
76.8132588456
 11
6.941512833
 21
75.8136015207
  0
LINE
  5
218
100
AcDbEntity
  8
0
100
AcDbLine
 62
7
  6
BYLAYER
 10
10.6907682005
 20
76.7859585159
 11
7.0148613521
 21
73.0125345858
  0
LINE
  5
219
100
AcDbEntity
  8
0
100
AcDbLine
 62
7
  6
BYLAYER
 10
55.7653358847
 20
10.8132588456
 11
45.2653358847
 21
10.8132588456
  0
LINE
  5
21A
100
AcDbEntity
  8
0
100
AcDbLine
 62
7
  6
BYLAYER
 10
45.2653358847
 20
12.3132588456
 11
55.7653358847
 21
12.3132588456
  0
LINE
  5
21B
100
AcDbEntity
  8
0
100
AcDbLine
 62
7
  6
BYLAYER
 10
6.941520375
 20
75.8133135048
 11
8.2770038063
 21
24.8132588456
  0
LINE
  5
21C
100
AcDbEntity
  8
0
100
AcDbLine
 62
7
  6
BYLAYER
 10
8.2770038063
 20
24.8132588456
 11
44.0153358847
 21
24.8132588456
  0
LINE
  5
21D
100
AcDbEntity
  8
0
100
AcDbLine
 62
7
  6
BYLAYER
 10
44.5217807063
 20
13.2351047972
 11
44.7578361096
 21
13.0998640767
  0
LINE
  5
21E
100
AcDbEntity
  8
0
100
AcDbLine
 62
7
  6
BYLAYER
 10
44.5218408838
 20
14.2350831724
 11
44.756881871
 21
14.1004217953
  0
LINE
  5
21F
100
AcDbEntity
  8
0
100
AcDbLine
 62
7
  6
BYLAYER
 10
44.7578361096
 20
13.0998640767
 11
45.2580938555
 21
12.8132121699
  0
LINE
  5
220
100
AcDbEntity
  8
0
100
AcDbLine
 62
7
  6
BYLAYER
 10
44.756881871
 20
14.1004217953
 11
45.258122535
 21
13.8132025846
  0
LWPOLYLINE
  5
221
100
AcDbEntity
  8
0
100
AcDbPolyline
 62
7
  6
BYLAYER
 90
3
 70
0
 10
44.5218747928
 20
15.2350907722
 10
45.0860887914
 20
14.9118111049
 10
45.2581573531
 20
14.8132037812
  0
LWPOLYLINE
  5
222
100
AcDbEntity
  8
0
100
AcDbPolyline
 62
7
  6
BYLAYER
 90
3
 70
0
 10
44.5218859268
 20
16.2351181564
 10
45.0861722858
 20
15.9117931568
 10
45.258190462
 20
15.8132134752
  0
LWPOLYLINE
  5
223
100
AcDbEntity
  8
0
100
AcDbPolyline
 62
7
  6
BYLAYER
 90
3
 70
0
 10
44.5218781926
 20
17.2351568002
 10
45.0862395375
 20
16.9117859363
 10
45.2582158892
 20
16.8132292976
  0
LINE
  5
224
100
AcDbEntity
  8
0
100
AcDbLine
 62
7
  6
BYLAYER
 10
56.5087969811
 20
13.8914276095
 11
56.2836729441
 21
14.0204087986
  0
LWPOLYLINE
  5
225
100
AcDbEntity
  8
0
100
AcDbPolyline
 62
7
  6
BYLAYER
 90
3
 70
0
 10
44.52185578
 20
18.2351992366
 10
45.0862861396
 20
17.9117871587
 10
45.2582296135
 20
17.813248821
  0
LWPOLYLINE
  5
226
100
AcDbEntity
  8
0
100
AcDbPolyline
 62
7
  6
BYLAYER
 90
3
 70
0
 10
44.5218230616
 20
19.2352391678
 10
45.086309809
 20
18.9117944703
 10
45.2582296123
 20
18.8132695818
  0
LINE
  5
227
100
AcDbEntity
  8
0
100
AcDbLine
 62
7
  6
BYLAYER
 10
56.3994499677
 20
12.9540418225
 11
55.7724813126
 21
13.3133049262
  0
LWPOLYLINE
  5
228
100
AcDbEntity
  8
0
100
AcDbPolyline
 62
7
  6
BYLAYER
 90
3
 70
0
 10
44.5217845
 20
20.2352715591
 10
45.0863104132
 20
19.9118054712
 10
45.2582158858
 20
19.8132891046
  0
LINE
  5
229
100
AcDbEntity
  8
0
100
AcDbLine
 62
7
  6
BYLAYER
 10
56.2836729441
 20
14.0204087986
 11
55.7725144223
 21
14.3133146188
  0
LINE
  5
22A
100
AcDbEntity
  8
0
100
AcDbLine
 62
7
  6
BYLAYER
 10
56.5088308943
 20
14.8914352046
 11
56.2837679241
 21
15.0203796576
  0
LINE
  5
22B
100
AcDbEntity
  8
0
100
AcDbLine
 62
7
  6
BYLAYER
 10
56.5088910742
 20
15.8914135756
 11
56.2828017466
 21
16.0209442912
  0
LINE
  5
22C
100
AcDbEntity
  8
0
100
AcDbLine
 62
7
  6
BYLAYER
 10
56.5089573289
 20
16.8913678831
 11
56.2836730828
 21
17.0204362276
  0
LINE
  5
22D
100
AcDbEntity
  8
0
100
AcDbLine
 62
7
  6
BYLAYER
 10
56.2837679241
 20
15.0203796576
 11
55.77254924
 21
15.3133158135
  0
LINE
  5
22E
100
AcDbEntity
  8
0
100
AcDbLine
 62
7
  6
BYLAYER
 10
56.2828017466
 20
16.0209442912
 11
55.7725779176
 21
16.3133062261
  0
LINE
  5
22F
100
AcDbEntity
  8
0
100
AcDbLine
 62
7
  6
BYLAYER
 10
56.2836730828
 20
17.0204362276
 11
55.772594309
 21
17.3132856739
  0
LINE
  5
230
100
AcDbEntity
  8
0
100
AcDbLine
 62
7
  6
BYLAYER
 10
44.9473257282
 20
12.6312690014
 11
45.2653358841
 21
12.313258845
  0
LINE
  5
231
100
AcDbEntity
  8
0
100
AcDbLine
 62
7
  6
BYLAYER
 10
56.5089972819
 20
17.8913211119
 11
56.2836858405
 21
18.0204051011
  0
LINE
  5
232
100
AcDbEntity
  8
0
100
AcDbLine
 62
7
  6
BYLAYER
 10
56.5090141567
 20
18.8912789879
 11
56.2836627873
 21
19.0203867307
  0
LINE
  5
233
100
AcDbEntity
  8
0
100
AcDbLine
 62
7
  6
BYLAYER
 10
56.5090116557
 20
19.8912458956
 11
56.2836183478
 21
20.0203790341
  0
LINE
  5
234
100
AcDbEntity
  8
0
100
AcDbLine
 62
7
  6
BYLAYER
 10
56.2836858405
 20
18.0204051011
 11
55.7725994935
 21
18.3132591969
  0
LINE
  5
235
100
AcDbEntity
  8
0
100
AcDbLine
 62
7
  6
BYLAYER
 10
56.2836627873
 20
19.0203867307
 11
55.7725943073
 21
19.3132327205
  0
LINE
  5
236
100
AcDbEntity
  8
0
100
AcDbLine
 62
7
  6
BYLAYER
 10
56.2836183478
 20
20.0203790341
 11
55.772577914
 21
20.3132121699
  0
LINE
  5
237
100
AcDbEntity
  8
0
100
AcDbLine
 62
7
  6
BYLAYER
 10
44.5218858165
 20
16.2350290927
 11
44.5153358847
 21
16.2424661552
  0
LINE
  5
238
100
AcDbEntity
  8
0
100
AcDbLine
 62
7
  6
BYLAYER
 10
44.5218780401
 20
17.2350336678
 11
44.5153358847
 21
17.2424661422
  0
LINE
  5
239
100
AcDbEntity
  8
0
100
AcDbLine
 62
7
  6
BYLAYER
 10
44.521874724
 20
15.2350351989
 11
44.5153358847
 21
15.2424662746
  0
LINE
  5
23A
100
AcDbEntity
  8
0
100
AcDbLine
 62
7
  6
BYLAYER
 10
44.5218408482
 20
14.2350543473
 11
44.5153358847
 21
14.2424664081
  0
LINE
  5
23B
100
AcDbEntity
  8
0
100
AcDbLine
 62
7
  6
BYLAYER
 10
44.5217806866
 20
13.2350887685
 11
44.5153358847
 21
13.2424664535
  0
LINE
  5
23C
100
AcDbEntity
  8
0
100
AcDbLine
 62
7
  6
BYLAYER
 10
44.5218555911
 20
18.2350464887
 11
44.5153358847
 21
18.2424662385
  0
LINE
  5
23D
100
AcDbEntity
  8
0
100
AcDbLine
 62
7
  6
BYLAYER
 10
44.5218228468
 20
19.2350650225
 11
44.5153358847
 21
19.2424662932
  0
LINE
  5
23E
100
AcDbEntity
  8
0
100
AcDbLine
 62
7
  6
BYLAYER
 10
44.5217842729
 20
20.2350868377
 11
44.5153358847
 21
20.2424664055
  0
LINE
  5
23F
100
AcDbEntity
  8
0
100
AcDbLine
 62
7
  6
BYLAYER
 10
56.5087970494
 20
13.8914827457
 11
56.5153358847
 21
13.8840502386
  0
LINE
  5
240
100
AcDbEntity
  8
0
100
AcDbLine
 62
7
  6
BYLAYER
 10
56.5088309276
 20
14.8914621347
 11
56.5153358847
 21
14.8840528706
  0
LINE
  5
241
100
AcDbEntity
  8
0
100
AcDbLine
 62
7
  6
BYLAYER
 10
56.5088910932
 20
15.891429023
 11
56.5153358847
 21
15.8840500991
  0
LINE
  5
242
100
AcDbEntity
  8
0
100
AcDbLine
 62
7
  6
BYLAYER
 10
56.5089573557
 20
16.8913898277
 11
56.5153358847
 21
16.8840529121
  0
LINE
  5
243
100
AcDbEntity
  8
0
100
AcDbLine
 62
7
  6
BYLAYER
 10
56.5089973389
 20
17.8913678455
 11
56.5153358847
 21
17.8840499905
  0
LINE
  5
244
100
AcDbEntity
  8
0
100
AcDbLine
 62
7
  6
BYLAYER
 10
56.5090142517
 20
18.8913570883
 11
56.5153358847
 21
18.884052915
  0
LINE
  5
245
100
AcDbEntity
  8
0
100
AcDbLine
 62
7
  6
BYLAYER
 10
56.5090117939
 20
19.8913593859
 11
56.5153358847
 21
19.884049917
  0
LINE
  5
246
100
AcDbEntity
  8
0
100
AcDbLine
 62
7
  6
BYLAYER
 10
44.5153358847
 20
24.5889947769
 11
44.515343622
 21
24.5889795362
  0
LINE
  5
247
100
AcDbEntity
  8
0
100
AcDbLine
 62
7
  6
BYLAYER
 10
44.5153358847
 20
24.5889947769
 11
44.5153358847
 21
20.2424664055
  0
LINE
  5
248
100
AcDbEntity
  8
0
100
AcDbLine
 62
7
  6
BYLAYER
 10
44.5153358847
 20
18.3840514375
 11
44.5153358847
 21
18.2424662385
  0
LINE
  5
249
100
AcDbEntity
  8
0
100
AcDbLine
 62
7
  6
BYLAYER
 10
44.5153358847
 20
17.3840510401
 11
44.5153358847
 21
17.2424661422
  0
LINE
  5
24A
100
AcDbEntity
  8
0
100
AcDbLine
 62
7
  6
BYLAYER
 10
44.5153358847
 20
16.3840515415
 11
44.5153358847
 21
16.2424661552
  0
LINE
  5
24B
100
AcDbEntity
  8
0
100
AcDbLine
 62
7
  6
BYLAYER
 10
44.5153358847
 20
15.3840508113
 11
44.5153358847
 21
15.2424662746
  0
LINE
  5
24C
100
AcDbEntity
  8
0
100
AcDbLine
 62
7
  6
BYLAYER
 10
44.5153358847
 20
14.3840516902
 11
44.5153358847
 21
14.2424664081
  0
LINE
  5
24D
100
AcDbEntity
  8
0
100
AcDbLine
 62
7
  6
BYLAYER
 10
44.5153358847
 20
13.384050597
 11
44.5153358847
 21
13.2424664535
  0
LINE
  5
24E
100
AcDbEntity
  8
0
100
AcDbLine
 62
7
  6
BYLAYER
 10
44.5153358847
 20
19.2424662932
 11
44.5153358847
 21
19.3840512794
  0
LINE
  5
24F
100
AcDbEntity
  8
0
100
AcDbLine
 62
7
  6
BYLAYER
 10
45.2653358847
 20
10.8132588456
 11
45.2653358847
 21
12.3132588456
  0
LINE
  5
250
100
AcDbEntity
  8
0
100
AcDbLine
 62
7
  6
BYLAYER
 10
50.3653358847
 20
69.8132588456
 11
50.3653358847
 21
67.8132588456
  0
LINE
  5
251
100
AcDbEntity
  8
0
100
AcDbLine
 62
7
  6
BYLAYER
 10
50.8653358847
 20
67.8132588456
 11
50.8653358847
 21
69.8132588456
  0
LINE
  5
252
100
AcDbEntity
  8
0
100
AcDbLine
 62
7
  6
BYLAYER
 10
53.4960254609
 20
34.0186493842
 11
44.5157570999
 21
24.5893642869
  0
LINE
  5
253
100
AcDbEntity
  8
0
100
AcDbLine
 62
7
  6
BYLAYER
 10
46.6667255862
 20
26.8478651818
 11
45.8179728217
 21
25.9567316711
  0
LINE
  5
254
100
AcDbEntity
  8
0
100
AcDbLine
 62
7
  6
BYLAYER
 10
45.2151933646
 20
25.3238315447
 11
44.8155807926
 21
24.9042677083
  0
LINE
  5
255
100
AcDbEntity
  8
0
100
AcDbLine
 62
7
  6
BYLAYER
 10
44.5875642631
 20
24.6648050349
 11
44.5153358847
 21
24.5889947769
  0
LINE
  5
256
100
AcDbEntity
  8
0
100
AcDbLine
 62
7
  6
BYLAYER
 10
44.0153358847
 20
24.8132588456
 11
57.0153358847
 21
37.8132588456
  0
LWPOLYLINE
  5
257
100
AcDbEntity
  8
0
100
AcDbPolyline
 62
7
  6
BYLAYER
 90
4
 70
0
 10
44.0154292309
 20
24.8132588456
 10
44.2291012745
 20
24.8924027405
 10
44.447595904
 20
24.786430847
 10
44.523085228
 20
24.5889401023
  0
LINE
  5
258
100
AcDbEntity
  8
0
100
AcDbLine
 62
7
  6
BYLAYER
 10
56.515328469
 20
37.1890163714
 11
56.5153358847
 21
37.1889947769
  0
LINE
  5
259
100
AcDbEntity
  8
0
100
AcDbLine
 62
7
  6
BYLAYER
 10
55.1653358847
 20
69.8132588456
 11
55.1653358847
 21
67.8132588456
  0
LINE
  5
25A
100
AcDbEntity
  8
0
100
AcDbLine
 62
7
  6
BYLAYER
 10
55.6653358847
 20
67.8132588456
 11
55.6653358847
 21
69.8132588456
  0
LINE
  5
25B
100
AcDbEntity
  8
0
100
AcDbLine
 62
7
  6
BYLAYER
 10
55.7653358847
 20
10.8132588456
 11
55.7653358847
 21
12.3132588456
  0
LINE
  5
25C
100
AcDbEntity
  8
0
100
AcDbLine
 62
7
  6
BYLAYER
 10
56.5153358847
 20
13.7424662933
 11
56.5153358847
 21
13.8840502386
  0
LINE
  5
25D
100
AcDbEntity
  8
0
100
AcDbLine
 62
7
  6
BYLAYER
 10
56.5153358847
 20
14.7424662933
 11
56.5153358847
 21
14.8840528708
  0
LINE
  5
25E
100
AcDbEntity
  8
0
100
AcDbLine
 62
7
  6
BYLAYER
 10
56.5153358847
 20
15.7424662932
 11
56.5153358847
 21
15.8840500991
  0
LINE
  5
25F
100
AcDbEntity
  8
0
100
AcDbLine
 62
7
  6
BYLAYER
 10
56.5153358847
 20
16.7424662932
 11
56.5153358847
 21
16.8840529123
  0
LINE
  5
260
100
AcDbEntity
  8
0
100
AcDbLine
 62
7
  6
BYLAYER
 10
56.5153358847
 20
17.7424662932
 11
56.5153358847
 21
17.8840499906
  0
LINE
  5
261
100
AcDbEntity
  8
0
100
AcDbLine
 62
7
  6
BYLAYER
 10
56.5153358847
 20
18.7424662932
 11
56.5153358847
 21
18.8840529151
  0
LINE
  5
262
100
AcDbEntity
  8
0
100
AcDbLine
 62
7
  6
BYLAYER
 10
56.5153358847
 20
19.7424662933
 11
56.5153358847
 21
19.8840499171
  0
LINE
  5
263
100
AcDbEntity
  8
0
100
AcDbLine
 62
7
  6
BYLAYER
 10
56.5153358847
 20
20.7424662933
 11
56.5153358847
 21
37.188994777
  0
LINE
  5
264
100
AcDbEntity
  8
0
100
AcDbLine
 62
7
  6
BYLAYER
 10
57.0153358847
 20
37.8132588456
 11
57.0153358847
 21
76.3132588456
  0
LWPOLYLINE
  5
265
100
AcDbEntity
  8
0
100
AcDbPolyline
 62
7
  6
BYLAYER
 90
4
 70
0
 10
56.5153437382
 20
37.1890104729
 10
56.5236682504
 20
37.2591074729
 10
56.5536551661
 20
37.3356684908
 10
56.6032120964
 20
37.4011350573
  0
LINE
  5
266
100
AcDbEntity
  8
0
100
AcDbLine
 62
7
  6
BYLAYER
 10
44.9491793733
 20
12.6362326799
 11
44.9473257282
 21
12.6312690014
  0
LINE
  5
267
100
AcDbEntity
  8
0
100
AcDbLine
 62
7
  6
BYLAYER
 10
44.5157570999
 20
24.5893642869
 11
44.5153374223
 21
24.5889902966
  0
LINE
  5
268
100
AcDbEntity
  8
0
100
AcDbLine
 62
7
  6
BYLAYER
 10
55.6653358847
 20
67.8132588456
 11
55.1653358847
 21
67.8132588456
  0
LINE
  5
269
100
AcDbEntity
  8
0
100
AcDbLine
 62
7
  6
BYLAYER
 10
50.8653358847
 20
67.8132588456
 11
50.3653358847
 21
67.8132588456
  0
LINE
  5
26A
100
AcDbEntity
  8
0
100
AcDbLine
 62
7
  6
BYLAYER
 10
44.5217842809
 20
16.3914303322
 11
44.5153358847
 21
16.3840515415
  0
LINE
  5
26B
100
AcDbEntity
  8
0
100
AcDbLine
 62
7
  6
BYLAYER
 10
44.5218228547
 20
17.3914517541
 11
44.5153358847
 21
17.3840510401
  0
LINE
  5
26C
100
AcDbEntity
  8
0
100
AcDbLine
 62
7
  6
BYLAYER
 10
44.5218555966
 20
18.3914710885
 11
44.5153358847
 21
18.3840514375
  0
LINE
  5
26D
100
AcDbEntity
  8
0
100
AcDbLine
 62
7
  6
BYLAYER
 10
44.5218780444
 20
19.3914831171
 11
44.5153358847
 21
19.3840512777
  0
LINE
  5
26E
100
AcDbEntity
  8
0
100
AcDbLine
 62
7
  6
BYLAYER
 10
45.2729708164
 20
19.8217448767
 11
44.5218781948
 21
19.3913615854
  0
LINE
  5
26F
100
AcDbEntity
  8
0
100
AcDbLine
 62
7
  6
BYLAYER
 10
50.3653358847
 20
69.8132588456
 11
50.8653358847
 21
69.8132588456
  0
LINE
  5
270
100
AcDbEntity
  8
0
100
AcDbLine
 62
7
  6
BYLAYER
 10
55.1653358847
 20
69.8132588456
 11
55.6653358847
 21
69.8132588456
  0
LINE
  5
271
100
AcDbEntity
  8
0
100
AcDbLine
 62
7
  6
BYLAYER
 10
44.5216779645
 20
13.3913687845
 11
44.5153358847
 21
13.384050597
  0
LINE
  5
272
100
AcDbEntity
  8
0
100
AcDbLine
 62
7
  6
BYLAYER
 10
44.5217074764
 20
14.391386213
 11
44.5153358847
 21
14.3840516902
  0
LINE
  5
273
100
AcDbEntity
  8
0
100
AcDbLine
 62
7
  6
BYLAYER
 10
44.521744351
 20
15.3914069022
 11
44.5153358847
 21
15.3840508113
  0
LINE
  5
274
100
AcDbEntity
  8
0
100
AcDbLine
 62
7
  6
BYLAYER
 10
45.2730000475
 20
18.8217342857
 11
44.5218557844
 21
18.3913191491
  0
LINE
  5
275
100
AcDbEntity
  8
0
100
AcDbLine
 62
7
  6
BYLAYER
 10
45.2730065332
 20
17.821717251
 11
44.5218230675
 21
17.3912792169
  0
LINE
  5
276
100
AcDbEntity
  8
0
100
AcDbLine
 62
7
  6
BYLAYER
 10
45.2729902335
 20
16.8216962251
 11
44.5217845065
 21
16.3912468239
  0
LINE
  5
277
100
AcDbEntity
  8
0
100
AcDbLine
 62
7
  6
BYLAYER
 10
45.2729531921
 20
15.821673687
 11
44.5217445731
 21
15.3912256719
  0
LINE
  5
278
100
AcDbEntity
  8
0
100
AcDbLine
 62
7
  6
BYLAYER
 10
45.2728995122
 20
14.821652118
 11
44.5217076818
 21
14.3912180836
  0
LINE
  5
279
100
AcDbEntity
  8
0
100
AcDbLine
 62
7
  6
BYLAYER
 10
55.7579716704
 20
20.3048420124
 11
56.5088910632
 21
20.7351047973
  0
LINE
  5
27A
100
AcDbEntity
  8
0
100
AcDbLine
 62
7
  6
BYLAYER
 10
45.2728353072
 20
13.8216339778
 11
44.5216781398
 21
13.391224982
  0
LINE
  5
27B
100
AcDbEntity
  8
0
100
AcDbLine
 62
7
  6
BYLAYER
 10
55.7580105833
 20
19.3048755333
 11
56.5089573192
 21
19.7351504868
  0
LINE
  5
27C
100
AcDbEntity
  8
0
100
AcDbLine
 62
7
  6
BYLAYER
 10
45.2727686279
 20
12.8216216806
 11
44.949205464
 21
12.6362066038
  0
LINE
  5
27D
100
AcDbEntity
  8
0
100
AcDbLine
 62
7
  6
BYLAYER
 10
8.0154284152
 20
76.8132588456
 11
7.915366894
 21
76.8132588456
  0
LINE
  5
27E
100
AcDbEntity
  8
0
100
AcDbLine
 62
7
  6
BYLAYER
 10
8.0153358847
 20
76.8132588456
 11
57.0153358847
 21
76.3132588456
  0
LINE
  5
27F
100
AcDbEntity
  8
0
100
AcDbLine
 62
7
  6
BYLAYER
 10
56.5090142514
 20
17.7351602132
 11
56.5153358847
 21
17.7424662932
  0
LINE
  5
280
100
AcDbEntity
  8
0
100
AcDbLine
 62
7
  6
BYLAYER
 10
56.5090117957
 20
16.7351586713
 11
56.5153358847
 21
16.7424662932
  0
LINE
  5
281
100
AcDbEntity
  8
0
100
AcDbLine
 62
7
  6
BYLAYER
 10
56.5089973339
 20
18.7351503196
 11
56.5153358847
 21
18.7424662932
  0
LINE
  5
282
100
AcDbEntity
  8
0
100
AcDbLine
 62
7
  6
BYLAYER
 10
56.5089573479
 20
19.73512702
 11
56.5153358847
 21
19.7424662933
  0
LINE
  5
283
100
AcDbEntity
  8
0
100
AcDbLine
 62
7
  6
BYLAYER
 10
56.5088910829
 20
20.7350887334
 11
56.5153358847
 21
20.7424662933
  0
LINE
  5
284
100
AcDbEntity
  8
0
100
AcDbLine
 62
7
  6
BYLAYER
 10
55.7580026255
 20
18.3048944664
 11
56.5089972767
 21
18.7351972588
  0
LINE
  5
285
100
AcDbEntity
  8
0
100
AcDbLine
 62
7
  6
BYLAYER
 10
55.7579624105
 20
17.3049008059
 11
56.5090141551
 21
17.7352393835
  0
LINE
  5
286
100
AcDbEntity
  8
0
100
AcDbLine
 62
7
  6
BYLAYER
 10
55.7579031529
 20
16.3048966994
 11
56.5090116572
 21
16.7352724779
  0
LINE
  5
287
100
AcDbEntity
  8
0
100
AcDbLine
 62
7
  6
BYLAYER
 10
56.5089938106
 20
15.7351480236
 11
56.5153358847
 21
15.7424662932
  0
LINE
  5
288
100
AcDbEntity
  8
0
100
AcDbLine
 62
7
  6
BYLAYER
 10
56.5089643004
 20
14.7351307557
 11
56.5153358847
 21
14.7424662933
  0
LINE
  5
289
100
AcDbEntity
  8
0
100
AcDbLine
 62
7
  6
BYLAYER
 10
56.5089274274
 20
13.7351094732
 11
56.5153358847
 21
13.7424662933
  0
LINE
  5
28A
100
AcDbEntity
  8
0
100
AcDbLine
 62
7
  6
BYLAYER
 10
55.7653358854
 20
12.313258845
 11
56.4013562683
 21
12.949279229
  0
LINE
  5
28B
100
AcDbEntity
  8
0
100
AcDbLine
 62
7
  6
BYLAYER
 10
55.7578364741
 20
15.3048844034
 11
56.5089936333
 21
15.7352933934
  0
LINE
  5
28C
100
AcDbEntity
  8
0
100
AcDbLine
 62
7
  6
BYLAYER
 10
55.7577722678
 20
14.304866264
 11
56.5089640932
 21
14.7353002947
  0
LINE
  5
28D
100
AcDbEntity
  8
0
100
AcDbLine
 62
7
  6
BYLAYER
 10
55.7577185855
 20
13.3048446955
 11
56.5089272028
 21
13.7352927091
  0
CIRCLE
  5
28E
100
AcDbEntity
  8
0
100
AcDbCircle
 62
7
  6
BYLAYER
 10
53.0153358847
 20
39.8132588456
 40
2.65
  0
ARC
  5
28F
100
AcDbEntity
  8
0
100
AcDbCircle
 62
7
  6
BYLAYER
 10
53.0153358847
 20
67.8132588456
 40
2.65
100
AcDbArc
 50
180.0
 51
360.0
  0
ARC
  5
290
100
AcDbEntity
  8
0
100
AcDbCircle
 62
7
  6
BYLAYER
 10
53.0153358847
 20
69.8132588456
 40
2.65
100
AcDbArc
 50
0.0
 51
180.0
  0
CIRCLE
  5
291
100
AcDbEntity
  8
0
100
AcDbCircle
 62
7
  6
BYLAYER
 10
53.0153358847
 20
39.8132588456
 40
2.15
  0
ARC
  5
292
100
AcDbEntity
  8
0
100
AcDbCircle
 62
7
  6
BYLAYER
 10
53.0153358847
 20
67.8132588456
 40
2.15
100
AcDbArc
 50
180.0
 51
360.0
  0
ARC
  5
293
100
AcDbEntity
  8
0
100
AcDbCircle
 62
7
  6
BYLAYER
 10
53.0153358847
 20
69.8132588456
 40
2.15
100
AcDbArc
 50
0.0
 51
180.0
  0
SPLINE
  5
294
100
AcDbEntity
  8
0
100
AcDbSpline
 62
7
  6
BYLAYER
 70
0
 71
3
 72
9
 73
5
 74
0
 42
0.0000001
 43
0.0000001
 44
0.0000000001
 40
0.0
 40
0.0
 40
0.0
 40
0.0
 40
0.716793859
 40
1.0
 40
1.0
 40
1.0
 40
1.0
 10
44.5153358847
 20
18.2424662385
 30
0.0
 10
44.5153358847
 20
18.2433987739
 30
0.0
 10
44.515817198
 20
18.244707099
 30
0.0
 10
44.5165998633
 20
18.2457407194
 30
0.0
 10
44.5168375454
 20
18.2460222502
 30
0.0
  0
SPLINE
  5
295
100
AcDbEntity
  8
0
100
AcDbSpline
 62
7
  6
BYLAYER
 70
0
 71
3
 72
42
 73
38
 74
0
 42
0.0000001
 43
0.0000001
 44
0.0000000001
 40
0.0
 40
0.0
 40
0.0
 40
0.0
 40
0.0005210661
 40
0.0012902297
 40
0.0036387818
 40
0.0071008319
 40
0.0116851288
 40
0.017387659
 40
0.0241957628
 40
0.0320951098
 40
0.0410706842
 40
0.0621685164
 40
0.0872920783
 40
0.1162181466
 40
0.1486761833
 40
0.1843739962
 40
0.2229779881
 40
0.2641374758
 40
0.3074694401
 40
0.3990458042
 40
0.4943414669
 40
0.5898541182
 40
0.6820736513
 40
0.7676113008
 40
0.8068786512
 40
0.8433246262
 40
0.8766101356
 40
0.9064332491
 40
0.9325172162
 40
0.9546271846
 40
0.9725589052
 40
0.9799070379
 40
0.9861565341
 40
0.9912935249
 40
0.9953086096
 40
0.9982040464
 40
1.0
 40
1.0
 40
1.0
 40
1.0
 10
44.5168375454
 20
18.2460222502
 30
0.0
 10
44.5181831066
 20
18.2476160467
 30
0.0
 10
44.522582094
 20
18.2505615471
 30
0.0
 10
44.5359708256
 20
18.2562409976
 30
0.0
 10
44.5616725045
 20
18.2626420649
 30
0.0
 10
44.6025864043
 20
18.2699950159
 30
0.0
 10
44.6571580062
 20
18.2773972582
 30
0.0
 10
44.7251717408
 20
18.2849010531
 30
0.0
 10
44.8065314151
 20
18.2924361342
 30
0.0
 10
44.9010332487
 20
18.3000031086
 30
0.0
 10
45.0526645942
 20
18.3106959905
 30
0.0
 10
45.2732391116
 20
18.3237477819
 30
0.0
 10
45.5736816399
 20
18.3387946721
 30
0.0
 10
45.9196465653
 20
18.35388471
 30
0.0
 10
46.3079735552
 20
18.3690211347
 30
0.0
 10
46.7350671451
 20
18.3841800491
 30
0.0
 10
47.1970121329
 20
18.3993602966
 30
0.0
 10
47.689531872
 20
18.4145485666
 30
0.0
 10
48.3940327341
 20
18.4351946603
 30
0.0
 10
49.315194096
 20
18.4606084121
 30
0.0
 10
50.4451874188
 20
18.4906158669
 30
0.0
 10
51.5777562757
 20
18.5206268498
 30
0.0
 10
52.6712505742
 20
18.5505996905
 30
0.0
 10
53.5396293063
 20
18.5761705358
 30
0.0
 10
54.1847842992
 20
18.5970106111
 30
0.0
 10
54.6208458579
 20
18.612174566
 30
0.0
 10
55.0190781976
 20
18.6273171082
 30
0.0
 10
55.3757993632
 20
18.6424249579
 30
0.0
 10
55.6877436944
 20
18.657476815
 30
0.0
 10
55.9520235406
 20
18.6724575603
 30
0.0
 10
56.1412892004
 20
18.6855162405
 30
0.0
 10
56.2670379215
 20
18.6963195052
 30
0.0
 10
56.3416680804
 20
18.7038337488
 30
0.0
 10
56.4028470754
 20
18.7113191033
 30
0.0
 10
56.4505876528
 20
18.7186443491
 30
0.0
 10
56.4845616428
 20
18.7259440765
 30
0.0
 10
56.5027416124
 20
18.7315631775
 30
0.0
 10
56.5089723911
 20
18.7351496188
 30
0.0
  0
SPLINE
  5
296
100
AcDbEntity
  8
0
100
AcDbSpline
 62
7
  6
BYLAYER
 70
0
 71
3
 72
40
 73
36
 74
0
 42
0.0000001
 43
0.0000001
 44
0.0000000001
 40
0.0
 40
0.0
 40
0.0
 40
0.0
 40
0.0019569481
 40
0.0049904347
 40
0.0091156614
 40
0.0143282549
 40
0.0206178295
 40
0.0279716493
 40
0.0458072779
 40
0.0677052761
 40
0.0935191871
 40
0.123013508
 40
0.1558765278
 40
0.1918008663
 40
0.2304821616
 40
0.2716028845
 40
0.3147948895
 40
0.4057543086
 40
0.5000774428
 40
0.5943973254
 40
0.6853361254
 40
0.769654493
 40
0.8083307349
 40
0.8442342015
 40
0.8770693552
 40
0.9065426133
 40
0.9323683066
 40
0.9542767893
 40
0.9720873088
 40
0.9794187588
 40
0.9856861107
 40
0.9908805436
 40
0.9949956711
 40
0.99803062
 40
1.0
 40
1.0
 40
1.0
 40
1.0
 10
55.7579005082
 20
13.3047389381
 30
0.0
 10
55.7519521353
 20
13.3013403637
 30
0.0
 10
55.7351745273
 20
13.2958007644
 30
0.0
 10
55.7041157768
 20
13.288763099
 30
0.0
 10
55.6613405332
 20
13.2816594298
 30
0.0
 10
55.6071323076
 20
13.2743609287
 30
0.0
 10
55.5415302397
 20
13.2669504443
 30
0.0
 10
55.4318544332
 20
13.2562070128
 30
0.0
 10
55.2675279233
 20
13.2430253744
 30
0.0
 10
55.0385487194
 20
13.2280234309
 30
0.0
 10
54.7686643877
 20
13.2133235801
 30
0.0
 10
54.4603487352
 20
13.1985969556
 30
0.0
 10
54.1166089095
 20
13.1837291257
 30
0.0
 10
53.7406856061
 20
13.1687400881
 30
0.0
 10
53.3358439849
 20
13.1534544006
 30
0.0
 10
52.9055407801
 20
13.1382237864
 30
0.0
 10
52.2922838099
 20
13.1181437606
 30
0.0
 10
51.492825743
 20
13.093623753
 30
0.0
 10
50.5144908793
 20
13.0627977423
 30
0.0
 10
49.5361649873
 20
13.0340442049
 30
0.0
 10
48.5929103299
 20
13.0042654376
 30
0.0
 10
47.8444205235
 20
12.9785898187
 30
0.0
 10
47.2885326738
 20
12.9581427517
 30
0.0
 10
46.9127862951
 20
12.9434419288
 30
0.0
 10
46.5692890707
 20
12.9286079207
 30
0.0
 10
46.2611234298
 20
12.9134487506
 30
0.0
 10
45.99126771
 20
12.8981727711
 30
0.0
 10
45.7622836386
 20
12.8834587908
 30
0.0
 10
45.5980371738
 20
12.870908449
 30
0.0
 10
45.4885845931
 20
12.8603773066
 30
0.0
 10
45.4232064732
 20
12.8529353423
 30
0.0
 10
45.3691971684
 20
12.8454680224
 30
0.0
 10
45.3265649657
 20
12.8380857702
 30
0.0
 10
45.2955522256
 20
12.8307589961
 30
0.0
 10
45.2787842016
 20
12.825073361
 30
0.0
 10
45.2728022724
 20
12.8216457999
 30
0.0
  0
SPLINE
  5
297
100
AcDbEntity
  8
0
100
AcDbSpline
 62
7
  6
BYLAYER
 70
0
 71
3
 72
9
 73
5
 74
0
 42
0.0000001
 43
0.0000001
 44
0.0000000001
 40
0.0
 40
0.0
 40
0.0
 40
0.0
 40
0.7168291921
 40
1.0
 40
1.0
 40
1.0
 40
1.0
 10
56.5153358847
 20
18.8840529151
 30
0.0
 10
56.5153358847
 20
18.8831338171
 30
0.0
 10
56.5148631072
 20
18.8818444985
 30
0.0
 10
56.5140941387
 20
18.8808240059
 30
0.0
 10
56.5138605991
 20
18.8805460102
 30
0.0
  0
SPLINE
  5
298
100
AcDbEntity
  8
0
100
AcDbSpline
 62
7
  6
BYLAYER
 70
0
 71
3
 72
42
 73
38
 74
0
 42
0.0000001
 43
0.0000001
 44
0.0000000001
 40
0.0
 40
0.0
 40
0.0
 40
0.0
 40
0.0005185623
 40
0.0012852985
 40
0.0036289586
 40
0.0070858151
 40
0.011664497
 40
0.017361051
 40
0.0241628893
 40
0.0320557109
 40
0.0410245197
 40
0.0621084163
 40
0.0872174322
 40
0.1161285544
 40
0.1485714745
 40
0.184254273
 40
0.2228435664
 40
0.2639888743
 40
0.3073074771
 40
0.3988605979
 40
0.4941391601
 40
0.5896423703
 40
0.6818617017
 40
0.7674092431
 40
0.806685545
 40
0.8431431975
 40
0.876443112
 40
0.9062833108
 40
0.9323869577
 40
0.9545190977
 40
0.9724753143
 40
0.979836495
 40
0.9860995213
 40
0.9912504728
 40
0.9952798334
 40
0.9981897441
 40
1.0
 40
1.0
 40
1.0
 40
1.0
 10
56.5138605991
 20
18.8805460102
 30
0.0
 10
56.5125253921
 20
18.8789566357
 30
0.0
 10
56.5081451777
 20
18.876017748
 30
0.0
 10
56.4947987849
 20
18.8703417728
 30
0.0
 10
56.4691508688
 20
18.86393123
 30
0.0
 10
56.4283047075
 20
18.8565610881
 30
0.0
 10
56.3738029947
 20
18.8491468123
 30
0.0
 10
56.3058622643
 20
18.841641897
 30
0.0
 10
56.224578737
 20
18.8341113157
 30
0.0
 10
56.1301561806
 20
18.8265519141
 30
0.0
 10
55.978635631
 20
18.815867914
 30
0.0
 10
55.7582054454
 20
18.802819097
 30
0.0
 10
55.457941356
 20
18.7877698071
 30
0.0
 10
55.1121602705
 20
18.7726751696
 30
0.0
 10
54.7240193508
 20
18.7575387285
 30
0.0
 10
54.2971110331
 20
18.7423893337
 30
0.0
 10
53.8353481152
 20
18.7272175042
 30
0.0
 10
53.3430045632
 20
18.7120278931
 30
0.0
 10
52.6387172006
 20
18.6913767925
 30
0.0
 10
51.7177837623
 20
18.66596941
 30
0.0
 10
50.5880054463
 20
18.6359753467
 30
0.0
 10
49.4555600057
 20
18.6059537302
 30
0.0
 10
48.3620797215
 20
18.5759983231
 30
0.0
 10
47.4936386434
 20
18.5504269721
 30
0.0
 10
46.848370565
 20
18.5295866177
 30
0.0
 10
46.4121747976
 20
18.5144246023
 30
0.0
 10
46.0137749226
 20
18.4992890925
 30
0.0
 10
45.6568534474
 20
18.4841893539
 30
0.0
 10
45.3446773864
 20
18.4691367688
 30
0.0
 10
45.0801356302
 20
18.4541489516
 30
0.0
 10
44.8906334224
 20
18.4410877199
 30
0.0
 10
44.7646808777
 20
18.4302878801
 30
0.0
 10
44.6898888306
 20
18.4227759679
 30
0.0
 10
44.6285409401
 20
18.4152947264
 30
0.0
 10
44.5806300363
 20
18.4079723501
 30
0.0
 10
44.5464752282
 20
18.4006762467
 30
0.0
 10
44.528182521
 20
18.3950563013
 30
0.0
 10
44.5218810826
 20
18.3914783089
 30
0.0
  0
SPLINE
  5
299
100
AcDbEntity
  8
0
100
AcDbSpline
 62
7
  6
BYLAYER
 70
0
 71
3
 72
41
 73
37
 74
0
 42
0.0000001
 43
0.0000001
 44
0.0000000001
 40
0.0
 40
0.0
 40
0.0
 40
0.0
 40
0.0019430425
 40
0.0049461806
 40
0.0090328909
 40
0.0142111958
 40
0.0204806415
 40
0.0278324298
 40
0.0457157969
 40
0.0676622811
 40
0.0934516632
 40
0.1228645893
 40
0.1556826318
 40
0.1916264435
 40
0.2303426703
 40
0.3146191344
 40
0.3594433763
 40
0.4055421095
 40
0.4524939799
 40
0.4998690435
 40
0.5942014381
 40
0.6851458943
 40
0.7694383256
 40
0.8081679411
 40
0.8441336072
 40
0.8769803929
 40
0.9064195581
 40
0.932221709
 40
0.9541754525
 40
0.9720872511
 40
0.979465684
 40
0.9857598821
 40
0.9909582258
 40
0.995055325
 40
0.9980594836
 40
1.0
 40
1.0
 40
1.0
 40
1.0
 10
55.7572521688
 20
19.3053075435
 30
0.0
 10
55.7513747049
 20
19.301885139
 30
0.0
 10
55.7348303537
 20
19.2961773178
 30
0.0
 10
55.7041431365
 20
19.2888073733
 30
0.0
 10
55.6617958253
 20
19.281370707
 30
0.0
 10
55.6079453927
 20
19.2738843437
 30
0.0
 10
55.5425502643
 20
19.2664657276
 30
0.0
 10
55.4327767756
 20
19.2559315624
 30
0.0
 10
55.2680942299
 20
19.2433320419
 30
0.0
 10
55.0388804428
 20
19.2285542736
 30
0.0
 10
54.7692455278
 20
19.2135965275
 30
0.0
 10
54.4615157516
 20
19.1984756001
 30
0.0
 10
54.1182040938
 20
19.1833402343
 30
0.0
 10
53.7422890808
 20
19.1684628454
 30
0.0
 10
53.1863234043
 20
19.1483313994
 30
0.0
 10
52.59924649
 20
19.128423958
 30
0.0
 10
51.9863240226
 20
19.1082239817
 30
0.0
 10
51.5039483927
 20
19.093276309
 30
0.0
 10
51.0126294593
 20
19.0786843535
 30
0.0
 10
50.3525595475
 20
19.058807136
 30
0.0
 10
49.5385928108
 20
19.033578172
 30
0.0
 10
48.5954738463
 20
19.0040835035
 30
0.0
 10
47.8469331885
 20
18.9791939644
 30
0.0
 10
47.2908086636
 20
18.9584880349
 30
0.0
 10
46.914690306
 20
18.9431019556
 30
0.0
 10
46.5711041204
 20
18.9281097484
 30
0.0
 10
46.2631097469
 20
18.9135565868
 30
0.0
 10
45.9932938164
 20
18.898929573
 30
0.0
 10
45.7639190595
 20
18.8839632901
 30
0.0
 10
45.5990647731
 20
18.8707603839
 30
0.0
 10
45.4890345571
 20
18.8599891569
 30
0.0
 10
45.4233871218
 20
18.8525872154
 30
0.0
 10
45.3693175936
 20
18.8452910123
 30
0.0
 10
45.326813235
 20
18.8381224651
 30
0.0
 10
45.2960378319
 20
18.8310004209
 30
0.0
 10
45.2794491776
 20
18.8254315969
 30
0.0
 10
45.2735561751
 20
18.822053764
 30
0.0
  0
SPLINE
  5
29A
100
AcDbEntity
  8
0
100
AcDbSpline
 62
7
  6
BYLAYER
 70
0
 71
3
 72
47
 73
43
 74
0
 42
0.0000001
 43
0.0000001
 44
0.0000000001
 40
0.0
 40
0.0
 40
0.0
 40
0.0
 40
0.0004082863
 40
0.0010766872
 40
0.0020185532
 40
0.0032378458
 40
0.0065131674
 40
0.0109054698
 40
0.0164120544
 40
0.0230224818
 40
0.0307208666
 40
0.039490907
 40
0.049316128
 40
0.0601770043
 40
0.0849000385
 40
0.113443129
 40
0.1455583746
 40
0.1809593651
 40
0.219336748
 40
0.2603385384
 40
0.3035983005
 40
0.3952826742
 40
0.491030176
 40
0.5873032433
 40
0.680498563
 40
0.7248307336
 40
0.7670915455
 40
0.8068748077
 40
0.8437921831
 40
0.8774741142
 40
0.9076082812
 40
0.9339012148
 40
0.9560921087
 40
0.9655717394
 40
0.9739403574
 40
0.9811810391
 40
0.9872773363
 40
0.9922133033
 40
0.9959774331
 40
0.9985677737
 40
0.9994259391
 40
1.0
 40
1.0
 40
1.0
 40
1.0
 10
56.4013562683
 20
12.949279229
 30
0.0
 10
56.4002534359
 20
12.9481763966
 30
0.0
 10
56.3964169518
 20
12.9463622564
 30
0.0
 10
56.3890979987
 20
12.9441109493
 30
0.0
 10
56.378497858
 20
12.9418167238
 30
0.0
 10
56.3580320636
 20
12.9383625118
 30
0.0
 10
56.3243034549
 20
12.9342988961
 30
0.0
 10
56.2741979249
 20
12.9296518277
 30
0.0
 10
56.2113017461
 20
12.9249670721
 30
0.0
 10
56.1357554875
 20
12.9202361338
 30
0.0
 10
56.0477221373
 20
12.9154812367
 30
0.0
 10
55.9473943544
 20
12.9107075234
 30
0.0
 10
55.8349742254
 20
12.9059222599
 30
0.0
 10
55.6616411292
 20
12.899241738
 30
0.0
 10
55.4168143104
 20
12.8910292585
 30
0.0
 10
55.0907977543
 20
12.8815353558
 30
0.0
 10
54.7239765608
 20
12.8720397717
 30
0.0
 10
54.3195783924
 20
12.8625068519
 30
0.0
 10
53.8812264095
 20
12.85292232
 30
0.0
 10
53.4128487323
 20
12.8432792645
 30
0.0
 10
52.740870591
 20
12.8300696023
 30
0.0
 10
51.8597830302
 20
12.8139485741
 30
0.0
 10
50.776207563
 20
12.7948435795
 30
0.0
 10
49.686865252
 20
12.7754138949
 30
0.0
 10
48.7938976574
 20
12.7594072832
 30
0.0
 10
48.1072439325
 20
12.7459403194
 30
0.0
 10
47.6245915815
 20
12.7360687443
 30
0.0
 10
47.1702660898
 20
12.7263669398
 30
0.0
 10
46.7487201899
 20
12.7166315858
 30
0.0
 10
46.3640497033
 20
12.7066782732
 30
0.0
 10
46.0199795253
 20
12.6967188384
 30
0.0
 10
45.7198183049
 20
12.6869913966
 30
0.0
 10
45.4985556122
 20
12.6786200808
 30
0.0
 10
45.3457640149
 20
12.6716772432
 30
0.0
 10
45.2500535574
 20
12.6667098455
 30
0.0
 10
45.1672853809
 20
12.6617396949
 30
0.0
 10
45.0976618305
 20
12.6567784024
 30
0.0
 10
45.0413374021
 20
12.651898834
 30
0.0
 10
44.9984987827
 20
12.6470552724
 30
0.0
 10
44.9712028521
 20
12.6428960586
 30
0.0
 10
44.9563061082
 20
12.6391885297
 30
0.0
 10
44.9511096733
 20
12.6373241705
 30
0.0
 10
44.949204661
 20
12.6362380236
 30
0.0
  0
SPLINE
  5
29B
100
AcDbEntity
  8
0
100
AcDbSpline
 62
7
  6
BYLAYER
 70
0
 71
3
 72
9
 73
5
 74
0
 42
0.0000001
 43
0.0000001
 44
0.0000000001
 40
0.0
 40
0.0
 40
0.0
 40
0.0
 40
0.7165038538
 40
1.0
 40
1.0
 40
1.0
 40
1.0
 10
44.5153358847
 20
19.2424662932
 30
0.0
 10
44.5153358847
 20
19.2433980303
 30
0.0
 10
44.5158194803
 20
19.2447054311
 30
0.0
 10
44.5166035416
 20
19.2457371327
 30
0.0
 10
44.5168418307
 20
19.2460184261
 30
0.0
  0
SPLINE
  5
29C
100
AcDbEntity
  8
0
100
AcDbSpline
 62
7
  6
BYLAYER
 70
0
 71
3
 72
42
 73
38
 74
0
 42
0.0000001
 43
0.0000001
 44
0.0000000001
 40
0.0
 40
0.0
 40
0.0
 40
0.0
 40
0.0005210533
 40
0.001290429
 40
0.003639564
 40
0.0071021327
 40
0.0116867804
 40
0.0173894738
 40
0.0241975851
 40
0.0320968102
 40
0.0410721527
 40
0.0621691809
 40
0.0872914828
 40
0.1162158492
 40
0.1486718121
 40
0.1843672419
 40
0.2229685986
 40
0.2641252577
 40
0.3074542794
 40
0.3990247242
 40
0.4943148443
 40
0.5898230007
 40
0.6820395932
 40
0.7675764163
 40
0.8068442605
 40
0.8432913816
 40
0.8765787305
 40
0.9064043774
 40
0.9324915702
 40
0.9546054533
 40
0.9725418334
 40
0.9798925513
 40
0.9861447673
 40
0.9912845668
 40
0.9953024964
 40
0.9982008627
 40
1.0
 40
1.0
 40
1.0
 40
1.0
 10
44.5168418307
 20
19.2460184261
 30
0.0
 10
44.5181900175
 20
19.2476099219
 30
0.0
 10
44.5225921519
 20
19.2505508958
 30
0.0
 10
44.5359851755
 20
19.2562278595
 30
0.0
 10
44.5616904979
 20
19.2626333638
 30
0.0
 10
44.6026088465
 20
19.2699947741
 30
0.0
 10
44.6571834636
 20
19.2774033278
 30
0.0
 10
44.7251988625
 20
19.2849086427
 30
0.0
 10
44.8065584278
 20
19.29244271
 30
0.0
 10
44.9010586274
 20
19.3000071118
 30
0.0
 10
45.0526848432
 20
19.3106964124
 30
0.0
 10
45.273249191
 20
19.3237463384
 30
0.0
 10
45.5736751881
 20
19.3387930973
 30
0.0
 10
45.9196182297
 20
19.3538842053
 30
0.0
 10
46.3079186841
 20
19.3690207489
 30
0.0
 10
46.7349819034
 20
19.3841773338
 30
0.0
 10
47.1968933181
 20
19.3993554377
 30
0.0
 10
47.6893770259
 20
19.4145438277
 30
0.0
 10
48.393827691
 20
19.4351901205
 30
0.0
 10
49.3149271002
 20
19.4605986861
 30
0.0
 10
50.4448510134
 20
19.4906097884
 30
0.0
 10
51.5773626587
 20
19.520613947
 30
0.0
 10
52.6708185629
 20
19.55058932
 30
0.0
 10
53.5391801552
 20
19.5761557131
 30
0.0
 10
54.1843353306
 20
19.59699536
 30
0.0
 10
54.6204087054
 20
19.6121601714
 30
0.0
 10
55.0186612801
 20
19.6273016635
 30
0.0
 10
55.3754112896
 20
19.6424069165
 30
0.0
 10
55.6873930017
 20
19.6574563366
 30
0.0
 10
55.9517189735
 20
19.6724360351
 30
0.0
 10
56.1410281209
 20
19.685500256
 30
0.0
 10
56.2668159957
 20
19.6963066698
 30
0.0
 10
56.3414784848
 20
19.7038199265
 30
0.0
 10
56.4026917407
 20
19.7112985774
 30
0.0
 10
56.4504686672
 20
19.7186101885
 30
0.0
 10
56.4844818783
 20
19.7258977711
 30
0.0
 10
56.5026880156
 20
19.7315149559
 30
0.0
 10
56.5089322771
 20
19.7351034479
 30
0.0
  0
SPLINE
  5
29D
100
AcDbEntity
  8
0
100
AcDbSpline
 62
7
  6
BYLAYER
 70
0
 71
3
 72
9
 73
5
 74
0
 42
0.0000001
 43
0.0000001
 44
0.0000000001
 40
0.0
 40
0.0
 40
0.0
 40
0.0
 40
0.7176965543
 40
1.0
 40
1.0
 40
1.0
 40
1.0
 10
44.5153358847
 20
13.2424664535
 30
0.0
 10
44.5153358847
 20
13.2433947784
 30
0.0
 10
44.5158060999
 20
13.2446964965
 30
0.0
 10
44.5165777473
 20
13.2457294267
 30
0.0
 10
44.5168115443
 20
13.246009919
 30
0.0
  0
SPLINE
  5
29E
100
AcDbEntity
  8
0
100
AcDbSpline
 62
7
  6
BYLAYER
 70
0
 71
3
 72
42
 73
38
 74
0
 42
0.0000001
 43
0.0000001
 44
0.0000000001
 40
0.0
 40
0.0
 40
0.0
 40
0.0
 40
0.00051979
 40
0.0012869554
 40
0.0036308131
 40
0.0070879688
 40
0.0116674343
 40
0.0173652766
 40
0.0241687789
 40
0.0320635588
 40
0.0410345673
 40
0.0621234586
 40
0.0872382904
 40
0.1161559728
 40
0.1486060681
 40
0.1842964932
 40
0.2228937427
 40
0.2640471935
 40
0.3073739316
 40
0.3989425191
 40
0.4942342031
 40
0.5897470515
 40
0.681970955
 40
0.7675172387
 40
0.8067904241
 40
0.8432431998
 40
0.8765364326
 40
0.9063681593
 40
0.932461515
 40
0.9545815999
 40
0.9725239977
 40
0.9798776952
 40
0.9861329084
 40
0.9912757876
 40
0.9952969459
 40
0.9981984827
 40
1.0
 40
1.0
 40
1.0
 40
1.0
 10
44.5168115443
 20
13.246009919
 30
0.0
 10
44.5181437712
 20
13.2476082261
 30
0.0
 10
44.5225230323
 20
13.2505636859
 30
0.0
 10
44.5358751529
 20
13.2562473409
 30
0.0
 10
44.5615336163
 20
13.2626372819
 30
0.0
 10
44.6023913385
 20
13.2699707943
 30
0.0
 10
44.6569066802
 20
13.2773591823
 30
0.0
 10
44.7248634719
 20
13.2848602571
 30
0.0
 10
44.8061670116
 20
13.2923980138
 30
0.0
 10
44.9006129882
 20
13.2999703333
 30
0.0
 10
45.0521710291
 20
13.3106686697
 30
0.0
 10
45.2726560235
 20
13.3237169107
 30
0.0
 10
45.5729934861
 20
13.3387594873
 30
0.0
 10
45.9188569129
 20
13.3538529266
 30
0.0
 10
46.3070877454
 20
13.3689919317
 30
0.0
 10
46.7340918993
 20
13.3841470345
 30
0.0
 10
47.1959549659
 20
13.3993237105
 30
0.0
 10
47.6884011879
 20
13.4145138857
 30
0.0
 10
48.3928237797
 20
13.4351633648
 30
0.0
 10
49.3139148208
 20
13.4605699811
 30
0.0
 10
50.4438585503
 20
13.4905856336
 30
0.0
 10
51.5764269378
 20
13.520586707
 30
0.0
 10
52.6699709214
 20
13.5505665084
 30
0.0
 10
53.5384228753
 20
13.5761322408
 30
0.0
 10
54.1836612669
 20
13.5969732263
 30
0.0
 10
54.619803103
 20
13.6121393477
 30
0.0
 10
55.0181271307
 20
13.6272792677
 30
0.0
 10
55.3749505788
 20
13.6423827784
 30
0.0
 10
55.6870066103
 20
13.6574377176
 30
0.0
 10
55.9514063582
 20
13.6724252949
 30
0.0
 10
56.1407776631
 20
13.6854759102
 30
0.0
 10
56.2666151108
 20
13.6962704759
 30
0.0
 10
56.3413140035
 20
13.7037841476
 30
0.0
 10
56.4025638517
 20
13.711277403
 30
0.0
 10
56.4503728838
 20
13.7186234619
 30
0.0
 10
56.4844186198
 20
13.7259412146
 30
0.0
 10
56.5026404054
 20
13.7315649123
 30
0.0
 10
56.5089022134
 20
13.7351419738
 30
0.0
  0
SPLINE
  5
29F
100
AcDbEntity
  8
0
100
AcDbSpline
 62
7
  6
BYLAYER
 70
0
 71
3
 72
39
 73
35
 74
0
 42
0.0000001
 43
0.0000001
 44
0.0000000001
 40
0.0
 40
0.0
 40
0.0
 40
0.0
 40
0.0019325305
 40
0.004934937
 40
0.0090374469
 40
0.0142407538
 40
0.0205327558
 40
0.0278968408
 40
0.0457619446
 40
0.0676645375
 40
0.0934274649
 40
0.1228681884
 40
0.1557345528
 40
0.1916842938
 40
0.2303789541
 40
0.3146479579
 40
0.4056091032
 40
0.4999431183
 40
0.5942824487
 40
0.6852173825
 40
0.7695536284
 40
0.8082787169
 40
0.8442019337
 40
0.8770221236
 40
0.9064755959
 40
0.9323078025
 40
0.954275413
 40
0.972145788
 40
0.979484776
 40
0.9857462077
 40
0.9909254524
 40
0.9950215216
 40
0.9980390269
 40
1.0
 40
1.0
 40
1.0
 40
1.0
 10
55.7576816441
 20
16.3050234488
 30
0.0
 10
55.7518802946
 20
16.3015439067
 30
0.0
 10
55.7353677262
 20
16.2958008999
 30
0.0
 10
55.7046487797
 20
16.2885151352
 30
0.0
 10
55.6621115684
 20
16.2813111985
 30
0.0
 10
55.6080038974
 20
16.2740720236
 30
0.0
 10
55.5423785164
 20
16.2668002801
 30
0.0
 10
55.4325373006
 20
16.2563194278
 30
0.0
 10
55.2680478549
 20
16.2434002301
 30
0.0
 10
55.0391476855
 20
16.2283780825
 30
0.0
 10
54.7696548518
 20
16.2132989266
 30
0.0
 10
54.4617266945
 20
16.1983434893
 30
0.0
 10
54.1180942159
 20
16.1835812887
 30
0.0
 10
53.7420428413
 20
16.1687902369
 30
0.0
 10
53.1861426527
 20
16.1483268404
 30
0.0
 10
52.4377561369
 20
16.1220884354
 30
0.0
 10
51.4945764853
 20
16.0935465736
 30
0.0
 10
50.5161777873
 20
16.0634814784
 30
0.0
 10
49.5378688218
 20
16.0334666708
 30
0.0
 10
48.5945432807
 20
16.0044374526
 30
0.0
 10
47.8458766036
 20
15.9790506792
 30
0.0
 10
47.2897474358
 20
15.9580341517
 30
0.0
 10
46.9138497072
 20
15.9431108664
 30
0.0
 10
46.5704211847
 20
15.9284987233
 30
0.0
 10
46.2623569093
 20
15.9137589145
 30
0.0
 10
45.9923477308
 20
15.8986810192
 30
0.0
 10
45.7629686834
 20
15.883493224
 30
0.0
 10
45.5983230301
 20
15.8705528548
 30
0.0
 10
45.4886546597
 20
15.8601138251
 30
0.0
 10
45.4233106846
 20
15.8528390065
 30
0.0
 10
45.3694261016
 20
15.8455246423
 30
0.0
 10
45.3269592446
 20
15.8382696441
 30
0.0
 10
45.2960873201
 20
15.831032817
 30
0.0
 10
45.2794078533
 20
15.8253722644
 30
0.0
 10
45.2734521117
 20
15.8219592038
 30
0.0
  0
SPLINE
  5
2A0
100
AcDbEntity
  8
0
100
AcDbSpline
 62
7
  6
BYLAYER
 70
0
 71
3
 72
9
 73
5
 74
0
 42
0.0000001
 43
0.0000001
 44
0.0000000001
 40
0.0
 40
0.0
 40
0.0
 40
0.0
 40
0.7176114314
 40
1.0
 40
1.0
 40
1.0
 40
1.0
 10
56.5153358847
 20
13.8840502386
 30
0.0
 10
56.5153358847
 20
13.8831192857
 30
0.0
 10
56.5148632629
 20
13.8818137894
 30
0.0
 10
56.5140883192
 20
13.8807786106
 30
0.0
 10
56.5138534797
 20
13.8804974413
 30
0.0
  0
SPLINE
  5
2A1
100
AcDbEntity
  8
0
100
AcDbSpline
 62
7
  6
BYLAYER
 70
0
 71
3
 72
42
 73
38
 74
0
 42
0.0000001
 43
0.0000001
 44
0.0000000001
 40
0.0
 40
0.0
 40
0.0
 40
0.0
 40
0.0005203328
 40
0.0012881118
 40
0.0036333281
 40
0.0070919955
 40
0.0116731234
 40
0.0173727653
 40
0.0241781881
 40
0.0320749967
 40
0.0410481311
 40
0.0621415213
 40
0.0872611654
 40
0.1161839124
 40
0.1486392126
 40
0.1843348813
 40
0.2229373596
 40
0.2640959649
 40
0.3074276537
 40
0.3990050464
 40
0.494303478
 40
0.5898205103
 40
0.6820453016
 40
0.7675887999
 40
0.8068591211
 40
0.8433080016
 40
0.8765962988
 40
0.9064220643
 40
0.9325084989
 40
0.9546207314
 40
0.9725543586
 40
0.9799033478
 40
0.9861536676
 40
0.9912914994
 40
0.9953074943
 40
0.99820377
 40
1.0
 40
1.0
 40
1.0
 40
1.0
 10
56.5138534797
 20
13.8804974413
 30
0.0
 10
56.5125182506
 20
13.8788987944
 30
0.0
 10
56.5081337808
 20
13.8759432271
 30
0.0
 10
56.4947704146
 20
13.8702597506
 30
0.0
 10
56.4690973642
 20
13.8638711322
 30
0.0
 10
56.4282205153
 20
13.8565396193
 30
0.0
 10
56.3736846494
 20
13.8491527367
 30
0.0
 10
56.3057057517
 20
13.8416519909
 30
0.0
 10
56.2243787223
 20
13.8341135421
 30
0.0
 10
56.1299079596
 20
13.8265394992
 30
0.0
 10
55.9783146198
 20
13.8158373393
 30
0.0
 10
55.7577829194
 20
13.8027824957
 30
0.0
 10
55.4573862487
 20
13.7877377045
 30
0.0
 10
55.1114601158
 20
13.7726521261
 30
0.0
 10
54.723164804
 20
13.7575179074
 30
0.0
 10
54.2960957439
 20
13.7423555058
 30
0.0
 10
53.8341677637
 20
13.7271711653
 30
0.0
 10
53.3416573442
 20
13.7119823252
 30
0.0
 10
52.6371549474
 20
13.6913381248
 30
0.0
 10
51.7159767428
 20
13.6659292602
 30
0.0
 10
50.5859479737
 20
13.6359029214
 30
0.0
 10
49.4533256823
 20
13.6059121159
 30
0.0
 10
48.359766673
 20
13.5759241536
 30
0.0
 10
47.4913291426
 20
13.5503524467
 30
0.0
 10
46.8461252319
 20
13.5295164042
 30
0.0
 10
46.4100276643
 20
13.5143543901
 30
0.0
 10
46.0117608489
 20
13.4992094746
 30
0.0
 10
45.6550072109
 20
13.4840964145
 30
0.0
 10
45.3430325823
 20
13.4690408443
 30
0.0
 10
45.078725411
 20
13.4540599235
 30
0.0
 10
44.8894383162
 20
13.4410128133
 30
0.0
 10
44.7636741434
 20
13.4302167086
 30
0.0
 10
44.6890338519
 20
13.4227009014
 30
0.0
 10
44.6278453151
 20
13.4152036368
 30
0.0
 10
44.5800986119
 20
13.407852787
 30
0.0
 10
44.5461192732
 20
13.400530843
 30
0.0
 10
44.5279393345
 20
13.3949072761
 30
0.0
 10
44.5217029273
 20
13.3913283664
 30
0.0
  0
SPLINE
  5
2A2
100
AcDbEntity
  8
0
100
AcDbSpline
 62
7
  6
BYLAYER
 70
0
 71
3
 72
9
 73
5
 74
0
 42
0.0000001
 43
0.0000001
 44
0.0000000001
 40
0.0
 40
0.0
 40
0.0
 40
0.0
 40
0.7164946715
 40
1.0
 40
1.0
 40
1.0
 40
1.0
 10
56.5153358847
 20
19.8840499171
 30
0.0
 10
56.5153358847
 20
19.8831307534
 30
0.0
 10
56.5148598528
 20
19.8818411024
 30
0.0
 10
56.514088208
 20
19.880821911
 30
0.0
 10
56.5138536527
 20
19.8805439539
 30
0.0
  0
SPLINE
  5
2A3
100
AcDbEntity
  8
0
100
AcDbSpline
 62
7
  6
BYLAYER
 70
0
 71
3
 72
42
 73
38
 74
0
 42
0.0000001
 43
0.0000001
 44
0.0000000001
 40
0.0
 40
0.0
 40
0.0
 40
0.0
 40
0.0005187096
 40
0.0012858559
 40
0.0036305588
 40
0.0070884557
 40
0.0116680629
 40
0.0173653965
 40
0.0241678875
 40
0.0320612523
 40
0.0410305071
 40
0.0621149643
 40
0.0872241619
 40
0.1161350985
 40
0.1485774624
 40
0.1842593438
 40
0.2228474728
 40
0.2639914702
 40
0.3073085838
 40
0.3988581782
 40
0.4941328836
 40
0.5896326913
 40
0.6818490435
 40
0.7673948254
 40
0.8066707421
 40
0.8431283184
 40
0.8764285735
 40
0.9062695022
 40
0.9323743602
 40
0.9545081407
 40
0.9724665366
 40
0.9798289656
 40
0.9860933429
 40
0.9912457353
 40
0.9952765784
 40
0.998188031
 40
1.0
 40
1.0
 40
1.0
 40
1.0
 10
56.5138536527
 20
19.8805439539
 30
0.0
 10
56.5125145664
 20
19.8789570843
 30
0.0
 10
56.5081290839
 20
19.8760235227
 30
0.0
 10
56.494774052
 20
19.8703517691
 30
0.0
 10
56.4691171474
 20
19.8639392
 30
0.0
 10
56.4282597266
 20
19.856562829
 30
0.0
 10
56.3737479523
 20
19.8491430251
 30
0.0
 10
56.3057981865
 20
19.8416355269
 30
0.0
 10
56.2245071292
 20
19.8341036907
 30
0.0
 10
56.1300783395
 20
19.82654379
 30
0.0
 10
55.9785521822
 20
19.8158586334
 30
0.0
 10
55.7581181749
 20
19.8028066719
 30
0.0
 10
55.45785275
 20
19.7877596516
 30
0.0
 10
55.1120745594
 20
19.7726773209
 30
0.0
 10
54.7239413988
 20
19.757547167
 30
0.0
 10
54.2970455056
 20
19.7423870776
 30
0.0
 10
53.8352980647
 20
19.7272057308
 30
0.0
 10
53.3429718795
 20
19.7120224949
 30
0.0
 10
52.6387118823
 20
19.6913849159
 30
0.0
 10
51.717817229
 20
19.6659749592
 30
0.0
 10
50.5880865151
 20
19.6359611054
 30
0.0
 10
49.4556849784
 20
19.6059765222
 30
0.0
 10
48.3622418911
 20
19.5759906337
 30
0.0
 10
47.4938240178
 20
19.5504305018
 30
0.0
 10
46.8485667538
 20
19.529599377
 30
0.0
 10
46.4123729335
 20
19.5144382815
 30
0.0
 10
46.0139707329
 20
19.4992949595
 30
0.0
 10
45.657041759
 20
19.4841856931
 30
0.0
 10
45.3448521701
 20
19.469139329
 30
0.0
 10
45.0802902419
 20
19.4541676428
 30
0.0
 10
44.8907682492
 20
19.4411067277
 30
0.0
 10
44.7647974679
 20
19.4303006502
 30
0.0
 10
44.68998976
 20
19.422785624
 30
0.0
 10
44.6286247632
 20
19.4153053921
 30
0.0
 10
44.580694955
 20
19.40799047
 30
0.0
 10
44.5465192428
 20
19.4007021366
 30
0.0
 10
44.5282122585
 20
19.3950841224
 30
0.0
 10
44.5219035707
 20
19.3915050604
 30
0.0
  0
SPLINE
  5
2A4
100
AcDbEntity
  8
0
100
AcDbSpline
 62
7
  6
BYLAYER
 70
0
 71
3
 72
9
 73
5
 74
0
 42
0.0000001
 43
0.0000001
 44
0.0000000001
 40
0.0
 40
0.0
 40
0.0
 40
0.0
 40
0.7177583285
 40
1.0
 40
1.0
 40
1.0
 40
1.0
 10
44.5153358847
 20
14.2424664081
 30
0.0
 10
44.5153358847
 20
14.2433956224
 30
0.0
 10
44.515806044
 20
14.2446985488
 30
0.0
 10
44.5165780915
 20
14.2457326085
 30
0.0
 10
44.5168119698
 20
14.2460133434
 30
0.0
  0
SPLINE
  5
2A5
100
AcDbEntity
  8
0
100
AcDbSpline
 62
7
  6
BYLAYER
 70
0
 71
3
 72
42
 73
38
 74
0
 42
0.0000001
 43
0.0000001
 44
0.0000000001
 40
0.0
 40
0.0
 40
0.0
 40
0.0
 40
0.0005199429
 40
0.0012872175
 40
0.0036312948
 40
0.007088747
 40
0.0116686157
 40
0.0173669798
 40
0.0241711043
 40
0.0320665871
 40
0.0410383633
 40
0.0621290221
 40
0.0872458828
 40
0.1161658334
 40
0.14861838
 40
0.1843113888
 40
0.2229113114
 40
0.264067471
 40
0.3073968956
 40
0.3989705421
 40
0.4942665346
 40
0.5897824388
 40
0.682007765
 40
0.7675534702
 40
0.8068255419
 40
0.8432766371
 40
0.8765675885
 40
0.9063964626
 40
0.9324863755
 40
0.9546024793
 40
0.9725403021
 40
0.9798915267
 40
0.9861441484
 40
0.9912843253
 40
0.9953027042
 40
0.998201393
 40
1.0
 40
1.0
 40
1.0
 40
1.0
 10
44.5168119698
 20
14.2460133434
 30
0.0
 10
44.5181441874
 20
14.2476124646
 30
0.0
 10
44.5225238793
 20
14.2505694273
 30
0.0
 10
44.5358777817
 20
14.256254109
 30
0.0
 10
44.5615393149
 20
14.2626428756
 30
0.0
 10
44.6024013327
 20
14.2699738555
 30
0.0
 10
44.656922072
 20
14.2773602552
 30
0.0
 10
44.7248853863
 20
14.2848608018
 30
0.0
 10
44.806196617
 20
14.2923988642
 30
0.0
 10
44.9006512677
 20
14.2999720725
 30
0.0
 10
45.0522227491
 20
14.3106718856
 30
0.0
 10
45.272726763
 20
14.3237215378
 30
0.0
 10
45.5730895809
 20
14.3387649011
 30
0.0
 10
45.9189813118
 20
14.3538580035
 30
0.0
 10
46.3072428035
 20
14.3689969524
 30
0.0
 10
46.734279332
 20
14.3841532182
 30
0.0
 10
47.1961759322
 20
14.3993310383
 30
0.0
 10
47.6886562393
 20
14.4145213814
 30
0.0
 10
48.3931232292
 20
14.4351711729
 30
0.0
 10
49.3142657729
 20
14.4605810829
 30
0.0
 10
50.4442633842
 20
14.4905946301
 30
0.0
 10
51.5768709295
 20
14.5205999689
 30
0.0
 10
52.6704345217
 20
14.5505781616
 30
0.0
 10
53.538888421
 20
14.5761476239
 30
0.0
 10
54.1841156236
 20
14.5969888434
 30
0.0
 10
54.6202387337
 20
14.6121541139
 30
0.0
 10
55.0185368775
 20
14.6272947432
 30
0.0
 10
55.375327173
 20
14.6424000801
 30
0.0
 10
55.687343091
 20
14.6574562936
 30
0.0
 10
55.9516956597
 20
14.672444086
 30
0.0
 10
56.141023529
 20
14.6854931044
 30
0.0
 10
56.2668227291
 20
14.6962871858
 30
0.0
 10
56.341490666
 20
14.7038013398
 30
0.0
 10
56.402707781
 20
14.7112969481
 30
0.0
 10
56.4504830377
 20
14.7186471065
 30
0.0
 10
56.4844924837
 20
14.7259686455
 30
0.0
 10
56.5026911304
 20
14.7315926835
 30
0.0
 10
56.5089391878
 20
14.7351703742
 30
0.0
  0
SPLINE
  5
2A6
100
AcDbEntity
  8
0
100
AcDbSpline
 62
7
  6
BYLAYER
 70
0
 71
3
 72
43
 73
39
 74
0
 42
0.0000001
 43
0.0000001
 44
0.0000000001
 40
0.0
 40
0.0
 40
0.0
 40
0.0
 40
0.0008658709
 40
0.0016632173
 40
0.0027335338
 40
0.0040836317
 40
0.0057164576
 40
0.0098345825
 40
0.0150899281
 40
0.0214722288
 40
0.0289673276
 40
0.0375601844
 40
0.0579649777
 40
0.082493311
 40
0.1109244067
 40
0.1429887898
 40
0.1783935456
 40
0.2168036988
 40
0.257864664
 40
0.3011896438
 40
0.3930015707
 40
0.4888168874
 40
0.5850639379
 40
0.6781549377
 40
0.7646202687
 40
0.8043476553
 40
0.8412379028
 40
0.8749436757
 40
0.905153962
 40
0.9315851485
 40
0.953995077
 40
0.9721744495
 40
0.9796250324
 40
0.9859621351
 40
0.9911714599
 40
0.9952430745
 40
0.9981791007
 40
1.0
 40
1.0
 40
1.0
 40
1.0
 10
44.5153358847
 20
20.2424664055
 30
0.0
 10
44.5153358847
 20
20.2459334814
 30
0.0
 10
44.5224224905
 20
20.2505546926
 30
0.0
 10
44.5319429854
 20
20.254444885
 30
0.0
 10
44.5445108371
 20
20.2582934883
 30
0.0
 10
44.5602152969
 20
20.2620328832
 30
0.0
 10
44.5881564258
 20
20.2675551868
 30
0.0
 10
44.6317197287
 20
20.274153249
 30
0.0
 10
44.6943712019
 20
20.2816950424
 30
0.0
 10
44.770607162
 20
20.289264671
 30
0.0
 10
44.8602625246
 20
20.2968719001
 30
0.0
 10
45.0059873934
 20
20.3076648815
 30
0.0
 10
45.2199172435
 20
20.3208102296
 30
0.0
 10
45.513290361
 20
20.3359493762
 30
0.0
 10
45.8534016069
 20
20.3511381704
 30
0.0
 10
46.2370989681
 20
20.3663766164
 30
0.0
 10
46.6607814867
 20
20.381635543
 30
0.0
 10
47.1205081066
 20
20.3969172239
 30
0.0
 10
47.6119642871
 20
20.4122128292
 30
0.0
 10
48.317179977
 20
20.4330257869
 30
0.0
 10
49.2415932846
 20
20.458624375
 30
0.0
 10
50.3778663801
 20
20.4888453795
 30
0.0
 10
51.5192632732
 20
20.5190551077
 30
0.0
 10
52.6232085723
 20
20.5492433499
 30
0.0
 10
53.5008772841
 20
20.5749827364
 30
0.0
 10
54.1535490661
 20
20.5959653694
 30
0.0
 10
54.5950367998
 20
20.6112399675
 30
0.0
 10
54.9983930966
 20
20.6264895726
 30
0.0
 10
55.3598380687
 20
20.6417024346
 30
0.0
 10
55.6760119751
 20
20.656858722
 30
0.0
 10
55.9439492693
 20
20.6719463009
 30
0.0
 10
56.1358706589
 20
20.6851069227
 30
0.0
 10
56.2634069565
 20
20.6959932799
 30
0.0
 10
56.3391090978
 20
20.7035600525
 30
0.0
 10
56.4011729896
 20
20.7110891355
 30
0.0
 10
56.4496098599
 20
20.7184439756
 30
0.0
 10
56.4840844934
 20
20.7257777947
 30
0.0
 10
56.5025374885
 20
20.7314307846
 30
0.0
 10
56.5088657921
 20
20.735052037
 30
0.0
  0
SPLINE
  5
2A7
100
AcDbEntity
  8
0
100
AcDbSpline
 62
7
  6
BYLAYER
 70
0
 71
3
 72
40
 73
36
 74
0
 42
0.0000001
 43
0.0000001
 44
0.0000000001
 40
0.0
 40
0.0
 40
0.0
 40
0.0
 40
0.0019361739
 40
0.0049342458
 40
0.0090196841
 40
0.0142015452
 40
0.0204801261
 40
0.0278403821
 40
0.0457219808
 40
0.0676526503
 40
0.0934264732
 40
0.1228393983
 40
0.155672335
 40
0.1916256952
 40
0.2303356052
 40
0.3146048988
 40
0.3594350289
 40
0.4055415479
 40
0.4998740222
 40
0.5942137
 40
0.6851543708
 40
0.7694654791
 40
0.808200964
 40
0.8441588807
 40
0.8769910113
 40
0.906432102
 40
0.9322454311
 40
0.954211208
 40
0.9721191502
 40
0.9794877225
 40
0.9857688276
 40
0.9909545197
 40
0.9950465087
 40
0.9980530297
 40
1.0
 40
1.0
 40
1.0
 40
1.0
 10
55.7573658021
 20
18.3052631078
 30
0.0
 10
55.7515329055
 20
18.3018121695
 30
0.0
 10
55.7350374659
 20
18.2960675371
 30
0.0
 10
55.7044009032
 20
18.2886925423
 30
0.0
 10
55.6620549824
 20
18.2812907161
 30
0.0
 10
55.6081557606
 20
18.2738653119
 30
0.0
 10
55.5426738974
 20
18.2665483805
 30
0.0
 10
55.4328345031
 20
18.2561210348
 30
0.0
 10
55.2681934221
 20
18.2433986886
 30
0.0
 10
55.0390980421
 20
18.2285476708
 30
0.0
 10
54.7695751063
 20
18.213521711
 30
0.0
 10
54.4618463527
 20
18.198373703
 30
0.0
 10
54.1184402602
 20
18.1833772276
 30
0.0
 10
53.7424547909
 20
18.168609998
 30
0.0
 10
53.1865019818
 20
18.1483941174
 30
0.0
 10
52.5994559422
 20
18.1282305797
 30
0.0
 10
51.9865017453
 20
18.1081574277
 30
0.0
 10
51.3382943521
 20
18.0884331284
 30
0.0
 10
50.5168530727
 20
18.0638875238
 30
0.0
 10
49.538583276
 20
18.0334407363
 30
0.0
 10
48.5953701011
 20
18.0042493107
 30
0.0
 10
47.8467561056
 20
17.9791985648
 30
0.0
 10
47.2905743789
 20
17.9583409018
 30
0.0
 10
46.9145089901
 20
17.9430126924
 30
0.0
 10
46.5709829922
 20
17.9282279201
 30
0.0
 10
46.2629905648
 20
17.9136909857
 30
0.0
 10
45.9930928089
 20
17.8989051718
 30
0.0
 10
45.7636572258
 20
17.8838106302
 30
0.0
 10
45.5988053034
 20
17.8706485211
 30
0.0
 10
45.4888595561
 20
17.859969472
 30
0.0
 10
45.4233306927
 20
17.8526245864
 30
0.0
 10
45.3693632982
 20
17.8453736341
 30
0.0
 10
45.3269119502
 20
17.8382133715
 30
0.0
 10
45.2961291121
 20
17.8310556872
 30
0.0
 10
45.2795212937
 20
17.8254516885
 30
0.0
 10
45.2736092375
 20
17.822061567
 30
0.0
  0
SPLINE
  5
2A8
100
AcDbEntity
  8
0
100
AcDbSpline
 62
7
  6
BYLAYER
 70
0
 71
3
 72
40
 73
36
 74
0
 42
0.0000001
 43
0.0000001
 44
0.0000000001
 40
0.0
 40
0.0
 40
0.0
 40
0.0
 40
0.0019393225
 40
0.0049530483
 40
0.0090649315
 40
0.0142743443
 40
0.0205684491
 40
0.0279308552
 40
0.0457852103
 40
0.0676782771
 40
0.0934509487
 40
0.1229139176
 40
0.1557857194
 40
0.1917281183
 40
0.2304155498
 40
0.2715202482
 40
0.3146951899
 40
0.4056607487
 40
0.4999920123
 40
0.5943255879
 40
0.6852601738
 40
0.7695996229
 40
0.8083070526
 40
0.8442178333
 40
0.8770398098
 40
0.9065009148
 40
0.9323370823
 40
0.9542925499
 40
0.9721339633
 40
0.9794659748
 40
0.9857257882
 40
0.9909077835
 40
0.995009419
 40
0.9980335575
 40
1.0
 40
1.0
 40
1.0
 40
1.0
 10
55.7578441971
 20
15.3048816845
 30
0.0
 10
55.7520099204
 20
15.3014105104
 30
0.0
 10
55.7354016459
 20
15.2957382018
 30
0.0
 10
55.7045638705
 20
15.2885523349
 30
0.0
 10
55.6619205678
 20
15.2814065357
 30
0.0
 10
55.6077457437
 20
15.2741978248
 30
0.0
 10
55.5420972916
 20
15.2669117109
 30
0.0
 10
55.4322986066
 20
15.2563331185
 30
0.0
 10
55.2678885791
 20
15.2433156187
 30
0.0
 10
55.0390215183
 20
15.2282436992
 30
0.0
 10
54.7694378755
 20
15.213230241
 30
0.0
 10
54.4613622754
 20
15.1984255033
 30
0.0
 10
54.1176484477
 20
15.1836663656
 30
0.0
 10
53.741620446
 20
15.1688128517
 30
0.0
 10
53.3367576931
 20
15.1537982887
 30
0.0
 10
52.9065740053
 20
15.1383965688
 30
0.0
 10
52.2934548882
 20
15.1178006828
 30
0.0
 10
51.494028097
 20
15.0936881265
 30
0.0
 10
50.5156277847
 20
15.0631932021
 30
0.0
 10
49.5373064918
 20
15.0336529032
 30
0.0
 10
48.5939679057
 20
15.0044572181
 30
0.0
 10
47.8453393915
 20
14.9788371155
 30
0.0
 10
47.2892805719
 20
14.9580209697
 30
0.0
 10
46.9134660419
 20
14.943218208
 30
0.0
 10
46.570038534
 20
14.9285868511
 30
0.0
 10
46.2619244948
 20
14.9137127677
 30
0.0
 10
45.9919169155
 20
14.8984995237
 30
0.0
 10
45.7626582811
 20
14.883378912
 30
0.0
 10
45.598159377
 20
14.8706501278
 30
0.0
 10
45.4886192367
 20
14.8602126879
 30
0.0
 10
45.4232968455
 20
14.8529108462
 30
0.0
 10
45.3693926173
 20
14.8455529178
 30
0.0
 10
45.3268807684
 20
14.8382433205
 30
0.0
 10
45.2959543128
 20
14.8309638391
 30
0.0
 10
45.2792373664
 20
14.8252822015
 30
0.0
 10
45.2732646153
 20
14.8218599071
 30
0.0
  0
SPLINE
  5
2A9
100
AcDbEntity
  8
0
100
AcDbSpline
 62
7
  6
BYLAYER
 70
0
 71
3
 72
9
 73
5
 74
0
 42
0.0000001
 43
0.0000001
 44
0.0000000001
 40
0.0
 40
0.0
 40
0.0
 40
0.0
 40
0.7177300528
 40
1.0
 40
1.0
 40
1.0
 40
1.0
 10
56.5153358847
 20
14.8840528708
 30
0.0
 10
56.5153358847
 20
14.8831228762
 30
0.0
 10
56.5148650149
 20
14.881818829
 30
0.0
 10
56.5140920201
 20
14.8807840723
 30
0.0
 10
56.513857839
 20
14.8805031239
 30
0.0
  0
SPLINE
  5
2AA
100
AcDbEntity
  8
0
100
AcDbSpline
 62
7
  6
BYLAYER
 70
0
 71
3
 72
42
 73
38
 74
0
 42
0.0000001
 43
0.0000001
 44
0.0000000001
 40
0.0
 40
0.0
 40
0.0
 40
0.0
 40
0.0005201035
 40
0.0012875477
 40
0.0036319576
 40
0.007089726
 40
0.0116698939
 40
0.0173685297
 40
0.0241729054
 40
0.0320686291
 40
0.0410406447
 40
0.062131731
 40
0.0872489706
 40
0.1161692392
 40
0.1486220539
 40
0.1843152861
 40
0.222915359
 40
0.2640715824
 40
0.3074009903
 40
0.3989744479
 40
0.4942701627
 40
0.5897854971
 40
0.6820103231
 40
0.7675554326
 40
0.8068271994
 40
0.8432780111
 40
0.8765687025
 40
0.9063973402
 40
0.9324870493
 40
0.9546029723
 40
0.9725406473
 40
0.9798917959
 40
0.9861443472
 40
0.9912844659
 40
0.9953027924
 40
0.9982014324
 40
1.0
 40
1.0
 40
1.0
 40
1.0
 10
56.513857839
 20
14.8805031239
 30
0.0
 10
56.5125247909
 20
14.8789038584
 30
0.0
 10
56.508143798
 20
14.8759466467
 30
0.0
 10
56.4947872373
 20
14.8702613069
 30
0.0
 10
56.4691226037
 20
14.8638717583
 30
0.0
 10
56.4282568026
 20
14.856540168
 30
0.0
 10
56.3737325327
 20
14.8491535823
 30
0.0
 10
56.3057658797
 20
14.8416533524
 30
0.0
 10
56.2244515342
 20
14.8341159907
 30
0.0
 10
56.1299938871
 20
14.8265437819
 30
0.0
 10
55.9784186741
 20
14.8158457293
 30
0.0
 10
55.7579103996
 20
14.8027981818
 30
0.0
 10
55.4575431802
 20
14.7877543261
 30
0.0
 10
55.1116478824
 20
14.7726562554
 30
0.0
 10
54.7233833436
 20
14.7575143784
 30
0.0
 10
54.2963442112
 20
14.7423617256
 30
0.0
 10
53.8344458338
 20
14.727188008
 30
0.0
 10
53.341964861
 20
14.711997367
 30
0.0
 10
52.6374987042
 20
14.6913441156
 30
0.0
 10
51.7163584609
 20
14.6659284715
 30
0.0
 10
50.586364773
 20
14.6359332058
 30
0.0
 10
49.4537634585
 20
14.6059064936
 30
0.0
 10
48.3602063854
 20
14.5759432045
 30
0.0
 10
47.4917583481
 20
14.5503715514
 30
0.0
 10
46.8465361793
 20
14.5295259507
 30
0.0
 10
46.4104166145
 20
14.5143594445
 30
0.0
 10
46.0121215578
 20
14.4992223934
 30
0.0
 10
45.6553339247
 20
14.4841223077
 30
0.0
 10
45.3433206002
 20
14.4690650645
 30
0.0
 10
45.0789705501
 20
14.454071418
 30
0.0
 10
44.8896445619
 20
14.4410195921
 30
0.0
 10
44.7638465658
 20
14.4302256514
 30
0.0
 10
44.689179403
 20
14.4227121935
 30
0.0
 10
44.6279629039
 20
14.4152176769
 30
0.0
 10
44.5801881227
 20
14.4078687087
 30
0.0
 10
44.5461790428
 20
14.4005482244
 30
0.0
 10
44.5279805584
 20
14.3949248569
 30
0.0
 10
44.5217325481
 20
14.3913474046
 30
0.0
  0
SPLINE
  5
2AB
100
AcDbEntity
  8
0
100
AcDbSpline
 62
7
  6
BYLAYER
 70
0
 71
3
 72
9
 73
5
 74
0
 42
0.0000001
 43
0.0000001
 44
0.0000000001
 40
0.0
 40
0.0
 40
0.0
 40
0.0
 40
0.7176758968
 40
1.0
 40
1.0
 40
1.0
 40
1.0
 10
44.5153358847
 20
15.2424662746
 30
0.0
 10
44.5153358847
 20
15.2433961362
 30
0.0
 10
44.515807204
 20
15.2447000386
 30
0.0
 10
44.5165805092
 20
15.2457344321
 30
0.0
 10
44.5168148172
 20
15.246015334
 30
0.0
  0
SPLINE
  5
2AC
100
AcDbEntity
  8
0
100
AcDbSpline
 62
7
  6
BYLAYER
 70
0
 71
3
 72
42
 73
38
 74
0
 42
0.0000001
 43
0.0000001
 44
0.0000000001
 40
0.0
 40
0.0
 40
0.0
 40
0.0
 40
0.0005201252
 40
0.001287659
 40
0.0036323559
 40
0.0070904994
 40
0.011671108
 40
0.0173702616
 40
0.0241752249
 40
0.032071591
 40
0.0410442896
 40
0.0621369205
 40
0.0872558993
 40
0.116178089
 40
0.1486329435
 40
0.1843282864
 40
0.222930534
 40
0.264088974
 40
0.307420582
 40
0.3989981174
 40
0.4942971637
 40
0.5898149166
 40
0.6820406862
 40
0.7675851664
 40
0.8068559696
 40
0.8433053484
 40
0.8765941235
 40
0.9064203733
 40
0.9325072312
 40
0.9546198721
 40
0.9725538165
 40
0.9799029588
 40
0.9861534116
 40
0.991291341
 40
0.9953074094
 40
0.9982037415
 40
1.0
 40
1.0
 40
1.0
 40
1.0
 10
44.5168148172
 20
15.246015334
 30
0.0
 10
44.5181484808
 20
15.2476142069
 30
0.0
 10
44.5225304891
 20
15.2505705388
 30
0.0
 10
44.5358890646
 20
15.2562552363
 30
0.0
 10
44.5615566694
 20
15.2626452192
 30
0.0
 10
44.6024269024
 20
15.2699779578
 30
0.0
 10
44.6569565829
 20
15.2773654222
 30
0.0
 10
44.7249296252
 20
15.2848659386
 30
0.0
 10
44.8062511927
 20
15.2924035529
 30
0.0
 10
44.9007167386
 20
15.2999762678
 30
0.0
 10
45.0523037523
 20
15.3106761018
 30
0.0
 10
45.272828296
 20
15.3237276832
 30
0.0
 10
45.5732171647
 20
15.3387724891
 30
0.0
 10
45.9191365249
 20
15.3538641732
 30
0.0
 10
46.3074265784
 20
15.3690022149
 30
0.0
 10
46.7344920065
 20
15.3841603251
 30
0.0
 10
47.1964174921
 20
15.3993398799
 30
0.0
 10
47.6889262315
 20
15.4145295816
 30
0.0
 10
48.3934284476
 20
15.4351784095
 30
0.0
 10
49.3146096982
 20
15.4605928438
 30
0.0
 10
50.4446454369
 20
15.4906020241
 30
0.0
 10
51.5772770426
 20
15.5206132058
 30
0.0
 10
52.6708477228
 20
15.5505877956
 30
0.0
 10
53.5392954464
 20
15.5761614086
 30
0.0
 10
54.1845073975
 20
15.5970023127
 30
0.0
 10
54.6206109678
 20
15.6121661608
 30
0.0
 10
55.0188839604
 20
15.6273078006
 30
0.0
 10
55.3756435652
 20
15.6424155459
 30
0.0
 10
55.6876236005
 20
15.657472128
 30
0.0
 10
55.9519352098
 20
15.672458578
 30
0.0
 10
56.1412258016
 20
15.6855071627
 30
0.0
 10
56.2669925674
 20
15.6963020238
 30
0.0
 10
56.3416345448
 20
15.7038167827
 30
0.0
 10
56.4028244337
 20
15.7113133573
 30
0.0
 10
56.4505720675
 20
15.7186643049
 30
0.0
 10
56.4845520272
 20
15.7259865988
 30
0.0
 10
56.5027322331
 20
15.7316103417
 30
0.0
 10
56.5089688072
 20
15.7351891966
 30
0.0
  0
SPLINE
  5
2AD
100
AcDbEntity
  8
0
100
AcDbSpline
 62
7
  6
BYLAYER
 70
0
 71
3
 72
32
 73
28
 74
0
 42
0.0000001
 43
0.0000001
 44
0.0000000001
 40
0.0
 40
0.0
 40
0.0
 40
0.0
 40
0.0000706538
 40
0.0003206109
 40
0.0007507679
 40
0.0013602564
 40
0.003113102
 40
0.0055706597
 40
0.0087243085
 40
0.0125654055
 40
0.017085304
 40
0.0222753584
 40
0.0346283816
 40
0.0495346614
 40
0.0668974246
 40
0.086615287
 40
0.1085838933
 40
0.1326904103
 40
0.1868269996
 40
0.2480767715
 40
0.3155548194
 40
0.3884497914
 40
0.4660429984
 40
0.5476993561
 40
0.6328645251
 40
0.8118879787
 40
1.0
 40
1.0
 40
1.0
 40
1.0
 10
56.5153358847
 20
37.188994777
 30
0.0
 10
56.5153358847
 20
37.1890978859
 30
0.0
 10
56.5146827437
 20
37.1884535873
 30
0.0
 10
56.5142078951
 20
37.1880526389
 30
0.0
 10
56.5127005691
 20
37.1864995443
 30
0.0
 10
56.5099840273
 20
37.1837013797
 30
0.0
 10
56.5050517599
 20
37.1785037366
 30
0.0
 10
56.4977041044
 20
37.170748498
 30
0.0
 10
56.4882021927
 20
37.1607146596
 30
0.0
 10
56.4766486497
 20
37.1485249266
 30
0.0
 10
56.4630376452
 20
37.1341742477
 30
0.0
 10
56.4408711473
 20
37.110823524
 30
0.0
 10
56.408242626
 20
37.0765020747
 30
0.0
 10
56.3633377354
 20
37.0293422348
 30
0.0
 10
56.3109773358
 20
36.9744399697
 30
0.0
 10
56.2514885329
 20
36.9120941857
 30
0.0
 10
56.1852301436
 20
36.8426048448
 30
0.0
 10
56.0843561548
 20
36.7367187003
 30
0.0
 10
55.9439681148
 20
36.5893016635
 30
0.0
 10
55.7599329684
 20
36.3960466789
 30
0.0
 10
55.5570355948
 20
36.1829519619
 30
0.0
 10
55.3376898379
 20
35.9525854558
 30
0.0
 10
55.1040752074
 20
35.7072348126
 30
0.0
 10
54.8581048936
 20
35.4489233621
 30
0.0
 10
54.5100057778
 20
35.083465111
 30
0.0
 10
54.0547784187
 20
34.6054937085
 30
0.0
 10
53.6853378789
 20
34.2174539065
 30
0.0
 10
53.4960254609
 20
34.0186493842
 30
0.0
  0
SPLINE
  5
2AE
100
AcDbEntity
  8
0
100
AcDbSpline
 62
7
  6
BYLAYER
 70
0
 71
3
 72
9
 73
5
 74
0
 42
0.0000001
 43
0.0000001
 44
0.0000000001
 40
0.0
 40
0.0
 40
0.0
 40
0.0
 40
0.7176968013
 40
1.0
 40
1.0
 40
1.0
 40
1.0
 10
56.5153358847
 20
15.8840500991
 30
0.0
 10
56.5153358847
 20
15.8831219731
 30
0.0
 10
56.5148657633
 20
15.8818205329
 30
0.0
 10
56.514094267
 20
15.8807878351
 30
0.0
 10
56.5138605163
 20
15.8805074066
 30
0.0
  0
SPLINE
  5
2AF
100
AcDbEntity
  8
0
100
AcDbSpline
 62
7
  6
BYLAYER
 70
0
 71
3
 72
42
 73
38
 74
0
 42
0.0000001
 43
0.0000001
 44
0.0000000001
 40
0.0
 40
0.0
 40
0.0
 40
0.0
 40
0.0005197434
 40
0.0012868669
 40
0.0036306526
 40
0.0070877478
 40
0.0116671623
 40
0.0173649634
 40
0.0241684306
 40
0.0320631766
 40
0.0410341485
 40
0.0621229627
 40
0.0872377419
 40
0.116155411
 40
0.1486054952
 40
0.1842958975
 40
0.2228931512
 40
0.2640466685
 40
0.3073734918
 40
0.3989421792
 40
0.4942339139
 40
0.5897469084
 40
0.6819708966
 40
0.7675172868
 40
0.8067905258
 40
0.8432433179
 40
0.8765365546
 40
0.9063682491
 40
0.9324616078
 40
0.9545816913
 40
0.9725241025
 40
0.9798777839
 40
0.9861329808
 40
0.9912758547
 40
0.9952970003
 40
0.9981985095
 40
1.0
 40
1.0
 40
1.0
 40
1.0
 10
56.5138605163
 20
15.8805074066
 30
0.0
 10
56.5125283854
 20
15.8789092623
 30
0.0
 10
56.5081492703
 20
15.8759541984
 30
0.0
 10
56.4947975163
 20
15.870271379
 30
0.0
 10
56.4691395187
 20
15.8638824787
 30
0.0
 10
56.4282823728
 20
15.8565499924
 30
0.0
 10
56.3737675527
 20
15.8491623524
 30
0.0
 10
56.3058112493
 20
15.8416615691
 30
0.0
 10
56.2245081858
 20
15.8341235135
 30
0.0
 10
56.1300627207
 20
15.8265501834
 30
0.0
 10
55.9785054752
 20
15.8158490986
 30
0.0
 10
55.758021461
 20
15.802795646
 30
0.0
 10
55.4576846008
 20
15.7877522247
 30
0.0
 10
55.1118211112
 20
15.7726674877
 30
0.0
 10
54.7235902921
 20
15.7575338029
 30
0.0
 10
54.2965865262
 20
15.7423718201
 30
0.0
 10
53.8347235048
 20
15.7271883002
 30
0.0
 10
53.3422765817
 20
15.7120011254
 30
0.0
 10
52.6378528042
 20
15.6913587932
 30
0.0
 10
51.7167609471
 20
15.6659491745
 30
0.0
 10
50.5868162668
 20
15.6359262373
 30
0.0
 10
49.4542464742
 20
15.6059373782
 30
0.0
 10
48.3607014044
 20
15.5759493019
 30
0.0
 10
47.4922485891
 20
15.5503811671
 30
0.0
 10
46.847009319
 20
15.5295464217
 30
0.0
 10
46.4108670567
 20
15.5143844414
 30
0.0
 10
46.0125432524
 20
15.4992400053
 30
0.0
 10
45.6557202816
 20
15.4841280493
 30
0.0
 10
45.3436643489
 20
15.4690744436
 30
0.0
 10
45.0792640807
 20
15.4540953375
 30
0.0
 10
44.8898926419
 20
15.4410463569
 30
0.0
 10
44.764055502
 20
15.4302490845
 30
0.0
 10
44.6893569724
 20
15.4227333026
 30
0.0
 10
44.6281074517
 20
15.4152386338
 30
0.0
 10
44.580298591
 20
15.4078926953
 30
0.0
 10
44.5462530161
 20
15.4005756812
 30
0.0
 10
44.5280312325
 20
15.3949525763
 30
0.0
 10
44.5217695016
 20
15.3913755971
 30
0.0
  0
SPLINE
  5
2B0
100
AcDbEntity
  8
0
100
AcDbSpline
 62
7
  6
BYLAYER
 70
0
 71
3
 72
39
 73
35
 74
0
 42
0.0000001
 43
0.0000001
 44
0.0000000001
 40
0.0
 40
0.0
 40
0.0
 40
0.0
 40
0.0019516797
 40
0.0049647398
 40
0.009059313
 40
0.0142388031
 40
0.0205024076
 40
0.0278477514
 40
0.0457269095
 40
0.06768775
 40
0.0934963067
 40
0.1229199508
 40
0.1557272101
 40
0.1916597285
 40
0.2303778513
 40
0.3146644596
 40
0.4055756664
 40
0.4998938151
 40
0.5942140325
 40
0.6851594467
 40
0.7694325698
 40
0.8081498184
 40
0.8441142245
 40
0.8769755815
 40
0.9064168085
 40
0.9322086801
 40
0.954146711
 40
0.9720491387
 40
0.9794315876
 40
0.9857389497
 40
0.9909516588
 40
0.9950568462
 40
0.9980630708
 40
1.0
 40
1.0
 40
1.0
 40
1.0
 10
55.7571827923
 20
20.305279877
 30
0.0
 10
55.7512501586
 20
20.3018925873
 30
0.0
 10
55.7346255629
 20
20.2962405597
 30
0.0
 10
55.7038320335
 20
20.2889095018
 30
0.0
 10
55.6614188786
 20
20.2814766036
 30
0.0
 10
55.6075644101
 20
20.2739366122
 30
0.0
 10
55.5422200474
 20
20.2664156708
 30
0.0
 10
55.4325126915
 20
20.255787391
 30
0.0
 10
55.2678150192
 20
20.2431968967
 30
0.0
 10
55.0384921563
 20
20.2285077162
 30
0.0
 10
54.7686971599
 20
20.213624585
 30
0.0
 10
54.460895803
 20
20.198582673
 30
0.0
 10
54.1176278733
 20
20.1833399193
 30
0.0
 10
53.7417871259
 20
20.1683409493
 30
0.0
 10
53.1858180644
 20
20.1481790985
 30
0.0
 10
52.4374597619
 20
20.1231060052
 30
0.0
 10
51.4945597331
 20
20.092474163
 30
0.0
 10
50.5164567177
 20
20.0639642461
 30
0.0
 10
49.5382863825
 20
20.0337286218
 30
0.0
 10
48.5952810314
 20
20.0039310026
 30
0.0
 10
47.8468426208
 20
19.9791413172
 30
0.0
 10
47.2908268515
 20
19.9585707432
 30
0.0
 10
46.9147002188
 20
19.9432719193
 30
0.0
 10
46.571069949
 20
19.9280293669
 30
0.0
 10
46.2630567413
 20
19.9133933388
 30
0.0
 10
45.9933172294
 20
19.8988950663
 30
0.0
 10
45.7640576508
 20
19.8840541756
 30
0.0
 10
45.5992727673
 20
19.8708937923
 30
0.0
 10
45.489219022
 20
19.8600765085
 30
0.0
 10
45.4234694187
 20
19.8525906012
 30
0.0
 10
45.3692856584
 20
19.8452110168
 30
0.0
 10
45.3266977609
 20
19.8380220215
 30
0.0
 10
45.2958949424
 20
19.8309248955
 30
0.0
 10
45.2793022803
 20
19.8253788715
 30
0.0
 10
45.2734200842
 20
19.8220073934
 30
0.0
  0
SPLINE
  5
2B1
100
AcDbEntity
  8
0
100
AcDbSpline
 62
7
  6
BYLAYER
 70
0
 71
3
 72
9
 73
5
 74
0
 42
0.0000001
 43
0.0000001
 44
0.0000000001
 40
0.0
 40
0.0
 40
0.0
 40
0.0
 40
0.7174602326
 40
1.0
 40
1.0
 40
1.0
 40
1.0
 10
44.5153358847
 20
16.2424661552
 30
0.0
 10
44.5153358847
 20
16.2433968768
 30
0.0
 10
44.5158097586
 20
16.2447021549
 30
0.0
 10
44.5165855531
 20
16.2457365721
 30
0.0
 10
44.5168207448
 20
16.2460176845
 30
0.0
  0
SPLINE
  5
2B2
100
AcDbEntity
  8
0
100
AcDbSpline
 62
7
  6
BYLAYER
 70
0
 71
3
 72
42
 73
38
 74
0
 42
0.0000001
 43
0.0000001
 44
0.0000000001
 40
0.0
 40
0.0
 40
0.0
 40
0.0
 40
0.0005204053
 40
0.0012883966
 40
0.003634182
 40
0.0070934656
 40
0.0116752008
 40
0.017375449
 40
0.0241814905
 40
0.0320789311
 40
0.0410527088
 40
0.062147467
 40
0.0872685472
 40
0.1161927809
 40
0.148649591
 40
0.1843467715
 40
0.2229507161
 40
0.264110699
 40
0.3074436621
 40
0.3990232667
 40
0.4943234765
 40
0.589841356
 40
0.6820662218
 40
0.7676087025
 40
0.8068781124
 40
0.8433258429
 40
0.8766127237
 40
0.906436839
 40
0.9325213578
 40
0.954631461
 40
0.9725627045
 40
0.9799104289
 40
0.9861594245
 40
0.9912958596
 40
0.9953103957
 40
0.9982051859
 40
1.0
 40
1.0
 40
1.0
 40
1.0
 10
44.5168207448
 20
16.2460176845
 30
0.0
 10
44.5181575002
 20
16.2476154379
 30
0.0
 10
44.5225440638
 20
16.2505693209
 30
0.0
 10
44.5359110302
 20
16.2562530363
 30
0.0
 10
44.5615885794
 20
16.2626458964
 30
0.0
 10
44.6024718207
 20
16.269983588
 30
0.0
 10
44.6570146039
 20
16.2773745288
 30
0.0
 10
44.7250009747
 20
16.2848756136
 30
0.0
 10
44.8063357323
 20
16.2924124204
 30
0.0
 10
44.9008144552
 20
16.2999837002
 30
0.0
 10
45.0524188628
 20
16.3106822283
 30
0.0
 10
45.272964785
 20
16.3237352109
 30
0.0
 10
45.5733789929
 20
16.3387813559
 30
0.0
 10
45.9193231609
 20
16.3538715428
 30
0.0
 10
46.3076369674
 20
16.3690085367
 30
0.0
 10
46.7347246932
 20
16.3841682238
 30
0.0
 10
47.196670863
 20
16.3993492244
 30
0.0
 10
47.6891984532
 20
16.4145380476
 30
0.0
 10
48.3937212027
 20
16.4351854375
 30
0.0
 10
49.3149215206
 20
16.4606031061
 30
0.0
 10
50.4449717759
 20
16.4906085323
 30
0.0
 10
51.5776057807
 20
16.5206239167
 30
0.0
 10
52.6711663591
 20
16.5505954365
 30
0.0
 10
53.539597551
 20
16.5761713141
 30
0.0
 10
54.1847898738
 20
16.5970117964
 30
0.0
 10
54.6208740808
 20
16.6121746473
 30
0.0
 10
55.0191246423
 20
16.6273171137
 30
0.0
 10
55.375858967
 20
16.6424265124
 30
0.0
 10
55.687811195
 20
16.6574824751
 30
0.0
 10
55.952092758
 20
16.6724669419
 30
0.0
 10
56.1413567543
 20
16.6855167475
 30
0.0
 10
56.2671010465
 20
16.6963134493
 30
0.0
 10
56.3417255178
 20
16.7038285818
 30
0.0
 10
56.4028973587
 20
16.711324109
 30
0.0
 10
56.4506273603
 20
16.7186716893
 30
0.0
 10
56.4845888128
 20
16.7259910356
 30
0.0
 10
56.5027579856
 20
16.7316138654
 30
0.0
 10
56.5089868697
 20
16.7351945125
 30
0.0
  0
SPLINE
  5
2B3
100
AcDbEntity
  8
0
100
AcDbSpline
 62
7
  6
BYLAYER
 70
0
 71
3
 72
9
 73
5
 74
0
 42
0.0000001
 43
0.0000001
 44
0.0000000001
 40
0.0
 40
0.0
 40
0.0
 40
0.0
 40
0.7175571452
 40
1.0
 40
1.0
 40
1.0
 40
1.0
 10
56.5153358847
 20
16.8840529123
 30
0.0
 10
56.5153358847
 20
16.8831274781
 30
0.0
 10
56.5148661234
 20
16.8818297404
 30
0.0
 10
56.5140963385
 20
16.8808001757
 30
0.0
 10
56.5138630121
 20
16.8805204453
 30
0.0
  0
SPLINE
  5
2B4
100
AcDbEntity
  8
0
100
AcDbSpline
 62
7
  6
BYLAYER
 70
0
 71
3
 72
42
 73
38
 74
0
 42
0.0000001
 43
0.0000001
 44
0.0000000001
 40
0.0
 40
0.0
 40
0.0
 40
0.0
 40
0.0005193418
 40
0.0012861958
 40
0.0036295229
 40
0.0070860829
 40
0.0116648132
 40
0.0173617871
 40
0.0241643201
 40
0.0320580478
 40
0.0410279325
 40
0.0621144246
 40
0.0872266462
 40
0.1161415473
 40
0.1485887333
 40
0.1842761819
 40
0.2228704139
 40
0.2640208446
 40
0.3073446303
 40
0.398907814
 40
0.494195262
 40
0.5897052046
 40
0.6819282519
 40
0.7674757674
 40
0.8067504556
 40
0.8432053663
 40
0.8765013635
 40
0.9063364807
 40
0.9324338552
 40
0.9545585674
 40
0.9725061649
 40
0.9798626431
 40
0.9861207422
 40
0.9912665917
 40
0.9952907582
 40
0.9981953468
 40
1.0
 40
1.0
 40
1.0
 40
1.0
 10
56.5138630121
 20
16.8805204453
 30
0.0
 10
56.5125313849
 20
16.8789239842
 30
0.0
 10
56.5081539717
 20
16.8759716894
 30
0.0
 10
56.4948073128
 20
16.8702890065
 30
0.0
 10
56.469156331
 20
16.8638937724
 30
0.0
 10
56.4283077658
 20
16.8565516671
 30
0.0
 10
56.3738022119
 20
16.8491576678
 30
0.0
 10
56.3058560054
 20
16.8416565295
 30
0.0
 10
56.2245641278
 20
16.8341214796
 30
0.0
 10
56.1301308031
 20
16.8265532289
 30
0.0
 10
55.9785913683
 20
16.8158594174
 30
0.0
 10
55.7581317746
 20
16.8028116205
 30
0.0
 10
55.457826767
 20
16.787766435
 30
0.0
 10
55.1119980023
 20
16.7726698661
 30
0.0
 10
54.7238033325
 20
16.7575301843
 30
0.0
 10
54.2968362579
 20
16.7423791285
 30
0.0
 10
53.8350108569
 20
16.7272064359
 30
0.0
 10
53.3426024448
 20
16.7120162127
 30
0.0
 10
52.6382280771
 20
16.6913637986
 30
0.0
 10
51.7171909652
 20
16.665952129
 30
0.0
 10
50.5873010481
 20
16.6359574264
 30
0.0
 10
49.4547694621
 20
16.6059329097
 30
0.0
 10
48.3612390543
 20
16.5759735141
 30
0.0
 10
47.4927829181
 20
16.5504018813
 30
0.0
 10
46.8475274602
 20
16.5295587168
 30
0.0
 10
46.41136152
 20
16.5143943317
 30
0.0
 10
46.0130056057
 20
16.499258114
 30
0.0
 10
45.6561425443
 20
16.4841582576
 30
0.0
 10
45.3440394364
 20
16.4691028762
 30
0.0
 10
45.0795853379
 20
16.4541115103
 30
0.0
 10
44.8901645017
 20
16.4410560988
 30
0.0
 10
44.7642839673
 20
16.4302601712
 30
0.0
 10
44.68955058
 20
16.4227474168
 30
0.0
 10
44.6282646261
 20
16.415258296
 30
0.0
 10
44.5804184649
 20
16.4079196608
 30
0.0
 10
44.5463332008
 20
16.4006087342
 30
0.0
 10
44.5280859631
 20
16.3949864306
 30
0.0
 10
44.5218095682
 20
16.3914096579
 30
0.0
  0
SPLINE
  5
2B5
100
AcDbEntity
  8
0
100
AcDbSpline
 62
7
  6
BYLAYER
 70
0
 71
3
 72
41
 73
37
 74
0
 42
0.0000001
 43
0.0000001
 44
0.0000000001
 40
0.0
 40
0.0
 40
0.0
 40
0.0
 40
0.0019475751
 40
0.0049738542
 40
0.0090950647
 40
0.0143071634
 40
0.0205994096
 40
0.0279579662
 40
0.0458021483
 40
0.0676933778
 40
0.0934824134
 40
0.1229668039
 40
0.1558361724
 40
0.1917696237
 40
0.2304522066
 40
0.2715622318
 40
0.314746724
 40
0.4057116826
 40
0.5000389605
 40
0.5943653565
 40
0.6853013691
 40
0.728493746
 40
0.7696345687
 40
0.8083248685
 40
0.8442280326
 40
0.8770556266
 40
0.9065240992
 40
0.9323575037
 40
0.9542930097
 40
0.9721121311
 40
0.9794413483
 40
0.9857037002
 40
0.9908912685
 40
0.9949996415
 40
0.9980302733
 40
1.0
 40
1.0
 40
1.0
 40
1.0
 10
55.7579380452
 20
14.3047727472
 30
0.0
 10
55.7520556988
 20
14.3013257944
 30
0.0
 10
55.7353474916
 20
14.2957248805
 30
0.0
 10
55.7043772161
 20
14.2886456611
 30
0.0
 10
55.6616410358
 20
14.2815400301
 30
0.0
 10
55.6074331042
 20
14.2742996209
 30
0.0
 10
55.5417991651
 20
14.2669632982
 30
0.0
 10
55.4320617076
 20
14.2562971768
 30
0.0
 10
55.2677101686
 20
14.2431804356
 30
0.0
 10
55.0388199999
 20
14.2281224691
 30
0.0
 10
54.7690965274
 20
14.213220843
 30
0.0
 10
54.4608833023
 20
14.1985296058
 30
0.0
 10
54.1171273076
 20
14.1837153067
 30
0.0
 10
53.7411484089
 20
14.1687944395
 30
0.0
 10
53.3363089595
 20
14.1536503951
 30
0.0
 10
52.9060777018
 20
14.1382583502
 30
0.0
 10
52.2928818692
 20
14.1179556173
 30
0.0
 10
51.4934200147
 20
14.0937114658
 30
0.0
 10
50.5150418699
 20
14.0629501468
 30
0.0
 10
49.5367134536
 20
14.0338775283
 30
0.0
 10
48.7373519026
 20
14.0088632239
 30
0.0
 10
48.1241305362
 20
13.988314089
 30
0.0
 10
47.6937319778
 20
13.9730590482
 30
0.0
 10
47.2888585259
 20
13.9580541379
 30
0.0
 10
46.9130967629
 20
13.9433455053
 30
0.0
 10
46.5696448305
 20
13.9286181452
 30
0.0
 10
46.2614930617
 20
13.913606475
 30
0.0
 10
45.9915361293
 20
13.8983237015
 30
0.0
 10
45.7624200151
 20
13.8833554484
 30
0.0
 10
45.5980616275
 20
13.8707836669
 30
0.0
 10
45.4886006531
 20
13.8603102767
 30
0.0
 10
45.4232652332
 20
13.8529405249
 30
0.0
 10
45.3693143179
 20
13.8455307062
 30
0.0
 10
45.3267413236
 20
13.8381800262
 30
0.0
 10
45.2957630022
 20
13.8308674247
 30
0.0
 10
45.2790128906
 20
13.8251750253
 30
0.0
 10
45.2730302695
 20
13.821746448
 30
0.0
  0
SPLINE
  5
2B6
100
AcDbEntity
  8
0
100
AcDbSpline
 62
7
  6
BYLAYER
 70
0
 71
3
 72
9
 73
5
 74
0
 42
0.0000001
 43
0.0000001
 44
0.0000000001
 40
0.0
 40
0.0
 40
0.0
 40
0.0
 40
0.7171406379
 40
1.0
 40
1.0
 40
1.0
 40
1.0
 10
44.5153358847
 20
17.2424661422
 30
0.0
 10
44.5153358847
 20
17.2433980293
 30
0.0
 10
44.5158134978
 20
17.2447051891
 30
0.0
 10
44.5165928827
 20
17.2457395202
 30
0.0
 10
44.5168293564
 20
17.246020912
 30
0.0
  0
SPLINE
  5
2B7
100
AcDbEntity
  8
0
100
AcDbSpline
 62
7
  6
BYLAYER
 70
0
 71
3
 72
42
 73
38
 74
0
 42
0.0000001
 43
0.0000001
 44
0.0000000001
 40
0.0
 40
0.0
 40
0.0
 40
0.0
 40
0.0005207805
 40
0.0012893944
 40
0.0036366384
 40
0.0070974002
 40
0.0116805377
 40
0.017382075
 40
0.0241893193
 40
0.0320879058
 40
0.0410627936
 40
0.0621595648
 40
0.0872824345
 40
0.1162081992
 40
0.1486662845
 40
0.184364475
 40
0.222969158
 40
0.2641296176
 40
0.3074627946
 40
0.3990421061
 40
0.4943411629
 40
0.5898572038
 40
0.6820797562
 40
0.7676196404
 40
0.8068877116
 40
0.8433341054
 40
0.8766196814
 40
0.9064425262
 40
0.9325258494
 40
0.9546348265
 40
0.9725650889
 40
0.9799123561
 40
0.986160913
 40
0.9912969179
 40
0.9953110129
 40
0.9982053954
 40
1.0
 40
1.0
 40
1.0
 40
1.0
 10
44.5168293564
 20
17.246020912
 30
0.0
 10
44.5181705675
 20
17.2476168862
 30
0.0
 10
44.5225635382
 20
17.2505669297
 30
0.0
 10
44.5359419893
 20
17.2562487748
 30
0.0
 10
44.5616325634
 20
17.2626454917
 30
0.0
 10
44.6025324554
 20
17.2699902395
 30
0.0
 10
44.6570912369
 20
17.2773863563
 30
0.0
 10
44.725093151
 20
17.2848886107
 30
0.0
 10
44.8064425064
 20
17.2924245585
 30
0.0
 10
44.9009351771
 20
17.2999938549
 30
0.0
 10
45.0525567077
 20
17.3106899549
 30
0.0
 10
45.2731220627
 20
17.3237430083
 30
0.0
 10
45.5735572785
 20
17.3387898386
 30
0.0
 10
45.9195194986
 20
17.3538793856
 30
0.0
 10
46.3078481766
 20
17.369015797
 30
0.0
 10
46.7349475188
 20
17.3841758397
 30
0.0
 10
47.1969020702
 20
17.3993571455
 30
0.0
 10
47.6894348447
 20
17.4145454482
 30
0.0
 10
48.3939584214
 20
17.4351918296
 30
0.0
 10
49.3151527722
 20
17.4606092868
 30
0.0
 10
50.4451886187
 20
17.4906140432
 30
0.0
 10
51.5778001038
 20
17.5206294229
 30
0.0
 10
52.6713324416
 20
17.5506003358
 30
0.0
 10
53.5397376613
 20
17.5761751805
 30
0.0
 10
54.184908152
 20
17.5970153802
 30
0.0
 10
54.6209759234
 20
17.6121782809
 30
0.0
 10
55.0192103538
 20
17.6273210537
 30
0.0
 10
55.3759291651
 20
17.6424304778
 30
0.0
 10
55.6878667161
 20
17.6574848407
 30
0.0
 10
55.9521348561
 20
17.6724673687
 30
0.0
 10
56.1413881568
 20
17.6855204484
 30
0.0
 10
56.2671245062
 20
17.6963199177
 30
0.0
 10
56.3417435967
 20
17.7038349056
 30
0.0
 10
56.4029103761
 20
17.7113268137
 30
0.0
 10
56.4506366261
 20
17.7186660599
 30
0.0
 10
56.4845946777
 20
17.7259780901
 30
0.0
 10
56.5027628793
 20
17.7315993819
 30
0.0
 10
56.5089893476
 20
17.7351825315
 30
0.0
  0
SPLINE
  5
2B8
100
AcDbEntity
  8
0
100
AcDbSpline
 62
7
  6
BYLAYER
 70
0
 71
3
 72
39
 73
35
 74
0
 42
0.0000001
 43
0.0000001
 44
0.0000000001
 40
0.0
 40
0.0
 40
0.0
 40
0.0
 40
0.0019317891
 40
0.0049297511
 40
0.0090225246
 40
0.014214163
 40
0.0204998848
 40
0.0278638529
 40
0.0457392134
 40
0.0676548452
 40
0.0934184112
 40
0.1228426018
 40
0.155692912
 40
0.191647616
 40
0.2303501008
 40
0.3146159974
 40
0.4055665088
 40
0.4999012538
 40
0.5942428046
 40
0.6851801828
 40
0.7695064492
 40
0.8082411697
 40
0.8441815752
 40
0.8770055902
 40
0.9064518478
 40
0.9322755772
 40
0.954247227
 40
0.9721399287
 40
0.9794924367
 40
0.985762198
 40
0.9909424764
 40
0.9950346845
 40
0.9980459345
 40
1.0
 40
1.0
 40
1.0
 40
1.0
 10
55.7575151954
 20
17.3051582798
 30
0.0
 10
55.7517127213
 20
17.3016859991
 30
0.0
 10
55.7352317709
 20
17.2959240838
 30
0.0
 10
55.7045784017
 20
17.2885821539
 30
0.0
 10
55.6621522196
 20
17.2812797516
 30
0.0
 10
55.6081555433
 20
17.2739436392
 30
0.0
 10
55.5425958864
 20
17.2666635251
 30
0.0
 10
55.4327368531
 20
17.2562554647
 30
0.0
 10
55.2681634349
 20
17.2434261901
 30
0.0
 10
55.0391799749
 20
17.2284861723
 30
0.0
 10
54.7697044796
 20
17.2134050979
 30
0.0
 10
54.4619018055
 20
17.1983357442
 30
0.0
 10
54.1183793302
 20
17.1834654171
 30
0.0
 10
53.7423469236
 20
17.1687230022
 30
0.0
 10
53.1864216831
 20
17.1484029403
 30
0.0
 10
52.4380721246
 20
17.1222600354
 30
0.0
 10
51.4949757463
 20
17.0932748346
 30
0.0
 10
50.5166124469
 20
17.0637451248
 30
0.0
 10
49.5383194599
 20
17.0334029186
 30
0.0
 10
48.5950371051
 20
17.0043625329
 30
0.0
 10
47.8463754484
 20
16.979172507
 30
0.0
 10
47.2902014537
 20
16.9581503295
 30
0.0
 10
46.914213225
 20
16.9430428335
 30
0.0
 10
46.5707482709
 20
16.9283622203
 30
0.0
 10
46.2627272903
 20
16.913757859
 30
0.0
 10
45.9927574752
 20
16.8988277248
 30
0.0
 10
45.7633209334
 20
16.8836378162
 30
0.0
 10
45.5985496695
 20
16.8705633104
 30
0.0
 10
45.4887379014
 20
16.8600295669
 30
0.0
 10
45.423318459
 20
16.8527264716
 30
0.0
 10
45.3694108556
 20
16.8454541679
 30
0.0
 10
45.3269665204
 20
16.8382605361
 30
0.0
 10
45.2961470441
 20
16.8310667947
 30
0.0
 10
45.2795067224
 20
16.8254323289
 30
0.0
 10
45.2735728895
 20
16.8220300187
 30
0.0
  0
SPLINE
  5
2B9
100
AcDbEntity
  8
0
100
AcDbSpline
 62
7
  6
BYLAYER
 70
0
 71
3
 72
9
 73
5
 74
0
 42
0.0000001
 43
0.0000001
 44
0.0000000001
 40
0.0
 40
0.0
 40
0.0
 40
0.0
 40
0.7171831251
 40
1.0
 40
1.0
 40
1.0
 40
1.0
 10
56.5153358847
 20
17.8840499906
 30
0.0
 10
56.5153358847
 20
17.8831278654
 30
0.0
 10
56.5148645308
 20
17.8818345178
 30
0.0
 10
56.5140950895
 20
17.8808097589
 30
0.0
 10
56.5138616328
 20
17.8805309614
 30
0.0
  0
SPLINE
  5
2BA
100
AcDbEntity
  8
0
100
AcDbSpline
 62
7
  6
BYLAYER
 70
0
 71
3
 72
42
 73
38
 74
0
 42
0.0000001
 43
0.0000001
 44
0.0000000001
 40
0.0
 40
0.0
 40
0.0
 40
0.0
 40
0.0005189029
 40
0.0012856636
 40
0.0036291137
 40
0.0070857965
 40
0.0116644878
 40
0.0173612383
 40
0.0241634055
 40
0.0320566545
 40
0.0410259675
 40
0.0621110392
 40
0.0872215202
 40
0.11613439
 40
0.1485792683
 40
0.184264167
 40
0.2228557309
 40
0.2640034893
 40
0.3073245987
 40
0.3988824776
 40
0.4941650961
 40
0.589671599
 40
0.6818925873
 40
0.7674401977
 40
0.8067157923
 40
0.8431721504
 40
0.8764702232
 40
0.9063079982
 40
0.9324087013
 40
0.9545373378
 40
0.9724895463
 40
0.9798485326
 40
0.9861092705
 40
0.9912578759
 40
0.9952848582
 40
0.9981923275
 40
1.0
 40
1.0
 40
1.0
 40
1.0
 10
56.5138616328
 20
17.8805309614
 30
0.0
 10
56.5125280791
 20
17.8789384116
 30
0.0
 10
56.5081490394
 20
17.8759937798
 30
0.0
 10
56.4948022734
 20
17.8703164221
 30
0.0
 10
56.4691527351
 20
17.8639158759
 30
0.0
 10
56.4283053949
 20
17.8565616989
 30
0.0
 10
56.3738019459
 20
17.849158145
 30
0.0
 10
56.3058588159
 20
17.8416540704
 30
0.0
 10
56.2245715778
 20
17.8341191464
 30
0.0
 10
56.1301442143
 20
17.826552525
 30
0.0
 10
55.9786153181
 20
17.8158593388
 30
0.0
 10
55.758171944
 20
17.8028066495
 30
0.0
 10
55.4578890037
 20
17.7877615192
 30
0.0
 10
55.1120855092
 20
17.7726781016
 30
0.0
 10
54.7239198272
 20
17.757546258
 30
0.0
 10
54.2969851027
 20
17.7423852138
 30
0.0
 10
53.835193604
 20
17.7272027722
 30
0.0
 10
53.3428192563
 20
17.7120176345
 30
0.0
 10
52.6384902217
 20
17.6913777574
 30
0.0
 10
51.7175083393
 20
17.6659680036
 30
0.0
 10
50.5876782759
 20
17.6359495706
 30
0.0
 10
49.4551919094
 20
17.6059631015
 30
0.0
 10
48.3616886047
 20
17.5759760342
 30
0.0
 10
47.4932402482
 20
17.5504120469
 30
0.0
 10
46.8479774275
 20
17.5295792531
 30
0.0
 10
46.4117955188
 20
17.5144177521
 30
0.0
 10
46.0134168385
 20
17.4992739071
 30
0.0
 10
45.6565234796
 20
17.4841632926
 30
0.0
 10
45.344381797
 20
17.4691132128
 30
0.0
 10
45.0798803736
 20
17.4541377073
 30
0.0
 10
44.8904159206
 20
17.4410832
 30
0.0
 10
44.7644971625
 20
17.4302819643
 30
0.0
 10
44.6897326299
 20
17.4227665225
 30
0.0
 10
44.6284136359
 20
17.4152786789
 30
0.0
 10
44.5805327331
 20
17.4079471047
 30
0.0
 10
44.5464099953
 20
17.4006434714
 30
0.0
 10
44.5281382638
 20
17.3950225308
 30
0.0
 10
44.521848226
 20
17.3914453564
 30
0.0
  0
ENDSEC
  0
SECTION
  2
OBJECTS
  0
DICTIONARY
  5
C
100
AcDbDictionary
280
0
281
1
  3
ACAD_GROUP
350
D
  3
ACAD_MLINESTYLE
350
17
  3
ACAD_LAYOUT
350
1A
  3
ACAD_PLOTSETTINGS
350
19
  3
ACAD_PLOTSTYLENAME
350
E
  0
DICTIONARY
  5
D
102
{ACAD_REACTORS
330
C
102
}
100
AcDbDictionary
280
0
281
1
  0
ACDBDICTIONARYWDFLT
  5
E
102
{ACAD_REACTORS
330
C
102
}
100
AcDbDictionary
281
1
  3
Normal
350
F
100
AcDbDictionaryWithDefault
340
F
  0
DICTIONARY
  5
17
102
{ACAD_REACTORS
330
C
102
}
100
AcDbDictionary
280
0
281
1
  3
Standard
350
18
  0
DICTIONARY
  5
19
102
{ACAD_REACTORS
330
C
102
}
100
AcDbDictionary
281
1
  0
DICTIONARY
  5
1A
102
{ACAD_REACTORS
330
C
102
}
100
AcDbDictionary
281
1
  3
Model
350
2BB
  3
Layout1
350
2BC
  0
ACDBPLACEHOLDER
  5
F
102
{ACAD_REACTORS
330
E
102
}
  0
MLINESTYLE
  5
18
102
{ACAD_REACTORS
330
17
102
}
100
AcDbMlineStyle
  2
STANDARD
 70
0
  3

 62
256
 51
90.0
 52
90.0
 71
2
 49
0.5
 62
256
  6
BYLAYER
 49
-0.5
 62
256
  6
BYLAYER
  0
LAYOUT
  5
2BB
102
{ACAD_REACTORS
330
1A
102
}
100
AcDbPlotSettings
  1

  2
none_device
  4

  6

 40
0.0
 41
0.0
 42
0.0
 43
0.0
 44
210.0
 45
297.0
 46
0.0
 47
0.0
 48
0.0
 49
0.0
140
0.0
141
0.0
142
1.0
143
1.0
 70
1024
 72
1
 73
0
 74
0
  7

 75
0
147
1.0
148
0.0
149
0.0
100
AcDbLayout
  1
Model
 70
0
 71
0
 10
0.0
 20
0.0
 11
210.0
 21
297.0
 12
0.0
 22
0.0
 32
0.0
 14
0.0
 24
0.0
 34
0.0
 15
0.0
 25
0.0
 35
0.0
146
0.0
 13
0.0
 23
0.0
 33
0.0
 16
1.0
 26
0.0
 36
0.0
 17
0.0
 27
1.0
 37
0.0
 76
0
330
210
345
0
346
0
  0
LAYOUT
  5
2BC
102
{ACAD_REACTORS
330
1A
102
}
100
AcDbPlotSettings
  1

  2
none_device
  4

  6

 40
0.0
 41
0.0
 42
0.0
 43
0.0
 44
210.0
 45
297.0
 46
0.0
 47
0.0
 48
0.0
 49
0.0
140
0.0
141
0.0
142
1.0
143
1.0
 70
0
 72
1
 73
0
 74
0
  7

 75
0
147
1.0
148
0.0
149
0.0
100
AcDbLayout
  1
Layout1
 70
0
 71
1
 10
0.0
 20
0.0
 11
210.0
 21
297.0
 12
0.0
 22
0.0
 32
0.0
 14
0.0
 24
0.0
 34
0.0
 15
0.0
 25
0.0
 35
0.0
146
0.0
 13
0.0
 23
0.0
 33
0.0
 16
1.0
 26
0.0
 36
0.0
 17
0.0
 27
1.0
 37
0.0
 76
0
330
211
345
0
346
0
  0
ENDSEC
  0
EOF
