999
DXF file: C:\Users\sesa63760\Dev\_Creo\CAD\MCADID0003600_3D-CAD\drw0001_1.dxf
999
Pro/ENGINEER 2019471 by Parametric Technology Corporation
  0
SECTION
  2
HEADER
  9
$ACADVER
  1
AC1024
  9
$DWGCODEPAGE
  3
ANSI_1252
  9
$EXTMAX
 10
135.5983811985
 20
191.7748534093
 30
0.0
  9
$EXTMIN
 10
0.0
 20
0.0
 30
0.0
  9
$LIMMIN
 10
0.0
 20
0.0
  9
$LIMMAX
 10
135.5983811985
 20
191.7748534093
  9
$VIEWCTR
 10
67.7991905992
 20
95.8874267046
  9
$VIEWSIZE
 40
191.7748534093
  9
$CLAYER
  8
0
  9
$LTSCALE
 40
12.5008793333
  9
$CELTYPE
  6
BYLAYER
  9
$DIMSCALE
 40
1.0
  9
$DIMASZ
 40
1.6142664428
  9
$DIMEXO
 40
1.0
  9
$DIMDLI
 40
8.6369711758
  9
$DIMEXE
 40
1.0
  9
$DIMCEN
 40
2.0455984364
  9
$DIMLFAC
 40
1.0
  9
$DIMBLK
  1
_FILLED
  9
$DIMALT
 70
0
  9
$DIMALTF
 40
0.0393700787
  9
$DIMTXT
 40
2.25997302
  9
$DIMTOL
 70
1
  9
$DIMLIM
 70
0
  9
$DIMTFAC
 40
1.0
  9
$DIMTP
 40
0.01
  9
$DIMTM
 40
0.01
  9
$DIMGAP
 40
0.625
  9
$DIMDSEP
 70
46
  9
$AUNITS
 70
0
  9
$PDMODE
 70
3
  9
$PDSIZE
 40
0.3125
  9
$HANDSEED
  5
350
  9
$TILEMODE
 70
1
  9
$MEASUREMENT
 70
1
  9
$INSUNITS
 70
4
  0
ENDSEC
  0
SECTION
  2
CLASSES
  0
CLASS
  1
ACDBDICTIONARYWDFLT
  2
AcDbDictionaryWithDefault
  3
AutoCAD 2000
 90
0
 91
1
280
0
281
0
  0
CLASS
  1
ACDBPLACEHOLDER
  2
AcDbPlaceHolder
  3
AutoCAD 2000
 90
0
 91
1
280
0
281
0
  0
CLASS
  1
LAYOUT
  2
AcDbLayout
  3
AutoCAD 2000
 90
0
 91
0
280
0
281
0
  0
ENDSEC
  0
SECTION
  2
TABLES
  0
TABLE
  2
VPORT
  5
8
100
AcDbSymbolTable
 70
2
  0
VPORT
  5
1F4
100
AcDbSymbolTableRecord
100
AcDbViewportTableRecord
  2
*ACTIVE
 70
0
 10
0.0
 20
0.0
 11
1.0
 21
1.0
 12
67.7991905992
 22
95.8874267046
 13
0.0
 23
0.0
 14
1.0
 24
1.0
 15
0.0
 25
0.0
 16
0.0
 26
0.0
 36
1.0
 17
0.0
 27
0.0
 37
0.0
 40
191.7748534093
 41
0.7070707071
 42
50.0
 43
0.0
 44
0.0
 50
0.0
 51
0.0
 71
0
 72
100
 73
1
 74
1
 75
0
 76
0
 77
0
 78
0
  0
ENDTAB
  0
TABLE
  2
LTYPE
  5
5
100
AcDbSymbolTable
 70
6
  0
LTYPE
  5
14
100
AcDbSymbolTableRecord
100
AcDbLinetypeTableRecord
  2
BYBLOCK
 70
0
  3

 72
65
 73
0
 40
0.0
  0
LTYPE
  5
15
100
AcDbSymbolTableRecord
100
AcDbLinetypeTableRecord
  2
BYLAYER
 70
0
  3

 72
65
 73
0
 40
0.0
  0
LTYPE
  5
16
100
AcDbSymbolTableRecord
100
AcDbLinetypeTableRecord
  2
CONTINUOUS
 70
64
  3
Solid line
 72
65
 73
0
 40
0.0
  0
LTYPE
  5
1F5
100
AcDbSymbolTableRecord
100
AcDbLinetypeTableRecord
  2
CENTER
 70
64
  3
____ _ ____ _ ____ _ ____ _ ____ _ ____ _ ____
 72
65
 73
4
 40
0.6
 49
0.375
 74
0
 49
-0.075
 74
0
 49
0.075
 74
0
 49
-0.075
 74
0
  0
LTYPE
  5
1F6
100
AcDbSymbolTableRecord
100
AcDbLinetypeTableRecord
  2
HIDDEN
 70
64
  3
- - - - - - - - - - - - - - - - - - - -
 72
65
 73
2
 40
0.2
 49
0.1
 74
0
 49
-0.1
 74
0
  0
LTYPE
  5
1F7
100
AcDbSymbolTableRecord
100
AcDbLinetypeTableRecord
  2
PHANTOM
 70
64
  3
_____ _ _ _____ _ _ _____ _ _ _____
 72
65
 73
6
 40
0.8
 49
0.45
 74
0
 49
-0.05
 74
0
 49
0.1
 74
0
 49
-0.05
 74
0
 49
0.1
 74
0
 49
-0.05
 74
0
  0
LTYPE
  5
1F8
100
AcDbSymbolTableRecord
100
AcDbLinetypeTableRecord
  2
DOT
 70
64
  3
. . . . . . . . . . . . . . . . . . . .
 72
65
 73
2
 40
0.2
 49
0.1
 74
0
 49
-0.1
 74
0
  0
LTYPE
  5
1F9
100
AcDbSymbolTableRecord
100
AcDbLinetypeTableRecord
  2
DASHED
 70
64
  3
- - - - - - - - - - - - - - - - - - - -
 72
65
 73
2
 40
0.2
 49
0.1
 74
0
 49
-0.1
 74
0
  0
ENDTAB
  0
TABLE
  2
LAYER
  5
2
100
AcDbSymbolTable
 70
36
  0
LAYER
  5
10
100
AcDbSymbolTableRecord
100
AcDbLayerTableRecord
  2
0
 70
0
 62
7
  6
CONTINUOUS
370
-3
390
F
  0
LAYER
  5
1FA
100
AcDbSymbolTableRecord
100
AcDbLayerTableRecord
  2
DEFAULT_1
 70
0
 62
7
  6
CENTER
370
-3
390
F
  0
LAYER
  5
1FB
100
AcDbSymbolTableRecord
100
AcDbLayerTableRecord
  2
DEFAULT_2
 70
0
 62
7
  6
HIDDEN
370
-3
390
F
  0
LAYER
  5
1FC
100
AcDbSymbolTableRecord
100
AcDbLayerTableRecord
  2
DEFAULT_3
 70
0
 62
7
  6
PHANTOM
370
-3
390
F
  0
LAYER
  5
1FD
100
AcDbSymbolTableRecord
100
AcDbLayerTableRecord
  2
00_COMPONENTS
 70
0
 62
7
  6
CONTINUOUS
370
-3
390
F
  0
LAYER
  5
1FE
100
AcDbSymbolTableRecord
100
AcDbLayerTableRecord
  2
01_1_DEFAULT_DATUMS
 70
0
 62
7
  6
CONTINUOUS
370
-3
390
F
  0
LAYER
  5
1FF
100
AcDbSymbolTableRecord
100
AcDbLayerTableRecord
  2
01_PLANES
 70
0
 62
7
  6
CONTINUOUS
370
-3
390
F
  0
LAYER
  5
200
100
AcDbSymbolTableRecord
100
AcDbLayerTableRecord
  2
02_COORD_SYS
 70
0
 62
7
  6
CONTINUOUS
370
-3
390
F
  0
LAYER
  5
201
100
AcDbSymbolTableRecord
100
AcDbLayerTableRecord
  2
03_AXES
 70
0
 62
7
  6
CONTINUOUS
370
-3
390
F
  0
LAYER
  5
202
100
AcDbSymbolTableRecord
100
AcDbLayerTableRecord
  2
04_POINTS
 70
0
 62
7
  6
CONTINUOUS
370
-3
390
F
  0
LAYER
  5
203
100
AcDbSymbolTableRecord
100
AcDbLayerTableRecord
  2
05_CURVES
 70
0
 62
7
  6
CONTINUOUS
370
-3
390
F
  0
LAYER
  5
204
100
AcDbSymbolTableRecord
100
AcDbLayerTableRecord
  2
06_SURFS
 70
0
 62
7
  6
CONTINUOUS
370
-3
390
F
  0
LAYER
  5
205
100
AcDbSymbolTableRecord
100
AcDbLayerTableRecord
  2
07_COSMETICS
 70
0
 62
7
  6
CONTINUOUS
370
-3
390
F
  0
LAYER
  5
206
100
AcDbSymbolTableRecord
100
AcDbLayerTableRecord
  2
10_NOTES
 70
0
 62
7
  6
CONTINUOUS
370
-3
390
F
  0
LAYER
  5
207
100
AcDbSymbolTableRecord
100
AcDbLayerTableRecord
  2
11_NOTES_PUB
 70
0
 62
7
  6
CONTINUOUS
370
-3
390
F
  0
LAYER
  5
208
100
AcDbSymbolTableRecord
100
AcDbLayerTableRecord
  2
13_REF_GTOL
 70
0
 62
7
  6
CONTINUOUS
370
-3
390
F
  0
LAYER
  5
209
100
AcDbSymbolTableRecord
100
AcDbLayerTableRecord
  2
16_MISC
 70
0
 62
7
  6
CONTINUOUS
370
-3
390
F
  0
LAYER
  5
20A
100
AcDbSymbolTableRecord
100
AcDbLayerTableRecord
  2
17_NO_PRINT
 70
0
 62
7
  6
CONTINUOUS
370
-3
390
F
  0
LAYER
  5
20B
100
AcDbSymbolTableRecord
100
AcDbLayerTableRecord
  2
18_DATUM_CAMS_JOINTS
 70
0
 62
7
  6
CONTINUOUS
370
-3
390
F
  0
LAYER
  5
20C
100
AcDbSymbolTableRecord
100
AcDbLayerTableRecord
  2
19_DATUM_FUNCTIONAL
 70
0
 62
7
  6
CONTINUOUS
370
-3
390
F
  0
LAYER
  5
20D
100
AcDbSymbolTableRecord
100
AcDbLayerTableRecord
  2
20_DATUM_KINEMATIC_SCHEME
 70
0
 62
7
  6
CONTINUOUS
370
-3
390
F
  0
ENDTAB
  0
TABLE
  2
STYLE
  5
3
100
AcDbSymbolTable
 70
1
  0
STYLE
  5
11
100
AcDbSymbolTableRecord
100
AcDbTextStyleTableRecord
  2
STANDARD
 70
0
 40
0.0
 41
1.0
 50
0.0
 71
0
 42
0.2
  3
ARIAL.TTF
  4

  0
STYLE
  5
20E
100
AcDbSymbolTableRecord
100
AcDbTextStyleTableRecord
  2
TEXTSTYLE_1
 70
0
 40
0.0
 41
0.8
 50
0.0
 71
0
 42
0.2
  3
gdt
  4

  0
ENDTAB
  0
TABLE
  2
VIEW
  5
6
100
AcDbSymbolTable
 70
0
  0
ENDTAB
  0
TABLE
  2
UCS
  5
7
100
AcDbSymbolTable
 70
0
  0
ENDTAB
  0
TABLE
  2
APPID
  5
9
100
AcDbSymbolTable
 70
1
  0
APPID
  5
20F
100
AcDbSymbolTableRecord
100
AcDbRegAppTableRecord
  2
ACAD
 70
0
  0
ENDTAB
  0
TABLE
  2
BLOCK_RECORD
  5
1
100
AcDbSymbolTable
 70
0
  0
BLOCK_RECORD
  5
210
100
AcDbSymbolTableRecord
100
AcDbBlockTableRecord
  2
*Model_Space
  0
BLOCK_RECORD
  5
211
100
AcDbSymbolTableRecord
100
AcDbBlockTableRecord
  2
*Paper_Space
  0
BLOCK_RECORD
  5
212
100
AcDbSymbolTableRecord
100
AcDbBlockTableRecord
  2
_FILLED
  0
ENDTAB
  0
TABLE
  2
DIMSTYLE
  5
A
100
AcDbSymbolTable
 70
1
100
AcDbDimStyleTable
 71
0
  0
DIMSTYLE
105
213
100
AcDbSymbolTableRecord
100
AcDbDimStyleTableRecord
  2
STANDARD
 70
0
  3

  4

 40
1.0
 41
1.6142664428
 42
1.0
 43
0.38
 44
1.0
 45
0.0
 46
0.0
 47
0.01
 48
0.01
140
2.25997302
141
0.09
142
0.0
143
25.4
144
1.0
145
0.0
146
1.0
147
0.625
 71
1
 72
0
 73
0
 74
0
 75
0
 76
0
 77
1
 78
8
 79
2
170
0
171
1
172
0
173
0
174
0
175
0
176
0
177
0
178
0
270
2
179
2
271
2
272
2
273
2
274
2
275
0
280
0
281
0
282
0
283
1
284
8
285
0
286
0
287
3
288
0
340
11
278
46
341
212
342
212
343
212
344
212
  0
ENDTAB
  0
ENDSEC
  0
SECTION
  2
BLOCKS
  0
BLOCK
  5
20
100
AcDbEntity
  8
0
100
AcDbBlockBegin
  2
*Model_Space
 70
0
 10
0.0
 20
0.0
 30
0.0
  3
*Model_Space
  1

  0
ENDBLK
  5
21
100
AcDbEntity
  8
0
100
AcDbBlockEnd
  0
BLOCK
  5
1C
100
AcDbEntity
  8
0
100
AcDbBlockBegin
  2
*Paper_Space
 70
0
 10
0.0
 20
0.0
 30
0.0
  3
*Paper_Space
  1

  0
ENDBLK
  5
1D
100
AcDbEntity
  8
0
100
AcDbBlockEnd
  0
BLOCK
  5
214
100
AcDbEntity
  8
0
100
AcDbBlockBegin
  2
_FILLED
 70
64
 10
0.0
 20
0.0
  3
_FILLED
  1

  0
SOLID
  5
215
100
AcDbEntity
  8
0
  6
BYBLOCK
 62
0
100
AcDbTrace
 10
0.0
 20
0.0
 11
-1.0
 21
0.25
 12
-1.0
 22
-0.25
 13
-1.0
 23
-0.25
  0
ENDBLK
  5
216
100
AcDbEntity
  8
0
  6
BYBLOCK
 62
0
100
AcDbBlockEnd
  0
ENDSEC
  0
SECTION
  2
ENTITIES
  0
LINE
  5
217
100
AcDbEntity
  8
0
100
AcDbLine
 62
7
  6
BYLAYER
 10
15.7309723155
 20
94.190927852
 11
15.7309723155
 21
67.2463480867
  0
LINE
  5
218
100
AcDbEntity
  8
0
100
AcDbLine
 62
7
  6
BYLAYER
 10
15.7309723155
 20
67.2463480867
 11
44.0860722938
 21
50.8758938305
  0
LINE
  5
219
100
AcDbEntity
  8
0
100
AcDbLine
 62
7
  6
BYLAYER
 10
22.8374250532
 20
90.0881082691
 11
22.8374250532
 21
93.4357681793
  0
LINE
  5
21A
100
AcDbEntity
  8
0
100
AcDbLine
 62
7
  6
BYLAYER
 10
24.976431383
 20
96.1200497482
 11
24.976431383
 21
99.0594584499
  0
LINE
  5
21B
100
AcDbEntity
  8
0
100
AcDbLine
 62
7
  6
BYLAYER
 10
25.0294469485
 20
96.0894418896
 11
25.0294469485
 21
95.5178274734
  0
LINE
  5
21C
100
AcDbEntity
  8
0
100
AcDbLine
 62
7
  6
BYLAYER
 10
25.4714087793
 20
92.7315737858
 11
25.4714087793
 21
91.9150713687
  0
LINE
  5
21D
100
AcDbEntity
  8
0
100
AcDbLine
 62
7
  6
BYLAYER
 10
25.6835411081
 20
95.7118089937
 11
25.6835411081
 21
93.915503676
  0
LINE
  5
21E
100
AcDbEntity
  8
0
100
AcDbLine
 62
7
  6
BYLAYER
 10
26.3906449453
 20
93.5072663208
 11
26.3906449453
 21
93.0989942042
  0
LINE
  5
21F
100
AcDbEntity
  8
0
100
AcDbLine
 62
7
  6
BYLAYER
 10
26.4436840626
 20
95.2729501826
 11
26.4436840626
 21
98.2123588843
  0
LINE
  5
220
100
AcDbEntity
  8
0
100
AcDbLine
 62
7
  6
BYLAYER
 10
27.0446337109
 20
100.7228343139
 11
27.0446337109
 21
104.0704942242
  0
LINE
  5
221
100
AcDbEntity
  8
0
100
AcDbLine
 62
7
  6
BYLAYER
 10
27.0799891971
 20
107.887643547
 11
27.0799891971
 21
106.0913382293
  0
LINE
  5
222
100
AcDbEntity
  8
0
100
AcDbLine
 62
7
  6
BYLAYER
 10
27.3131376255
 20
105.9567329666
 11
27.3131376255
 21
104.7441150117
  0
LINE
  5
223
100
AcDbEntity
  8
0
100
AcDbLine
 62
7
  6
BYLAYER
 10
27.6280010005
 20
104.3052525463
 11
27.6280010005
 21
105.530006172
  0
LINE
  5
224
100
AcDbEntity
  8
0
100
AcDbLine
 62
7
  6
BYLAYER
 10
29.4842305627
 20
99.9678087459
 11
29.4842305627
 21
97.0284000442
  0
LINE
  5
225
100
AcDbEntity
  8
0
100
AcDbLine
 62
7
  6
BYLAYER
 10
29.6255736094
 20
110.8270583675
 11
29.6255736094
 21
107.8876496658
  0
LINE
  5
226
100
AcDbEntity
  8
0
100
AcDbLine
 62
7
  6
BYLAYER
 10
30.4034066717
 20
103.9276612105
 11
30.4034066717
 21
102.7029075848
  0
LINE
  5
227
100
AcDbEntity
  8
0
100
AcDbLine
 62
7
  6
BYLAYER
 10
30.6155378229
 20
105.8464397744
 11
30.6155378229
 21
104.0501344567
  0
LINE
  5
228
100
AcDbEntity
  8
0
100
AcDbLine
 62
7
  6
BYLAYER
 10
30.7569444593
 20
111.2353122955
 11
30.7569444593
 21
110.8270610869
  0
LINE
  5
229
100
AcDbEntity
  8
0
100
AcDbLine
 62
7
  6
BYLAYER
 10
33.5147813141
 20
91.1905426374
 11
33.5147813141
 21
94.1299513391
  0
LINE
  5
22A
100
AcDbEntity
  8
0
100
AcDbLine
 62
7
  6
BYLAYER
 10
34.2749242686
 20
90.7516838263
 11
34.2749242686
 21
88.9553785086
  0
LINE
  5
22B
100
AcDbEntity
  8
0
100
AcDbLine
 62
7
  6
BYLAYER
 10
34.3456358299
 20
87.6081523166
 11
34.3456358299
 21
86.7916498995
  0
LINE
  5
22C
100
AcDbEntity
  8
0
100
AcDbLine
 62
7
  6
BYLAYER
 10
34.9820281059
 20
89.3636226625
 11
34.9820281059
 21
88.1388690368
  0
LINE
  5
22D
100
AcDbEntity
  8
0
100
AcDbLine
 62
7
  6
BYLAYER
 10
34.9820292834
 20
87.9755720551
 11
34.9820292834
 21
87.159069638
  0
LINE
  5
22E
100
AcDbEntity
  8
0
100
AcDbLine
 62
7
  6
BYLAYER
 10
34.9820339938
 20
90.3434430718
 11
34.9820339938
 21
93.2828517734
  0
LINE
  5
22F
100
AcDbEntity
  8
0
100
AcDbLine
 62
7
  6
BYLAYER
 10
36.3962357803
 20
90.1801109702
 11
36.3962357803
 21
88.9553573445
  0
LINE
  5
230
100
AcDbEntity
  8
0
100
AcDbLine
 62
7
  6
BYLAYER
 10
36.6083669314
 20
91.2824012263
 11
36.6083669314
 21
90.3025842164
  0
LINE
  5
231
100
AcDbEntity
  8
0
100
AcDbLine
 62
7
  6
BYLAYER
 10
79.9361351702
 20
141.1799710711
 11
78.2387270041
 21
140.1999778592
  0
LINE
  5
232
100
AcDbEntity
  8
0
100
AcDbLine
 62
7
  6
BYLAYER
 10
29.6255736094
 20
110.8270583675
 11
61.0209839817
 21
128.9530987994
  0
LINE
  5
233
100
AcDbEntity
  8
0
100
AcDbLine
 62
7
  6
BYLAYER
 10
30.7569444593
 20
111.2353122955
 11
61.020988692
 21
128.7081620812
  0
LINE
  5
234
100
AcDbEntity
  8
0
100
AcDbLine
 62
7
  6
BYLAYER
 10
36.9796195561
 20
81.9232931787
 11
36.9796195561
 21
85.2709530889
  0
LINE
  5
235
100
AcDbEntity
  8
0
100
AcDbLine
 62
7
  6
BYLAYER
 10
39.1716414515
 20
88.5777660087
 11
39.1716414515
 21
87.353012383
  0
LINE
  5
236
100
AcDbEntity
  8
0
100
AcDbLine
 62
7
  6
BYLAYER
 10
39.3837726026
 20
90.4965445726
 11
39.3837726026
 21
88.7002392549
  0
LINE
  5
237
100
AcDbEntity
  8
0
100
AcDbLine
 62
7
  6
BYLAYER
 10
61.0209922248
 20
128.2182711362
 11
31.6054725967
 21
111.2353143351
  0
LINE
  5
238
100
AcDbEntity
  8
0
100
AcDbLine
 62
7
  6
BYLAYER
 10
61.0209922248
 20
127.8100199276
 11
31.9590335689
 21
111.0311904305
  0
LINE
  5
239
100
AcDbEntity
  8
0
100
AcDbLine
 62
7
  6
BYLAYER
 10
27.0799891971
 20
107.887643547
 11
29.6255736094
 21
109.3573286198
  0
LINE
  5
23A
100
AcDbEntity
  8
0
100
AcDbLine
 62
7
  6
BYLAYER
 10
75.9054638197
 20
135.1786148957
 11
74.7033872964
 21
134.4845998341
  0
LINE
  5
23B
100
AcDbEntity
  8
0
100
AcDbLine
 62
7
  6
BYLAYER
 10
68.9258433266
 20
128.5360847739
 11
71.1863239817
 21
129.8411660983
  0
LINE
  5
23C
100
AcDbEntity
  8
0
100
AcDbLine
 62
7
  6
BYLAYER
 10
27.5683666985
 20
104.3728698006
 11
27.0446337109
 21
104.0704942242
  0
LINE
  5
23D
100
AcDbEntity
  8
0
100
AcDbLine
 62
7
  6
BYLAYER
 10
44.0860722938
 20
77.8204735957
 11
36.9796195561
 21
81.9232931787
  0
LINE
  5
23E
100
AcDbEntity
  8
0
100
AcDbLine
 62
7
  6
BYLAYER
 10
22.8374250532
 20
90.0881082691
 11
15.7309723155
 21
94.190927852
  0
LINE
  5
23F
100
AcDbEntity
  8
0
100
AcDbLine
 62
7
  6
BYLAYER
 10
44.0860722938
 20
50.8758938305
 11
44.0860722938
 21
77.8204735957
  0
LINE
  5
240
100
AcDbEntity
  8
0
100
AcDbLine
 62
7
  6
BYLAYER
 10
44.5456306143
 20
91.6804215781
 11
44.5456306143
 21
90.4556679525
  0
LINE
  5
241
100
AcDbEntity
  8
0
100
AcDbLine
 62
7
  6
BYLAYER
 10
44.7577617655
 20
93.599200142
 11
44.7577617655
 21
91.8028948243
  0
LINE
  5
242
100
AcDbEntity
  8
0
100
AcDbLine
 62
7
  6
BYLAYER
 10
44.7577617655
 20
89.7616387815
 11
44.7577617655
 21
86.4139788713
  0
LINE
  5
243
100
AcDbEntity
  8
0
100
AcDbLine
 62
7
  6
BYLAYER
 10
43.9365293834
 20
83.9645313842
 11
43.9375492367
 21
84.0216842504
  0
LINE
  5
244
100
AcDbEntity
  8
0
100
AcDbLine
 62
7
  6
BYLAYER
 10
88.7748196018
 20
137.1382883992
 11
85.2393004157
 21
135.0970676299
  0
LINE
  5
245
100
AcDbEntity
  8
0
100
AcDbLine
 62
7
  6
BYLAYER
 10
73.3599350484
 20
127.4628263925
 11
68.4811431005
 21
124.6460713619
  0
LINE
  5
246
100
AcDbEntity
  8
0
100
AcDbLine
 62
7
  6
BYLAYER
 10
27.0446337109
 20
100.7228343139
 11
15.7309723155
 21
94.190927852
  0
LINE
  5
247
100
AcDbEntity
  8
0
100
AcDbLine
 62
7
  6
BYLAYER
 10
24.976431383
 20
99.0594584499
 11
37.4921693016
 21
106.2853799734
  0
LINE
  5
248
100
AcDbEntity
  8
0
100
AcDbLine
 62
7
  6
BYLAYER
 10
68.8875796739
 20
124.4114204053
 11
78.9284541624
 21
130.2084873903
  0
LINE
  5
249
100
AcDbEntity
  8
0
100
AcDbLine
 62
7
  6
BYLAYER
 10
80.3957068421
 20
129.3613878247
 11
76.1530838188
 21
126.9119229014
  0
LINE
  5
24A
100
AcDbEntity
  8
0
100
AcDbLine
 62
7
  6
BYLAYER
 10
29.4842305627
 20
99.9678087459
 11
26.4436840626
 21
98.2123588843
  0
LINE
  5
24B
100
AcDbEntity
  8
0
100
AcDbLine
 62
7
  6
BYLAYER
 10
22.8374250532
 20
93.4357681793
 11
25.4714087793
 21
91.9150713687
  0
LINE
  5
24C
100
AcDbEntity
  8
0
100
AcDbLine
 62
7
  6
BYLAYER
 10
34.3456358299
 20
86.7916498995
 11
36.9796195561
 21
85.2709530889
  0
LINE
  5
24D
100
AcDbEntity
  8
0
100
AcDbLine
 62
7
  6
BYLAYER
 10
34.3456358299
 20
87.6081523166
 11
25.4714087793
 21
92.7315737858
  0
LINE
  5
24E
100
AcDbEntity
  8
0
100
AcDbLine
 62
7
  6
BYLAYER
 10
26.1078022328
 20
93.0989935243
 11
34.9820292834
 21
87.9755720551
  0
LINE
  5
24F
100
AcDbEntity
  8
0
100
AcDbLine
 62
7
  6
BYLAYER
 10
34.9820281059
 20
88.1388690368
 11
26.3906449453
 21
93.0989942042
  0
LINE
  5
250
100
AcDbEntity
  8
0
100
AcDbLine
 62
7
  6
BYLAYER
 10
34.2749242686
 20
88.9553785086
 11
25.6835411081
 21
93.915503676
  0
LINE
  5
251
100
AcDbEntity
  8
0
100
AcDbLine
 62
7
  6
BYLAYER
 10
47.487182328
 20
86.0710536381
 11
47.487182328
 21
81.8682757426
  0
LINE
  5
252
100
AcDbEntity
  8
0
100
AcDbLine
 62
7
  6
BYLAYER
 10
47.4977719125
 20
100.508773297
 11
47.4977719125
 21
97.5693645953
  0
LINE
  5
253
100
AcDbEntity
  8
0
100
AcDbLine
 62
7
  6
BYLAYER
 10
83.8250927413
 20
130.606318445
 11
80.3957068421
 21
128.6263733916
  0
LINE
  5
254
100
AcDbEntity
  8
0
100
AcDbLine
 62
7
  6
BYLAYER
 10
91.9568683515
 20
135.3011732581
 11
98.6389181309
 21
139.1590334686
  0
LINE
  5
255
100
AcDbEntity
  8
0
100
AcDbLine
 62
7
  6
BYLAYER
 10
25.6835411081
 20
95.0789642412
 11
22.8374250532
 21
93.4357681793
  0
LINE
  5
256
100
AcDbEntity
  8
0
100
AcDbLine
 62
7
  6
BYLAYER
 10
29.4842305627
 20
97.0284000442
 11
26.4436840626
 21
95.2729501826
  0
LINE
  5
257
100
AcDbEntity
  8
0
100
AcDbLine
 62
7
  6
BYLAYER
 10
76.1530838188
 20
123.9725141998
 11
80.3957068421
 21
126.421979123
  0
LINE
  5
258
100
AcDbEntity
  8
0
100
AcDbLine
 62
7
  6
BYLAYER
 10
97.755059531
 20
135.7093826061
 11
95.6337480193
 21
134.4846501445
  0
LINE
  5
259
100
AcDbEntity
  8
0
100
AcDbLine
 62
7
  6
BYLAYER
 10
25.4714087793
 20
92.7315737858
 11
26.1078022328
 21
93.0989935243
  0
LINE
  5
25A
100
AcDbEntity
  8
0
100
AcDbLine
 62
7
  6
BYLAYER
 10
39.1716414515
 20
87.353012383
 11
36.3962357803
 21
88.9553573445
  0
LINE
  5
25B
100
AcDbEntity
  8
0
100
AcDbLine
 62
7
  6
BYLAYER
 10
25.6835411081
 20
95.1401945775
 11
25.0294469485
 21
95.5178274734
  0
LINE
  5
25C
100
AcDbEntity
  8
0
100
AcDbLine
 62
7
  6
BYLAYER
 10
34.9820339938
 20
90.3434430718
 11
34.2749242686
 21
90.7516838263
  0
LINE
  5
25D
100
AcDbEntity
  8
0
100
AcDbLine
 62
7
  6
BYLAYER
 10
33.5147813141
 20
91.1905426374
 11
26.4436840626
 21
95.2729501826
  0
LINE
  5
25E
100
AcDbEntity
  8
0
100
AcDbLine
 62
7
  6
BYLAYER
 10
25.6835411081
 20
95.7118089937
 11
24.976431383
 21
96.1200497482
  0
LINE
  5
25F
100
AcDbEntity
  8
0
100
AcDbLine
 62
7
  6
BYLAYER
 10
39.1716414515
 20
88.5777660087
 11
36.3962357803
 21
90.1801109702
  0
LINE
  5
260
100
AcDbEntity
  8
0
100
AcDbLine
 62
7
  6
BYLAYER
 10
39.3837726026
 20
88.7002392549
 11
36.6083669314
 21
90.3025842164
  0
LINE
  5
261
100
AcDbEntity
  8
0
100
AcDbLine
 62
7
  6
BYLAYER
 10
39.3837726026
 20
90.4965445726
 11
37.3154766566
 21
91.6906487795
  0
LINE
  5
262
100
AcDbEntity
  8
0
100
AcDbLine
 62
7
  6
BYLAYER
 10
34.9820339938
 20
93.2828517734
 11
33.5147813141
 21
94.1299513391
  0
LINE
  5
263
100
AcDbEntity
  8
0
100
AcDbLine
 62
7
  6
BYLAYER
 10
26.4436840626
 20
98.2123588843
 11
24.976431383
 21
99.0594584499
  0
LINE
  5
264
100
AcDbEntity
  8
0
100
AcDbLine
 62
7
  6
BYLAYER
 10
51.6166984261
 20
90.4556849492
 11
51.6166984261
 21
91.6804385749
  0
LINE
  5
265
100
AcDbEntity
  8
0
100
AcDbLine
 62
7
  6
BYLAYER
 10
51.8288295773
 20
86.413995868
 11
51.8288295773
 21
89.7616557782
  0
LINE
  5
266
100
AcDbEntity
  8
0
100
AcDbLine
 62
7
  6
BYLAYER
 10
51.8288295773
 20
91.8029118211
 11
51.8288295773
 21
93.5992171387
  0
LINE
  5
267
100
AcDbEntity
  8
0
100
AcDbLine
 62
7
  6
BYLAYER
 10
54.3921040973
 20
90.0780936134
 11
54.3921040973
 21
88.8533399877
  0
LINE
  5
268
100
AcDbEntity
  8
0
100
AcDbLine
 62
7
  6
BYLAYER
 10
55.3643628944
 20
97.0285340382
 11
55.3643628944
 21
96.6202828296
  0
LINE
  5
269
100
AcDbEntity
  8
0
100
AcDbLine
 62
7
  6
BYLAYER
 10
55.3643676047
 20
95.9670949029
 11
55.3643676047
 21
93.0276862013
  0
LINE
  5
26A
100
AcDbEntity
  8
0
100
AcDbLine
 62
7
  6
BYLAYER
 10
55.364378203
 20
91.5580133661
 11
55.364378203
 21
89.7617080485
  0
LINE
  5
26B
100
AcDbEntity
  8
0
100
AcDbLine
 62
7
  6
BYLAYER
 10
55.3997336893
 20
84.3523800577
 11
55.3997336893
 21
87.7000399679
  0
LINE
  5
26C
100
AcDbEntity
  8
0
100
AcDbLine
 62
7
  6
BYLAYER
 10
51.2358837246
 20
83.9645305054
 11
51.2348638712
 21
83.9073776391
  0
LINE
  5
26D
100
AcDbEntity
  8
0
100
AcDbLine
 62
7
  6
BYLAYER
 10
33.5147813141
 20
94.1299513391
 11
36.5553278141
 21
95.8854012007
  0
LINE
  5
26E
100
AcDbEntity
  8
0
100
AcDbLine
 62
7
  6
BYLAYER
 10
83.2241810702
 20
122.8295153562
 11
87.4668040935
 21
125.2789802795
  0
LINE
  5
26F
100
AcDbEntity
  8
0
100
AcDbLine
 62
7
  6
BYLAYER
 10
88.9340567732
 20
124.4318807138
 11
78.8931822848
 21
118.6348137288
  0
LINE
  5
270
100
AcDbEntity
  8
0
100
AcDbLine
 62
7
  6
BYLAYER
 10
47.4977719125
 20
100.508773297
 11
34.9820339938
 21
93.2828517734
  0
LINE
  5
271
100
AcDbEntity
  8
0
100
AcDbLine
 62
7
  6
BYLAYER
 10
27.4510702843
 20
100.4881833574
 11
27.0446337109
 21
100.7228343139
  0
LINE
  5
272
100
AcDbEntity
  8
0
100
AcDbLine
 62
7
  6
BYLAYER
 10
51.8288295773
 20
86.413995868
 11
55.3997336893
 21
84.3523800577
  0
LINE
  5
273
100
AcDbEntity
  8
0
100
AcDbLine
 62
7
  6
BYLAYER
 10
27.0446337109
 20
104.0704942242
 11
30.3502702563
 21
102.1620272501
  0
LINE
  5
274
100
AcDbEntity
  8
0
100
AcDbLine
 62
7
  6
BYLAYER
 10
51.8288295773
 20
89.7616557782
 11
55.3997336893
 21
87.7000399679
  0
LINE
  5
275
100
AcDbEntity
  8
0
100
AcDbLine
 62
7
  6
BYLAYER
 10
54.3921040973
 20
88.8533399877
 11
51.6166984261
 21
90.4556849492
  0
LINE
  5
276
100
AcDbEntity
  8
0
100
AcDbLine
 62
7
  6
BYLAYER
 10
30.4034066717
 20
102.7029075848
 11
27.6280010005
 21
104.3052525463
  0
LINE
  5
277
100
AcDbEntity
  8
0
100
AcDbLine
 62
7
  6
BYLAYER
 10
55.9123836768
 20
88.853343642
 11
55.9123836768
 21
90.0780972677
  0
LINE
  5
278
100
AcDbEntity
  8
0
100
AcDbLine
 62
7
  6
BYLAYER
 10
34.9820339938
 20
90.3434430718
 11
47.4977719125
 21
97.5693645953
  0
LINE
  5
279
100
AcDbEntity
  8
0
100
AcDbLine
 62
7
  6
BYLAYER
 10
81.4388212845
 20
117.1651216159
 11
83.7014883778
 21
118.4714652735
  0
LINE
  5
27A
100
AcDbEntity
  8
0
100
AcDbLine
 62
7
  6
BYLAYER
 10
36.6083669314
 20
90.3025842164
 11
34.2749242686
 21
88.9553785086
  0
LINE
  5
27B
100
AcDbEntity
  8
0
100
AcDbLine
 62
7
  6
BYLAYER
 10
88.9340567732
 20
119.6961666945
 11
85.2571566555
 21
117.5733200934
  0
LINE
  5
27C
100
AcDbEntity
  8
0
100
AcDbLine
 62
7
  6
BYLAYER
 10
88.0678550142
 20
119.1348312379
 11
85.3101898848
 21
117.5427020368
  0
LINE
  5
27D
100
AcDbEntity
  8
0
100
AcDbLine
 62
7
  6
BYLAYER
 10
36.3962357803
 20
88.9553573445
 11
34.9820281059
 21
88.1388690368
  0
LINE
  5
27E
100
AcDbEntity
  8
0
100
AcDbLine
 62
7
  6
BYLAYER
 10
34.9820292834
 20
87.9755720551
 11
34.3456358299
 21
87.6081523166
  0
LINE
  5
27F
100
AcDbEntity
  8
0
100
AcDbLine
 62
7
  6
BYLAYER
 10
44.7577617655
 20
93.599200142
 11
39.3837726026
 21
90.4965445726
  0
LINE
  5
280
100
AcDbEntity
  8
0
100
AcDbLine
 62
7
  6
BYLAYER
 10
88.0678550142
 20
117.9100776122
 11
85.7697843239
 21
116.5832938003
  0
LINE
  5
281
100
AcDbEntity
  8
0
100
AcDbLine
 62
7
  6
BYLAYER
 10
34.9820292834
 20
87.159069638
 11
34.3456358299
 21
86.7916498995
  0
LINE
  5
282
100
AcDbEntity
  8
0
100
AcDbLine
 62
7
  6
BYLAYER
 10
54.3921040973
 20
90.0780936134
 11
51.6166984261
 21
91.6804385749
  0
LINE
  5
283
100
AcDbEntity
  8
0
100
AcDbLine
 62
7
  6
BYLAYER
 10
30.4034066717
 20
103.9276612105
 11
27.6280010005
 21
105.530006172
  0
LINE
  5
284
100
AcDbEntity
  8
0
100
AcDbLine
 62
7
  6
BYLAYER
 10
55.364378203
 20
89.7617080485
 11
51.8288295773
 21
91.8029118211
  0
LINE
  5
285
100
AcDbEntity
  8
0
100
AcDbLine
 62
7
  6
BYLAYER
 10
30.6155378229
 20
104.0501344567
 11
27.0799891971
 21
106.0913382293
  0
LINE
  5
286
100
AcDbEntity
  8
0
100
AcDbLine
 62
7
  6
BYLAYER
 10
55.364378203
 20
91.5580133661
 11
51.8288295773
 21
93.5992171387
  0
LINE
  5
287
100
AcDbEntity
  8
0
100
AcDbLine
 62
7
  6
BYLAYER
 10
30.6155378229
 20
105.8464397744
 11
27.0799891971
 21
107.887643547
  0
LINE
  5
288
100
AcDbEntity
  8
0
100
AcDbLine
 62
7
  6
BYLAYER
 10
55.3643676047
 20
93.0276862013
 11
47.4977719125
 21
97.5693645953
  0
LINE
  5
289
100
AcDbEntity
  8
0
100
AcDbLine
 62
7
  6
BYLAYER
 10
34.9465303019
 20
104.8156633847
 11
29.6255736094
 21
107.8876496658
  0
LINE
  5
28A
100
AcDbEntity
  8
0
100
AcDbLine
 62
7
  6
BYLAYER
 10
61.0209922248
 20
128.2182711362
 11
61.0209922248
 21
127.8100199276
  0
LINE
  5
28B
100
AcDbEntity
  8
0
100
AcDbLine
 62
7
  6
BYLAYER
 10
68.5149591462
 20
126.4583913609
 11
68.9258433266
 21
128.5360847739
  0
LINE
  5
28C
100
AcDbEntity
  8
0
100
AcDbLine
 62
7
  6
BYLAYER
 10
75.9054638197
 20
135.1786148957
 11
76.946407699
 21
138.4840826585
  0
LINE
  5
28D
100
AcDbEntity
  8
0
100
AcDbLine
 62
7
  6
BYLAYER
 10
86.1233362425
 20
115.6851778258
 11
85.5576531727
 21
115.3585825027
  0
LINE
  5
28E
100
AcDbEntity
  8
0
100
AcDbLine
 62
7
  6
BYLAYER
 10
44.7577617655
 20
91.8028948243
 11
39.1716414515
 21
88.5777660087
  0
LINE
  5
28F
100
AcDbEntity
  8
0
100
AcDbLine
 62
7
  6
BYLAYER
 10
55.3643593616
 20
97.5184249832
 11
84.7798789897
 21
114.5013817843
  0
LINE
  5
290
100
AcDbEntity
  8
0
100
AcDbLine
 62
7
  6
BYLAYER
 10
85.6284071271
 20
114.5013838239
 11
55.3643628944
 21
97.0285340382
  0
LINE
  5
291
100
AcDbEntity
  8
0
100
AcDbLine
 62
7
  6
BYLAYER
 10
44.5456306143
 20
90.4556679525
 11
39.1716414515
 21
87.353012383
  0
LINE
  5
292
100
AcDbEntity
  8
0
100
AcDbLine
 62
7
  6
BYLAYER
 10
85.6284071271
 20
114.0931326153
 11
55.3643628944
 21
96.6202828296
  0
LINE
  5
293
100
AcDbEntity
  8
0
100
AcDbLine
 62
7
  6
BYLAYER
 10
86.759777977
 20
114.0931353348
 11
55.3643676047
 21
95.9670949029
  0
LINE
  5
294
100
AcDbEntity
  8
0
100
AcDbLine
 62
7
  6
BYLAYER
 10
36.9796195561
 20
85.2709530889
 11
44.7577617655
 21
89.7616387815
  0
LINE
  5
295
100
AcDbEntity
  8
0
100
AcDbLine
 62
7
  6
BYLAYER
 10
86.759777977
 20
114.0113693964
 11
91.073063103
 21
116.5016308601
  0
LINE
  5
296
100
AcDbEntity
  8
0
100
AcDbLine
 62
7
  6
BYLAYER
 10
86.759777977
 20
111.1537266331
 11
55.3643676047
 21
93.0276862013
  0
LINE
  5
297
100
AcDbEntity
  8
0
100
AcDbLine
 62
7
  6
BYLAYER
 10
55.3643676047
 20
95.9670949029
 11
47.4977719125
 21
100.508773297
  0
LINE
  5
298
100
AcDbEntity
  8
0
100
AcDbLine
 62
7
  6
BYLAYER
 10
37.4921693016
 20
106.2853799734
 11
29.6255736094
 21
110.8270583675
  0
LINE
  5
299
100
AcDbEntity
  8
0
100
AcDbLine
 62
7
  6
BYLAYER
 10
30.7569444593
 20
110.8270610869
 11
55.3643628944
 21
96.6202828296
  0
LINE
  5
29A
100
AcDbEntity
  8
0
100
AcDbLine
 62
7
  6
BYLAYER
 10
55.3643628944
 20
97.0285340382
 11
30.7569444593
 21
111.2353122955
  0
LINE
  5
29B
100
AcDbEntity
  8
0
100
AcDbLine
 62
7
  6
BYLAYER
 10
31.6054725967
 20
111.2353143351
 11
55.3643593616
 21
97.5184249832
  0
LINE
  5
29C
100
AcDbEntity
  8
0
100
AcDbLine
 62
7
  6
BYLAYER
 10
71.9664151447
 20
126.7806495295
 11
72.991591814
 21
131.96459896
  0
LINE
  5
29D
100
AcDbEntity
  8
0
100
AcDbLine
 62
7
  6
BYLAYER
 10
44.7577617655
 20
86.4139788713
 11
36.9796195561
 21
81.9232931787
  0
LINE
  5
29E
100
AcDbEntity
  8
0
100
AcDbLine
 62
7
  6
BYLAYER
 10
88.4569382484
 20
111.6435595767
 11
91.073063103
 21
113.1539709498
  0
LINE
  5
29F
100
AcDbEntity
  8
0
100
AcDbLine
 62
7
  6
BYLAYER
 10
89.3053623893
 20
111.153732752
 11
55.364378203
 21
91.5580133661
  0
LINE
  5
2A0
100
AcDbEntity
  8
0
100
AcDbLine
 62
7
  6
BYLAYER
 10
112.1094405317
 20
123.6663435
 11
108.5739213456
 21
121.6251227307
  0
LINE
  5
2A1
100
AcDbEntity
  8
0
100
AcDbLine
 62
7
  6
BYLAYER
 10
43.9375492367
 20
84.0216842504
 11
47.487182328
 21
86.0710536381
  0
LINE
  5
2A2
100
AcDbEntity
  8
0
100
AcDbLine
 62
7
  6
BYLAYER
 10
113.8771789281
 20
123.9520386779
 11
115.9984904398
 21
125.1767711395
  0
LINE
  5
2A3
100
AcDbEntity
  8
0
100
AcDbLine
 62
7
  6
BYLAYER
 10
109.0334491006
 20
121.0739272029
 11
111.6499127767
 21
122.5845341935
  0
LINE
  5
2A4
100
AcDbEntity
  8
0
100
AcDbLine
 62
7
  6
BYLAYER
 10
89.3053623893
 20
109.3574274343
 11
55.364378203
 21
89.7617080485
  0
LINE
  5
2A5
100
AcDbEntity
  8
0
100
AcDbLine
 62
7
  6
BYLAYER
 10
88.3330946131
 20
107.571338097
 11
55.9123836768
 21
88.853343642
  0
LINE
  5
2A6
100
AcDbEntity
  8
0
100
AcDbLine
 62
7
  6
BYLAYER
 10
111.6891874913
 20
120.9741833269
 11
111.6498142056
 21
120.9514512855
  0
LINE
  5
2A7
100
AcDbEntity
  8
0
100
AcDbLine
 62
7
  6
BYLAYER
 10
55.3997336893
 20
87.7000399679
 11
89.3407178755
 21
107.2957593537
  0
LINE
  5
2A8
100
AcDbEntity
  8
0
100
AcDbLine
 62
7
  6
BYLAYER
 10
73.9255477573
 20
134.5140991881
 11
73.9255477573
 21
135.9811855192
  0
LINE
  5
2A9
100
AcDbEntity
  8
0
100
AcDbLine
 62
7
  6
BYLAYER
 10
83.8250927413
 20
130.606318445
 11
85.2393004157
 21
135.0970676299
  0
LINE
  5
2AA
100
AcDbEntity
  8
0
100
AcDbLine
 62
7
  6
BYLAYER
 10
108.0435934677
 20
117.6446787382
 11
99.3462162699
 21
112.6232756456
  0
LINE
  5
2AB
100
AcDbEntity
  8
0
100
AcDbLine
 62
7
  6
BYLAYER
 10
112.7104787933
 20
120.3390901538
 11
121.9735390608
 21
125.6870885695
  0
LINE
  5
2AC
100
AcDbEntity
  8
0
100
AcDbLine
 62
7
  6
BYLAYER
 10
51.2348638712
 20
83.9073776391
 11
47.68523078
 21
81.8580082515
  0
LINE
  5
2AD
100
AcDbEntity
  8
0
100
AcDbLine
 62
7
  6
BYLAYER
 10
110.2355888673
 20
116.4606495745
 11
109.5284850301
 21
116.0524054206
  0
LINE
  5
2AE
100
AcDbEntity
  8
0
100
AcDbLine
 62
7
  6
BYLAYER
 10
116.1752875956
 20
119.8083290146
 11
119.9229379329
 21
121.9720230301
  0
LINE
  5
2AF
100
AcDbEntity
  8
0
100
AcDbLine
 62
7
  6
BYLAYER
 10
101.7150350268
 20
111.0923721363
 11
89.3407178755
 21
103.9480994435
  0
LINE
  5
2B0
100
AcDbEntity
  8
0
100
AcDbLine
 62
7
  6
BYLAYER
 10
55.3997336893
 20
84.3523800577
 11
44.0860722938
 21
77.8204735957
  0
LINE
  5
2B1
100
AcDbEntity
  8
0
100
AcDbLine
 62
7
  6
BYLAYER
 10
107.4123615709
 20
113.5243081362
 11
111.7205251781
 21
116.0116127073
  0
LINE
  5
2B2
100
AcDbEntity
  8
0
100
AcDbLine
 62
7
  6
BYLAYER
 10
112.7104787933
 20
115.440075651
 11
108.0435934677
 21
112.7456642354
  0
LINE
  5
2B3
100
AcDbEntity
  8
0
100
AcDbLine
 62
7
  6
BYLAYER
 10
76.1530838188
 20
123.9725141998
 11
76.1530838188
 21
126.9119229014
  0
LINE
  5
2B4
100
AcDbEntity
  8
0
100
AcDbLine
 62
7
  6
BYLAYER
 10
116.2459979794
 20
116.2565427946
 11
112.7104787933
 21
114.2153220253
  0
LINE
  5
2B5
100
AcDbEntity
  8
0
100
AcDbLine
 62
7
  6
BYLAYER
 10
80.3957068421
 20
126.421979123
 11
80.3957068421
 21
129.3613878247
  0
LINE
  5
2B6
100
AcDbEntity
  8
0
100
AcDbLine
 62
7
  6
BYLAYER
 10
85.5576531727
 20
114.7871667131
 11
85.5576531727
 21
115.3585825027
  0
LINE
  5
2B7
100
AcDbEntity
  8
0
100
AcDbLine
 62
7
  6
BYLAYER
 10
85.6284071271
 20
114.5013838239
 11
85.6284071271
 21
114.0931326153
  0
LINE
  5
2B8
100
AcDbEntity
  8
0
100
AcDbLine
 62
7
  6
BYLAYER
 10
85.7697843239
 20
115.4810557489
 11
85.7697843239
 21
117.2773610665
  0
LINE
  5
2B9
100
AcDbEntity
  8
0
100
AcDbLine
 62
7
  6
BYLAYER
 10
86.1233362425
 20
115.6851778258
 11
86.1233362425
 21
114.4604242001
  0
LINE
  5
2BA
100
AcDbEntity
  8
0
100
AcDbLine
 62
7
  6
BYLAYER
 10
86.759777977
 20
114.0931353348
 11
86.759777977
 21
111.1537266331
  0
LINE
  5
2BB
100
AcDbEntity
  8
0
100
AcDbLine
 62
7
  6
BYLAYER
 10
88.0678550142
 20
119.1348312379
 11
88.0678550142
 21
117.9100776122
  0
LINE
  5
2BC
100
AcDbEntity
  8
0
100
AcDbLine
 62
7
  6
BYLAYER
 10
88.3330946131
 20
108.7960917227
 11
88.3330946131
 21
107.571338097
  0
LINE
  5
2BD
100
AcDbEntity
  8
0
100
AcDbLine
 62
7
  6
BYLAYER
 10
88.6479516586
 20
108.9778734376
 11
88.6479516586
 21
108.0101969081
  0
LINE
  5
2BE
100
AcDbEntity
  8
0
100
AcDbLine
 62
7
  6
BYLAYER
 10
88.9340567732
 20
119.6961666945
 11
88.9340567732
 21
124.4318807138
  0
LINE
  5
2BF
100
AcDbEntity
  8
0
100
AcDbLine
 62
7
  6
BYLAYER
 10
89.3053623893
 20
111.153732752
 11
89.3053623893
 21
109.3574274343
  0
LINE
  5
2C0
100
AcDbEntity
  8
0
100
AcDbLine
 62
7
  6
BYLAYER
 10
89.3407178755
 20
103.9480994435
 11
89.3407178755
 21
107.2957593537
  0
LINE
  5
2C1
100
AcDbEntity
  8
0
100
AcDbLine
 62
7
  6
BYLAYER
 10
91.073063103
 20
113.1539709498
 11
91.073063103
 21
116.5016308601
  0
LINE
  5
2C2
100
AcDbEntity
  8
0
100
AcDbLine
 62
7
  6
BYLAYER
 10
89.3407178755
 20
107.2957593537
 11
88.5116142198
 21
107.7744317436
  0
LINE
  5
2C3
100
AcDbEntity
  8
0
100
AcDbLine
 62
7
  6
BYLAYER
 10
86.759777977
 20
112.6233933495
 11
89.3053623893
 21
111.153732752
  0
LINE
  5
2C4
100
AcDbEntity
  8
0
100
AcDbLine
 62
7
  6
BYLAYER
 10
84.4263180175
 20
114.2972544803
 11
61.0209922248
 21
127.8100199276
  0
LINE
  5
2C5
100
AcDbEntity
  8
0
100
AcDbLine
 62
7
  6
BYLAYER
 10
84.7798789897
 20
114.5013817843
 11
61.0209922248
 21
128.2182711362
  0
LINE
  5
2C6
100
AcDbEntity
  8
0
100
AcDbLine
 62
7
  6
BYLAYER
 10
121.9735390608
 20
98.9058092876
 11
119.9229379329
 21
97.7219012414
  0
LINE
  5
2C7
100
AcDbEntity
  8
0
100
AcDbLine
 62
7
  6
BYLAYER
 10
119.9229379329
 20
97.558600758
 11
101.7150350268
 21
87.0463258636
  0
LINE
  5
2C8
100
AcDbEntity
  8
0
100
AcDbLine
 62
7
  6
BYLAYER
 10
101.7150350268
 20
84.147792371
 11
44.0860722938
 21
50.8758938305
  0
LINE
  5
2C9
100
AcDbEntity
  8
0
100
AcDbLine
 62
7
  6
BYLAYER
 10
61.020988692
 20
128.7081620812
 11
85.6284071271
 21
114.5013838239
  0
LINE
  5
2CA
100
AcDbEntity
  8
0
100
AcDbLine
 62
7
  6
BYLAYER
 10
61.0209839817
 20
128.9530987994
 11
68.8875796739
 21
124.4114204053
  0
LINE
  5
2CB
100
AcDbEntity
  8
0
100
AcDbLine
 62
7
  6
BYLAYER
 10
78.8931822848
 20
118.6348137288
 11
86.759777977
 21
114.0931353348
  0
LINE
  5
2CC
100
AcDbEntity
  8
0
100
AcDbLine
 62
7
  6
BYLAYER
 10
85.7697843239
 20
115.8892965034
 11
86.1233362425
 21
115.6851778258
  0
LINE
  5
2CD
100
AcDbEntity
  8
0
100
AcDbLine
 62
7
  6
BYLAYER
 10
70.0675885794
 20
125.5620006188
 11
68.5149591463
 21
126.458391361
  0
LINE
  5
2CE
100
AcDbEntity
  8
0
100
AcDbLine
 62
7
  6
BYLAYER
 10
83.7014883778
 20
118.4714652735
 11
85.7697843239
 21
117.2773610665
  0
LINE
  5
2CF
100
AcDbEntity
  8
0
100
AcDbLine
 62
7
  6
BYLAYER
 10
71.9664151447
 20
126.7806495295
 11
68.9258433266
 21
128.5360847739
  0
LINE
  5
2D0
100
AcDbEntity
  8
0
100
AcDbLine
 62
7
  6
BYLAYER
 10
97.755059531
 20
135.7093826061
 11
97.755059531
 21
133.2599380789
  0
LINE
  5
2D1
100
AcDbEntity
  8
0
100
AcDbLine
 62
7
  6
BYLAYER
 10
99.3462162699
 20
112.4599793438
 11
99.3462162699
 21
112.6232756456
  0
LINE
  5
2D2
100
AcDbEntity
  8
0
100
AcDbLine
 62
7
  6
BYLAYER
 10
101.7150350268
 20
84.147792371
 11
101.7150350268
 21
111.0923721363
  0
LINE
  5
2D3
100
AcDbEntity
  8
0
100
AcDbLine
 62
7
  6
BYLAYER
 10
108.5739213456
 20
121.6251227307
 11
107.1597136712
 21
117.1343735459
  0
LINE
  5
2D4
100
AcDbEntity
  8
0
100
AcDbLine
 62
7
  6
BYLAYER
 10
107.9335097982
 20
117.5811222814
 11
109.0334491006
 21
121.0739272029
  0
LINE
  5
2D5
100
AcDbEntity
  8
0
100
AcDbLine
 62
7
  6
BYLAYER
 10
91.073063103
 20
116.5016308601
 11
88.0678550142
 21
118.2366493077
  0
LINE
  5
2D6
100
AcDbEntity
  8
0
100
AcDbLine
 62
7
  6
BYLAYER
 10
101.7150350268
 20
111.0923721363
 11
88.0678550142
 21
118.9713969428
  0
LINE
  5
2D7
100
AcDbEntity
  8
0
100
AcDbLine
 62
7
  6
BYLAYER
 10
73.7663716218
 20
127.228175436
 11
73.3599350484
 21
127.4628263925
  0
LINE
  5
2D8
100
AcDbEntity
  8
0
100
AcDbLine
 62
7
  6
BYLAYER
 10
88.0148217848
 20
119.1654492944
 11
99.3462162699
 21
112.6232756456
  0
LINE
  5
2D9
100
AcDbEntity
  8
0
100
AcDbLine
 62
7
  6
BYLAYER
 10
80.3957068421
 20
126.421979123
 11
84.9211650937
 21
123.8092636907
  0
LINE
  5
2DA
100
AcDbEntity
  8
0
100
AcDbLine
 62
7
  6
BYLAYER
 10
72.991591814
 20
131.96459896
 11
77.4809066789
 21
129.3727504497
  0
LINE
  5
2DB
100
AcDbEntity
  8
0
100
AcDbLine
 62
7
  6
BYLAYER
 10
108.0435934677
 20
112.7456642354
 11
107.3364805771
 21
113.1539068175
  0
LINE
  5
2DC
100
AcDbEntity
  8
0
100
AcDbLine
 62
7
  6
BYLAYER
 10
78.9284541624
 20
130.2084873903
 11
80.3957068421
 21
129.3613878247
  0
LINE
  5
2DD
100
AcDbEntity
  8
0
100
AcDbLine
 62
7
  6
BYLAYER
 10
87.4668040935
 20
125.2789802795
 11
88.9340567732
 21
124.4318807138
  0
LINE
  5
2DE
100
AcDbEntity
  8
0
100
AcDbLine
 62
7
  6
BYLAYER
 10
82.623016218
 20
129.9123033835
 11
74.7033872964
 21
134.4845998341
  0
LINE
  5
2DF
100
AcDbEntity
  8
0
100
AcDbLine
 62
7
  6
BYLAYER
 10
73.9255477573
 20
135.9811855192
 11
75.6105705164
 21
135.0083591839
  0
LINE
  5
2E0
100
AcDbEntity
  8
0
100
AcDbLine
 62
7
  6
BYLAYER
 10
110.2355256377
 20
115.1542529406
 11
108.0435934677
 21
116.41973694
  0
LINE
  5
2E1
100
AcDbEntity
  8
0
100
AcDbLine
 62
7
  6
BYLAYER
 10
75.9054638197
 20
135.1786148957
 11
107.1597136712
 21
117.1343735459
  0
LINE
  5
2E2
100
AcDbEntity
  8
0
100
AcDbLine
 62
7
  6
BYLAYER
 10
109.5284850301
 20
116.0524054206
 11
108.0435934677
 21
116.9096885696
  0
LINE
  5
2E3
100
AcDbEntity
  8
0
100
AcDbLine
 62
7
  6
BYLAYER
 10
108.0435934677
 20
114.3786690697
 11
108.0435934677
 21
117.6446787382
  0
LINE
  5
2E4
100
AcDbEntity
  8
0
100
AcDbLine
 62
7
  6
BYLAYER
 10
109.5284850301
 20
116.0524054206
 11
109.5284850301
 21
121.3597346241
  0
LINE
  5
2E5
100
AcDbEntity
  8
0
100
AcDbLine
 62
7
  6
BYLAYER
 10
110.2355888673
 20
116.4606495745
 11
110.2355888673
 21
121.7679787779
  0
LINE
  5
2E6
100
AcDbEntity
  8
0
100
AcDbLine
 62
7
  6
BYLAYER
 10
108.0435934677
 20
117.6446787382
 11
107.9673810961
 21
117.6886789761
  0
LINE
  5
2E7
100
AcDbEntity
  8
0
100
AcDbLine
 62
7
  6
BYLAYER
 10
110.2355888673
 20
116.4606495745
 11
111.3669460987
 21
115.8074749492
  0
LINE
  5
2E8
100
AcDbEntity
  8
0
100
AcDbLine
 62
7
  6
BYLAYER
 10
112.7104787933
 20
115.440075651
 11
111.7205251781
 21
116.0116127073
  0
LINE
  5
2E9
100
AcDbEntity
  8
0
100
AcDbLine
 62
7
  6
BYLAYER
 10
76.946407699
 20
138.4840826585
 11
84.8660366207
 21
133.9117862079
  0
LINE
  5
2EA
100
AcDbEntity
  8
0
100
AcDbLine
 62
7
  6
BYLAYER
 10
116.1752875956
 20
116.2973665302
 11
116.2459979794
 21
116.2565427946
  0
LINE
  5
2EB
100
AcDbEntity
  8
0
100
AcDbLine
 62
7
  6
BYLAYER
 10
85.2393004157
 20
135.0970676299
 11
108.5739213456
 21
121.6251227307
  0
LINE
  5
2EC
100
AcDbEntity
  8
0
100
AcDbLine
 62
7
  6
BYLAYER
 10
111.6498142056
 20
115.970787952
 11
111.6498142056
 21
120.9514512855
  0
LINE
  5
2ED
100
AcDbEntity
  8
0
100
AcDbLine
 62
7
  6
BYLAYER
 10
112.7104787933
 20
114.2153220253
 11
112.7104787933
 21
120.3390901538
  0
LINE
  5
2EE
100
AcDbEntity
  8
0
100
AcDbLine
 62
7
  6
BYLAYER
 10
86.1583559257
 20
135.6276814086
 11
78.2387270041
 21
140.1999778592
  0
LINE
  5
2EF
100
AcDbEntity
  8
0
100
AcDbLine
 62
7
  6
BYLAYER
 10
112.7104787933
 20
120.3390901538
 11
111.6498142056
 21
120.9514512855
  0
LINE
  5
2F0
100
AcDbEntity
  8
0
100
AcDbLine
 62
7
  6
BYLAYER
 10
110.2749252736
 20
121.7906895272
 11
112.749852079
 21
120.3618221952
  0
LINE
  5
2F1
100
AcDbEntity
  8
0
100
AcDbLine
 62
7
  6
BYLAYER
 10
79.9361351702
 20
141.1799710711
 11
87.8557640918
 21
136.6076746205
  0
LINE
  5
2F2
100
AcDbEntity
  8
0
100
AcDbLine
 62
7
  6
BYLAYER
 10
88.4415374838
 20
136.9458690273
 11
80.9361182031
 21
141.2790268402
  0
LINE
  5
2F3
100
AcDbEntity
  8
0
100
AcDbLine
 62
7
  6
BYLAYER
 10
88.7748196018
 20
137.1382883992
 11
112.1094405317
 21
123.6663435
  0
LINE
  5
2F4
100
AcDbEntity
  8
0
100
AcDbLine
 62
7
  6
BYLAYER
 10
84.3678988065
 20
139.8747674307
 11
92.1233205395
 21
135.3972739
  0
LINE
  5
2F5
100
AcDbEntity
  8
0
100
AcDbLine
 62
7
  6
BYLAYER
 10
95.6337480193
 20
134.4846501445
 11
113.8771789281
 21
123.9520386779
  0
LINE
  5
2F6
100
AcDbEntity
  8
0
100
AcDbLine
 62
7
  6
BYLAYER
 10
116.1752875956
 20
119.8083290146
 11
116.1752875956
 21
116.2157183793
  0
LINE
  5
2F7
100
AcDbEntity
  8
0
100
AcDbLine
 62
7
  6
BYLAYER
 10
116.2459979794
 20
119.84915343
 11
116.2459979794
 21
116.2565427946
  0
LINE
  5
2F8
100
AcDbEntity
  8
0
100
AcDbLine
 62
7
  6
BYLAYER
 10
119.9229379329
 20
121.9720230301
 11
119.9229379329
 21
97.558600758
  0
LINE
  5
2F9
100
AcDbEntity
  8
0
100
AcDbLine
 62
7
  6
BYLAYER
 10
115.9984904398
 20
125.1767711395
 11
97.755059531
 21
135.7093826061
  0
LINE
  5
2FA
100
AcDbEntity
  8
0
100
AcDbLine
 62
7
  6
BYLAYER
 10
111.6499127767
 20
122.5845341935
 11
112.749852079
 21
120.3618221952
  0
LINE
  5
2FB
100
AcDbEntity
  8
0
100
AcDbLine
 62
7
  6
BYLAYER
 10
113.5236482061
 20
120.8085709307
 11
112.1094405317
 21
123.6663435
  0
LINE
  5
2FC
100
AcDbEntity
  8
0
100
AcDbLine
 62
7
  6
BYLAYER
 10
121.9735390608
 20
125.6870885695
 11
121.9735390608
 21
98.9058092876
  0
LINE
  5
2FD
100
AcDbEntity
  8
0
100
AcDbLine
 62
7
  6
BYLAYER
 10
121.9735390608
 20
125.6870885695
 11
98.6389181309
 21
139.1590334686
  0
ARC
  5
2FE
100
AcDbEntity
  8
0
100
AcDbCircle
 62
7
  6
BYLAYER
 10
101.3410659802
 20
113.8059694747
 40
24.1811001555
100
AcDbArc
 50
204.7931332824
 51
206.2389069624
  0
ARC
  5
2FF
100
AcDbEntity
  8
0
100
AcDbCircle
 62
7
  6
BYLAYER
 10
84.4925844333
 20
123.6886998805
 40
14.6597888037
100
AcDbArc
 50
144.6281203035
 51
155.185415497
  0
ARC
  5
300
100
AcDbEntity
  8
0
100
AcDbCircle
 62
7
  6
BYLAYER
 10
46.9745227706
 20
87.4717960287
 40
4.8592227899
100
AcDbArc
 50
117.3669793639
 51
119.9902078781
  0
ARC
  5
301
100
AcDbEntity
  8
0
100
AcDbCircle
 62
7
  6
BYLAYER
 10
33.0450587261
 20
91.4023886486
 40
2.7973026979
100
AcDbArc
 50
80.1077891489
 51
81.2573502423
  0
ARC
  5
302
100
AcDbEntity
  8
0
100
AcDbCircle
 62
7
  6
BYLAYER
 10
33.050009362
 20
91.4311157646
 40
2.7681521821
100
AcDbArc
 50
79.6952165331
 51
80.1065856168
  0
ARC
  5
303
100
AcDbEntity
  8
0
100
AcDbCircle
 62
7
  6
BYLAYER
 10
27.6738664283
 20
105.9688705431
 40
0.3606686534
100
AcDbArc
 50
180.0003026696
 51
182.1152644198
  0
SPLINE
  5
304
100
AcDbEntity
  8
0
100
AcDbSpline
 62
7
  6
BYLAYER
 70
0
 71
3
 72
12
 73
8
 74
0
 42
0.0000001
 43
0.0000001
 44
0.0000000001
 40
0.0
 40
0.0
 40
0.0
 40
0.0
 40
0.2636155156
 40
0.5153225966
 40
0.7592564532
 40
0.8796922179
 40
1.0
 40
1.0
 40
1.0
 40
1.0
 10
83.2962611524
 20
139.9205712265
 30
0.0
 10
83.3876052029
 20
139.95392007
 30
0.0
 10
83.5718446249
 20
140.005185683
 30
0.0
 10
83.8528943711
 20
140.0277225534
 30
0.0
 10
84.0801550868
 20
139.9947303198
 30
0.0
 10
84.2495848604
 20
139.9364355269
 30
0.0
 10
84.3294655807
 20
139.896956362
 30
0.0
 10
84.3678988065
 20
139.8747674307
 30
0.0
  0
SPLINE
  5
305
100
AcDbEntity
  8
0
100
AcDbSpline
 62
7
  6
BYLAYER
 70
0
 71
3
 72
13
 73
9
 74
0
 42
0.0000001
 43
0.0000001
 44
0.0000000001
 40
0.0
 40
0.0
 40
0.0
 40
0.0
 40
0.2803897399
 40
0.5364215226
 40
0.6569562492
 40
0.773592966
 40
0.8875007921
 40
1.0
 40
1.0
 40
1.0
 40
1.0
 10
83.3783854187
 20
139.8790461441
 30
0.0
 10
83.4670600546
 20
139.9149929515
 30
0.0
 10
83.6424304438
 20
139.9709636512
 30
0.0
 10
83.8669596404
 20
139.9970157242
 30
0.0
 10
84.0353317957
 20
139.9867514012
 30
0.0
 10
84.1534167189
 20
139.964600948
 30
0.0
 10
84.2649649705
 20
139.9279961358
 30
0.0
 10
84.3346481856
 20
139.893956911
 30
0.0
 10
84.3678956037
 20
139.8747618832
 30
0.0
  0
SPLINE
  5
306
100
AcDbEntity
  8
0
100
AcDbSpline
 62
7
  6
BYLAYER
 70
0
 71
3
 72
13
 73
9
 74
0
 42
0.0000001
 43
0.0000001
 44
0.0000000001
 40
0.0
 40
0.0
 40
0.0
 40
0.0
 40
0.1124912291
 40
0.2263919901
 40
0.3430235921
 40
0.4635559658
 40
0.7195928357
 40
1.0
 40
1.0
 40
1.0
 40
1.0
 10
85.5699810638
 20
139.1807507704
 30
0.0
 10
85.5367173504
 20
139.1999551222
 30
0.0
 10
85.4669984426
 20
139.2340091066
 30
0.0
 10
85.3553902255
 20
139.2706210085
 30
0.0
 10
85.2372402233
 20
139.2927638727
 30
0.0
 10
85.0687722201
 20
139.3029993131
 30
0.0
 10
84.8441162444
 20
139.2768722991
 30
0.0
 10
84.6686570558
 20
139.220814616
 30
0.0
 10
84.5799383361
 20
139.1848181058
 30
0.0
  0
SPLINE
  5
307
100
AcDbEntity
  8
0
100
AcDbSpline
 62
7
  6
BYLAYER
 70
0
 71
3
 72
23
 73
19
 74
0
 42
0.0000001
 43
0.0000001
 44
0.0000000001
 40
0.0
 40
0.0
 40
0.0
 40
0.0
 40
0.061131248
 40
0.1251409979
 40
0.1916097443
 40
0.2600119697
 40
0.3296465706
 40
0.3997460568
 40
0.4695100722
 40
0.5381600797
 40
0.6049901481
 40
0.6694180595
 40
0.7310381994
 40
0.7896746924
 40
0.8454227797
 40
0.898645874
 40
0.9499467252
 40
1.0
 40
1.0
 40
1.0
 40
1.0
 10
72.494203992
 20
131.74932703
 30
0.0
 10
72.494203992
 20
131.8468910159
 30
0.0
 10
72.5064910453
 20
132.0467437194
 30
0.0
 10
72.5574598021
 20
132.3487526111
 30
0.0
 10
72.6400840133
 20
132.6556906561
 30
0.0
 10
72.7525520816
 20
132.9625111613
 30
0.0
 10
72.8927969447
 20
133.2640522256
 30
0.0
 10
73.0582383334
 20
133.5550303655
 30
0.0
 10
73.2459359901
 20
133.8302822913
 30
0.0
 10
73.4526398082
 20
134.0849036433
 30
0.0
 10
73.6749249985
 20
134.3143804428
 30
0.0
 10
73.9093455727
 20
134.5146636859
 30
0.0
 10
74.1525953318
 20
134.6821694474
 30
0.0
 10
74.4016353592
 20
134.8136860035
 30
0.0
 10
74.6536638801
 20
134.9060511112
 30
0.0
 10
74.9058015824
 20
134.9559000821
 30
0.0
 10
75.1539267157
 20
134.9594096533
 30
0.0
 10
75.314192633
 20
134.9283301769
 30
0.0
 10
75.3904064491
 20
134.904395321
 30
0.0
  0
SPLINE
  5
308
100
AcDbEntity
  8
0
100
AcDbSpline
 62
7
  6
BYLAYER
 70
0
 71
3
 72
11
 73
7
 74
0
 42
0.0000001
 43
0.0000001
 44
0.0000000001
 40
0.0
 40
0.0
 40
0.0
 40
0.0
 40
0.2351739452
 40
0.4786472736
 40
0.7331221117
 40
1.0
 40
1.0
 40
1.0
 40
1.0
 10
72.7556348386
 20
130.8012166209
 30
0.0
 10
72.7107812014
 20
130.8653025995
 30
0.0
 10
72.6323549638
 20
131.0051029826
 30
0.0
 10
72.5512687612
 20
131.2361322004
 30
0.0
 10
72.5039155786
 20
131.4869219446
 30
0.0
 10
72.494203992
 20
131.6605585678
 30
0.0
 10
72.494203992
 20
131.74932703
 30
0.0
  0
SPLINE
  5
309
100
AcDbEntity
  8
0
100
AcDbSpline
 62
7
  6
BYLAYER
 70
0
 71
3
 72
23
 73
19
 74
0
 42
0.0000001
 43
0.0000001
 44
0.0000000001
 40
0.0
 40
0.0
 40
0.0
 40
0.0
 40
0.0609194507
 40
0.1255109458
 40
0.1931596708
 40
0.2631614243
 40
0.3346854117
 40
0.4068487302
 40
0.4787424865
 40
0.5494683881
 40
0.6181739014
 40
0.6840884122
 40
0.746564905
 40
0.8051274353
 40
0.8595257324
 40
0.9098001326
 40
0.9563521477
 40
1.0
 40
1.0
 40
1.0
 40
1.0
 10
72.5820728408
 20
131.6268537838
 30
0.0
 10
72.5820728408
 20
131.7236151455
 30
0.0
 10
72.5943020524
 20
131.9230909264
 30
0.0
 10
72.644877859
 20
132.2261639824
 30
0.0
 10
72.7273510057
 20
132.5370861818
 30
0.0
 10
72.8401173228
 20
132.8500183125
 30
0.0
 10
72.9811139459
 20
133.1591644056
 30
0.0
 10
73.1476938945
 20
133.4587410711
 30
0.0
 10
73.3367427571
 20
133.7431546583
 30
0.0
 10
73.5447289037
 20
134.007092337
 30
0.0
 10
73.7677759801
 20
134.2456314379
 30
0.0
 10
74.0017502369
 20
134.4543283366
 30
0.0
 10
74.2423448725
 20
134.6293066714
 30
0.0
 10
74.4851925743
 20
134.7673124948
 30
0.0
 10
74.7259525524
 20
134.8657302852
 30
0.0
 10
74.9604559175
 20
134.9225144375
 30
0.0
 10
75.1844323562
 20
134.9361871578
 30
0.0
 10
75.3275356222
 20
134.915263256
 30
0.0
 10
75.3944922506
 20
134.8972858837
 30
0.0
  0
SPLINE
  5
30A
100
AcDbEntity
  8
0
100
AcDbSpline
 62
7
  6
BYLAYER
 70
0
 71
3
 72
10
 73
6
 74
0
 42
0.0000001
 43
0.0000001
 44
0.0000000001
 40
0.0
 40
0.0
 40
0.0
 40
0.0
 40
0.2269716717
 40
0.5953147421
 40
1.0
 40
1.0
 40
1.0
 40
1.0
 10
72.7551918212
 20
130.8458287189
 30
0.0
 10
72.7259832781
 20
130.8994638282
 30
0.0
 10
72.6607677889
 20
131.046521031
 30
0.0
 10
72.5963712822
 20
131.3094967364
 30
0.0
 10
72.5820728408
 20
131.5179627247
 30
0.0
 10
72.5820728408
 20
131.6268537838
 30
0.0
  0
SPLINE
  5
30B
100
AcDbEntity
  8
0
100
AcDbSpline
 62
7
  6
BYLAYER
 70
0
 71
3
 72
9
 73
5
 74
0
 42
0.0000001
 43
0.0000001
 44
0.0000000001
 40
0.0
 40
0.0
 40
0.0
 40
0.0
 40
0.2588379358
 40
1.0
 40
1.0
 40
1.0
 40
1.0
 10
73.2184203684
 20
134.907376094
 30
0.0
 10
73.2776019977
 20
134.9415444196
 30
0.0
 10
73.508700468
 20
135.069199213
 30
0.0
 10
73.7498845902
 20
135.1790147648
 30
0.0
 10
73.9332974042
 20
135.2472014486
 30
0.0
  0
SPLINE
  5
30C
100
AcDbEntity
  8
0
100
AcDbSpline
 62
7
  6
BYLAYER
 70
0
 71
3
 72
15
 73
11
 74
0
 42
0.0000001
 43
0.0000001
 44
0.0000000001
 40
0.0
 40
0.0
 40
0.0
 40
0.0
 40
0.1205273518
 40
0.247279414
 40
0.3779279118
 40
0.5098937156
 40
0.6405156889
 40
0.7672188709
 40
0.8876718352
 40
1.0
 40
1.0
 40
1.0
 40
1.0
 10
69.202927945
 20
128.7043293948
 30
0.0
 10
69.245752886
 20
129.0070740985
 30
0.0
 10
69.3746975076
 20
129.6228462136
 30
0.0
 10
69.6763207886
 20
130.5347281
 30
0.0
 10
70.0832095414
 20
131.4367073132
 30
0.0
 10
70.5832516291
 20
132.301820709
 30
0.0
 10
71.1615817165
 20
133.1044329725
 30
0.0
 10
71.8011398045
 20
133.8207487158
 30
0.0
 10
72.4828380488
 20
134.4294935794
 30
0.0
 10
72.9716386223
 20
134.7648974369
 30
0.0
 10
73.2184203684
 20
134.907376094
 30
0.0
  0
SPLINE
  5
30D
100
AcDbEntity
  8
0
100
AcDbSpline
 62
7
  6
BYLAYER
 70
0
 71
3
 72
10
 73
6
 74
0
 42
0.0000001
 43
0.0000001
 44
0.0000000001
 40
0.0
 40
0.0
 40
0.0
 40
0.0
 40
0.5006289062
 40
0.7516688019
 40
1.0
 40
1.0
 40
1.0
 40
1.0
 10
70.872152351
 20
129.6933574439
 30
0.0
 10
71.0993225959
 20
130.2346381232
 30
0.0
 10
71.4983461439
 20
131.0246522033
 30
0.0
 10
72.1303079236
 20
132.0129677453
 30
0.0
 10
72.4792692517
 20
132.4839402059
 30
0.0
 10
72.6608898199
 20
132.7115408289
 30
0.0
  0
SPLINE
  5
30E
100
AcDbEntity
  8
0
100
AcDbSpline
 62
7
  6
BYLAYER
 70
0
 71
3
 72
9
 73
5
 74
0
 42
0.0000001
 43
0.0000001
 44
0.0000000001
 40
0.0
 40
0.0
 40
0.0
 40
0.0
 40
0.2431595097
 40
1.0
 40
1.0
 40
1.0
 40
1.0
 10
68.2901790093
 20
124.7533051221
 30
0.0
 10
68.2988284985
 20
124.8924938217
 30
0.0
 10
68.3447786263
 20
125.4642434302
 30
0.0
 10
68.4307495805
 20
126.032573896
 30
0.0
 10
68.5149591462
 20
126.4583913609
 30
0.0
  0
SPLINE
  5
30F
100
AcDbEntity
  8
0
100
AcDbSpline
 62
7
  6
BYLAYER
 70
0
 71
3
 72
9
 73
5
 74
0
 42
0.0000001
 43
0.0000001
 44
0.0000000001
 40
0.0
 40
0.0
 40
0.0
 40
0.0
 40
0.520580244
 40
1.0
 40
1.0
 40
1.0
 40
1.0
 10
73.9255477573
 20
135.9811855192
 30
0.0
 10
74.3670018472
 20
136.3805590401
 30
0.0
 10
75.262264771
 20
137.0977074299
 30
0.0
 10
76.2526795313
 20
137.6804379529
 30
0.0
 10
76.7483049969
 20
137.9147718615
 30
0.0
  0
SPLINE
  5
310
100
AcDbEntity
  8
0
100
AcDbSpline
 62
7
  6
BYLAYER
 70
0
 71
3
 72
11
 73
7
 74
0
 42
0.0000001
 43
0.0000001
 44
0.0000000001
 40
0.0
 40
0.0
 40
0.0
 40
0.0
 40
0.2808182892
 40
0.5370967398
 40
0.7739964316
 40
1.0
 40
1.0
 40
1.0
 40
1.0
 10
83.7291065844
 20
139.673765485
 30
0.0
 10
83.8180317957
 20
139.7099911724
 30
0.0
 10
83.9939441511
 20
139.7664229992
 30
0.0
 10
84.258723103
 20
139.7975608555
 30
0.0
 10
84.5054778312
 20
139.7692354748
 30
0.0
 10
84.6545296672
 20
139.7092870589
 30
0.0
 10
84.7214498428
 20
139.6706404374
 30
0.0
  0
SPLINE
  5
311
100
AcDbEntity
  8
0
100
AcDbSpline
 62
7
  6
BYLAYER
 70
0
 71
3
 72
12
 73
8
 74
0
 42
0.0000001
 43
0.0000001
 44
0.0000000001
 40
0.0
 40
0.0
 40
0.0
 40
0.0
 40
0.2895839024
 40
0.5486335756
 40
0.7816384356
 40
0.8918429872
 40
1.0
 40
1.0
 40
1.0
 40
1.0
 10
79.9361351702
 20
141.1799710711
 30
0.0
 10
80.0239233181
 20
141.2306552794
 30
0.0
 10
80.1985184266
 20
141.3137241377
 30
0.0
 10
80.4666838943
 20
141.3785545747
 30
0.0
 10
80.6808233577
 20
141.3728839685
 30
0.0
 10
80.8336958614
 20
141.3305344643
 30
0.0
 10
80.903328968
 20
141.2979549675
 30
0.0
 10
80.93611741
 20
141.2790254714
 30
0.0
  0
SPLINE
  5
312
100
AcDbEntity
  8
0
100
AcDbSpline
 62
7
  6
BYLAYER
 70
0
 71
3
 72
11
 73
7
 74
0
 42
0.0000001
 43
0.0000001
 44
0.0000000001
 40
0.0
 40
0.0
 40
0.0
 40
0.0
 40
0.2578902385
 40
0.5197004685
 40
0.771207369
 40
1.0
 40
1.0
 40
1.0
 40
1.0
 10
76.946407699
 20
138.4840826585
 30
0.0
 10
77.0029652375
 20
138.6636784311
 30
0.0
 10
77.1504861305
 20
139.0156488172
 30
0.0
 10
77.4510186186
 20
139.4946883586
 30
0.0
 10
77.8128679337
 20
139.9013550069
 30
0.0
 10
78.0940607176
 20
140.1164552383
 30
0.0
 10
78.2387270041
 20
140.1999778592
 30
0.0
  0
SPLINE
  5
313
100
AcDbEntity
  8
0
100
AcDbSpline
 62
7
  6
BYLAYER
 70
0
 71
3
 72
15
 73
11
 74
0
 42
0.0000001
 43
0.0000001
 44
0.0000000001
 40
0.0
 40
0.0
 40
0.0
 40
0.0
 40
0.1229698183
 40
0.2510268031
 40
0.3819576711
 40
0.5134529563
 40
0.6431378915
 40
0.7687398123
 40
0.8882526992
 40
1.0
 40
1.0
 40
1.0
 40
1.0
 10
72.991591814
 20
131.96459896
 30
0.0
 10
73.0164652662
 20
132.0903750553
 30
0.0
 10
73.0823451139
 20
132.344313468
 30
0.0
 10
73.221747376
 20
132.7180148471
 30
0.0
 10
73.4006260648
 20
133.0844438694
 30
0.0
 10
73.6141476955
 20
133.433794415
 30
0.0
 10
73.8566788559
 20
133.756773334
 30
0.0
 10
74.1217767338
 20
134.0448542501
 30
0.0
 10
74.4023949737
 20
134.2903044947
 30
0.0
 10
74.6024856073
 20
134.4263445645
 30
0.0
 10
74.7033872964
 20
134.4845998341
 30
0.0
  0
SPLINE
  5
314
100
AcDbEntity
  8
0
100
AcDbSpline
 62
7
  6
BYLAYER
 70
0
 71
3
 72
9
 73
5
 74
0
 42
0.0000001
 43
0.0000001
 44
0.0000000001
 40
0.0
 40
0.0
 40
0.0
 40
0.0
 40
0.5015901723
 40
1.0
 40
1.0
 40
1.0
 40
1.0
 10
72.1858606984
 20
127.8961071839
 30
0.0
 10
72.0128316802
 20
128.2182303725
 30
0.0
 10
71.6725520203
 20
128.8629638569
 30
0.0
 10
71.3450336351
 20
129.5143274158
 30
0.0
 10
71.1863239817
 20
129.8411660983
 30
0.0
  0
SPLINE
  5
315
100
AcDbEntity
  8
0
100
AcDbSpline
 62
7
  6
BYLAYER
 70
0
 71
3
 72
17
 73
13
 74
0
 42
0.0000001
 43
0.0000001
 44
0.0000000001
 40
0.0
 40
0.0
 40
0.0
 40
0.0
 40
0.0428590382
 40
0.0874850278
 40
0.1353193459
 40
0.1872814037
 40
0.3045420728
 40
0.4382079173
 40
0.5825499624
 40
0.7297142529
 40
0.8713069433
 40
1.0
 40
1.0
 40
1.0
 40
1.0
 10
114.1860916357
 20
118.4858107069
 30
0.0
 10
114.1577389884
 20
118.5021768803
 30
0.0
 10
114.1040108693
 20
118.5433287051
 30
0.0
 10
114.0393199426
 20
118.6250929686
 30
0.0
 10
113.990995462
 20
118.7251175505
 30
0.0
 10
113.9475869437
 20
118.8859279195
 30
0.0
 10
113.9421432529
 20
119.1203944403
 30
0.0
 10
114.0028343836
 20
119.4179557375
 30
0.0
 10
114.125113232
 20
119.7206219256
 30
0.0
 10
114.2992073102
 20
120.003770325
 30
0.0
 10
114.5106996858
 20
120.2444111101
 30
0.0
 10
114.6759493589
 20
120.3715700772
 30
0.0
 10
114.7610799212
 20
120.4207199369
 30
0.0
  0
SPLINE
  5
316
100
AcDbEntity
  8
0
100
AcDbSpline
 62
7
  6
BYLAYER
 70
0
 71
3
 72
11
 73
7
 74
0
 42
0.0000001
 43
0.0000001
 44
0.0000000001
 40
0.0
 40
0.0
 40
0.0
 40
0.0
 40
0.2897011399
 40
0.5490888176
 40
0.7822183492
 40
1.0
 40
1.0
 40
1.0
 40
1.0
 10
114.7610799212
 20
120.4207199369
 30
0.0
 10
114.811539675
 20
120.4498527154
 30
0.0
 10
114.911920844
 20
120.4976070715
 30
0.0
 10
115.0662087458
 20
120.5348688458
 30
0.0
 10
115.2109777601
 20
120.5312036538
 30
0.0
 10
115.298133475
 20
120.4995709064
 30
0.0
 10
115.3360682067
 20
120.4776736074
 30
0.0
  0
SPLINE
  5
317
100
AcDbEntity
  8
0
100
AcDbSpline
 62
7
  6
BYLAYER
 70
0
 71
3
 72
11
 73
7
 74
0
 42
0.0000001
 43
0.0000001
 44
0.0000000001
 40
0.0
 40
0.0
 40
0.0
 40
0.0
 40
0.2897011399
 40
0.5490888176
 40
0.7822183492
 40
1.0
 40
1.0
 40
1.0
 40
1.0
 10
114.7610799212
 20
118.5427643775
 30
0.0
 10
114.7106201675
 20
118.5136315989
 30
0.0
 10
114.6102389984
 20
118.4658772428
 30
0.0
 10
114.4559510966
 20
118.4286154686
 30
0.0
 10
114.3111820823
 20
118.4322806605
 30
0.0
 10
114.2240263674
 20
118.4639134079
 30
0.0
 10
114.1860916357
 20
118.4858107069
 30
0.0
  0
SPLINE
  5
318
100
AcDbEntity
  8
0
100
AcDbSpline
 62
7
  6
BYLAYER
 70
0
 71
3
 72
17
 73
13
 74
0
 42
0.0000001
 43
0.0000001
 44
0.0000000001
 40
0.0
 40
0.0
 40
0.0
 40
0.0
 40
0.0428590382
 40
0.0874850278
 40
0.1353193459
 40
0.1872814037
 40
0.3045420728
 40
0.4382079173
 40
0.5825499624
 40
0.7297142529
 40
0.8713069433
 40
1.0
 40
1.0
 40
1.0
 40
1.0
 10
115.3360682067
 20
120.4776736074
 30
0.0
 10
115.364420854
 20
120.461307434
 30
0.0
 10
115.4181489732
 20
120.4201556092
 30
0.0
 10
115.4828398998
 20
120.3383913457
 30
0.0
 10
115.5311643804
 20
120.2383667638
 30
0.0
 10
115.5745728987
 20
120.0775563949
 30
0.0
 10
115.5800165895
 20
119.843089874
 30
0.0
 10
115.5193254588
 20
119.5455285768
 30
0.0
 10
115.3970466104
 20
119.2428623888
 30
0.0
 10
115.2229525322
 20
118.9597139893
 30
0.0
 10
115.0114601566
 20
118.7190732042
 30
0.0
 10
114.8462104835
 20
118.5919142371
 30
0.0
 10
114.7610799212
 20
118.5427643775
 30
0.0
  0
SPLINE
  5
319
100
AcDbEntity
  8
0
100
AcDbSpline
 62
7
  6
BYLAYER
 70
0
 71
3
 72
11
 73
7
 74
0
 42
0.0000001
 43
0.0000001
 44
0.0000000001
 40
0.0
 40
0.0
 40
0.0
 40
0.0
 40
0.2177825102
 40
0.4509091639
 40
0.7102957096
 40
1.0
 40
1.0
 40
1.0
 40
1.0
 10
107.5436044461
 20
112.6961406722
 30
0.0
 10
107.5106178048
 20
112.7151850915
 30
0.0
 10
107.4489010693
 20
112.7670697448
 30
0.0
 10
107.3831963769
 20
112.87449969
 30
0.0
 10
107.3441716759
 20
113.0068937093
 30
0.0
 10
107.3364896305
 20
113.1032541256
 30
0.0
 10
107.3364896305
 20
113.1539224987
 30
0.0
  0
SPLINE
  5
31A
100
AcDbEntity
  8
0
100
AcDbSpline
 62
7
  6
BYLAYER
 70
0
 71
3
 72
13
 73
9
 74
0
 42
0.0000001
 43
0.0000001
 44
0.0000000001
 40
0.0
 40
0.0
 40
0.0
 40
0.0
 40
0.1142260229
 40
0.2375602528
 40
0.5000015383
 40
0.7624419778
 40
0.8857752456
 40
1.0
 40
1.0
 40
1.0
 40
1.0
 10
107.3364896305
 20
113.1539224987
 30
0.0
 10
107.3364896305
 20
113.2098029873
 30
0.0
 10
107.3467416025
 20
113.3261354806
 30
0.0
 10
107.4023128684
 20
113.5649466563
 30
0.0
 10
107.5314653544
 20
113.8578515548
 30
0.0
 10
107.720550571
 20
114.1161540186
 30
0.0
 10
107.8995799722
 20
114.2836851695
 30
0.0
 10
107.9952000101
 20
114.3507292607
 30
0.0
 10
108.0435934677
 20
114.3786690697
 30
0.0
  0
SPLINE
  5
31B
100
AcDbEntity
  8
0
100
AcDbSpline
 62
7
  6
BYLAYER
 70
0
 71
3
 72
11
 73
7
 74
0
 42
0.0000001
 43
0.0000001
 44
0.0000000001
 40
0.0
 40
0.0
 40
0.0
 40
0.0
 40
0.289702809
 40
0.549088757
 40
0.7822160314
 40
1.0
 40
1.0
 40
1.0
 40
1.0
 10
108.0435934677
 20
112.7456642354
 30
0.0
 10
107.9997152663
 20
112.7203312953
 30
0.0
 10
107.9124273869
 20
112.6788059162
 30
0.0
 10
107.7782640346
 20
112.6464066812
 30
0.0
 10
107.6523794183
 20
112.6495929809
 30
0.0
 10
107.5765900017
 20
112.6770968798
 30
0.0
 10
107.5436044461
 20
112.6961406722
 30
0.0
  0
SPLINE
  5
31C
100
AcDbEntity
  8
0
100
AcDbSpline
 62
7
  6
BYLAYER
 70
0
 71
3
 72
11
 73
7
 74
0
 42
0.0000001
 43
0.0000001
 44
0.0000000001
 40
0.0
 40
0.0
 40
0.0
 40
0.0
 40
0.2895421522
 40
0.5491196247
 40
0.782256727
 40
1.0
 40
1.0
 40
1.0
 40
1.0
 10
27.6280010005
 20
104.3052525463
 30
0.0
 10
27.5808580935
 20
104.3324699006
 30
0.0
 10
27.4953092807
 20
104.3914578349
 30
0.0
 10
27.3929758565
 20
104.4988895413
 30
0.0
 10
27.328230805
 20
104.617828117
 30
0.0
 10
27.3131977658
 20
104.7031779918
 30
0.0
 10
27.3131977749
 20
104.7441150113
 30
0.0
  0
SPLINE
  5
31D
100
AcDbEntity
  8
0
100
AcDbSpline
 62
7
  6
BYLAYER
 70
0
 71
3
 72
15
 73
11
 74
0
 42
0.0000001
 43
0.0000001
 44
0.0000000001
 40
0.0
 40
0.0
 40
0.0
 40
0.0
 40
0.1141549974
 40
0.2373268943
 40
0.3669765742
 40
0.5000005394
 40
0.633024429
 40
0.7626738905
 40
0.8858454396
 40
1.0
 40
1.0
 40
1.0
 40
1.0
 10
51.6166984261
 20
90.4556849492
 30
0.0
 10
51.3746615734
 20
90.59542183
 30
0.0
 10
50.8454051921
 20
90.8418722562
 30
0.0
 10
49.9835432283
 20
91.1038214659
 30
0.0
 10
49.0504444031
 20
91.2650593664
 30
0.0
 10
48.081158432
 20
91.3194574191
 30
0.0
 10
47.1118732528
 20
91.2650547421
 30
0.0
 10
46.1787767802
 20
91.1038123899
 30
0.0
 10
45.3169186076
 20
90.8418590959
 30
0.0
 10
44.7876655327
 20
90.5954060436
 30
0.0
 10
44.5456306143
 20
90.4556679525
 30
0.0
  0
SPLINE
  5
31E
100
AcDbEntity
  8
0
100
AcDbSpline
 62
7
  6
BYLAYER
 70
0
 71
3
 72
11
 73
7
 74
0
 42
0.0000001
 43
0.0000001
 44
0.0000000001
 40
0.0
 40
0.0
 40
0.0
 40
0.0
 40
0.2372524156
 40
0.4999996414
 40
0.7627470637
 40
1.0
 40
1.0
 40
1.0
 40
1.0
 10
55.9123836768
 20
88.853343642
 30
0.0
 10
55.8044600428
 20
88.7910342748
 30
0.0
 10
55.5535002236
 20
88.7000954462
 30
0.0
 10
55.1522448616
 20
88.6566178841
 30
0.0
 10
54.7509890334
 20
88.7000937011
 30
0.0
 10
54.5000284175
 20
88.791031262
 30
0.0
 10
54.3921040973
 20
88.8533399877
 30
0.0
  0
SPLINE
  5
31F
100
AcDbEntity
  8
0
100
AcDbSpline
 62
7
  6
BYLAYER
 70
0
 71
3
 72
11
 73
7
 74
0
 42
0.0000001
 43
0.0000001
 44
0.0000000001
 40
0.0
 40
0.0
 40
0.0
 40
0.0
 40
0.2177438688
 40
0.4508811915
 40
0.7104582954
 40
1.0
 40
1.0
 40
1.0
 40
1.0
 10
88.6478915091
 20
108.0101969085
 30
0.0
 10
88.6478915
 20
107.9692603037
 30
0.0
 10
88.6328588307
 20
107.8839113761
 30
0.0
 10
88.5681151222
 20
107.7649739857
 30
0.0
 10
88.4657838487
 20
107.657543043
 30
0.0
 10
88.3802366445
 20
107.5985553991
 30
0.0
 10
88.3330946131
 20
107.571338097
 30
0.0
  0
SPLINE
  5
320
100
AcDbEntity
  8
0
100
AcDbSpline
 62
7
  6
BYLAYER
 70
0
 71
3
 72
9
 73
5
 74
0
 42
0.0000001
 43
0.0000001
 44
0.0000000001
 40
0.0
 40
0.0
 40
0.0
 40
0.0
 40
0.2438965292
 40
1.0
 40
1.0
 40
1.0
 40
1.0
 10
30.8241408116
 20
102.4268477753
 30
0.0
 10
30.7913536934
 20
102.4513388093
 30
0.0
 10
30.6553315397
 20
102.549614236
 30
0.0
 10
30.5132796599
 20
102.6394738206
 30
0.0
 10
30.4034066717
 20
102.7029075848
 30
0.0
  0
SPLINE
  5
321
100
AcDbEntity
  8
0
100
AcDbSpline
 62
7
  6
BYLAYER
 70
0
 71
3
 72
9
 73
5
 74
0
 42
0.0000001
 43
0.0000001
 44
0.0000000001
 40
0.0
 40
0.0
 40
0.0
 40
0.0
 40
0.474556313
 40
1.0
 40
1.0
 40
1.0
 40
1.0
 10
54.3921040973
 20
90.0780936134
 30
0.0
 10
54.4953363174
 20
90.0184938117
 30
0.0
 10
54.7343869522
 20
89.9299239784
 30
0.0
 10
54.9857071992
 20
89.8991043241
 30
0.0
 10
55.1176684897
 20
89.8966672644
 30
0.0
  0
SPLINE
  5
322
100
AcDbEntity
  8
0
100
AcDbSpline
 62
7
  6
BYLAYER
 70
0
 71
3
 72
15
 73
11
 74
0
 42
0.0000001
 43
0.0000001
 44
0.0000000001
 40
0.0
 40
0.0
 40
0.0
 40
0.0
 40
0.1162305275
 40
0.2405716901
 40
0.3705765243
 40
0.5032798314
 40
0.6355338551
 40
0.7642164063
 40
0.8864830029
 40
1.0
 40
1.0
 40
1.0
 40
1.0
 10
44.7407961525
 20
91.7871768367
 30
0.0
 10
44.9858122095
 20
91.9141522219
 30
0.0
 10
45.5144855083
 20
92.1364899302
 30
0.0
 10
46.3652548425
 20
92.3687454705
 30
0.0
 10
47.2760122971
 20
92.5055560706
 30
0.0
 10
48.2148990934
 20
92.541966003
 30
0.0
 10
49.1490948248
 20
92.4767892448
 30
0.0
 10
50.046038449
 20
92.3122414552
 30
0.0
 10
50.8742338608
 20
92.0541302813
 30
0.0
 10
51.3832855863
 20
91.8151964922
 30
0.0
 10
51.6166984261
 20
91.6804385749
 30
0.0
  0
SPLINE
  5
323
100
AcDbEntity
  8
0
100
AcDbSpline
 62
7
  6
BYLAYER
 70
0
 71
3
 72
9
 73
5
 74
0
 42
0.0000001
 43
0.0000001
 44
0.0000000001
 40
0.0
 40
0.0
 40
0.0
 40
0.0
 40
0.274687108
 40
1.0
 40
1.0
 40
1.0
 40
1.0
 10
30.4034066717
 20
103.9276612105
 30
0.0
 10
30.5301532156
 20
103.8544857147
 30
0.0
 10
30.9780449036
 20
103.5676356513
 30
0.0
 10
31.3746673752
 20
103.1844718433
 30
0.0
 10
31.5776386052
 20
102.8556191202
 30
0.0
  0
SPLINE
  5
324
100
AcDbEntity
  8
0
100
AcDbSpline
 62
7
  6
BYLAYER
 70
0
 71
3
 72
10
 73
6
 74
0
 42
0.0000001
 43
0.0000001
 44
0.0000000001
 40
0.0
 40
0.0
 40
0.0
 40
0.0
 40
0.2340469504
 40
0.4845726363
 40
1.0
 40
1.0
 40
1.0
 40
1.0
 10
31.9236516506
 20
93.978459835
 30
0.0
 10
32.0351907962
 20
94.0301861304
 30
0.0
 10
32.2765659301
 20
94.1156449792
 30
0.0
 10
32.7936198363
 20
94.2142283094
 30
0.0
 10
33.202621893
 20
94.2083512196
 30
0.0
 10
33.4702392031
 20
94.1671895358
 30
0.0
  0
SPLINE
  5
325
100
AcDbEntity
  8
0
100
AcDbSpline
 62
7
  6
BYLAYER
 70
0
 71
3
 72
11
 73
7
 74
0
 42
0.0000001
 43
0.0000001
 44
0.0000000001
 40
0.0
 40
0.0
 40
0.0
 40
0.0
 40
0.2177175018
 40
0.4514424642
 40
0.7112060311
 40
1.0
 40
1.0
 40
1.0
 40
1.0
 10
27.313443536
 20
105.9555582837
 30
0.0
 10
27.314918999
 20
105.9156088686
 30
0.0
 10
27.3323031023
 20
105.8327948426
 30
0.0
 10
27.3977265093
 20
105.7178685167
 30
0.0
 10
27.4985321811
 20
105.6138879303
 30
0.0
 10
27.5820775732
 20
105.5565194753
 30
0.0
 10
27.6280010005
 20
105.530006172
 30
0.0
  0
SPLINE
  5
326
100
AcDbEntity
  8
0
100
AcDbSpline
 62
7
  6
BYLAYER
 70
0
 71
3
 72
11
 73
7
 74
0
 42
0.0000001
 43
0.0000001
 44
0.0000000001
 40
0.0
 40
0.0
 40
0.0
 40
0.0
 40
0.2897036169
 40
0.5490920547
 40
0.7822205729
 40
1.0
 40
1.0
 40
1.0
 40
1.0
 10
31.4995059384
 20
94.1094713408
 30
0.0
 10
31.4051654892
 20
94.1639375923
 30
0.0
 10
31.2340071071
 20
94.2818241737
 30
0.0
 10
31.0294448291
 20
94.4968000651
 30
0.0
 10
30.9000479672
 20
94.7346223358
 30
0.0
 10
30.8697927089
 20
94.9053068579
 30
0.0
 10
30.8697865171
 20
94.9871962758
 30
0.0
  0
SPLINE
  5
327
100
AcDbEntity
  8
0
100
AcDbSpline
 62
7
  6
BYLAYER
 70
0
 71
3
 72
11
 73
7
 74
0
 42
0.0000001
 43
0.0000001
 44
0.0000000001
 40
0.0
 40
0.0
 40
0.0
 40
0.0
 40
0.2619611895
 40
0.5230164049
 40
0.7721567659
 40
1.0
 40
1.0
 40
1.0
 40
1.0
 10
33.519012104
 20
93.7798470751
 30
0.0
 10
33.3392017218
 20
93.7550756318
 30
0.0
 10
32.9759346305
 20
93.7330229524
 30
0.0
 10
32.4409326117
 20
93.7781357686
 30
0.0
 10
31.9417671159
 20
93.8980331058
 30
0.0
 10
31.6362251827
 20
94.030538234
 30
0.0
 10
31.4995059384
 20
94.1094713408
 30
0.0
  0
SPLINE
  5
328
100
AcDbEntity
  8
0
100
AcDbSpline
 62
7
  6
BYLAYER
 70
0
 71
3
 72
12
 73
8
 74
0
 42
0.0000001
 43
0.0000001
 44
0.0000000001
 40
0.0
 40
0.0
 40
0.0
 40
0.0
 40
0.2895831544
 40
0.5486371605
 40
0.781638491
 40
0.891839144
 40
1.0
 40
1.0
 40
1.0
 40
1.0
 10
76.1531132584
 20
122.8294983595
 30
0.0
 10
75.9336390791
 20
122.9562089694
 30
0.0
 10
75.5355356874
 20
123.2303849628
 30
0.0
 10
75.0599447555
 20
123.7299386503
 30
0.0
 10
74.804549465
 20
124.2006585085
 30
0.0
 10
74.7051345412
 20
124.5845744181
 30
0.0
 10
74.6886409828
 20
124.7760633426
 30
0.0
 10
74.6886409805
 20
124.8707191288
 30
0.0
  0
SPLINE
  5
329
100
AcDbEntity
  8
0
100
AcDbSpline
 62
7
  6
BYLAYER
 70
0
 71
3
 72
15
 73
11
 74
0
 42
0.0000001
 43
0.0000001
 44
0.0000000001
 40
0.0
 40
0.0
 40
0.0
 40
0.0
 40
0.1141545727
 40
0.2373261359
 40
0.366975604
 40
0.4999994966
 40
0.6330234588
 40
0.7626731321
 40
0.8858450149
 40
1.0
 40
1.0
 40
1.0
 40
1.0
 10
83.2241810702
 20
122.8295153562
 30
0.0
 10
82.9821461257
 20
122.68977725
 30
0.0
 10
82.452892987
 20
122.4433241803
 30
0.0
 10
81.5910347334
 20
122.1813708737
 30
0.0
 10
80.6579381976
 20
122.0201285427
 30
0.0
 10
79.6886530012
 20
121.9657258896
 30
0.0
 10
78.7193670473
 20
122.0201239662
 30
0.0
 10
77.7862682853
 20
122.1813618878
 30
0.0
 10
76.9244064026
 20
122.443311085
 30
0.0
 10
76.395150085
 20
122.6897614937
 30
0.0
 10
76.1531132584
 20
122.8294983595
 30
0.0
  0
SPLINE
  5
32A
100
AcDbEntity
  8
0
100
AcDbSpline
 62
7
  6
BYLAYER
 70
0
 71
3
 72
10
 73
6
 74
0
 42
0.0000001
 43
0.0000001
 44
0.0000000001
 40
0.0
 40
0.0
 40
0.0
 40
0.0
 40
0.2271059187
 40
0.5955648096
 40
1.0
 40
1.0
 40
1.0
 40
1.0
 10
31.7897715644
 20
102.9780894367
 30
0.0
 10
31.7259904039
 20
103.081427622
 30
0.0
 10
31.5366660146
 20
103.3391533574
 30
0.0
 10
31.147397747
 20
103.7104700624
 30
0.0
 10
30.802822703
 20
103.9420079269
 30
0.0
 10
30.6155378229
 20
104.0501344567
 30
0.0
  0
SPLINE
  5
32B
100
AcDbEntity
  8
0
100
AcDbSpline
 62
7
  6
BYLAYER
 70
0
 71
3
 72
9
 73
5
 74
0
 42
0.0000001
 43
0.0000001
 44
0.0000000001
 40
0.0
 40
0.0
 40
0.0
 40
0.0
 40
0.4903662599
 40
1.0
 40
1.0
 40
1.0
 40
1.0
 10
32.0800101008
 20
103.805219005
 30
0.0
 10
32.080010104
 20
103.6666315309
 30
0.0
 10
32.0440515836
 20
103.3829737144
 30
0.0
 10
31.9412401989
 20
103.1167809909
 30
0.0
 10
31.8757060723
 20
102.9885205458
 30
0.0
  0
SPLINE
  5
32C
100
AcDbEntity
  8
0
100
AcDbSpline
 62
7
  6
BYLAYER
 70
0
 71
3
 72
12
 73
8
 74
0
 42
0.0000001
 43
0.0000001
 44
0.0000000001
 40
0.0
 40
0.0
 40
0.0
 40
0.0
 40
0.1081611056
 40
0.2183619689
 40
0.4513635024
 40
0.7104173283
 40
1.0
 40
1.0
 40
1.0
 40
1.0
 10
38.0197706524
 20
97.9266049733
 30
0.0
 10
38.0197706546
 20
97.8319501892
 30
0.0
 10
38.0032774459
 20
97.6404633381
 30
0.0
 10
37.9038646906
 20
97.2565515834
 30
0.0
 10
37.6484749741
 20
96.7858364699
 30
0.0
 10
37.1728937152
 20
96.2862864739
 30
0.0
 10
36.7747978839
 20
96.0121115482
 30
0.0
 10
36.5553278141
 20
95.8854012007
 30
0.0
  0
SPLINE
  5
32D
100
AcDbEntity
  8
0
100
AcDbSpline
 62
7
  6
BYLAYER
 70
0
 71
3
 72
15
 73
11
 74
0
 42
0.0000001
 43
0.0000001
 44
0.0000000001
 40
0.0
 40
0.0
 40
0.0
 40
0.0
 40
0.1141549974
 40
0.2373268943
 40
0.3669765742
 40
0.5000005394
 40
0.633024429
 40
0.7626738905
 40
0.8858454396
 40
1.0
 40
1.0
 40
1.0
 40
1.0
 10
51.8288295773
 20
91.8029118211
 30
0.0
 10
51.5867927246
 20
91.9426487018
 30
0.0
 10
51.0575363432
 20
92.1890991281
 30
0.0
 10
50.1956743794
 20
92.4510483378
 30
0.0
 10
49.2625755543
 20
92.6122862383
 30
0.0
 10
48.2932895832
 20
92.6666842909
 30
0.0
 10
47.324004404
 20
92.612281614
 30
0.0
 10
46.3909079314
 20
92.4510392618
 30
0.0
 10
45.5290497588
 20
92.1890859677
 30
0.0
 10
44.9997966839
 20
91.9426329155
 30
0.0
 10
44.7577617655
 20
91.8028948243
 30
0.0
  0
SPLINE
  5
32E
100
AcDbEntity
  8
0
100
AcDbSpline
 62
7
  6
BYLAYER
 70
0
 71
3
 72
9
 73
5
 74
0
 42
0.0000001
 43
0.0000001
 44
0.0000000001
 40
0.0
 40
0.0
 40
0.0
 40
0.0
 40
0.2603343562
 40
1.0
 40
1.0
 40
1.0
 40
1.0
 10
85.7697843239
 20
115.4810557489
 30
0.0
 10
85.7101375802
 20
115.4466188909
 30
0.0
 10
85.4840068486
 20
115.3093207584
 30
0.0
 10
85.2700325297
 20
115.1513556849
 30
0.0
 10
85.1232003745
 20
115.021998545
 30
0.0
  0
SPLINE
  5
32F
100
AcDbEntity
  8
0
100
AcDbSpline
 62
7
  6
BYLAYER
 70
0
 71
3
 72
11
 73
7
 74
0
 42
0.0000001
 43
0.0000001
 44
0.0000000001
 40
0.0
 40
0.0
 40
0.0
 40
0.0
 40
0.2558011667
 40
0.5168923684
 40
0.7691470228
 40
1.0
 40
1.0
 40
1.0
 40
1.0
 10
33.8438078951
 20
94.3373855087
 30
0.0
 10
33.6487779706
 20
94.3841051332
 30
0.0
 10
33.245294616
 20
94.4419191723
 30
0.0
 10
32.6398563359
 20
94.4293684864
 30
0.0
 10
32.0638382308
 20
94.3211691194
 30
0.0
 10
31.7078119399
 20
94.1822873091
 30
0.0
 10
31.548665155
 20
94.0960950862
 30
0.0
  0
SPLINE
  5
330
100
AcDbEntity
  8
0
100
AcDbSpline
 62
7
  6
BYLAYER
 70
0
 71
3
 72
9
 73
5
 74
0
 42
0.0000001
 43
0.0000001
 44
0.0000000001
 40
0.0
 40
0.0
 40
0.0
 40
0.0
 40
0.2474751431
 40
1.0
 40
1.0
 40
1.0
 40
1.0
 10
69.5066562329
 20
124.7146334636
 30
0.0
 10
69.4237282427
 20
124.7005096249
 30
0.0
 10
69.0877484377
 20
124.6487257405
 30
0.0
 10
68.748580568
 20
124.6178571648
 30
0.0
 10
68.4930568507
 20
124.6059836901
 30
0.0
  0
SPLINE
  5
331
100
AcDbEntity
  8
0
100
AcDbSpline
 62
7
  6
BYLAYER
 70
0
 71
3
 72
9
 73
5
 74
0
 42
0.0000001
 43
0.0000001
 44
0.0000000001
 40
0.0
 40
0.0
 40
0.0
 40
0.0
 40
0.2379092149
 40
1.0
 40
1.0
 40
1.0
 40
1.0
 10
37.294772248
 20
96.4843346894
 30
0.0
 10
37.2419650276
 20
96.5345979347
 30
0.0
 10
37.012716232
 20
96.7381891454
 30
0.0
 10
36.7575444112
 20
96.9116528788
 30
0.0
 10
36.5552983745
 20
97.028417041
 30
0.0
  0
SPLINE
  5
332
100
AcDbEntity
  8
0
100
AcDbSpline
 62
7
  6
BYLAYER
 70
0
 71
3
 72
15
 73
11
 74
0
 42
0.0000001
 43
0.0000001
 44
0.0000000001
 40
0.0
 40
0.0
 40
0.0
 40
0.0
 40
0.0955547289
 40
0.2058619007
 40
0.3302146893
 40
0.4650794759
 40
0.6052750576
 40
0.744905372
 40
0.8781244872
 40
1.0
 40
1.0
 40
1.0
 40
1.0
 10
77.1788228891
 20
122.422284564
 30
0.0
 10
77.255639433
 20
122.553201257
 30
0.0
 10
77.4764809844
 20
122.8032954746
 30
0.0
 10
77.919475864
 20
123.0917483329
 30
0.0
 10
78.4689680406
 20
123.3076561365
 30
0.0
 10
79.092415007
 20
123.4384606876
 30
0.0
 10
79.7523394737
 20
123.4768726713
 30
0.0
 10
80.4084535929
 20
123.4203626752
 30
0.0
 10
81.0202817744
 20
123.272629447
 30
0.0
 10
81.394794225
 20
123.1099557473
 30
0.0
 10
81.5624576131
 20
123.0131574349
 30
0.0
  0
SPLINE
  5
333
100
AcDbEntity
  8
0
100
AcDbSpline
 62
7
  6
BYLAYER
 70
0
 71
3
 72
15
 73
11
 74
0
 42
0.0000001
 43
0.0000001
 44
0.0000000001
 40
0.0
 40
0.0
 40
0.0
 40
0.0
 40
0.1141549974
 40
0.2373268943
 40
0.3669765742
 40
0.5000005394
 40
0.633024429
 40
0.7626738905
 40
0.8858454396
 40
1.0
 40
1.0
 40
1.0
 40
1.0
 10
36.5552983745
 20
97.028417041
 30
0.0
 10
36.3132615218
 20
97.1681539218
 30
0.0
 10
35.7840051404
 20
97.414604348
 30
0.0
 10
34.9221431766
 20
97.6765535577
 30
0.0
 10
33.9890443515
 20
97.8377914582
 30
0.0
 10
33.0197583804
 20
97.8921895109
 30
0.0
 10
32.0504732012
 20
97.8377868339
 30
0.0
 10
31.1173767286
 20
97.6765444817
 30
0.0
 10
30.255518556
 20
97.4145911877
 30
0.0
 10
29.7262654811
 20
97.1681381354
 30
0.0
 10
29.4842305627
 20
97.0284000442
 30
0.0
  0
SPLINE
  5
334
100
AcDbEntity
  8
0
100
AcDbSpline
 62
7
  6
BYLAYER
 70
0
 71
3
 72
15
 73
11
 74
0
 42
0.0000001
 43
0.0000001
 44
0.0000000001
 40
0.0
 40
0.0
 40
0.0
 40
0.0
 40
0.1141545727
 40
0.2373261359
 40
0.366975604
 40
0.4999994966
 40
0.6330234588
 40
0.7626731321
 40
0.8858450149
 40
1.0
 40
1.0
 40
1.0
 40
1.0
 10
44.7577617655
 20
93.599200142
 30
0.0
 10
44.99979671
 20
93.7389382482
 30
0.0
 10
45.5290498487
 20
93.9853913179
 30
0.0
 10
46.3909081024
 20
94.2473446245
 30
0.0
 10
47.3240046381
 20
94.4085869555
 30
0.0
 10
48.2932898345
 20
94.4629896086
 30
0.0
 10
49.2625757884
 20
94.408591532
 30
0.0
 10
50.1956745504
 20
94.2473536104
 30
0.0
 10
51.0575364332
 20
93.9854044133
 30
0.0
 10
51.5867927507
 20
93.7389540045
 30
0.0
 10
51.8288295773
 20
93.5992171387
 30
0.0
  0
SPLINE
  5
335
100
AcDbEntity
  8
0
100
AcDbSpline
 62
7
  6
BYLAYER
 70
0
 71
3
 72
12
 73
8
 74
0
 42
0.0000001
 43
0.0000001
 44
0.0000000001
 40
0.0
 40
0.0
 40
0.0
 40
0.0
 40
0.1081611056
 40
0.2183619689
 40
0.4513635024
 40
0.7104173283
 40
1.0
 40
1.0
 40
1.0
 40
1.0
 10
74.6886409805
 20
124.8707191288
 30
0.0
 10
74.6886409783
 20
124.9653739129
 30
0.0
 10
74.7051341869
 20
125.156860764
 30
0.0
 10
74.8045469423
 20
125.5407725188
 30
0.0
 10
75.0599366588
 20
126.0114876323
 30
0.0
 10
75.5355179177
 20
126.5110376283
 30
0.0
 10
75.933613749
 20
126.7852125539
 30
0.0
 10
76.1530838188
 20
126.9119229014
 30
0.0
  0
SPLINE
  5
336
100
AcDbEntity
  8
0
100
AcDbSpline
 62
7
  6
BYLAYER
 70
0
 71
3
 72
12
 73
8
 74
0
 42
0.0000001
 43
0.0000001
 44
0.0000000001
 40
0.0
 40
0.0
 40
0.0
 40
0.0
 40
0.2895831544
 40
0.5486371605
 40
0.781638491
 40
0.891839144
 40
1.0
 40
1.0
 40
1.0
 40
1.0
 10
36.5552983745
 20
99.9678257427
 30
0.0
 10
36.7747725538
 20
99.8411151327
 30
0.0
 10
37.1728759455
 20
99.5669391393
 30
0.0
 10
37.6484668774
 20
99.0673854519
 30
0.0
 10
37.9038621679
 20
98.5966655936
 30
0.0
 10
38.0032770917
 20
98.212749684
 30
0.0
 10
38.0197706501
 20
98.0212607595
 30
0.0
 10
38.0197706524
 20
97.9266049733
 30
0.0
  0
SPLINE
  5
337
100
AcDbEntity
  8
0
100
AcDbSpline
 62
7
  6
BYLAYER
 70
0
 71
3
 72
15
 73
11
 74
0
 42
0.0000001
 43
0.0000001
 44
0.0000000001
 40
0.0
 40
0.0
 40
0.0
 40
0.0
 40
0.1141545727
 40
0.2373261359
 40
0.366975604
 40
0.4999994966
 40
0.6330234588
 40
0.7626731321
 40
0.8858450149
 40
1.0
 40
1.0
 40
1.0
 40
1.0
 10
29.4842305627
 20
99.9678087459
 30
0.0
 10
29.7262655072
 20
100.1075468522
 30
0.0
 10
30.2555186459
 20
100.3539999218
 30
0.0
 10
31.1173768995
 20
100.6159532284
 30
0.0
 10
32.0504734353
 20
100.7771955595
 30
0.0
 10
33.0197586317
 20
100.8315982125
 30
0.0
 10
33.9890445856
 20
100.777200136
 30
0.0
 10
34.9221433476
 20
100.6159622144
 30
0.0
 10
35.7840052303
 20
100.3540130172
 30
0.0
 10
36.3132615479
 20
100.1075626084
 30
0.0
 10
36.5552983745
 20
99.9678257427
 30
0.0
  0
SPLINE
  5
338
100
AcDbEntity
  8
0
100
AcDbSpline
 62
7
  6
BYLAYER
 70
0
 71
3
 72
12
 73
8
 74
0
 42
0.0000001
 43
0.0000001
 44
0.0000000001
 40
0.0
 40
0.0
 40
0.0
 40
0.0
 40
0.2895831544
 40
0.5486371605
 40
0.781638491
 40
0.891839144
 40
1.0
 40
1.0
 40
1.0
 40
1.0
 10
30.6155378229
 20
105.8464397744
 30
0.0
 10
30.8350120022
 20
105.7197291644
 30
0.0
 10
31.2331153939
 20
105.445553171
 30
0.0
 10
31.7087063258
 20
104.9459994835
 30
0.0
 10
31.9641016163
 20
104.4752796253
 30
0.0
 10
32.0635165401
 20
104.0913637157
 30
0.0
 10
32.0800100985
 20
103.8998747912
 30
0.0
 10
32.0800101008
 20
103.805219005
 30
0.0
  0
SPLINE
  5
339
100
AcDbEntity
  8
0
100
AcDbSpline
 62
7
  6
BYLAYER
 70
0
 71
3
 72
11
 73
7
 74
0
 42
0.0000001
 43
0.0000001
 44
0.0000000001
 40
0.0
 40
0.0
 40
0.0
 40
0.0
 40
0.2182135003
 40
0.45352565
 40
0.7132050776
 40
1.0
 40
1.0
 40
1.0
 40
1.0
 10
84.3214623249
 20
115.4676597228
 30
0.0
 10
84.3454979553
 20
115.6400903118
 30
0.0
 10
84.4522158935
 20
115.9921755943
 30
0.0
 10
84.7615080191
 20
116.476397735
 30
0.0
 10
85.2087758018
 20
116.9171262429
 30
0.0
 10
85.5716251284
 20
117.1629544846
 30
0.0
 10
85.7697843239
 20
117.2773610665
 30
0.0
  0
SPLINE
  5
33A
100
AcDbEntity
  8
0
100
AcDbSpline
 62
7
  6
BYLAYER
 70
0
 71
3
 72
11
 73
7
 74
0
 42
0.0000001
 43
0.0000001
 44
0.0000000001
 40
0.0
 40
0.0
 40
0.0
 40
0.0
 40
0.2870713523
 40
0.5468946093
 40
0.7819183653
 40
1.0
 40
1.0
 40
1.0
 40
1.0
 10
34.5400524384
 20
95.8649212025
 30
0.0
 10
34.6263447786
 20
95.8151014237
 30
0.0
 10
34.7842142704
 20
95.7078646293
 30
0.0
 10
34.9781846228
 20
95.5153549603
 30
0.0
 10
35.1110068771
 20
95.3035699851
 30
0.0
 10
35.1551898515
 20
95.1497878812
 30
0.0
 10
35.1644050566
 20
95.0746556991
 30
0.0
  0
SPLINE
  5
33B
100
AcDbEntity
  8
0
100
AcDbSpline
 62
7
  6
BYLAYER
 70
0
 71
3
 72
17
 73
13
 74
0
 42
0.0000001
 43
0.0000001
 44
0.0000000001
 40
0.0
 40
0.0
 40
0.0
 40
0.0
 40
0.0428584554
 40
0.0874839031
 40
0.1353177481
 40
0.1872794187
 40
0.3045395902
 40
0.4382053041
 40
0.582547581
 40
0.729712444
 40
0.8713059798
 40
1.0
 40
1.0
 40
1.0
 40
1.0
 10
30.8697865171
 20
94.9871962758
 30
0.0
 10
30.8697818894
 20
95.0483991201
 30
0.0
 10
30.8861873309
 20
95.1738547399
 30
0.0
 10
30.9580999996
 20
95.3550220255
 30
0.0
 10
31.0748760914
 20
95.5267598284
 30
0.0
 10
31.2946646279
 20
95.7473580072
 30
0.0
 10
31.6691962333
 20
95.9753389078
 30
0.0
 10
32.2077034545
 20
96.1552220311
 30
0.0
 10
32.8120466364
 20
96.240163744
 30
0.0
 10
33.43322531
 20
96.2229702059
 30
0.0
 10
34.0205411677
 20
96.1054933347
 30
0.0
 10
34.3808951442
 20
95.9568086304
 30
0.0
 10
34.5400524384
 20
95.8649212025
 30
0.0
  0
SPLINE
  5
33C
100
AcDbEntity
  8
0
100
AcDbSpline
 62
7
  6
BYLAYER
 70
0
 71
3
 72
9
 73
5
 74
0
 42
0.0000001
 43
0.0000001
 44
0.0000000001
 40
0.0
 40
0.0
 40
0.0
 40
0.0
 40
0.2623216714
 40
1.0
 40
1.0
 40
1.0
 40
1.0
 10
76.1530838188
 20
123.9725141998
 30
0.0
 10
76.0834772354
 20
123.93232706
 30
0.0
 10
75.8221895267
 20
123.7723692908
 30
0.0
 10
75.5773573746
 20
123.5842796272
 30
0.0
 10
75.4136403322
 20
123.428449747
 30
0.0
  0
SPLINE
  5
33D
100
AcDbEntity
  8
0
100
AcDbSpline
 62
7
  6
BYLAYER
 70
0
 71
3
 72
9
 73
5
 74
0
 42
0.0000001
 43
0.0000001
 44
0.0000000001
 40
0.0
 40
0.0
 40
0.0
 40
0.0
 40
0.2752348769
 40
1.0
 40
1.0
 40
1.0
 40
1.0
 10
81.5624576131
 20
123.0131574349
 30
0.0
 10
81.6312086911
 20
122.9734648795
 30
0.0
 10
81.8734494582
 20
122.817920791
 30
0.0
 10
82.0873761611
 20
122.6087275392
 30
0.0
 10
82.1944080209
 20
122.4291611569
 30
0.0
  0
SPLINE
  5
33E
100
AcDbEntity
  8
0
100
AcDbSpline
 62
7
  6
BYLAYER
 70
0
 71
3
 72
14
 73
10
 74
0
 42
0.0000001
 43
0.0000001
 44
0.0000000001
 40
0.0
 40
0.0
 40
0.0
 40
0.0
 40
0.2892778996
 40
0.4225507622
 40
0.5484967608
 40
0.6678927042
 40
0.7818706332
 40
0.8919536426
 40
1.0
 40
1.0
 40
1.0
 40
1.0
 10
36.4598939081
 20
68.0162080752
 30
0.0
 10
36.4598939081
 20
67.5465942665
 30
0.0
 10
36.4050729994
 20
66.857251088
 30
0.0
 10
36.1931405587
 20
65.9908455357
 30
0.0
 10
35.9775452885
 20
65.4135049817
 30
0.0
 10
35.7027182324
 20
64.8968963975
 30
0.0
 10
35.3708687276
 20
64.4461036544
 30
0.0
 10
34.9849436427
 20
64.0663404494
 30
0.0
 10
34.6928999471
 20
63.8625308162
 30
0.0
 10
34.5409885571
 20
63.7748441005
 30
0.0
  0
SPLINE
  5
33F
100
AcDbEntity
  8
0
100
AcDbSpline
 62
7
  6
BYLAYER
 70
0
 71
3
 72
13
 73
9
 74
0
 42
0.0000001
 43
0.0000001
 44
0.0000000001
 40
0.0
 40
0.0
 40
0.0
 40
0.0
 40
0.3042081034
 40
0.5709914227
 40
0.6895128105
 40
0.7989565901
 40
0.9013956382
 40
1.0
 40
1.0
 40
1.0
 40
1.0
 10
25.273328973
 20
94.8197503939
 30
0.0
 10
25.0550281275
 20
94.8772140978
 30
0.0
 10
24.6534256176
 20
95.0210012094
 30
0.0
 10
24.2162397901
 20
95.2996749776
 30
0.0
 10
23.9608137673
 20
95.5657076816
 30
0.0
 10
23.8252164687
 20
95.7719556454
 30
0.0
 10
23.7419081552
 20
95.9888062183
 30
0.0
 10
23.7229169864
 20
96.1385842833
 30
0.0
 10
23.7229269839
 20
96.2117535501
 30
0.0
  0
SPLINE
  5
340
100
AcDbEntity
  8
0
100
AcDbSpline
 62
7
  6
BYLAYER
 70
0
 71
3
 72
15
 73
11
 74
0
 42
0.0000001
 43
0.0000001
 44
0.0000000001
 40
0.0
 40
0.0
 40
0.0
 40
0.0
 40
0.1547451724
 40
0.3060178775
 40
0.4499453443
 40
0.5834595843
 40
0.7044851858
 40
0.8125849076
 40
0.9095843631
 40
1.0
 40
1.0
 40
1.0
 40
1.0
 10
47.68523078
 20
81.8580082515
 30
0.0
 10
47.4431043405
 20
81.8542143691
 30
0.0
 10
46.96339121
 20
81.874146132
 30
0.0
 10
46.2664351536
 20
81.9849931737
 30
0.0
 10
45.620299511
 20
82.1726810311
 30
0.0
 10
45.0496844123
 20
82.4300489382
 30
0.0
 10
44.5759538523
 20
82.7483166104
 30
0.0
 10
44.2170702131
 20
83.1177390146
 30
0.0
 10
43.9894756531
 20
83.5277303145
 30
0.0
 10
43.9362591318
 20
83.8230425929
 30
0.0
 10
43.93621639
 20
83.9645313527
 30
0.0
  0
SPLINE
  5
341
100
AcDbEntity
  8
0
100
AcDbSpline
 62
7
  6
BYLAYER
 70
0
 71
3
 72
11
 73
7
 74
0
 42
0.0000001
 43
0.0000001
 44
0.0000000001
 40
0.0
 40
0.0
 40
0.0
 40
0.0
 40
0.2279493188
 40
0.4774394897
 40
0.7386347594
 40
1.0
 40
1.0
 40
1.0
 40
1.0
 10
91.8862775585
 20
107.3773421776
 30
0.0
 10
91.713902471
 20
107.2778219685
 30
0.0
 10
91.3279533888
 20
107.1115916614
 30
0.0
 10
90.6974953224
 20
106.9637941194
 30
0.0
 10
90.0228540013
 20
106.9123361621
 30
0.0
 10
89.5656889958
 20
106.945125946
 30
0.0
 10
89.3400426409
 20
106.9792999555
 30
0.0
  0
SPLINE
  5
342
100
AcDbEntity
  8
0
100
AcDbSpline
 62
7
  6
BYLAYER
 70
0
 71
3
 72
9
 73
5
 74
0
 42
0.0000001
 43
0.0000001
 44
0.0000000001
 40
0.0
 40
0.0
 40
0.0
 40
0.0
 40
0.4832254251
 40
1.0
 40
1.0
 40
1.0
 40
1.0
 10
93.5479854126
 20
79.1467956723
 30
0.0
 10
93.3474141748
 20
79.0309965054
 30
0.0
 10
92.9145158263
 20
78.821616915
 30
0.0
 10
92.4599894585
 20
78.6661314829
 30
0.0
 10
92.2217560656
 20
78.5983848174
 30
0.0
  0
SPLINE
  5
343
100
AcDbEntity
  8
0
100
AcDbSpline
 62
7
  6
BYLAYER
 70
0
 71
3
 72
9
 73
5
 74
0
 42
0.0000001
 43
0.0000001
 44
0.0000000001
 40
0.0
 40
0.0
 40
0.0
 40
0.0
 40
0.2333042493
 40
1.0
 40
1.0
 40
1.0
 40
1.0
 10
94.4975256803
 20
79.9120933742
 30
0.0
 10
94.4357834765
 20
79.8397486128
 30
0.0
 10
94.1549471247
 20
79.5434824269
 30
0.0
 10
93.8186657563
 20
79.3030721088
 30
0.0
 10
93.5479854126
 20
79.1467956723
 30
0.0
  0
SPLINE
  5
344
100
AcDbEntity
  8
0
100
AcDbSpline
 62
7
  6
BYLAYER
 70
0
 71
3
 72
11
 73
7
 74
0
 42
0.0000001
 43
0.0000001
 44
0.0000000001
 40
0.0
 40
0.0
 40
0.0
 40
0.0
 40
0.2177827477
 40
0.4509152641
 40
0.7103063952
 40
1.0
 40
1.0
 40
1.0
 40
1.0
 10
92.6624246025
 20
108.4591802073
 30
0.0
 10
92.6624108115
 20
108.3582465869
 30
0.0
 10
92.6251328792
 20
108.1478665603
 30
0.0
 10
92.4656355337
 20
107.8547382386
 30
0.0
 10
92.2135079165
 20
107.5897721335
 30
0.0
 10
92.002551547
 20
107.4444725954
 30
0.0
 10
91.8862775585
 20
107.3773421776
 30
0.0
  0
SPLINE
  5
345
100
AcDbEntity
  8
0
100
AcDbSpline
 62
7
  6
BYLAYER
 70
0
 71
3
 72
23
 73
19
 74
0
 42
0.0000001
 43
0.0000001
 44
0.0000000001
 40
0.0
 40
0.0
 40
0.0
 40
0.0
 40
0.0428149309
 40
0.0873977071
 40
0.1351814356
 40
0.1870909559
 40
0.2435372638
 40
0.3044943818
 40
0.3695923411
 40
0.4382002202
 40
0.5094973669
 40
0.5825328851
 40
0.656275794
 40
0.7296630028
 40
0.8016520926
 40
0.8712512746
 40
0.937612716
 40
1.0
 40
1.0
 40
1.0
 40
1.0
 10
25.2760560521
 20
79.8222732311
 30
0.0
 10
25.5044899415
 20
79.9541304769
 30
0.0
 10
26.0079811479
 20
80.1634644854
 30
0.0
 10
26.8391668091
 20
80.2852446523
 30
0.0
 10
27.7317027042
 20
80.2195235109
 30
0.0
 10
28.6657954068
 20
79.971336054
 30
0.0
 10
29.6231023499
 20
79.548258311
 30
0.0
 10
30.5845721212
 20
78.9600485757
 30
0.0
 10
31.5306615291
 20
78.2193570705
 30
0.0
 10
32.4417343221
 20
77.3418980173
 30
0.0
 10
33.2986285698
 20
76.346280874
 30
0.0
 10
34.0831631649
 20
75.2536651333
 30
0.0
 10
34.7786188022
 20
74.0873380852
 30
0.0
 10
35.3701637185
 20
72.872156413
 30
0.0
 10
35.8451204421
 20
71.634070503
 30
0.0
 10
36.1935678266
 20
70.3992663751
 30
0.0
 10
36.4077774971
 20
69.1942121602
 30
0.0
 10
36.4598939081
 20
68.4005402663
 30
0.0
 10
36.4598939081
 20
68.0162080752
 30
0.0
  0
SPLINE
  5
346
100
AcDbEntity
  8
0
100
AcDbSpline
 62
7
  6
BYLAYER
 70
0
 71
3
 72
15
 73
11
 74
0
 42
0.0000001
 43
0.0000001
 44
0.0000000001
 40
0.0
 40
0.0
 40
0.0
 40
0.0
 40
0.1547451724
 40
0.3060178775
 40
0.4499453443
 40
0.5834595843
 40
0.7044851858
 40
0.8125849076
 40
0.9095843631
 40
1.0
 40
1.0
 40
1.0
 40
1.0
 10
47.487182328
 20
86.0710536381
 30
0.0
 10
47.7293087675
 20
86.0748475204
 30
0.0
 10
48.209021898
 20
86.0549157575
 30
0.0
 10
48.9059779544
 20
85.9440687158
 30
0.0
 10
49.552113597
 20
85.7563808584
 30
0.0
 10
50.1227286957
 20
85.4990129513
 30
0.0
 10
50.5964592557
 20
85.1807452792
 30
0.0
 10
50.9553428949
 20
84.8113228749
 30
0.0
 10
51.1829374548
 20
84.4013315751
 30
0.0
 10
51.2361539762
 20
84.1060192967
 30
0.0
 10
51.236196718
 20
83.9645305369
 30
0.0
  0
SPLINE
  5
347
100
AcDbEntity
  8
0
100
AcDbSpline
 62
7
  6
BYLAYER
 70
0
 71
3
 72
16
 73
12
 74
0
 42
0.0000001
 43
0.0000001
 44
0.0000000001
 40
0.0
 40
0.0
 40
0.0
 40
0.0
 40
0.149167512
 40
0.2992654196
 40
0.4450586118
 40
0.5817910933
 40
0.705811593
 40
0.8153709298
 40
0.9116266999
 40
0.9563728298
 40
1.0
 40
1.0
 40
1.0
 40
1.0
 10
89.3034634464
 20
109.9333641316
 30
0.0
 10
89.5021922388
 20
109.9652132407
 30
0.0
 10
89.9058277554
 20
110.0011579531
 30
0.0
 10
90.5074220784
 20
109.9756861896
 30
0.0
 10
91.0839678761
 20
109.8729272515
 30
0.0
 10
91.6062535269
 20
109.6980609944
 30
0.0
 10
92.0485139303
 20
109.4590391797
 30
0.0
 10
92.3892220241
 20
109.1663151665
 30
0.0
 10
92.5771126632
 20
108.8771545222
 30
0.0
 10
92.6502846688
 20
108.6376050971
 30
0.0
 10
92.6624326454
 20
108.5180443071
 30
0.0
 10
92.6624246025
 20
108.4591802073
 30
0.0
  0
SPLINE
  5
348
100
AcDbEntity
  8
0
100
AcDbSpline
 62
7
  6
BYLAYER
 70
0
 71
3
 72
9
 73
5
 74
0
 42
0.0000001
 43
0.0000001
 44
0.0000000001
 40
0.0
 40
0.0
 40
0.0
 40
0.0
 40
0.2408924498
 40
1.0
 40
1.0
 40
1.0
 40
1.0
 10
24.4990740279
 20
97.2935915799
 30
0.0
 10
24.5320983981
 20
97.3126580951
 30
0.0
 10
24.6710176798
 20
97.3886260211
 30
0.0
 10
24.8164902737
 20
97.4523813214
 30
0.0
 10
24.9289898669
 20
97.4946167041
 30
0.0
  0
SPLINE
  5
349
100
AcDbEntity
  8
0
100
AcDbSpline
 62
7
  6
BYLAYER
 70
0
 71
3
 72
11
 73
7
 74
0
 42
0.0000001
 43
0.0000001
 44
0.0000000001
 40
0.0
 40
0.0
 40
0.0
 40
0.0
 40
0.2177827477
 40
0.4509152641
 40
0.7103063952
 40
1.0
 40
1.0
 40
1.0
 40
1.0
 10
23.7229269839
 20
96.2117535501
 30
0.0
 10
23.7229407749
 20
96.3126871705
 30
0.0
 10
23.7602187072
 20
96.5230671971
 30
0.0
 10
23.9197160527
 20
96.8161955188
 30
0.0
 10
24.1718436699
 20
97.0811616239
 30
0.0
 10
24.3828000394
 20
97.226461162
 30
0.0
 10
24.4990740279
 20
97.2935915799
 30
0.0
  0
SPLINE
  5
34A
100
AcDbEntity
  8
0
100
AcDbSpline
 62
7
  6
BYLAYER
 70
0
 71
3
 72
15
 73
11
 74
0
 42
0.0000001
 43
0.0000001
 44
0.0000000001
 40
0.0
 40
0.0
 40
0.0
 40
0.0
 40
0.1141454573
 40
0.2373331986
 40
0.3669745393
 40
0.4999995019
 40
0.6330245328
 40
0.7626660781
 40
0.8858541324
 40
1.0
 40
1.0
 40
1.0
 40
1.0
 10
44.7577617655
 20
89.7616387815
 30
0.0
 10
44.9997769921
 20
89.9013655037
 30
0.0
 10
45.5290583804
 20
90.1477918918
 30
0.0
 10
46.390894905
 20
90.409805183
 30
0.0
 10
47.3240240635
 20
90.5709858541
 30
0.0
 10
48.2932898707
 20
90.6254302614
 30
0.0
 10
49.262556435
 20
90.57099043
 30
0.0
 10
50.1956877946
 20
90.4098141496
 30
0.0
 10
51.0575279299
 20
90.1478049854
 30
0.0
 10
51.5868124732
 20
89.9013812574
 30
0.0
 10
51.8288295773
 20
89.7616557782
 30
0.0
  0
SPLINE
  5
34B
100
AcDbEntity
  8
0
100
AcDbSpline
 62
7
  6
BYLAYER
 70
0
 71
3
 72
23
 73
19
 74
0
 42
0.0000001
 43
0.0000001
 44
0.0000000001
 40
0.0
 40
0.0
 40
0.0
 40
0.0
 40
0.0428149309
 40
0.0873977071
 40
0.1351814356
 40
0.1870909559
 40
0.2435372638
 40
0.3044943818
 40
0.3695923411
 40
0.4382002202
 40
0.5094973669
 40
0.5825328851
 40
0.656275794
 40
0.7296630028
 40
0.8016520926
 40
0.8712512746
 40
0.937612716
 40
1.0
 40
1.0
 40
1.0
 40
1.0
 10
34.5409885571
 20
63.7748441005
 30
0.0
 10
34.3125546678
 20
63.6429868547
 30
0.0
 10
33.8090634614
 20
63.4336528462
 30
0.0
 10
32.9778778002
 20
63.3118726794
 30
0.0
 10
32.0853419051
 20
63.3775938207
 30
0.0
 10
31.1512492025
 20
63.6257812776
 30
0.0
 10
30.1939422594
 20
64.0488590206
 30
0.0
 10
29.2324724881
 20
64.637068756
 30
0.0
 10
28.2863830802
 20
65.3777602611
 30
0.0
 10
27.3753102872
 20
66.2552193143
 30
0.0
 10
26.5184160395
 20
67.2508364576
 30
0.0
 10
25.7338814444
 20
68.3434521984
 30
0.0
 10
25.0384258071
 20
69.5097792464
 30
0.0
 10
24.4468808907
 20
70.7249609186
 30
0.0
 10
23.9719241672
 20
71.9630468286
 30
0.0
 10
23.6234767827
 20
73.1978509565
 30
0.0
 10
23.4092671122
 20
74.4029051715
 30
0.0
 10
23.3571507012
 20
75.1965770653
 30
0.0
 10
23.3571507012
 20
75.5809092564
 30
0.0
  0
SPLINE
  5
34C
100
AcDbEntity
  8
0
100
AcDbSpline
 62
7
  6
BYLAYER
 70
0
 71
3
 72
14
 73
10
 74
0
 42
0.0000001
 43
0.0000001
 44
0.0000000001
 40
0.0
 40
0.0
 40
0.0
 40
0.0
 40
0.2892778996
 40
0.4225507622
 40
0.5484967608
 40
0.6678927042
 40
0.7818706332
 40
0.8919536426
 40
1.0
 40
1.0
 40
1.0
 40
1.0
 10
23.3571507012
 20
75.5809092564
 30
0.0
 10
23.3571507012
 20
76.0505230651
 30
0.0
 10
23.4119716099
 20
76.7398662436
 30
0.0
 10
23.6239040506
 20
77.6062717959
 30
0.0
 10
23.8394993208
 20
78.1836123499
 30
0.0
 10
24.1143263769
 20
78.7002209341
 30
0.0
 10
24.4461758817
 20
79.1510136772
 30
0.0
 10
24.8321009666
 20
79.5307768822
 30
0.0
 10
25.1241446621
 20
79.7345865155
 30
0.0
 10
25.2760560521
 20
79.8222732311
 30
0.0
  0
SPLINE
  5
34D
100
AcDbEntity
  8
0
100
AcDbSpline
 62
7
  6
BYLAYER
 70
0
 71
3
 72
15
 73
11
 74
0
 42
0.0000001
 43
0.0000001
 44
0.0000000001
 40
0.0
 40
0.0
 40
0.0
 40
0.0
 40
0.114145882
 40
0.237333957
 40
0.3669755095
 40
0.5000005446
 40
0.633025503
 40
0.7626668365
 40
0.8858545571
 40
1.0
 40
1.0
 40
1.0
 40
1.0
 10
51.8288295773
 20
86.413995868
 30
0.0
 10
51.5868124427
 20
86.5537213648
 30
0.0
 10
51.0575278119
 20
86.8001451095
 30
0.0
 10
50.1956875768
 20
87.0621543037
 30
0.0
 10
49.2625561292
 20
87.2233305442
 30
0.0
 10
48.2932895471
 20
87.2777703512
 30
0.0
 10
47.3240237576
 20
87.2233259194
 30
0.0
 10
46.3908946872
 20
87.0621452084
 30
0.0
 10
45.5290582624
 20
86.8001319473
 30
0.0
 10
44.9997769615
 20
86.5537055758
 30
0.0
 10
44.7577617655
 20
86.4139788713
 30
0.0
  0
ENDSEC
  0
SECTION
  2
OBJECTS
  0
DICTIONARY
  5
C
100
AcDbDictionary
280
0
281
1
  3
ACAD_GROUP
350
D
  3
ACAD_MLINESTYLE
350
17
  3
ACAD_LAYOUT
350
1A
  3
ACAD_PLOTSETTINGS
350
19
  3
ACAD_PLOTSTYLENAME
350
E
  0
DICTIONARY
  5
D
102
{ACAD_REACTORS
330
C
102
}
100
AcDbDictionary
280
0
281
1
  0
ACDBDICTIONARYWDFLT
  5
E
102
{ACAD_REACTORS
330
C
102
}
100
AcDbDictionary
281
1
  3
Normal
350
F
100
AcDbDictionaryWithDefault
340
F
  0
DICTIONARY
  5
17
102
{ACAD_REACTORS
330
C
102
}
100
AcDbDictionary
280
0
281
1
  3
Standard
350
18
  0
DICTIONARY
  5
19
102
{ACAD_REACTORS
330
C
102
}
100
AcDbDictionary
281
1
  0
DICTIONARY
  5
1A
102
{ACAD_REACTORS
330
C
102
}
100
AcDbDictionary
281
1
  3
Model
350
34E
  3
Layout1
350
34F
  0
ACDBPLACEHOLDER
  5
F
102
{ACAD_REACTORS
330
E
102
}
  0
MLINESTYLE
  5
18
102
{ACAD_REACTORS
330
17
102
}
100
AcDbMlineStyle
  2
STANDARD
 70
0
  3

 62
256
 51
90.0
 52
90.0
 71
2
 49
0.5
 62
256
  6
BYLAYER
 49
-0.5
 62
256
  6
BYLAYER
  0
LAYOUT
  5
34E
102
{ACAD_REACTORS
330
1A
102
}
100
AcDbPlotSettings
  1

  2
none_device
  4

  6

 40
0.0
 41
0.0
 42
0.0
 43
0.0
 44
210.0
 45
297.0
 46
0.0
 47
0.0
 48
0.0
 49
0.0
140
0.0
141
0.0
142
1.0
143
1.0
 70
1024
 72
1
 73
0
 74
0
  7

 75
0
147
1.0
148
0.0
149
0.0
100
AcDbLayout
  1
Model
 70
0
 71
0
 10
0.0
 20
0.0
 11
210.0
 21
297.0
 12
0.0
 22
0.0
 32
0.0
 14
0.0
 24
0.0
 34
0.0
 15
0.0
 25
0.0
 35
0.0
146
0.0
 13
0.0
 23
0.0
 33
0.0
 16
1.0
 26
0.0
 36
0.0
 17
0.0
 27
1.0
 37
0.0
 76
0
330
210
345
0
346
0
  0
LAYOUT
  5
34F
102
{ACAD_REACTORS
330
1A
102
}
100
AcDbPlotSettings
  1

  2
none_device
  4

  6

 40
0.0
 41
0.0
 42
0.0
 43
0.0
 44
210.0
 45
297.0
 46
0.0
 47
0.0
 48
0.0
 49
0.0
140
0.0
141
0.0
142
1.0
143
1.0
 70
0
 72
1
 73
0
 74
0
  7

 75
0
147
1.0
148
0.0
149
0.0
100
AcDbLayout
  1
Layout1
 70
0
 71
1
 10
0.0
 20
0.0
 11
210.0
 21
297.0
 12
0.0
 22
0.0
 32
0.0
 14
0.0
 24
0.0
 34
0.0
 15
0.0
 25
0.0
 35
0.0
146
0.0
 13
0.0
 23
0.0
 33
0.0
 16
1.0
 26
0.0
 36
0.0
 17
0.0
 27
1.0
 37
0.0
 76
0
330
211
345
0
346
0
  0
ENDSEC
  0
EOF
