999
DXF file: C:\Users\sesa63760\Dev\_Creo\CAD\MCADID0004800_3D-CAD\drw0001_1.dxf
999
Pro/ENGINEER 2019471 by Parametric Technology Corporation
  0
SECTION
  2
HEADER
  9
$ACADVER
  1
AC1024
  9
$DWGCODEPAGE
  3
ANSI_1252
  9
$EXTMAX
 10
35.5073649617
 20
50.2175590173
 30
0.0
  9
$EXTMIN
 10
0.0
 20
0.0
 30
0.0
  9
$LIMMIN
 10
0.0
 20
0.0
  9
$LIMMAX
 10
35.5073649617
 20
50.2175590173
  9
$VIEWCTR
 10
17.7536824809
 20
25.1087795086
  9
$VIEWSIZE
 40
50.2175590173
  9
$CLAYER
  8
0
  9
$LTSCALE
 40
3.2734408841
  9
$CELTYPE
  6
BYLAYER
  9
$DIMSCALE
 40
1.0
  9
$DIMASZ
 40
0.4227067257
  9
$DIMEXO
 40
1.0
  9
$DIMDLI
 40
2.2616500654
  9
$DIMEXE
 40
1.0
  9
$DIMCEN
 40
0.5356539629
  9
$DIMLFAC
 40
1.0
  9
$DIMBLK
  1
_FILLED
  9
$DIMALT
 70
0
  9
$DIMALTF
 40
0.0393700787
  9
$DIMTXT
 40
0.591789416
  9
$DIMTOL
 70
1
  9
$DIMLIM
 70
0
  9
$DIMTFAC
 40
1.0
  9
$DIMTP
 40
0.01
  9
$DIMTM
 40
0.01
  9
$DIMGAP
 40
0.625
  9
$DIMDSEP
 70
46
  9
$AUNITS
 70
0
  9
$PDMODE
 70
3
  9
$PDSIZE
 40
0.3125
  9
$HANDSEED
  5
2B6
  9
$TILEMODE
 70
1
  9
$MEASUREMENT
 70
1
  9
$INSUNITS
 70
4
  0
ENDSEC
  0
SECTION
  2
CLASSES
  0
CLASS
  1
ACDBDICTIONARYWDFLT
  2
AcDbDictionaryWithDefault
  3
AutoCAD 2000
 90
0
 91
1
280
0
281
0
  0
CLASS
  1
ACDBPLACEHOLDER
  2
AcDbPlaceHolder
  3
AutoCAD 2000
 90
0
 91
1
280
0
281
0
  0
CLASS
  1
LAYOUT
  2
AcDbLayout
  3
AutoCAD 2000
 90
0
 91
0
280
0
281
0
  0
ENDSEC
  0
SECTION
  2
TABLES
  0
TABLE
  2
VPORT
  5
8
100
AcDbSymbolTable
 70
2
  0
VPORT
  5
1F4
100
AcDbSymbolTableRecord
100
AcDbViewportTableRecord
  2
*ACTIVE
 70
0
 10
0.0
 20
0.0
 11
1.0
 21
1.0
 12
17.7536824809
 22
25.1087795086
 13
0.0
 23
0.0
 14
1.0
 24
1.0
 15
0.0
 25
0.0
 16
0.0
 26
0.0
 36
1.0
 17
0.0
 27
0.0
 37
0.0
 40
50.2175590173
 41
0.7070707071
 42
50.0
 43
0.0
 44
0.0
 50
0.0
 51
0.0
 71
0
 72
100
 73
1
 74
1
 75
0
 76
0
 77
0
 78
0
  0
ENDTAB
  0
TABLE
  2
LTYPE
  5
5
100
AcDbSymbolTable
 70
6
  0
LTYPE
  5
14
100
AcDbSymbolTableRecord
100
AcDbLinetypeTableRecord
  2
BYBLOCK
 70
0
  3

 72
65
 73
0
 40
0.0
  0
LTYPE
  5
15
100
AcDbSymbolTableRecord
100
AcDbLinetypeTableRecord
  2
BYLAYER
 70
0
  3

 72
65
 73
0
 40
0.0
  0
LTYPE
  5
16
100
AcDbSymbolTableRecord
100
AcDbLinetypeTableRecord
  2
CONTINUOUS
 70
64
  3
Solid line
 72
65
 73
0
 40
0.0
  0
LTYPE
  5
1F5
100
AcDbSymbolTableRecord
100
AcDbLinetypeTableRecord
  2
CENTER
 70
64
  3
____ _ ____ _ ____ _ ____ _ ____ _ ____ _ ____
 72
65
 73
4
 40
0.6
 49
0.375
 74
0
 49
-0.075
 74
0
 49
0.075
 74
0
 49
-0.075
 74
0
  0
LTYPE
  5
1F6
100
AcDbSymbolTableRecord
100
AcDbLinetypeTableRecord
  2
HIDDEN
 70
64
  3
- - - - - - - - - - - - - - - - - - - -
 72
65
 73
2
 40
0.2
 49
0.1
 74
0
 49
-0.1
 74
0
  0
LTYPE
  5
1F7
100
AcDbSymbolTableRecord
100
AcDbLinetypeTableRecord
  2
PHANTOM
 70
64
  3
_____ _ _ _____ _ _ _____ _ _ _____
 72
65
 73
6
 40
0.8
 49
0.45
 74
0
 49
-0.05
 74
0
 49
0.1
 74
0
 49
-0.05
 74
0
 49
0.1
 74
0
 49
-0.05
 74
0
  0
LTYPE
  5
1F8
100
AcDbSymbolTableRecord
100
AcDbLinetypeTableRecord
  2
DOT
 70
64
  3
. . . . . . . . . . . . . . . . . . . .
 72
65
 73
2
 40
0.2
 49
0.1
 74
0
 49
-0.1
 74
0
  0
LTYPE
  5
1F9
100
AcDbSymbolTableRecord
100
AcDbLinetypeTableRecord
  2
DASHED
 70
64
  3
- - - - - - - - - - - - - - - - - - - -
 72
65
 73
2
 40
0.2
 49
0.1
 74
0
 49
-0.1
 74
0
  0
ENDTAB
  0
TABLE
  2
LAYER
  5
2
100
AcDbSymbolTable
 70
36
  0
LAYER
  5
10
100
AcDbSymbolTableRecord
100
AcDbLayerTableRecord
  2
0
 70
0
 62
7
  6
CONTINUOUS
370
-3
390
F
  0
LAYER
  5
1FA
100
AcDbSymbolTableRecord
100
AcDbLayerTableRecord
  2
DEFAULT_1
 70
0
 62
7
  6
CENTER
370
-3
390
F
  0
LAYER
  5
1FB
100
AcDbSymbolTableRecord
100
AcDbLayerTableRecord
  2
DEFAULT_2
 70
0
 62
7
  6
HIDDEN
370
-3
390
F
  0
LAYER
  5
1FC
100
AcDbSymbolTableRecord
100
AcDbLayerTableRecord
  2
DEFAULT_3
 70
0
 62
7
  6
PHANTOM
370
-3
390
F
  0
LAYER
  5
1FD
100
AcDbSymbolTableRecord
100
AcDbLayerTableRecord
  2
00_COMPONENTS
 70
0
 62
7
  6
CONTINUOUS
370
-3
390
F
  0
LAYER
  5
1FE
100
AcDbSymbolTableRecord
100
AcDbLayerTableRecord
  2
01_1_DEFAULT_DATUMS
 70
0
 62
7
  6
CONTINUOUS
370
-3
390
F
  0
LAYER
  5
1FF
100
AcDbSymbolTableRecord
100
AcDbLayerTableRecord
  2
01_PLANES
 70
0
 62
7
  6
CONTINUOUS
370
-3
390
F
  0
LAYER
  5
200
100
AcDbSymbolTableRecord
100
AcDbLayerTableRecord
  2
02_COORD_SYS
 70
0
 62
7
  6
CONTINUOUS
370
-3
390
F
  0
LAYER
  5
201
100
AcDbSymbolTableRecord
100
AcDbLayerTableRecord
  2
03_AXES
 70
0
 62
7
  6
CONTINUOUS
370
-3
390
F
  0
LAYER
  5
202
100
AcDbSymbolTableRecord
100
AcDbLayerTableRecord
  2
04_POINTS
 70
0
 62
7
  6
CONTINUOUS
370
-3
390
F
  0
LAYER
  5
203
100
AcDbSymbolTableRecord
100
AcDbLayerTableRecord
  2
05_CURVES
 70
0
 62
7
  6
CONTINUOUS
370
-3
390
F
  0
LAYER
  5
204
100
AcDbSymbolTableRecord
100
AcDbLayerTableRecord
  2
06_SURFS
 70
0
 62
7
  6
CONTINUOUS
370
-3
390
F
  0
LAYER
  5
205
100
AcDbSymbolTableRecord
100
AcDbLayerTableRecord
  2
07_COSMETICS
 70
0
 62
7
  6
CONTINUOUS
370
-3
390
F
  0
LAYER
  5
206
100
AcDbSymbolTableRecord
100
AcDbLayerTableRecord
  2
10_NOTES
 70
0
 62
7
  6
CONTINUOUS
370
-3
390
F
  0
LAYER
  5
207
100
AcDbSymbolTableRecord
100
AcDbLayerTableRecord
  2
11_NOTES_PUB
 70
0
 62
7
  6
CONTINUOUS
370
-3
390
F
  0
LAYER
  5
208
100
AcDbSymbolTableRecord
100
AcDbLayerTableRecord
  2
13_REF_GTOL
 70
0
 62
7
  6
CONTINUOUS
370
-3
390
F
  0
LAYER
  5
209
100
AcDbSymbolTableRecord
100
AcDbLayerTableRecord
  2
16_MISC
 70
0
 62
7
  6
CONTINUOUS
370
-3
390
F
  0
LAYER
  5
20A
100
AcDbSymbolTableRecord
100
AcDbLayerTableRecord
  2
17_NO_PRINT
 70
0
 62
7
  6
CONTINUOUS
370
-3
390
F
  0
LAYER
  5
20B
100
AcDbSymbolTableRecord
100
AcDbLayerTableRecord
  2
18_DATUM_CAMS_JOINTS
 70
0
 62
7
  6
CONTINUOUS
370
-3
390
F
  0
LAYER
  5
20C
100
AcDbSymbolTableRecord
100
AcDbLayerTableRecord
  2
19_DATUM_FUNCTIONAL
 70
0
 62
7
  6
CONTINUOUS
370
-3
390
F
  0
LAYER
  5
20D
100
AcDbSymbolTableRecord
100
AcDbLayerTableRecord
  2
20_DATUM_KINEMATIC_SCHEME
 70
0
 62
7
  6
CONTINUOUS
370
-3
390
F
  0
ENDTAB
  0
TABLE
  2
STYLE
  5
3
100
AcDbSymbolTable
 70
1
  0
STYLE
  5
11
100
AcDbSymbolTableRecord
100
AcDbTextStyleTableRecord
  2
STANDARD
 70
0
 40
0.0
 41
1.0
 50
0.0
 71
0
 42
0.2
  3
ARIAL.TTF
  4

  0
STYLE
  5
20E
100
AcDbSymbolTableRecord
100
AcDbTextStyleTableRecord
  2
TEXTSTYLE_1
 70
0
 40
0.0
 41
0.8
 50
0.0
 71
0
 42
0.2
  3
gdt
  4

  0
ENDTAB
  0
TABLE
  2
VIEW
  5
6
100
AcDbSymbolTable
 70
0
  0
ENDTAB
  0
TABLE
  2
UCS
  5
7
100
AcDbSymbolTable
 70
0
  0
ENDTAB
  0
TABLE
  2
APPID
  5
9
100
AcDbSymbolTable
 70
1
  0
APPID
  5
20F
100
AcDbSymbolTableRecord
100
AcDbRegAppTableRecord
  2
ACAD
 70
0
  0
ENDTAB
  0
TABLE
  2
BLOCK_RECORD
  5
1
100
AcDbSymbolTable
 70
0
  0
BLOCK_RECORD
  5
210
100
AcDbSymbolTableRecord
100
AcDbBlockTableRecord
  2
*Model_Space
  0
BLOCK_RECORD
  5
211
100
AcDbSymbolTableRecord
100
AcDbBlockTableRecord
  2
*Paper_Space
  0
BLOCK_RECORD
  5
212
100
AcDbSymbolTableRecord
100
AcDbBlockTableRecord
  2
_FILLED
  0
ENDTAB
  0
TABLE
  2
DIMSTYLE
  5
A
100
AcDbSymbolTable
 70
1
100
AcDbDimStyleTable
 71
0
  0
DIMSTYLE
105
213
100
AcDbSymbolTableRecord
100
AcDbDimStyleTableRecord
  2
STANDARD
 70
0
  3

  4

 40
1.0
 41
0.4227067257
 42
1.0
 43
0.38
 44
1.0
 45
0.0
 46
0.0
 47
0.01
 48
0.01
140
0.591789416
141
0.09
142
0.0
143
25.4
144
1.0
145
0.0
146
1.0
147
0.625
 71
1
 72
0
 73
0
 74
0
 75
0
 76
0
 77
1
 78
8
 79
2
170
0
171
1
172
0
173
0
174
0
175
0
176
0
177
0
178
0
270
2
179
2
271
2
272
2
273
2
274
2
275
0
280
0
281
0
282
0
283
1
284
8
285
0
286
0
287
3
288
0
340
11
278
46
341
212
342
212
343
212
344
212
  0
ENDTAB
  0
ENDSEC
  0
SECTION
  2
BLOCKS
  0
BLOCK
  5
20
100
AcDbEntity
  8
0
100
AcDbBlockBegin
  2
*Model_Space
 70
0
 10
0.0
 20
0.0
 30
0.0
  3
*Model_Space
  1

  0
ENDBLK
  5
21
100
AcDbEntity
  8
0
100
AcDbBlockEnd
  0
BLOCK
  5
1C
100
AcDbEntity
  8
0
100
AcDbBlockBegin
  2
*Paper_Space
 70
0
 10
0.0
 20
0.0
 30
0.0
  3
*Paper_Space
  1

  0
ENDBLK
  5
1D
100
AcDbEntity
  8
0
100
AcDbBlockEnd
  0
BLOCK
  5
214
100
AcDbEntity
  8
0
100
AcDbBlockBegin
  2
_FILLED
 70
64
 10
0.0
 20
0.0
  3
_FILLED
  1

  0
SOLID
  5
215
100
AcDbEntity
  8
0
  6
BYBLOCK
 62
0
100
AcDbTrace
 10
0.0
 20
0.0
 11
-1.0
 21
0.25
 12
-1.0
 22
-0.25
 13
-1.0
 23
-0.25
  0
ENDBLK
  5
216
100
AcDbEntity
  8
0
  6
BYBLOCK
 62
0
100
AcDbBlockEnd
  0
ENDSEC
  0
SECTION
  2
ENTITIES
  0
LINE
  5
217
100
AcDbEntity
  8
0
100
AcDbLine
 62
7
  6
BYLAYER
 10
6.2962714728
 20
41.9635536909
 11
6.1778782839
 21
41.6093170406
  0
LINE
  5
218
100
AcDbEntity
  8
0
100
AcDbLine
 62
7
  6
BYLAYER
 10
6.2963240788
 20
41.9635478433
 11
6.1803713805
 21
40.2982870621
  0
LINE
  5
219
100
AcDbEntity
  8
0
100
AcDbLine
 62
7
  6
BYLAYER
 10
6.1778782839
 20
41.6093170406
 11
6.0012818659
 21
40.5428046107
  0
LINE
  5
21A
100
AcDbEntity
  8
0
100
AcDbLine
 62
7
  6
BYLAYER
 10
6.0605269208
 20
31.0233220281
 11
6.0012638561
 21
31.642928263
  0
LINE
  5
21B
100
AcDbEntity
  8
0
100
AcDbLine
 62
7
  6
BYLAYER
 10
6.0012818659
 20
40.5428046107
 11
6.0012818659
 21
31.642928264
  0
LINE
  5
21C
100
AcDbEntity
  8
0
100
AcDbLine
 62
7
  6
BYLAYER
 10
6.2706846185
 20
32.20677732
 11
6.2706846184
 21
36.9424913397
  0
LINE
  5
21D
100
AcDbEntity
  8
0
100
AcDbLine
 62
7
  6
BYLAYER
 10
6.0012818659
 20
40.5428046107
 11
6.0605269208
 21
39.9231983748
  0
LINE
  5
21E
100
AcDbEntity
  8
0
100
AcDbLine
 62
7
  6
BYLAYER
 10
8.0534505541
 20
14.3054375433
 11
8.0534505541
 21
10.2229254576
  0
LWPOLYLINE
  5
21F
100
AcDbEntity
  8
0
100
AcDbPolyline
 62
7
  6
BYLAYER
 90
5
 70
0
 10
10.307038978
 20
13.0807402687
 10
10.0768686501
 20
13.9308685568
 10
10.2571789073
 20
15.404750284
 10
11.1505956422
 20
16.7916891817
 10
12.309056062
 20
17.6859525204
  0
LINE
  5
220
100
AcDbEntity
  8
0
100
AcDbLine
 62
7
  6
BYLAYER
 10
7.5017161177
 20
40.0153449432
 11
7.4512818659
 21
40.5428046107
  0
LINE
  5
221
100
AcDbEntity
  8
0
100
AcDbLine
 62
7
  6
BYLAYER
 10
13.084432007
 20
15.5460539998
 11
13.0878425362
 21
15.5379421235
  0
LINE
  5
222
100
AcDbEntity
  8
0
100
AcDbLine
 62
7
  6
BYLAYER
 10
13.2192368633
 20
15.4971875403
 11
6.2706846184
 21
32.2067773203
  0
LINE
  5
223
100
AcDbEntity
  8
0
100
AcDbLine
 62
7
  6
BYLAYER
 10
10.9514832791
 20
37.4332255079
 11
10.9512858934
 21
37.4400954256
  0
LINE
  5
224
100
AcDbEntity
  8
0
100
AcDbLine
 62
7
  6
BYLAYER
 10
10.9512818659
 20
38.3790732053
 11
10.9512963171
 21
37.4332252402
  0
LINE
  5
225
100
AcDbEntity
  8
0
100
AcDbLine
 62
7
  6
BYLAYER
 10
6.2706846184
 20
36.9424913397
 11
13.2192368633
 21
20.2329015596
  0
LINE
  5
226
100
AcDbEntity
  8
0
100
AcDbLine
 62
7
  6
BYLAYER
 10
13.084432007
 20
15.5460539998
 11
13.0859032593
 21
15.5378251971
  0
LINE
  5
227
100
AcDbEntity
  8
0
100
AcDbLine
 62
7
  6
BYLAYER
 10
13.0899090494
 20
15.5163211115
 11
13.0534651712
 21
15.8976172587
  0
LINE
  5
228
100
AcDbEntity
  8
0
100
AcDbLine
 62
7
  6
BYLAYER
 10
13.0535421422
 20
21.4498337129
 11
13.0899090494
 21
21.068537548
  0
LINE
  5
229
100
AcDbEntity
  8
0
100
AcDbLine
 62
7
  6
BYLAYER
 10
13.0899090494
 20
20.6602863394
 11
13.0535686923
 21
21.0415825131
  0
LINE
  5
22A
100
AcDbEntity
  8
0
100
AcDbLine
 62
7
  6
BYLAYER
 10
12.4730012973
 20
31.4445153616
 11
12.4730012969
 21
32.3834931413
  0
LINE
  5
22B
100
AcDbEntity
  8
0
100
AcDbLine
 62
7
  6
BYLAYER
 10
13.0534505541
 20
21.4498336932
 11
13.0534505541
 21
21.0415824846
  0
LINE
  5
22C
100
AcDbEntity
  8
0
100
AcDbLine
 62
7
  6
BYLAYER
 10
13.0534505541
 20
15.8958635696
 11
13.0534505541
 21
14.672863631
  0
LINE
  5
22D
100
AcDbEntity
  8
0
100
AcDbLine
 62
7
  6
BYLAYER
 10
13.2192368633
 20
20.2329015596
 11
13.2192368633
 21
15.4971875403
  0
LINE
  5
22E
100
AcDbEntity
  8
0
100
AcDbLine
 62
7
  6
BYLAYER
 10
13.0899090494
 20
21.068537548
 11
13.0933239246
 21
21.061803997
  0
LINE
  5
22F
100
AcDbEntity
  8
0
100
AcDbLine
 62
7
  6
BYLAYER
 10
11.1795563086
 20
31.3205721422
 11
11.1381203483
 21
31.5227423783
  0
LINE
  5
230
100
AcDbEntity
  8
0
100
AcDbLine
 62
7
  6
BYLAYER
 10
13.0899090494
 20
21.068537548
 11
13.0912387923
 21
21.061668234
  0
LINE
  5
231
100
AcDbEntity
  8
0
100
AcDbLine
 62
7
  6
BYLAYER
 10
12.5210302175
 20
38.1725377933
 11
12.5013781358
 21
38.3790732356
  0
LWPOLYLINE
  5
232
100
AcDbEntity
  8
0
100
AcDbPolyline
 62
7
  6
BYLAYER
 90
3
 70
0
 10
7.8167636003
 20
28.4888308121
 10
6.8708962118
 20
29.3190835913
 10
6.0605269208
 20
31.0233220281
  0
LINE
  5
233
100
AcDbEntity
  8
0
100
AcDbLine
 62
7
  6
BYLAYER
 10
13.8266238305
 20
24.9550141307
 11
11.1795563086
 21
31.3205721422
  0
LINE
  5
234
100
AcDbEntity
  8
0
100
AcDbLine
 62
7
  6
BYLAYER
 10
16.0502449035
 20
41.6511562585
 11
16.0502449035
 21
42.5901340382
  0
LWPOLYLINE
  5
235
100
AcDbEntity
  8
0
100
AcDbPolyline
 62
7
  6
BYLAYER
 90
5
 70
0
 10
25.1005241357
 20
18.0876699645
 10
26.2574555541
 20
17.4199942836
 10
27.4850047752
 20
16.1228103779
 10
28.0300324581
 20
14.6800065297
 10
27.7998872484
 20
13.0807367486
  0
LINE
  5
236
100
AcDbEntity
  8
0
100
AcDbLine
 62
7
  6
BYLAYER
 10
13.2344358766
 20
13.9641046103
 11
13.1528896654
 21
13.7087357638
  0
LWPOLYLINE
  5
237
100
AcDbEntity
  8
0
100
AcDbPolyline
 62
7
  6
BYLAYER
 90
3
 70
0
 10
19.0998549267
 20
24.885789381
 10
17.3639806226
 20
24.77371991
 10
15.5022464738
 20
24.2419780501
  0
LINE
  5
238
100
AcDbEntity
  8
0
100
AcDbLine
 62
7
  6
BYLAYER
 10
21.3357479453
 20
24.6727375184
 11
21.1781957532
 21
24.6626639667
  0
LINE
  5
239
100
AcDbEntity
  8
0
100
AcDbLine
 62
7
  6
BYLAYER
 10
15.7628842473
 20
24.3164204803
 11
15.4502856876
 21
24.296433594
  0
LINE
  5
23A
100
AcDbEntity
  8
0
100
AcDbLine
 62
7
  6
BYLAYER
 10
14.1436797266
 20
40.9902690045
 11
13.8636130184
 21
42.4503254516
  0
LINE
  5
23B
100
AcDbEntity
  8
0
100
AcDbLine
 62
7
  6
BYLAYER
 10
17.6392311038
 20
24.5525219702
 11
17.2856762412
 21
24.3483911388
  0
LINE
  5
23C
100
AcDbEntity
  8
0
100
AcDbLine
 62
7
  6
BYLAYER
 10
20.4676944416
 20
24.5525078612
 11
20.8212554135
 21
24.3483735026
  0
LINE
  5
23D
100
AcDbEntity
  8
0
100
AcDbLine
 62
7
  6
BYLAYER
 10
16.0502449035
 20
41.6511562585
 11
16.1493182151
 21
41.1346627833
  0
LINE
  5
23E
100
AcDbEntity
  8
0
100
AcDbLine
 62
7
  6
BYLAYER
 10
16.0502449035
 20
42.5901340382
 11
16.3303116117
 21
41.130077591
  0
LINE
  5
23F
100
AcDbEntity
  8
0
100
AcDbLine
 62
7
  6
BYLAYER
 10
18.9815335143
 20
38.5856086173
 11
19.001185596
 21
38.379073175
  0
LINE
  5
240
100
AcDbEntity
  8
0
100
AcDbLine
 62
7
  6
BYLAYER
 10
20.5512818659
 20
38.3790732053
 11
20.5512818659
 21
38.0447750049
  0
LINE
  5
241
100
AcDbEntity
  8
0
100
AcDbLine
 62
7
  6
BYLAYER
 10
21.1759720822
 20
32.9399425614
 11
21.1759720818
 21
32.0009647817
  0
LINE
  5
242
100
AcDbEntity
  8
0
100
AcDbLine
 62
7
  6
BYLAYER
 10
24.882622686
 20
13.932295684
 11
24.9540114427
 21
13.7087357638
  0
LINE
  5
243
100
AcDbEntity
  8
0
100
AcDbLine
 62
7
  6
BYLAYER
 10
22.8029984174
 20
39.4689037422
 11
22.8029984174
 21
38.5299259625
  0
LINE
  5
244
100
AcDbEntity
  8
0
100
AcDbLine
 62
7
  6
BYLAYER
 10
22.8409858232
 20
32.0791915959
 11
22.8409110479
 21
32.0661743327
  0
LINE
  5
245
100
AcDbEntity
  8
0
100
AcDbLine
 62
7
  6
BYLAYER
 10
22.1901330734
 20
24.9305606397
 11
22.3409674097
 21
30.7232795903
  0
LINE
  5
246
100
AcDbEntity
  8
0
100
AcDbLine
 62
7
  6
BYLAYER
 10
22.8409110479
 20
32.0661743327
 11
22.6704700422
 21
25.5204708256
  0
LINE
  5
247
100
AcDbEntity
  8
0
100
AcDbLine
 62
7
  6
BYLAYER
 10
24.1206920738
 20
41.4453529655
 11
24.019261988
 21
39.9891472306
  0
LINE
  5
248
100
AcDbEntity
  8
0
100
AcDbLine
 62
7
  6
BYLAYER
 10
25.0533589659
 20
21.4498336734
 11
25.0169920588
 21
21.8311298383
  0
LINE
  5
249
100
AcDbEntity
  8
0
100
AcDbLine
 62
7
  6
BYLAYER
 10
12.528045887
 20
30.7493477704
 11
21.2309997771
 21
31.3057961102
  0
LINE
  5
24A
100
AcDbEntity
  8
0
100
AcDbLine
 62
7
  6
BYLAYER
 10
21.1759720818
 20
32.0009647817
 11
12.4730012973
 21
31.4445153616
  0
LINE
  5
24B
100
AcDbEntity
  8
0
100
AcDbLine
 62
7
  6
BYLAYER
 10
24.000847614
 20
41.0702642782
 11
24.0512818659
 21
40.5428046107
  0
LINE
  5
24C
100
AcDbEntity
  8
0
100
AcDbLine
 62
7
  6
BYLAYER
 10
25.0527726793
 20
16.2537986223
 11
25.0527726793
 21
20.9895126416
  0
LINE
  5
24D
100
AcDbEntity
  8
0
100
AcDbLine
 62
7
  6
BYLAYER
 10
25.0534505541
 20
21.4498336932
 11
25.0534505541
 21
21.0415824846
  0
LINE
  5
24E
100
AcDbEntity
  8
0
100
AcDbLine
 62
7
  6
BYLAYER
 10
25.0534505541
 20
16.279832073
 11
25.0534505541
 21
14.672863631
  0
LINE
  5
24F
100
AcDbEntity
  8
0
100
AcDbLine
 62
7
  6
BYLAYER
 10
25.5001803193
 20
38.1719843479
 11
25.5001803193
 21
33.4362703282
  0
LINE
  5
250
100
AcDbEntity
  8
0
100
AcDbLine
 62
7
  6
BYLAYER
 10
25.5012818659
 20
40.5428046107
 11
25.5012818659
 21
31.642928264
  0
LINE
  5
251
100
AcDbEntity
  8
0
100
AcDbLine
 62
7
  6
BYLAYER
 10
25.0534500063
 20
21.0415824846
 11
25.0527726793
 21
20.9895126416
  0
LINE
  5
252
100
AcDbEntity
  8
0
100
AcDbLine
 62
7
  6
BYLAYER
 10
25.0527726793
 20
20.9895126416
 11
25.5001803193
 21
38.1719843479
  0
LINE
  5
253
100
AcDbEntity
  8
0
100
AcDbLine
 62
7
  6
BYLAYER
 10
25.5001803193
 20
33.4362703286
 11
25.0527726793
 21
16.2537986223
  0
LINE
  5
254
100
AcDbEntity
  8
0
100
AcDbLine
 62
7
  6
BYLAYER
 10
12.4730012969
 20
32.3834931413
 11
21.1759720822
 21
32.9399425614
  0
LINE
  5
255
100
AcDbEntity
  8
0
100
AcDbLine
 62
7
  6
BYLAYER
 10
25.5012818659
 20
40.5428046107
 11
25.442036811
 21
41.1624108466
  0
LWPOLYLINE
  5
256
100
AcDbEntity
  8
0
100
AcDbPolyline
 62
7
  6
BYLAYER
 90
5
 70
0
 10
27.3933128543
 20
12.4727171344
 10
27.531801778
 20
13.43068366
 10
27.0183896416
 20
14.7942985421
 10
25.8598594135
 20
16.0201837893
 10
25.0587402715
 20
16.4829810849
  0
LWPOLYLINE
  5
257
100
AcDbEntity
  8
0
100
AcDbPolyline
 62
7
  6
BYLAYER
 90
11
 70
0
 10
23.7874718005
 20
39.5372951658
 10
23.7383791458
 20
39.6824184342
 10
22.5715887024
 20
41.1099299908
 10
20.6632822073
 20
42.2417531362
 10
18.2126108912
 20
42.9554596685
 10
15.5039588561
 20
43.1688793084
 10
14.1445161361
 20
43.0803593685
 10
11.5955071367
 20
42.5270825792
 10
9.4921548556
 20
41.5261563766
 10
8.0651665399
 20
40.1876919954
 10
7.7717722187
 20
39.4353620933
  0
LWPOLYLINE
  5
258
100
AcDbEntity
  8
0
100
AcDbPolyline
 62
7
  6
BYLAYER
 90
6
 70
0
 10
30.0533856408
 20
14.3054375507
 10
29.893668206
 20
15.3839397017
 10
28.9879441052
 20
17.0321631622
 10
27.3424785398
 20
18.4803789424
 10
26.280237002
 20
19.0933208172
 10
25.1379669851
 20
19.5256442906
  0
LINE
  5
259
100
AcDbEntity
  8
0
100
AcDbLine
 62
7
  6
BYLAYER
 10
30.0534505541
 20
14.3054375433
 11
30.0534505541
 21
10.2229254576
  0
LINE
  5
25A
100
AcDbEntity
  8
0
100
AcDbLine
 62
7
  6
BYLAYER
 10
22.590881614
 20
38.1774238527
 11
20.5162293528
 21
38.0447750049
  0
LINE
  5
25B
100
AcDbEntity
  8
0
100
AcDbLine
 62
7
  6
BYLAYER
 10
11.2284934161
 20
37.4509369462
 11
10.1118655306
 21
37.3795421369
  0
LINE
  5
25C
100
AcDbEntity
  8
0
100
AcDbLine
 62
7
  6
BYLAYER
 10
9.5960709652
 20
37.6855031438
 11
10.9512818659
 21
37.772152443
  0
LINE
  5
25D
100
AcDbEntity
  8
0
100
AcDbLine
 62
7
  6
BYLAYER
 10
20.5508395752
 20
38.3859277219
 11
22.8029984174
 21
38.5299259625
  0
LINE
  5
25E
100
AcDbEntity
  8
0
100
AcDbLine
 62
7
  6
BYLAYER
 10
25.206292259
 20
41.9635536909
 11
25.3246854479
 21
41.6093170406
  0
LINE
  5
25F
100
AcDbEntity
  8
0
100
AcDbLine
 62
7
  6
BYLAYER
 10
8.4574062773
 20
38.551677128
 11
10.9863343789
 21
38.7133714058
  0
LINE
  5
260
100
AcDbEntity
  8
0
100
AcDbLine
 62
7
  6
BYLAYER
 10
20.2740703157
 20
39.3072094644
 11
22.8029984174
 21
39.4689037422
  0
ARC
  5
261
100
AcDbEntity
  8
0
100
AcDbCircle
 62
7
  6
BYLAYER
 10
15.7490037832
 20
29.1721170056
 40
12.4826746688
100
AcDbArc
 50
88.6171617037
 51
97.8786164331
  0
ARC
  5
262
100
AcDbEntity
  8
0
100
AcDbCircle
 62
7
  6
BYLAYER
 10
16.7164435383
 20
9.3599854049
 40
10.8925042342
100
AcDbArc
 50
117.2341291916
 51
119.9693186876
  0
ARC
  5
263
100
AcDbEntity
  8
0
100
AcDbCircle
 62
7
  6
BYLAYER
 10
18.2119884526
 20
17.8501344527
 40
6.9425043151
100
AcDbArc
 50
112.9739074812
 51
113.1178637639
  0
ARC
  5
264
100
AcDbEntity
  8
0
100
AcDbCircle
 62
7
  6
BYLAYER
 10
17.6641331417
 20
18.390541626
 40
5.7068874905
100
AcDbArc
 50
240.0016013663
 51
240.8753992117
  0
ARC
  5
265
100
AcDbEntity
  8
0
100
AcDbCircle
 62
7
  6
BYLAYER
 10
21.927334028
 20
40.4736510412
 40
3.5821069553
100
AcDbArc
 50
17.132487943
 51
18.4838582535
  0
ARC
  5
266
100
AcDbEntity
  8
0
100
AcDbCircle
 62
7
  6
BYLAYER
 10
21.9473895519
 20
40.8712431075
 40
3.4370569003
100
AcDbArc
 50
12.2995773677
 51
18.5301083302
  0
ARC
  5
267
100
AcDbEntity
  8
0
100
AcDbCircle
 62
7
  6
BYLAYER
 10
22.0696212386
 20
40.5146053573
 40
3.4340702884
100
AcDbArc
 50
10.8734687544
 51
17.1788420131
  0
ARC
  5
268
100
AcDbEntity
  8
0
100
AcDbCircle
 62
7
  6
BYLAYER
 10
22.048525949
 20
40.8941364569
 40
3.3333651599
100
AcDbArc
 50
10.8599827298
 51
12.2854228408
  0
ARC
  5
269
100
AcDbEntity
  8
0
100
AcDbCircle
 62
7
  6
BYLAYER
 10
22.2450324207
 20
31.6426677491
 40
3.256221295
100
AcDbArc
 50
354.3982659528
 51
0.0045839593
  0
ARC
  5
26A
100
AcDbEntity
  8
0
100
AcDbCircle
 62
7
  6
BYLAYER
 10
10.4373043063
 20
40.9765618256
 40
3.1147034638
100
AcDbArc
 50
198.098185682
 51
198.4827255481
  0
ARC
  5
26B
100
AcDbEntity
  8
0
100
AcDbCircle
 62
7
  6
BYLAYER
 10
10.3395111593
 20
40.9458207
 40
3.0121991822
100
AcDbArc
 50
190.9216791411
 51
198.1202285754
  0
ARC
  5
26C
100
AcDbEntity
  8
0
100
AcDbCircle
 62
7
  6
BYLAYER
 10
10.367103008
 20
40.5661476869
 40
2.917852606
100
AcDbArc
 50
191.2830685541
 51
194.8245812473
  0
ARC
  5
26D
100
AcDbEntity
  8
0
100
AcDbCircle
 62
7
  6
BYLAYER
 10
21.1438321945
 20
40.5639252918
 40
2.909210348
100
AcDbArc
 50
345.0883985323
 51
348.7502566078
  0
ARC
  5
26E
100
AcDbEntity
  8
0
100
AcDbCircle
 62
7
  6
BYLAYER
 10
20.1915181338
 20
37.3185397395
 40
2.8787646401
100
AcDbArc
 50
22.5003528014
 51
24.8851503878
  0
ARC
  5
26F
100
AcDbEntity
  8
0
100
AcDbCircle
 62
7
  6
BYLAYER
 10
10.3100854089
 20
40.5540497423
 40
2.8595700614
100
AcDbArc
 50
190.8586453764
 51
191.2688773768
  0
ARC
  5
270
100
AcDbEntity
  8
0
100
AcDbCircle
 62
7
  6
BYLAYER
 10
21.2564217993
 20
40.5436424392
 40
2.794827891
100
AcDbArc
 50
348.7077893764
 51
359.9828239555
  0
ARC
  5
271
100
AcDbEntity
  8
0
100
AcDbCircle
 62
7
  6
BYLAYER
 10
20.5627390139
 20
38.3738269073
 40
2.4888045957
100
AcDbArc
 50
5.205438649
 51
10.8656559854
  0
ARC
  5
272
100
AcDbEntity
  8
0
100
AcDbCircle
 62
7
  6
BYLAYER
 10
15.1555297465
 20
15.9131758683
 40
2.1034027891
100
AcDbArc
 50
192.5837550665
 51
193.1430325907
  0
ARC
  5
273
100
AcDbEntity
  8
0
100
AcDbCircle
 62
7
  6
BYLAYER
 10
15.1342389029
 20
15.9085291098
 40
2.0816110113
100
AcDbArc
 50
190.8013606302
 51
192.5866018275
  0
ARC
  5
274
100
AcDbEntity
  8
0
100
AcDbCircle
 62
7
  6
BYLAYER
 10
15.1325298075
 20
15.9082385523
 40
2.0798795258
100
AcDbArc
 50
190.8613360121
 51
192.8025426017
  0
ARC
  5
275
100
AcDbEntity
  8
0
100
AcDbCircle
 62
7
  6
BYLAYER
 10
15.1189963392
 20
15.905590914
 40
2.0660878718
100
AcDbArc
 50
190.2533455794
 51
190.8005394431
  0
ARC
  5
276
100
AcDbEntity
  8
0
100
AcDbCircle
 62
7
  6
BYLAYER
 10
15.0724206717
 20
15.8983692201
 40
2.0189663062
100
AcDbArc
 50
180.0873674652
 51
190.0497239153
  0
ARC
  5
277
100
AcDbEntity
  8
0
100
AcDbCircle
 62
7
  6
BYLAYER
 10
12.5718429711
 20
38.3781361769
 40
1.6205616787
100
AcDbArc
 50
168.0613855642
 51
179.9668708838
  0
ARC
  5
278
100
AcDbEntity
  8
0
100
AcDbCircle
 62
7
  6
BYLAYER
 10
18.9307207607
 20
38.3800102337
 40
1.6205616787
100
AcDbArc
 50
348.0613855642
 51
359.9668708838
  0
ARC
  5
279
100
AcDbEntity
  8
0
100
AcDbCircle
 62
7
  6
BYLAYER
 10
18.9385214943
 20
38.3787767491
 40
1.6127607015
100
AcDbArc
 50
0.0105320589
 51
10.91330243
  0
ARC
  5
27A
100
AcDbEntity
  8
0
100
AcDbCircle
 62
7
  6
BYLAYER
 10
12.5640422375
 20
38.3793696615
 40
1.6127607015
100
AcDbArc
 50
180.0105320589
 51
190.91330243
  0
SPLINE
  5
27B
100
AcDbEntity
  8
0
100
AcDbSpline
 62
7
  6
BYLAYER
 70
0
 71
3
 72
19
 73
15
 74
0
 42
0.0000001
 43
0.0000001
 44
0.0000000001
 40
0.0
 40
0.0
 40
0.0
 40
0.0
 40
0.1485411013
 40
0.2894121387
 40
0.4225834189
 40
0.4864264175
 40
0.5485236249
 40
0.6678419851
 40
0.7254219018
 40
0.7818233185
 40
0.8372506407
 40
0.8919271109
 40
0.9460926461
 40
1.0
 40
1.0
 40
1.0
 40
1.0
 10
14.8108275308
 20
12.2233987077
 30
0.0
 10
14.6755002342
 20
12.3015281913
 30
0.0
 10
14.4179448588
 20
12.4647720077
 30
0.0
 10
14.0658676525
 20
12.7372803447
 30
0.0
 10
13.8085015831
 20
12.9836260734
 30
0.0
 10
13.6291004299
 20
13.1890616904
 30
0.0
 10
13.4717086071
 20
13.3936458325
 30
0.0
 10
13.3380194366
 20
13.6077117278
 30
0.0
 10
13.2316676322
 20
13.8291077051
 30
0.0
 10
13.1668797615
 20
13.9953280946
 30
0.0
 10
13.116305706
 20
14.1632216456
 30
0.0
 10
13.0800712609
 20
14.3323923217
 30
0.0
 10
13.0583063392
 20
14.5024059639
 30
0.0
 10
13.053457023
 20
14.6161544122
 30
0.0
 10
13.0534551324
 20
14.6728636347
 30
0.0
  0
SPLINE
  5
27C
100
AcDbEntity
  8
0
100
AcDbSpline
 62
7
  6
BYLAYER
 70
0
 71
3
 72
37
 73
33
 74
0
 42
0.0000001
 43
0.0000001
 44
0.0000000001
 40
0.0
 40
0.0
 40
0.0
 40
0.0
 40
0.0106533582
 40
0.0213355332
 40
0.032074912
 40
0.0428990602
 40
0.0648969344
 40
0.0875338846
 40
0.1109755979
 40
0.1353541643
 40
0.160769014
 40
0.1872856229
 40
0.2149406159
 40
0.2437417789
 40
0.2736738589
 40
0.3046990544
 40
0.3367617469
 40
0.369789611
 40
0.4036966613
 40
0.4383850868
 40
0.5096480629
 40
0.5826482624
 40
0.6563555629
 40
0.7297087342
 40
0.7659323469
 40
0.80167938
 40
0.8368298171
 40
0.8712696464
 40
0.9048922783
 40
0.9376084992
 40
0.9693400039
 40
1.0
 40
1.0
 40
1.0
 40
1.0
 10
25.0534459758
 20
14.6728636272
 30
0.0
 10
25.0534473934
 20
14.6303414802
 30
0.0
 10
25.0507309795
 20
14.545156893
 30
0.0
 10
25.0384982657
 20
14.4176364782
 30
0.0
 10
25.0181360597
 20
14.2904611795
 30
0.0
 10
24.9800059208
 20
14.1207250788
 30
0.0
 10
24.9115698027
 20
13.9095962337
 30
0.0
 10
24.7980449639
 20
13.6621070939
 30
0.0
 10
24.6533329971
 20
13.4203611408
 30
0.0
 10
24.4783460981
 20
13.1856377046
 30
0.0
 10
24.2740449111
 20
12.9591838619
 30
0.0
 10
24.0416045656
 20
12.7421394934
 30
0.0
 10
23.7822633539
 20
12.5356675742
 30
0.0
 10
23.4974501716
 20
12.340811778
 30
0.0
 10
23.1886805307
 20
12.1586238794
 30
0.0
 10
22.857626423
 20
11.9900445554
 30
0.0
 10
22.50606016
 20
11.8359817167
 30
0.0
 10
22.1358759932
 20
11.6972538096
 30
0.0
 10
21.7490592457
 20
11.5745939433
 30
0.0
 10
21.209121213
 20
11.4321158616
 30
0.0
 10
20.5062410526
 20
11.2990931448
 30
0.0
 10
19.6394533841
 20
11.2128961425
 30
0.0
 10
18.760155152
 20
11.2005188695
 30
0.0
 10
18.0294320495
 20
11.2521681795
 30
0.0
 10
17.4545817601
 20
11.3308283547
 30
0.0
 10
17.0338168122
 20
11.4076371777
 30
0.0
 10
16.6239597816
 20
11.5020820268
 30
0.0
 10
16.2272154369
 20
11.6136414234
 30
0.0
 10
15.8457192869
 20
11.741728352
 30
0.0
 10
15.4814916645
 20
11.8856590878
 30
0.0
 10
15.1365701144
 20
12.0446727997
 30
0.0
 10
14.9168099522
 20
12.1622111125
 30
0.0
 10
14.8108275308
 20
12.2233987077
 30
0.0
  0
SPLINE
  5
27D
100
AcDbEntity
  8
0
100
AcDbSpline
 62
7
  6
BYLAYER
 70
0
 71
3
 72
36
 73
32
 74
0
 42
0.0000001
 43
0.0000001
 44
0.0000000001
 40
0.0
 40
0.0
 40
0.0
 40
0.0
 40
0.030914332
 40
0.0628712576
 40
0.0957874696
 40
0.1295854796
 40
0.1641731058
 40
0.1994434782
 40
0.2715550024
 40
0.3449646714
 40
0.4186387532
 40
0.4915327446
 40
0.5626361079
 40
0.5972311068
 40
0.6310393918
 40
0.6639656022
 40
0.6959265297
 40
0.726852151
 40
0.756689332
 40
0.7854022842
 40
0.812977702
 40
0.839424845
 40
0.8647814151
 40
0.8891134371
 40
0.9125201606
 40
0.9351328315
 40
0.9571153945
 40
0.9679344437
 40
0.9786699854
 40
0.9893491821
 40
1.0
 40
1.0
 40
1.0
 40
1.0
 10
14.8865310631
 20
13.4052140017
 30
0.0
 10
14.9935341414
 20
13.3455891323
 30
0.0
 10
15.2150266845
 20
13.2311767598
 30
0.0
 10
15.5619203398
 20
13.0767061451
 30
0.0
 10
15.9273820942
 20
12.9372715845
 30
0.0
 10
16.3094261424
 20
12.8136048983
 30
0.0
 10
16.7060625023
 20
12.7063335784
 30
0.0
 10
17.2555473718
 20
12.5850746345
 30
0.0
 10
17.9649858629
 20
12.4786045125
 30
0.0
 10
18.8327814342
 20
12.423666172
 30
0.0
 10
19.7052719
 20
12.44176105
 30
0.0
 10
20.564004345
 20
12.5325041858
 30
0.0
 10
21.2595865397
 20
12.6683237755
 30
0.0
 10
21.7934437505
 20
12.8124066021
 30
0.0
 10
22.175661564
 20
12.9359188182
 30
0.0
 10
22.5412815058
 20
13.075191942
 30
0.0
 10
22.8883756772
 20
13.2294893874
 30
0.0
 10
23.2150976127
 20
13.3980144601
 30
0.0
 10
23.5197284245
 20
13.5798638155
 30
0.0
 10
23.8006388758
 20
13.7741201342
 30
0.0
 10
24.0563599673
 20
13.9797448889
 30
0.0
 10
24.2855004144
 20
14.1957177472
 30
0.0
 10
24.4868590034
 20
14.4208965484
 30
0.0
 10
24.6592935323
 20
14.6541642764
 30
0.0
 10
24.8018702188
 20
14.8942998435
 30
0.0
 10
24.9137052679
 20
15.1400487994
 30
0.0
 10
24.9811084834
 20
15.3496184277
 30
0.0
 10
25.0186654615
 20
15.5180849087
 30
0.0
 10
25.0387227169
 20
15.6443101292
 30
0.0
 10
25.0507717578
 20
15.770872658
 30
0.0
 10
25.0534472163
 20
15.8554147746
 30
0.0
 10
25.0534458252
 20
15.8976172537
 30
0.0
  0
SPLINE
  5
27E
100
AcDbEntity
  8
0
100
AcDbSpline
 62
7
  6
BYLAYER
 70
0
 71
3
 72
11
 73
7
 74
0
 42
0.0000001
 43
0.0000001
 44
0.0000000001
 40
0.0
 40
0.0
 40
0.0
 40
0.0
 40
0.2385000066
 40
0.4835035529
 40
0.7368392637
 40
1.0
 40
1.0
 40
1.0
 40
1.0
 10
13.107224618
 20
15.4348983405
 30
0.0
 10
13.1268794815
 20
15.350721618
 30
0.0
 10
13.1772910463
 20
15.182374221
 30
0.0
 10
13.2833848637
 20
14.9367030908
 30
0.0
 10
13.420092757
 20
14.6963654473
 30
0.0
 10
13.528930966
 20
14.543631991
 30
0.0
 10
13.58779843
 20
14.4685870143
 30
0.0
  0
SPLINE
  5
27F
100
AcDbEntity
  8
0
100
AcDbSpline
 62
7
  6
BYLAYER
 70
0
 71
3
 72
9
 73
5
 74
0
 42
0.0000001
 43
0.0000001
 44
0.0000000001
 40
0.0
 40
0.0
 40
0.0
 40
0.0
 40
0.2446828832
 40
1.0
 40
1.0
 40
1.0
 40
1.0
 10
13.58779843
 20
14.4685870143
 30
0.0
 10
13.608778847
 20
14.4418409174
 30
0.0
 10
13.6963148719
 20
14.3339429716
 30
0.0
 10
13.7907650148
 20
14.2316980783
 30
0.0
 10
13.8651892085
 20
14.1577237237
 30
0.0
  0
SPLINE
  5
280
100
AcDbEntity
  8
0
100
AcDbSpline
 62
7
  6
BYLAYER
 70
0
 71
3
 72
10
 73
6
 74
0
 42
0.0000001
 43
0.0000001
 44
0.0000000001
 40
0.0
 40
0.0
 40
0.0
 40
0.0
 40
0.4819867582
 40
0.7366181737
 40
1.0
 40
1.0
 40
1.0
 40
1.0
 10
13.8651892085
 20
14.1577237237
 30
0.0
 10
14.0002173398
 20
14.0235117374
 30
0.0
 10
14.2226598669
 20
13.8340627391
 30
0.0
 10
14.5462893344
 20
13.6074119649
 30
0.0
 10
14.7207304842
 20
13.5001687108
 30
0.0
 10
14.8108275308
 20
13.4481523334
 30
0.0
  0
SPLINE
  5
281
100
AcDbEntity
  8
0
100
AcDbSpline
 62
7
  6
BYLAYER
 70
0
 71
3
 72
21
 73
17
 74
0
 42
0.0000001
 43
0.0000001
 44
0.0000000001
 40
0.0
 40
0.0
 40
0.0
 40
0.0
 40
0.0558441669
 40
0.1141891406
 40
0.1747991478
 40
0.2373745
 40
0.3015765987
 40
0.3670267504
 40
0.4999947258
 40
0.6329612923
 40
0.6984142814
 40
0.7626164659
 40
0.8251870694
 40
0.8858071488
 40
0.9441819325
 40
1.0
 40
1.0
 40
1.0
 40
1.0
 10
20.4676917208
 20
24.5525062908
 30
0.0
 10
20.4203102008
 20
24.5798628002
 30
0.0
 10
20.3209564199
 20
24.6316053921
 30
0.0
 10
20.1632968573
 20
24.6988478291
 30
0.0
 10
19.9950174882
 20
24.7568414676
 30
0.0
 10
19.8177528073
 20
24.8050859723
 30
0.0
 10
19.6331696826
 20
24.8430747224
 30
0.0
 10
19.3783813745
 20
24.8798082196
 30
0.0
 10
19.0534806894
 20
24.8980349432
 30
0.0
 10
18.7285764201
 20
24.8798160862
 30
0.0
 10
18.4737867088
 20
24.8430819817
 30
0.0
 10
18.2892042516
 20
24.8050998596
 30
0.0
 10
18.1119312474
 20
24.7568656149
 30
0.0
 10
17.9436193674
 20
24.6988589852
 30
0.0
 10
17.7859529989
 20
24.631598944
 30
0.0
 10
17.6865908861
 20
24.57986499
 30
0.0
 10
17.6392311038
 20
24.5525219702
 30
0.0
  0
SPLINE
  5
282
100
AcDbEntity
  8
0
100
AcDbSpline
 62
7
  6
BYLAYER
 70
0
 71
3
 72
15
 73
11
 74
0
 42
0.0000001
 43
0.0000001
 44
0.0000000001
 40
0.0
 40
0.0
 40
0.0
 40
0.0
 40
0.1080129835
 40
0.2180617883
 40
0.3319990706
 40
0.45135779
 40
0.5772760379
 40
0.7105004945
 40
0.8513923655
 40
1.0
 40
1.0
 40
1.0
 40
1.0
 10
21.5534458848
 20
23.3277892524
 30
0.0
 10
21.5534416801
 20
23.3751163098
 30
0.0
 10
21.5452307591
 20
23.4708549685
 30
0.0
 10
21.5085398244
 20
23.6122617741
 30
0.0
 10
21.4479970972
 20
23.7506283512
 30
0.0
 10
21.3643335344
 20
23.884536081
 30
0.0
 10
21.258531513
 20
24.0128009726
 30
0.0
 10
21.1316374877
 20
24.1342404721
 30
0.0
 10
20.9849530127
 20
24.2478120066
 30
0.0
 10
20.877640008
 20
24.3158126562
 30
0.0
 10
20.8212499944
 20
24.3483703741
 30
0.0
  0
SPLINE
  5
283
100
AcDbEntity
  8
0
100
AcDbSpline
 62
7
  6
BYLAYER
 70
0
 71
3
 72
15
 73
11
 74
0
 42
0.0000001
 43
0.0000001
 44
0.0000000001
 40
0.0
 40
0.0
 40
0.0
 40
0.0
 40
0.1485422169
 40
0.2895065925
 40
0.4227365852
 40
0.5486414656
 40
0.6679983291
 40
0.7819398679
 40
0.8919885884
 40
1.0
 40
1.0
 40
1.0
 40
1.0
 10
17.2856762412
 20
24.3483911388
 30
0.0
 10
17.2293091973
 20
24.3158478051
 30
0.0
 10
17.1220090082
 20
24.2478178979
 30
0.0
 10
16.9752822788
 20
24.134284221
 30
0.0
 10
16.8483809825
 20
24.0128041439
 30
0.0
 10
16.7425659304
 20
23.8845501208
 30
0.0
 10
16.6589219659
 20
23.7506320606
 30
0.0
 10
16.5983532758
 20
23.612271466
 30
0.0
 10
16.5616777708
 20
23.4708560757
 30
0.0
 10
16.5534510187
 20
23.3751167695
 30
0.0
 10
16.5534552234
 20
23.3277892527
 30
0.0
  0
SPLINE
  5
284
100
AcDbEntity
  8
0
100
AcDbSpline
 62
7
  6
BYLAYER
 70
0
 71
3
 72
25
 73
21
 74
0
 42
0.0000001
 43
0.0000001
 44
0.0000000001
 40
0.0
 40
0.0
 40
0.0
 40
0.0
 40
0.0213319025
 40
0.0428919457
 40
0.0648973843
 40
0.0875416961
 40
0.1353167895
 40
0.1872174294
 40
0.2436545993
 40
0.304602289
 40
0.3696905114
 40
0.4382882868
 40
0.5095749344
 40
0.5825994469
 40
0.6563313808
 40
0.7297086177
 40
0.8016865587
 40
0.8712739706
 40
0.9376235182
 40
1.0
 40
1.0
 40
1.0
 40
1.0
 10
16.5534552234
 20
23.3277892527
 30
0.0
 10
16.5534583742
 20
23.2923238639
 30
0.0
 10
16.5580373974
 20
23.220932427
 30
0.0
 10
16.5785340141
 20
23.1147303218
 30
0.0
 10
16.6125777031
 20
23.0097634682
 30
0.0
 10
16.6767490219
 20
22.8698157139
 30
0.0
 10
16.7919460308
 20
22.7003281709
 30
0.0
 10
16.9759443986
 20
22.5155886986
 30
0.0
 10
17.203974592
 20
22.3489496722
 30
0.0
 10
17.4711473428
 20
22.2036369778
 30
0.0
 10
17.7718813498
 20
22.0824842393
 30
0.0
 10
18.0998510857
 20
21.9879682199
 30
0.0
 10
18.448122716
 20
21.9220539138
 30
0.0
 10
18.8092982934
 20
21.8861351773
 30
0.0
 10
19.1756820433
 20
21.8809777438
 30
0.0
 10
19.5394622737
 20
21.9066942163
 30
0.0
 10
19.8928628192
 20
21.9627440532
 30
0.0
 10
20.2284230426
 20
22.0479139782
 30
0.0
 10
20.5389191217
 20
22.1604363517
 30
0.0
 10
20.7314143302
 20
22.2553355382
 30
0.0
 10
20.821224867
 20
22.3071873662
 30
0.0
  0
SPLINE
  5
285
100
AcDbEntity
  8
0
100
AcDbSpline
 62
7
  6
BYLAYER
 70
0
 71
3
 72
15
 73
11
 74
0
 42
0.0000001
 43
0.0000001
 44
0.0000000001
 40
0.0
 40
0.0
 40
0.0
 40
0.0
 40
0.1485422169
 40
0.2895065925
 40
0.4227365852
 40
0.5486414656
 40
0.6679983291
 40
0.7819398679
 40
0.8919885884
 40
1.0
 40
1.0
 40
1.0
 40
1.0
 10
20.821224867
 20
22.3071873662
 30
0.0
 10
20.8775919109
 20
22.3397307
 30
0.0
 10
20.9848921
 20
22.4077606072
 30
0.0
 10
21.1316188293
 20
22.5212942841
 30
0.0
 10
21.2585201257
 20
22.6427743612
 30
0.0
 10
21.3643351777
 20
22.7710283843
 30
0.0
 10
21.4479791422
 20
22.9049464445
 30
0.0
 10
21.5085478324
 20
23.0433070391
 30
0.0
 10
21.5452233374
 20
23.1847224294
 30
0.0
 10
21.5534500895
 20
23.2804617356
 30
0.0
 10
21.5534458848
 20
23.3277892524
 30
0.0
  0
SPLINE
  5
286
100
AcDbEntity
  8
0
100
AcDbSpline
 62
7
  6
BYLAYER
 70
0
 71
3
 72
9
 73
5
 74
0
 42
0.0000001
 43
0.0000001
 44
0.0000000001
 40
0.0
 40
0.0
 40
0.0
 40
0.0
 40
0.5189786533
 40
1.0
 40
1.0
 40
1.0
 40
1.0
 10
17.6392311038
 20
24.5525219702
 30
0.0
 10
17.5765893545
 20
24.5163559552
 30
0.0
 10
17.4597348684
 20
24.4396651911
 30
0.0
 10
17.3542970329
 20
24.3475928645
 30
0.0
 10
17.3076653256
 20
24.2994252012
 30
0.0
  0
SPLINE
  5
287
100
AcDbEntity
  8
0
100
AcDbSpline
 62
7
  6
BYLAYER
 70
0
 71
3
 72
32
 73
28
 74
0
 42
0.0000001
 43
0.0000001
 44
0.0000000001
 40
0.0
 40
0.0
 40
0.0
 40
0.0
 40
0.026471221
 40
0.0516532346
 40
0.0757239504
 40
0.0989169872
 40
0.1215268073
 40
0.1438910319
 40
0.166366249
 40
0.1892985553
 40
0.2130021311
 40
0.237735874
 40
0.2637007469
 40
0.291030255
 40
0.3198019822
 40
0.3500370656
 40
0.3817115516
 40
0.4147614479
 40
0.4845303755
 40
0.5582909063
 40
0.6346426199
 40
0.712004811
 40
0.7887341669
 40
0.8632240683
 40
0.9340307125
 40
0.9676987009
 40
1.0
 40
1.0
 40
1.0
 40
1.0
 10
17.3076653256
 20
24.2994252012
 30
0.0
 10
17.2792874286
 20
24.2701125924
 30
0.0
 10
17.2267744442
 20
24.2100258911
 30
0.0
 10
17.1605527771
 20
24.113583399
 30
0.0
 10
17.1094623919
 20
24.0139231799
 30
0.0
 10
17.0740340337
 20
23.9118268548
 30
0.0
 10
17.0546547833
 20
23.8081528606
 30
0.0
 10
17.0515247172
 20
23.70382094
 30
0.0
 10
17.0647197775
 20
23.5997862412
 30
0.0
 10
17.0940266019
 20
23.4969745088
 30
0.0
 10
17.139190681
 20
23.3962909072
 30
0.0
 10
17.199685603
 20
23.2985131806
 30
0.0
 10
17.2750223985
 20
23.2044348492
 30
0.0
 10
17.3645013627
 20
23.1147199732
 30
0.0
 10
17.4674309162
 20
23.0300819485
 30
0.0
 10
17.5829567519
 20
22.9511299319
 30
0.0
 10
17.7101808161
 20
22.8784834526
 30
0.0
 10
17.8974169858
 20
22.7891796041
 30
0.0
 10
18.1546091197
 20
22.6977183765
 30
0.0
 10
18.4857443875
 20
22.6224945668
 30
0.0
 10
18.8346731827
 20
22.5821530294
 30
0.0
 10
19.1904371049
 20
22.5779531906
 30
0.0
 10
19.5419256005
 20
22.6100409175
 30
0.0
 10
19.8781033896
 20
22.6773870799
 30
0.0
 10
20.1412648092
 20
22.762608827
 30
0.0
 10
20.3344541096
 20
22.8473095205
 30
0.0
 10
20.424555476
 20
22.8946669161
 30
0.0
 10
20.4676700044
 20
22.9195589521
 30
0.0
  0
SPLINE
  5
288
100
AcDbEntity
  8
0
100
AcDbSpline
 62
7
  6
BYLAYER
 70
0
 71
3
 72
22
 73
18
 74
0
 42
0.0000001
 43
0.0000001
 44
0.0000000001
 40
0.0
 40
0.0
 40
0.0
 40
0.0
 40
0.0767647438
 40
0.1503544768
 40
0.220659962
 40
0.2877332168
 40
0.351775718
 40
0.4130872525
 40
0.4720732665
 40
0.5292416824
 40
0.5852129171
 40
0.6406773232
 40
0.6963585961
 40
0.7529622153
 40
0.8111412285
 40
0.8714541553
 40
1.0
 40
1.0
 40
1.0
 40
1.0
 10
20.4676700044
 20
22.9195589521
 30
0.0
 10
20.505011418
 20
22.9411178986
 30
0.0
 10
20.5767271106
 20
22.9858828676
 30
0.0
 10
20.6767019247
 20
23.0593521779
 30
0.0
 10
20.7661436974
 20
23.1373147511
 30
0.0
 10
20.8444036575
 20
23.2192546264
 30
0.0
 10
20.9109901533
 20
23.304645478
 30
0.0
 10
20.9654239165
 20
23.3929906328
 30
0.0
 10
21.0073620541
 20
23.4837018755
 30
0.0
 10
21.0364147699
 20
23.5762118865
 30
0.0
 10
21.0523637781
 20
23.6698679587
 30
0.0
 10
21.0550687013
 20
23.7640086991
 30
0.0
 10
21.0444715393
 20
23.8579430969
 30
0.0
 10
21.0207310598
 20
23.9509992323
 30
0.0
 10
20.9839742232
 20
24.042522124
 30
0.0
 10
20.9167292314
 20
24.1642019328
 30
0.0
 10
20.8494416131
 20
24.2475525185
 30
0.0
 10
20.7992201566
 20
24.2994282335
 30
0.0
  0
SPLINE
  5
289
100
AcDbEntity
  8
0
100
AcDbSpline
 62
7
  6
BYLAYER
 70
0
 71
3
 72
9
 73
5
 74
0
 42
0.0000001
 43
0.0000001
 44
0.0000000001
 40
0.0
 40
0.0
 40
0.0
 40
0.0
 40
0.4808711863
 40
1.0
 40
1.0
 40
1.0
 40
1.0
 10
20.7992201566
 20
24.2994282335
 30
0.0
 10
20.7526074858
 20
24.347576292
 30
0.0
 10
20.6471964001
 20
24.4396587178
 30
0.0
 10
20.5303450751
 20
24.5163323334
 30
0.0
 10
20.4676917208
 20
24.5525062908
 30
0.0
  0
SPLINE
  5
28A
100
AcDbEntity
  8
0
100
AcDbSpline
 62
7
  6
BYLAYER
 70
0
 71
3
 72
37
 73
33
 74
0
 42
0.0000001
 43
0.0000001
 44
0.0000000001
 40
0.0
 40
0.0
 40
0.0
 40
0.0
 40
0.030659842
 40
0.0623911039
 40
0.0951070797
 40
0.1287295417
 40
0.1631692181
 40
0.1983195248
 40
0.2340664677
 40
0.2702900606
 40
0.3436433367
 40
0.4173508639
 40
0.4903513342
 40
0.5616146251
 40
0.5963032235
 40
0.6302104471
 40
0.6632384717
 40
0.695301287
 40
0.7263265679
 40
0.7562586776
 40
0.7850598344
 40
0.8127147827
 40
0.8392313349
 40
0.8646461182
 40
0.8890246236
 40
0.9124662817
 40
0.9351031919
 40
0.9571010253
 40
0.9679251538
 40
0.9786645116
 40
0.9893466638
 40
1.0
 40
1.0
 40
1.0
 40
1.0
 10
26.8316575307
 20
5.7322771579
 30
0.0
 10
26.6373575491
 20
5.6200986808
 30
0.0
 10
26.2344666967
 20
5.4046094228
 30
0.0
 10
25.6021143656
 20
5.1130814971
 30
0.0
 10
24.9343675893
 20
4.8492051365
 30
0.0
 10
24.2349607622
 20
4.6143759936
 30
0.0
 10
23.5075981321
 20
4.4098460366
 30
0.0
 10
22.7561943955
 20
4.2366940527
 30
0.0
 10
21.9847918942
 20
4.0958733536
 30
0.0
 10
20.9308966916
 20
3.9516584422
 30
0.0
 10
19.5912312472
 20
3.8569617374
 30
0.0
 10
17.9791744684
 20
3.8796479038
 30
0.0
 10
16.3900519027
 20
4.0376719549
 30
0.0
 10
15.1014277894
 20
4.2815455186
 30
0.0
 10
14.1115327205
 20
4.5427551182
 30
0.0
 10
13.4023623511
 20
4.7676322139
 30
0.0
 10
12.7236853781
 20
5.0219672847
 30
0.0
 10
12.079142327
 20
5.304417324
 30
0.0
 10
11.4722055766
 20
5.6134800977
 30
0.0
 10
10.9061252169
 20
5.9474926678
 30
0.0
 10
10.3839654897
 20
6.3047285833
 30
0.0
 10
9.9085055766
 20
6.6832612084
 30
0.0
 10
9.4823638933
 20
7.0811758659
 30
0.0
 10
9.1078112801
 20
7.4963415942
 30
0.0
 10
8.7870011644
 20
7.9266679149
 30
0.0
 10
8.5216956129
 20
8.3698693693
 30
0.0
 10
8.3135658548
 20
8.8235998342
 30
0.0
 10
8.1880996704
 20
9.2106700838
 30
0.0
 10
8.1181940592
 20
9.5218533459
 30
0.0
 10
8.08086305
 20
9.7550083613
 30
0.0
 10
8.0584365531
 20
9.9887961311
 30
0.0
 10
8.0534566487
 20
10.1449680788
 30
0.0
 10
8.0534592181
 20
10.2229254524
 30
0.0
  0
SPLINE
  5
28B
100
AcDbEntity
  8
0
100
AcDbSpline
 62
7
  6
BYLAYER
 70
0
 71
3
 72
18
 73
14
 74
0
 42
0.0000001
 43
0.0000001
 44
0.0000000001
 40
0.0
 40
0.0
 40
0.0
 40
0.0
 40
0.148549876
 40
0.2894292718
 40
0.422608555
 40
0.5484954934
 40
0.6678211882
 40
0.7254046723
 40
0.7818096008
 40
0.8372403899
 40
0.8919202943
 40
0.946089243
 40
1.0
 40
1.0
 40
1.0
 40
1.0
 10
11.2752435775
 20
18.796085843
 30
0.0
 10
11.0271482306
 20
18.6528487827
 30
0.0
 10
10.5549814531
 20
18.3535764547
 30
0.0
 10
9.9094810501
 20
17.8539511221
 30
0.0
 10
9.3511532163
 20
17.3194995701
 30
0.0
 10
8.885582004
 20
16.7552569323
 30
0.0
 10
8.5751569448
 20
16.2582102482
 30
0.0
 10
8.3801734611
 20
15.8523045039
 30
0.0
 10
8.2614000063
 20
15.5475735205
 30
0.0
 10
8.1686824169
 20
15.2397710198
 30
0.0
 10
8.1022541583
 20
14.9296282917
 30
0.0
 10
8.062352624
 20
14.6179398913
 30
0.0
 10
8.0534624041
 20
14.4094033306
 30
0.0
 10
8.0534589377
 20
14.3054375365
 30
0.0
  0
SPLINE
  5
28C
100
AcDbEntity
  8
0
100
AcDbSpline
 62
7
  6
BYLAYER
 70
0
 71
3
 72
32
 73
28
 74
0
 42
0.0000001
 43
0.0000001
 44
0.0000000001
 40
0.0
 40
0.0
 40
0.0
 40
0.0
 40
0.0295864338
 40
0.0601135341
 40
0.0915112452
 40
0.1237165939
 40
0.1566653798
 40
0.1902802749
 40
0.2591430623
 40
0.3295773787
 40
0.4007835781
 40
0.4719334214
 40
0.5422011912
 40
0.6107926819
 40
0.6769759873
 40
0.7089699532
 40
0.7401332415
 40
0.7704074635
 40
0.799745433
 40
0.8281118568
 40
0.8554867104
 40
0.8818645633
 40
0.9072595903
 40
0.9317039665
 40
0.9552533233
 40
0.9779846252
 40
1.0
 40
1.0
 40
1.0
 40
1.0
 10
25.4174380804
 20
10.6312707526
 30
0.0
 10
25.2747802167
 20
10.5489076882
 30
0.0
 10
24.9799941758
 20
10.3899858447
 30
0.0
 10
24.5190197899
 20
10.1724648985
 30
0.0
 10
24.0341331524
 20
9.9730268686
 30
0.0
 10
23.527566814
 20
9.7925377639
 30
0.0
 10
23.0014775448
 20
9.6317854554
 30
0.0
 10
22.2712431384
 20
9.4431495783
 30
0.0
 10
21.3245314664
 20
9.2619346053
 30
0.0
 10
20.1584306572
 20
9.133480021
 30
0.0
 10
18.9731689988
 20
9.0944889515
 30
0.0
 10
17.7893139644
 20
9.145645322
 30
0.0
 10
16.6273013912
 20
9.2860646007
 30
0.0
 10
15.5072841834
 20
9.5133125073
 30
0.0
 10
14.6149299215
 20
9.7747276236
 30
0.0
 10
13.9394837786
 20
10.0251037226
 30
0.0
 10
13.4608850553
 20
10.2294976365
 30
0.0
 10
13.0066957947
 20
10.4517223406
 30
0.0
 10
12.5788691859
 20
10.6907965142
 30
0.0
 10
12.1792922002
 20
10.945733873
 30
0.0
 10
11.8096713155
 20
11.2153893652
 30
0.0
 10
11.4716626767
 20
11.4986764515
 30
0.0
 10
11.1666952661
 20
11.7943268794
 30
0.0
 10
10.8961792962
 20
12.1011535764
 30
0.0
 10
10.6612584877
 20
12.4178117079
 30
0.0
 10
10.4630930455
 20
12.7429600214
 30
0.0
 10
10.3544946084
 20
12.9677313813
 30
0.0
 10
10.307018306
 20
13.0807373739
 30
0.0
  0
SPLINE
  5
28D
100
AcDbEntity
  8
0
100
AcDbSpline
 62
7
  6
BYLAYER
 70
0
 71
3
 72
18
 73
14
 74
0
 42
0.0000001
 43
0.0000001
 44
0.0000000001
 40
0.0
 40
0.0
 40
0.0
 40
0.0
 40
0.053910546
 40
0.1080792985
 40
0.1627590376
 40
0.2181896687
 40
0.2745944954
 40
0.3321779242
 40
0.4515036544
 40
0.5773906687
 40
0.7105701712
 40
0.8514500681
 40
1.0
 40
1.0
 40
1.0
 40
1.0
 10
30.05344189
 20
10.2229254628
 30
0.0
 10
30.0534384633
 20
10.1189600788
 30
0.0
 10
30.0445486589
 20
9.9104242959
 30
0.0
 10
30.0046471901
 20
9.5987369862
 30
0.0
 10
29.9382189441
 20
9.2885953233
 30
0.0
 10
29.8455026499
 20
8.9807932949
 30
0.0
 10
29.726729139
 20
8.6760629819
 30
0.0
 10
29.5317464052
 20
8.2701571711
 30
0.0
 10
29.2213214768
 20
7.7731102915
 30
0.0
 10
28.7557509488
 20
7.2088663084
 30
0.0
 10
28.1974220742
 20
6.674413579
 30
0.0
 10
27.5519204842
 20
6.174787401
 30
0.0
 10
27.079752963
 20
5.8755142675
 30
0.0
 10
26.8316575307
 20
5.7322771579
 30
0.0
  0
SPLINE
  5
28E
100
AcDbEntity
  8
0
100
AcDbSpline
 62
7
  6
BYLAYER
 70
0
 71
3
 72
15
 73
11
 74
0
 42
0.0000001
 43
0.0000001
 44
0.0000000001
 40
0.0
 40
0.0
 40
0.0
 40
0.0
 40
0.1094267571
 40
0.222552051
 40
0.339910042
 40
0.4618918128
 40
0.5887799683
 40
0.7207579791
 40
0.8578822012
 40
1.0
 40
1.0
 40
1.0
 40
1.0
 10
27.7998851726
 20
13.0807370392
 30
0.0
 10
27.7507817581
 20
12.9638561835
 30
0.0
 10
27.637959694
 20
12.731401306
 30
0.0
 10
27.4310674765
 20
12.3956419973
 30
0.0
 10
27.1849810943
 20
12.0690715616
 30
0.0
 10
26.9009958398
 20
11.7531748174
 30
0.0
 10
26.580389398
 20
11.4493972444
 30
0.0
 10
26.2246763994
 20
11.1590517227
 30
0.0
 10
25.8355724272
 20
10.8835730739
 30
0.0
 10
25.5600300161
 20
10.7135957537
 30
0.0
 10
25.4174380804
 20
10.6312707526
 30
0.0
  0
SPLINE
  5
28F
100
AcDbEntity
  8
0
100
AcDbSpline
 62
7
  6
BYLAYER
 70
0
 71
3
 72
18
 73
14
 74
0
 42
0.0000001
 43
0.0000001
 44
0.0000000001
 40
0.0
 40
0.0
 40
0.0
 40
0.0
 40
0.148549876
 40
0.2894292718
 40
0.422608555
 40
0.5484954934
 40
0.6678211882
 40
0.7254046723
 40
0.7818096008
 40
0.8372403899
 40
0.8919202943
 40
0.946089243
 40
1.0
 40
1.0
 40
1.0
 40
1.0
 10
26.8316575307
 20
9.8147892435
 30
0.0
 10
27.0797528775
 20
9.9580263038
 30
0.0
 10
27.551919655
 20
10.2572986319
 30
0.0
 10
28.197420058
 20
10.7569239644
 30
0.0
 10
28.7557478918
 20
11.2913755164
 30
0.0
 10
29.2213191042
 20
11.8556181542
 30
0.0
 10
29.5317441634
 20
12.3526648383
 30
0.0
 10
29.7267276471
 20
12.7585705826
 30
0.0
 10
29.8455011019
 20
13.063301566
 30
0.0
 10
29.9382186913
 20
13.3711040668
 30
0.0
 10
30.0046469499
 20
13.6812467948
 30
0.0
 10
30.0445484841
 20
13.9929351953
 30
0.0
 10
30.0534387041
 20
14.2014717559
 30
0.0
 10
30.0534421704
 20
14.30543755
 30
0.0
  0
SPLINE
  5
290
100
AcDbEntity
  8
0
100
AcDbSpline
 62
7
  6
BYLAYER
 70
0
 71
3
 72
19
 73
15
 74
0
 42
0.0000001
 43
0.0000001
 44
0.0000000001
 40
0.0
 40
0.0
 40
0.0
 40
0.0
 40
0.1494008646
 40
0.2899274434
 40
0.4218817233
 40
0.5460628441
 40
0.605682617
 40
0.6639103304
 40
0.7210009356
 40
0.7772395787
 40
0.8329328861
 40
0.8884047446
 40
0.9439847172
 40
1.0
 40
1.0
 40
1.0
 40
1.0
 10
12.8148113237
 20
16.413761667
 30
0.0
 10
12.6106950374
 20
16.2864023508
 30
0.0
 10
12.2259527862
 20
16.0201883161
 30
0.0
 10
11.7120903681
 20
15.5734394996
 30
0.0
 10
11.2848104568
 20
15.0961660102
 30
0.0
 10
11.0014929577
 20
14.6713370097
 30
0.0
 10
10.825924285
 20
14.3229287823
 30
0.0
 10
10.720544992
 20
14.0612816598
 30
0.0
 10
10.6401182151
 20
13.7965950674
 30
0.0
 10
10.5848438093
 20
13.5296833823
 30
0.0
 10
10.5549745517
 20
13.2613617313
 30
0.0
 10
10.5505961056
 20
12.9924697634
 30
0.0
 10
10.5716898638
 20
12.7238747837
 30
0.0
 10
10.6025633941
 20
12.5465274277
 30
0.0
 10
10.6220649107
 20
12.4584553537
 30
0.0
  0
SPLINE
  5
291
100
AcDbEntity
  8
0
100
AcDbSpline
 62
7
  6
BYLAYER
 70
0
 71
3
 72
37
 73
33
 74
0
 42
0.0000001
 43
0.0000001
 44
0.0000000001
 40
0.0
 40
0.0
 40
0.0
 40
0.0
 40
0.0314006705
 40
0.0639811537
 40
0.0976337178
 40
0.1322599076
 40
0.1677523197
 40
0.2039809854
 40
0.2408063148
 40
0.278082049
 40
0.3533548227
 40
0.4285647803
 40
0.4657637092
 40
0.5024823499
 40
0.5385752302
 40
0.5739063647
 40
0.6083493519
 40
0.6417924533
 40
0.6741382882
 40
0.7053100666
 40
0.7352513688
 40
0.7639333823
 40
0.7913552237
 40
0.8175516594
 40
0.842593804
 40
0.8665955647
 40
0.8897126886
 40
0.9121437164
 40
0.9341230168
 40
0.9559114862
 40
0.9777815646
 40
1.0
 40
1.0
 40
1.0
 40
1.0
 10
23.296108905
 20
10.6312393904
 30
0.0
 10
23.1817860738
 20
10.5652354671
 30
0.0
 10
22.9440721851
 20
10.4388785467
 30
0.0
 10
22.5699559476
 20
10.2694517854
 30
0.0
 10
22.1737805947
 20
10.1176835264
 30
0.0
 10
21.7581345677
 20
9.9844868055
 30
0.0
 10
21.3255626242
 20
9.8707152399
 30
0.0
 10
20.8787688736
 20
9.7770110746
 30
0.0
 10
20.4205324072
 20
9.7040323099
 30
0.0
 10
19.7962085595
 20
9.6346910835
 30
0.0
 10
19.0063551708
 20
9.6023428686
 30
0.0
 10
18.217144789
 20
9.6418321668
 30
0.0
 10
17.5945213426
 20
9.7168711958
 30
0.0
 10
17.1383255955
 20
9.7940038904
 30
0.0
 10
16.694134559
 20
9.8917515704
 30
0.0
 10
16.2647038397
 20
10.0094457817
 30
0.0
 10
15.8527342315
 20
10.1464154394
 30
0.0
 10
15.4607783934
 20
10.3017466651
 30
0.0
 10
15.0913026018
 20
10.4745408614
 30
0.0
 10
14.7465830508
 20
10.6636713153
 30
0.0
 10
14.4287972229
 20
10.8680409943
 30
0.0
 10
14.1398921565
 20
11.0863476317
 30
0.0
 10
13.8817174673
 20
11.3173313755
 30
0.0
 10
13.655861522
 20
11.5595541398
 30
0.0
 10
13.463832843
 20
11.8116195433
 30
0.0
 10
13.3068590487
 20
12.0719714735
 30
0.0
 10
13.1861055113
 20
12.3390579938
 30
0.0
 10
13.1024181858
 20
12.6111657545
 30
0.0
 10
13.0565402451
 20
12.8865202828
 30
0.0
 10
13.0488046364
 20
13.1632402551
 30
0.0
 10
13.0793322625
 20
13.4393345189
 30
0.0
 10
13.1244762628
 20
13.6197566207
 30
0.0
 10
13.1528932032
 20
13.7087353673
 30
0.0
  0
SPLINE
  5
292
100
AcDbEntity
  8
0
100
AcDbSpline
 62
7
  6
BYLAYER
 70
0
 71
3
 72
19
 73
15
 74
0
 42
0.0000001
 43
0.0000001
 44
0.0000000001
 40
0.0
 40
0.0
 40
0.0
 40
0.0
 40
0.0564787787
 40
0.112164731
 40
0.1674442421
 40
0.2227181689
 40
0.2783871883
 40
0.3348374313
 40
0.3924301135
 40
0.4514879095
 40
0.5749660115
 40
0.7070414577
 40
0.8486663568
 40
1.0
 40
1.0
 40
1.0
 40
1.0
 10
24.9540051995
 20
13.7087350976
 30
0.0
 10
24.9757313005
 20
13.6407096771
 30
0.0
 10
25.0123066043
 20
13.5033980776
 30
0.0
 10
25.0457326535
 20
13.2939763854
 30
0.0
 10
25.0571298434
 20
13.0837050999
 30
0.0
 10
25.0463683661
 20
12.8734271327
 30
0.0
 10
25.0135690893
 20
12.6639539893
 30
0.0
 10
24.9588489697
 20
12.4560956217
 30
0.0
 10
24.8824196833
 20
12.2506387154
 30
0.0
 10
24.7501571345
 20
11.9769225863
 30
0.0
 10
24.5290373066
 20
11.6437536824
 30
0.0
 10
24.18833012
 20
11.2725018925
 30
0.0
 10
23.7735849318
 20
10.9285472738
 30
0.0
 10
23.4618172852
 20
10.7269105973
 30
0.0
 10
23.296108905
 20
10.6312393904
 30
0.0
  0
SPLINE
  5
293
100
AcDbEntity
  8
0
100
AcDbSpline
 62
7
  6
BYLAYER
 70
0
 71
3
 72
37
 73
33
 74
0
 42
0.0000001
 43
0.0000001
 44
0.0000000001
 40
0.0
 40
0.0
 40
0.0
 40
0.0
 40
0.0106533579
 40
0.0213355328
 40
0.0320749121
 40
0.0428990617
 40
0.0648969427
 40
0.0875339037
 40
0.1109756296
 40
0.1353542134
 40
0.1607690892
 40
0.1872857318
 40
0.2149407646
 40
0.243741973
 40
0.2736741028
 40
0.3046993513
 40
0.3367620983
 40
0.3697900172
 40
0.4036971197
 40
0.4383855906
 40
0.5096486463
 40
0.5826489
 40
0.6563562065
 40
0.7297093381
 40
0.7659329164
 40
0.8016799069
 40
0.8368302921
 40
0.871270058
 40
0.9048926114
 40
0.937608735
 40
0.9693401252
 40
1.0
 40
1.0
 40
1.0
 40
1.0
 10
8.0534589377
 20
14.3054375365
 30
0.0
 10
8.0534563385
 20
14.2274800039
 30
0.0
 10
8.0584364709
 20
14.0713077315
 30
0.0
 10
8.0808632634
 20
13.8375195145
 30
0.0
 10
8.118194215
 20
13.6043640107
 30
0.0
 10
8.1880999479
 20
13.2931800868
 30
0.0
 10
8.3135670696
 20
12.9061092214
 30
0.0
 10
8.5216973427
 20
12.4523776561
 30
0.0
 10
8.7870043969
 20
12.0091754036
 30
0.0
 10
9.1078158553
 20
11.578847906
 30
0.0
 10
9.4823705211
 20
11.1636814451
 30
0.0
 10
9.9085139909
 20
10.765765828
 30
0.0
 10
10.3839760151
 20
10.3872331917
 30
0.0
 10
10.9061369472
 20
10.0299970136
 30
0.0
 10
11.4722182692
 20
9.6959855058
 30
0.0
 10
12.0791546504
 20
9.3869233227
 30
0.0
 10
12.7236967802
 20
9.1044749387
 30
0.0
 10
13.4023718188
 20
8.8501408893
 30
0.0
 10
14.1115399182
 20
8.6252652065
 30
0.0
 10
15.1014316239
 20
8.3640567724
 30
0.0
 10
16.3900516101
 20
8.1201842801
 30
0.0
 10
17.9791692332
 20
7.962160415
 30
0.0
 10
19.5912217149
 20
7.9394737691
 30
0.0
 10
20.9308844881
 20
8.0341690952
 30
0.0
 10
21.9847788799
 20
8.1783838172
 30
0.0
 10
22.756182414
 20
8.3192034317
 30
0.0
 10
23.5075876466
 20
8.4923559446
 30
0.0
 10
24.2349524261
 20
8.6968852606
 30
0.0
 10
24.9343615526
 20
8.9317151423
 30
0.0
 10
25.602111009
 20
9.1955920446
 30
0.0
 10
26.2344653343
 20
9.4871210503
 30
0.0
 10
26.6373573414
 20
9.7026106466
 30
0.0
 10
26.8316575307
 20
9.8147892435
 30
0.0
  0
SPLINE
  5
294
100
AcDbEntity
  8
0
100
AcDbSpline
 62
7
  6
BYLAYER
 70
0
 71
3
 72
11
 73
7
 74
0
 42
0.0000001
 43
0.0000001
 44
0.0000000001
 40
0.0
 40
0.0
 40
0.0
 40
0.0
 40
0.2520437095
 40
0.5042404313
 40
0.7543008732
 40
1.0
 40
1.0
 40
1.0
 40
1.0
 10
16.3303116117
 20
41.130077591
 30
0.0
 10
16.1461536916
 20
41.1429977043
 30
0.0
 10
15.776739819
 20
41.1564026476
 30
0.0
 10
15.2241043961
 20
41.1397445418
 30
0.0
 10
14.6784509044
 20
41.0864946611
 30
0.0
 10
14.3199694729
 20
41.0264460018
 30
0.0
 10
14.1436797266
 20
40.9902690045
 30
0.0
  0
SPLINE
  5
295
100
AcDbEntity
  8
0
100
AcDbSpline
 62
7
  6
BYLAYER
 70
0
 71
3
 72
9
 73
5
 74
0
 42
0.0000001
 43
0.0000001
 44
0.0000000001
 40
0.0
 40
0.0
 40
0.0
 40
0.0
 40
0.4886131001
 40
1.0
 40
1.0
 40
1.0
 40
1.0
 10
20.5221150696
 20
38.6841101214
 30
0.0
 10
20.5014524985
 20
38.7918291734
 30
0.0
 10
20.4369914851
 20
39.0084798381
 30
0.0
 10
20.3342534783
 20
39.2094551647
 30
0.0
 10
20.2740703157
 20
39.3072094644
 30
0.0
  0
SPLINE
  5
296
100
AcDbEntity
  8
0
100
AcDbSpline
 62
7
  6
BYLAYER
 70
0
 71
3
 72
31
 73
27
 74
0
 42
0.0000001
 43
0.0000001
 44
0.0000000001
 40
0.0
 40
0.0
 40
0.0
 40
0.0
 40
0.0223152719
 40
0.0450146567
 40
0.0684578629
 40
0.0929547084
 40
0.1187337202
 40
0.1459474474
 40
0.174680092
 40
0.2049524077
 40
0.2367338714
 40
0.2699423981
 40
0.3044634948
 40
0.3401455555
 40
0.414247284
 40
0.490671764
 40
0.5676297673
 40
0.6432932423
 40
0.7159296757
 40
0.784041564
 40
0.8465328684
 40
0.9029033434
 40
0.9289068217
 40
0.9536083135
 40
0.9772199553
 40
1.0
 40
1.0
 40
1.0
 40
1.0
 10
19.0012444614
 20
38.3790731748
 30
0.0
 10
19.0012438988
 20
38.3196816183
 30
0.0
 10
18.9913536996
 20
38.1996466825
 30
0.0
 10
18.9469438103
 20
38.022190573
 30
0.0
 10
18.8736547954
 20
37.8483008244
 30
0.0
 10
18.7722608548
 20
37.6796322686
 30
0.0
 10
18.6439173757
 20
37.5175450526
 30
0.0
 10
18.4897972373
 20
37.3634449885
 30
0.0
 10
18.311333319
 20
37.2186176063
 30
0.0
 10
18.1101356356
 20
37.0842510753
 30
0.0
 10
17.8879633786
 20
36.9615371792
 30
0.0
 10
17.6468170957
 20
36.8514594069
 30
0.0
 10
17.3887866763
 20
36.7550708461
 30
0.0
 10
17.0207627949
 20
36.6444485732
 30
0.0
 10
16.5336515609
 20
36.5464914482
 30
0.0
 10
15.9292729284
 20
36.494440522
 30
0.0
 10
15.3186185756
 20
36.5082465976
 30
0.0
 10
14.7230833073
 20
36.5874281277
 30
0.0
 10
14.1633906948
 20
36.7292377087
 30
0.0
 10
13.6587903216
 20
36.9289127619
 30
0.0
 10
13.2266778657
 20
37.1798160703
 30
0.0
 10
12.9312398884
 20
37.4322339755
 30
0.0
 10
12.7494904792
 20
37.6525606965
 30
0.0
 10
12.643592612
 20
37.8203330066
 30
0.0
 10
12.5656993532
 20
37.993461943
 30
0.0
 10
12.5324517027
 20
38.1129947894
 30
0.0
 10
12.5210302175
 20
38.1725377933
 30
0.0
  0
SPLINE
  5
297
100
AcDbEntity
  8
0
100
AcDbSpline
 62
7
  6
BYLAYER
 70
0
 71
3
 72
35
 73
31
 74
0
 42
0.0000001
 43
0.0000001
 44
0.0000000001
 40
0.0
 40
0.0
 40
0.0
 40
0.0
 40
0.0222638897
 40
0.0449060256
 40
0.068286967
 40
0.0927073317
 40
0.1183921001
 40
0.1454950762
 40
0.1741029301
 40
0.2042378935
 40
0.2358708096
 40
0.268924791
 40
0.3032880842
 40
0.3388146741
 40
0.3753356878
 40
0.4126597531
 40
0.4888551462
 40
0.5656758251
 40
0.6413198481
 40
0.7140704786
 40
0.7489003675
 40
0.7824734539
 40
0.8146644334
 40
0.8453814078
 40
0.8745776617
 40
0.902254438
 40
0.9284698304
 40
0.953354058
 40
0.9771127437
 40
1.0
 40
1.0
 40
1.0
 40
1.0
 10
25.0534198195
 20
15.8976172543
 30
0.0
 10
25.0534279698
 20
15.7887230938
 30
0.0
 10
25.035366448
 20
15.5686735121
 30
0.0
 10
24.9545231336
 20
15.2432498301
 30
0.0
 10
24.8209876237
 20
14.9242642438
 30
0.0
 10
24.6363196541
 20
14.6146441664
 30
0.0
 10
24.402390162
 20
14.3170102983
 30
0.0
 10
24.1214624569
 20
14.0338124633
 30
0.0
 10
23.7960467167
 20
13.7674218742
 30
0.0
 10
23.4290762564
 20
13.5199702421
 30
0.0
 10
23.0237065195
 20
13.2936376121
 30
0.0
 10
22.5835308783
 20
13.0902474684
 30
0.0
 10
22.112350096
 20
12.9116522745
 30
0.0
 10
21.6143235142
 20
12.7592997015
 30
0.0
 10
21.0937733543
 20
12.6345986901
 30
0.0
 10
20.3709699543
 20
12.5057259223
 30
0.0
 10
19.4418261
 20
12.4206108755
 30
0.0
 10
18.3214639657
 20
12.4391141982
 30
0.0
 10
17.2263685093
 20
12.5769049616
 30
0.0
 10
16.3534869341
 20
12.7903077751
 30
0.0
 10
15.7014003398
 20
13.0184270805
 30
0.0
 10
15.2488145255
 20
13.212487621
 30
0.0
 10
14.8296065422
 20
13.4301797056
 30
0.0
 10
14.4474562231
 20
13.6697379186
 30
0.0
 10
14.1056774502
 20
13.9290834824
 30
0.0
 10
13.8073045482
 20
14.2060861652
 30
0.0
 10
13.5549791079
 20
14.4984161779
 30
0.0
 10
13.3510425931
 20
14.8037604253
 30
0.0
 10
13.1976706816
 20
15.1194562136
 30
0.0
 10
13.1291576651
 20
15.3381930795
 30
0.0
 10
13.1043570814
 20
15.4473543639
 30
0.0
  0
SPLINE
  5
298
100
AcDbEntity
  8
0
100
AcDbSpline
 62
7
  6
BYLAYER
 70
0
 71
3
 72
35
 73
31
 74
0
 42
0.0000001
 43
0.0000001
 44
0.0000000001
 40
0.0
 40
0.0
 40
0.0
 40
0.0
 40
0.0227964682
 40
0.0465015904
 40
0.0713103898
 40
0.0973647072
 40
0.1247465674
 40
0.1534917421
 40
0.1835945652
 40
0.2150111636
 40
0.2476666894
 40
0.2814587086
 40
0.3162642904
 40
0.3519403847
 40
0.3883306519
 40
0.4252658912
 40
0.5000347752
 40
0.5748031853
 40
0.6481024881
 40
0.7185542188
 40
0.7523455266
 40
0.7849996272
 40
0.8164152328
 40
0.8465174126
 40
0.8752624416
 40
0.9026440732
 40
0.9286970419
 40
0.9535070217
 40
0.9772108352
 40
1.0
 40
1.0
 40
1.0
 40
1.0
 10
25.206258369
 20
41.9635499183
 30
0.0
 10
25.1529365341
 20
42.1230849723
 30
0.0
 10
25.0209413307
 20
42.4411548274
 30
0.0
 10
24.7570577589
 20
42.8978727573
 30
0.0
 10
24.4263580063
 20
43.3391338038
 30
0.0
 10
24.0314850839
 20
43.7617250218
 30
0.0
 10
23.5754649495
 20
44.1627610724
 30
0.0
 10
23.0616936028
 20
44.5393837301
 30
0.0
 10
22.4939629141
 20
44.8889151177
 30
0.0
 10
21.876475324
 20
45.2089091029
 30
0.0
 10
21.2137364505
 20
45.4969678619
 30
0.0
 10
20.5106623568
 20
45.7510904707
 30
0.0
 10
19.7723990689
 20
45.9693157358
 30
0.0
 10
19.0044240033
 20
46.150143785
 30
0.0
 10
18.2123660593
 20
46.2921568525
 30
0.0
 10
17.1278029239
 20
46.4289577275
 30
0.0
 10
15.7510436986
 20
46.4969716936
 30
0.0
 10
14.106128824
 20
46.4156361437
 30
0.0
 10
12.5091226308
 20
46.1740568682
 30
0.0
 10
11.2391060807
 20
45.840391093
 30
0.0
 10
10.2885763049
 20
45.4968942395
 30
0.0
 10
9.6258697195
 20
45.208783418
 30
0.0
 10
9.0083996132
 20
44.8888143029
 30
0.0
 10
8.4406945135
 20
44.5392619202
 30
0.0
 10
7.9269482791
 20
44.1626211653
 30
0.0
 10
7.4709256808
 20
43.7616046752
 30
0.0
 10
7.076094868
 20
43.3389801116
 30
0.0
 10
6.7453904042
 20
42.8977319041
 30
0.0
 10
6.4816267855
 20
42.441013183
 30
0.0
 10
6.3495752042
 20
42.1230378559
 30
0.0
 10
6.2962708797
 20
41.96355377
 30
0.0
  0
SPLINE
  5
299
100
AcDbEntity
  8
0
100
AcDbSpline
 62
7
  6
BYLAYER
 70
0
 71
3
 72
35
 73
31
 74
0
 42
0.0000001
 43
0.0000001
 44
0.0000000001
 40
0.0
 40
0.0
 40
0.0
 40
0.0
 40
0.0227886099
 40
0.0464925404
 40
0.0713026709
 40
0.0973556599
 40
0.1247374793
 40
0.1534827515
 40
0.1835856648
 40
0.2150014219
 40
0.2476564497
 40
0.281447886
 40
0.3162530136
 40
0.3519285691
 40
0.3883184152
 40
0.4252532133
 40
0.5000215444
 40
0.5747897835
 40
0.6480893149
 40
0.7185416154
 40
0.7523334121
 40
0.7849880516
 40
0.8164045186
 40
0.8465063368
 40
0.8752515924
 40
0.9026332668
 40
0.928687451
 40
0.9534959284
 40
0.9772023963
 40
1.0
 40
1.0
 40
1.0
 40
1.0
 10
24.0193389515
 20
39.9891386567
 30
0.0
 10
23.9727293819
 20
39.84967846
 30
0.0
 10
23.8572526245
 20
39.5716244349
 30
0.0
 10
23.6265972609
 20
39.1722456631
 30
0.0
 10
23.3374139064
 20
38.786384578
 30
0.0
 10
22.992152362
 20
38.4168074914
 30
0.0
 10
22.5933652891
 20
38.0661438468
 30
0.0
 10
22.1441221986
 20
37.7367594519
 30
0.0
 10
21.6476638178
 20
37.4311113522
 30
0.0
 10
21.1077137103
 20
37.1512685395
 30
0.0
 10
20.5281849364
 20
36.8993747552
 30
0.0
 10
19.913389019
 20
36.677138304
 30
0.0
 10
19.2678163745
 20
36.4863055639
 30
0.0
 10
18.5962635163
 20
36.3281630791
 30
0.0
 10
17.9036478722
 20
36.203974609
 30
0.0
 10
16.9552499467
 20
36.0843227969
 30
0.0
 10
15.7513329786
 20
36.0248290941
 30
0.0
 10
14.3129177266
 20
36.0959239702
 30
0.0
 10
12.9163865796
 20
36.3071493504
 30
0.0
 10
11.8057901197
 20
36.5989071129
 30
0.0
 10
10.9745716258
 20
36.8992711572
 30
0.0
 10
10.3950450793
 20
37.1512100453
 30
0.0
 10
9.8550705955
 20
37.4309895914
 30
0.0
 10
9.3586339713
 20
37.7366672271
 30
0.0
 10
8.9093458286
 20
38.0659784889
 30
0.0
 10
8.5105937213
 20
38.416690604
 30
0.0
 10
8.1652691592
 20
38.7862034245
 30
0.0
 10
7.8760880434
 20
39.1720805331
 30
0.0
 10
7.6453154252
 20
39.5714704254
 30
0.0
 10
7.5298928892
 20
39.8496290793
 30
0.0
 10
7.4832594953
 20
39.9891425012
 30
0.0
  0
SPLINE
  5
29A
100
AcDbEntity
  8
0
100
AcDbSpline
 62
7
  6
BYLAYER
 70
0
 71
3
 72
17
 73
13
 74
0
 42
0.0000001
 43
0.0000001
 44
0.0000000001
 40
0.0
 40
0.0
 40
0.0
 40
0.0
 40
0.0458016252
 40
0.092528585
 40
0.1407740181
 40
0.1910666629
 40
0.2992448964
 40
0.4192185835
 40
0.5510373614
 40
0.6933607566
 40
0.8440479983
 40
1.0
 40
1.0
 40
1.0
 40
1.0
 10
22.6704700422
 20
25.5204708256
 30
0.0
 10
22.6697897213
 20
25.4943434367
 30
0.0
 10
22.6642069678
 20
25.4415841251
 30
0.0
 10
22.6435854864
 20
25.3636511385
 30
0.0
 10
22.6108479411
 20
25.2871867928
 30
0.0
 10
22.5499994957
 20
25.1857716879
 30
0.0
 10
22.4431695212
 20
25.0661592771
 30
0.0
 10
22.2779485382
 20
24.9423973826
 30
0.0
 10
22.0778178521
 20
24.8379786285
 30
0.0
 10
21.8490262799
 20
24.7558778406
 30
0.0
 10
21.5987561103
 20
24.6986612693
 30
0.0
 10
21.4245590664
 20
24.6784159124
 30
0.0
 10
21.3357479453
 20
24.6727375184
 30
0.0
  0
SPLINE
  5
29B
100
AcDbEntity
  8
0
100
AcDbSpline
 62
7
  6
BYLAYER
 70
0
 71
3
 72
15
 73
11
 74
0
 42
0.0000001
 43
0.0000001
 44
0.0000000001
 40
0.0
 40
0.0
 40
0.0
 40
0.0
 40
0.146449291
 40
0.2917576682
 40
0.4326568835
 40
0.5664729825
 40
0.6909172764
 40
0.8045452113
 40
0.9071672647
 40
1.0
 40
1.0
 40
1.0
 40
1.0
 10
15.4502856876
 20
24.296433594
 30
0.0
 10
15.3602860643
 20
24.2906792098
 30
0.0
 10
15.1802507886
 20
24.2886458054
 30
0.0
 10
14.9144865306
 20
24.3132207497
 30
0.0
 10
14.6604672635
 20
24.3647488736
 30
0.0
 10
14.4262990726
 20
24.4415092219
 30
0.0
 10
14.2193002949
 20
24.5412450298
 30
0.0
 10
14.0458099456
 20
24.6610675536
 30
0.0
 10
13.9114549077
 20
24.7976966118
 30
0.0
 10
13.8485738007
 20
24.9022297543
 30
0.0
 10
13.8266238305
 20
24.9550141307
 30
0.0
  0
SPLINE
  5
29C
100
AcDbEntity
  8
0
100
AcDbSpline
 62
7
  6
BYLAYER
 70
0
 71
3
 72
21
 73
17
 74
0
 42
0.0000001
 43
0.0000001
 44
0.0000000001
 40
0.0
 40
0.0
 40
0.0
 40
0.0
 40
0.0451042553
 40
0.0917445725
 40
0.1404094431
 40
0.1915120149
 40
0.2453444315
 40
0.3020561432
 40
0.3616930948
 40
0.4242039027
 40
0.4894596181
 40
0.5572561239
 40
0.6273361169
 40
0.6993923706
 40
0.8479741701
 40
1.0
 40
1.0
 40
1.0
 40
1.0
 10
25.0169920588
 20
21.8311298383
 30
0.0
 10
24.9967871841
 20
21.9364628058
 30
0.0
 10
24.9388319021
 20
22.1477951146
 30
0.0
 10
24.8042541935
 20
22.4544882751
 30
0.0
 10
24.6220841025
 20
22.7523220237
 30
0.0
 10
24.394243043
 20
23.0388433302
 30
0.0
 10
24.1226602745
 20
23.311854956
 30
0.0
 10
23.8096844321
 20
23.5693323944
 30
0.0
 10
23.4578265889
 20
23.8091791406
 30
0.0
 10
23.0700081817
 20
24.029588712
 30
0.0
 10
22.6493515584
 20
24.2287594505
 30
0.0
 10
22.1993019239
 20
24.405139389
 30
0.0
 10
21.7235046431
 20
24.5572720821
 30
0.0
 10
21.0532209144
 20
24.7278629066
 30
0.0
 10
20.1768990242
 20
24.8717604567
 30
0.0
 10
19.4617293185
 20
24.9121501854
 30
0.0
 10
19.1002310832
 20
24.9137700651
 30
0.0
  0
SPLINE
  5
29D
100
AcDbEntity
  8
0
100
AcDbSpline
 62
7
  6
BYLAYER
 70
0
 71
3
 72
16
 73
12
 74
0
 42
0.0000001
 43
0.0000001
 44
0.0000000001
 40
0.0
 40
0.0
 40
0.0
 40
0.0
 40
0.1526752562
 40
0.2969785833
 40
0.432506892
 40
0.5592935549
 40
0.6779197705
 40
0.7895701008
 40
0.8960709234
 40
0.9482046948
 40
1.0
 40
1.0
 40
1.0
 40
1.0
 10
15.4861954656
 20
24.2351496255
 30
0.0
 10
15.3032393636
 20
24.1570446301
 30
0.0
 10
14.9536017504
 20
23.9897595793
 30
0.0
 10
14.4705024435
 20
23.6977334104
 30
0.0
 10
14.0488801822
 20
23.3748966231
 30
0.0
 10
13.6945144941
 20
23.0252417184
 30
0.0
 10
13.4123937725
 20
22.652991548
 30
0.0
 10
13.2068255609
 20
22.2628899482
 30
0.0
 10
13.1017331072
 20
21.9242652371
 30
0.0
 10
13.0603298491
 20
21.6528464222
 30
0.0
 10
13.053477374
 20
21.5173211603
 30
0.0
 10
13.0534823207
 20
21.4498337114
 30
0.0
  0
SPLINE
  5
29E
100
AcDbEntity
  8
0
100
AcDbSpline
 62
7
  6
BYLAYER
 70
0
 71
3
 72
17
 73
13
 74
0
 42
0.0000001
 43
0.0000001
 44
0.0000000001
 40
0.0
 40
0.0
 40
0.0
 40
0.0
 40
0.0445656611
 40
0.0908407749
 40
0.1904299665
 40
0.2446314391
 40
0.3018905875
 40
0.4253419636
 40
0.559666048
 40
0.7023930982
 40
0.8504231846
 40
1.0
 40
1.0
 40
1.0
 40
1.0
 10
22.8290719217
 20
31.2494383826
 30
0.0
 10
22.822860506
 20
31.2776581589
 30
0.0
 10
22.8054111936
 20
31.3342290666
 30
0.0
 10
22.7511074141
 20
31.4455458966
 30
0.0
 10
22.669595677
 20
31.5486056437
 30
0.0
 10
22.5681568223
 20
31.6406288016
 30
0.0
 10
22.4454499042
 20
31.7312869376
 30
0.0
 10
22.2650432872
 20
31.8292439304
 30
0.0
 10
22.0203245649
 20
31.9183530705
 30
0.0
 10
21.7507252698
 20
31.9789036779
 30
0.0
 10
21.466187711
 20
32.008587892
 30
0.0
 10
21.2727564022
 20
32.0071529649
 30
0.0
 10
21.1759720822
 20
32.0009647817
 30
0.0
  0
SPLINE
  5
29F
100
AcDbEntity
  8
0
100
AcDbSpline
 62
7
  6
BYLAYER
 70
0
 71
3
 72
17
 73
13
 74
0
 42
0.0000001
 43
0.0000001
 44
0.0000000001
 40
0.0
 40
0.0
 40
0.0
 40
0.0
 40
0.045924751
 40
0.0925796472
 40
0.1406723763
 40
0.1908031042
 40
0.2986566307
 40
0.418393791
 40
0.5501618559
 40
0.692631289
 40
0.8436313572
 40
1.0
 40
1.0
 40
1.0
 40
1.0
 10
11.1381134511
 20
31.5227423775
 30
0.0
 10
11.1381044546
 20
31.549147164
 30
0.0
 10
11.1423645146
 20
31.6024703999
 30
0.0
 10
11.1613618384
 20
31.6813959132
 30
0.0
 10
11.1927695022
 20
31.7588666363
 30
0.0
 10
11.2521752966
 20
31.8617556993
 30
0.0
 10
11.3580361967
 20
31.9833720972
 30
0.0
 10
11.5232500927
 20
32.1092213942
 30
0.0
 10
11.7242870743
 20
32.2154673452
 30
0.0
 10
11.9547807402
 20
32.2990187577
 30
0.0
 10
12.2073492082
 20
32.3572151147
 30
0.0
 10
12.3832791531
 20
32.3777564985
 30
0.0
 10
12.4730012969
 20
32.3834931413
 30
0.0
  0
SPLINE
  5
2A0
100
AcDbEntity
  8
0
100
AcDbSpline
 62
7
  6
BYLAYER
 70
0
 71
3
 72
9
 73
5
 74
0
 42
0.0000001
 43
0.0000001
 44
0.0000000001
 40
0.0
 40
0.0
 40
0.0
 40
0.0
 40
0.4972194703
 40
1.0
 40
1.0
 40
1.0
 40
1.0
 10
13.8636130184
 20
42.4503254516
 30
0.0
 10
14.2228531387
 20
42.5058453878
 30
0.0
 10
14.950811516
 20
42.5843025496
 30
0.0
 10
15.6827771659
 20
42.5988298779
 30
0.0
 10
16.0502449035
 20
42.5901340382
 30
0.0
  0
SPLINE
  5
2A1
100
AcDbEntity
  8
0
100
AcDbSpline
 62
7
  6
BYLAYER
 70
0
 71
3
 72
9
 73
5
 74
0
 42
0.0000001
 43
0.0000001
 44
0.0000000001
 40
0.0
 40
0.0
 40
0.0
 40
0.0
 40
0.5064096871
 40
1.0
 40
1.0
 40
1.0
 40
1.0
 10
22.8029984174
 20
39.4689037422
 30
0.0
 10
22.8498295968
 20
39.3679000387
 30
0.0
 10
22.9310339643
 20
39.162977813
 30
0.0
 10
22.986481636
 20
38.9495547289
 30
0.0
 10
23.0069240299
 20
38.8429835153
 30
0.0
  0
SPLINE
  5
2A2
100
AcDbEntity
  8
0
100
AcDbSpline
 62
7
  6
BYLAYER
 70
0
 71
3
 72
15
 73
11
 74
0
 42
0.0000001
 43
0.0000001
 44
0.0000000001
 40
0.0
 40
0.0
 40
0.0
 40
0.0
 40
0.1092671864
 40
0.2215636998
 40
0.3378024923
 40
0.4588003672
 40
0.5851994225
 40
0.7174068077
 40
0.8556533134
 40
1.0
 40
1.0
 40
1.0
 40
1.0
 10
6.1803713805
 20
40.2982870621
 30
0.0
 10
6.2081937624
 20
40.153242161
 30
0.0
 10
6.2844142709
 20
39.8626020318
 30
0.0
 10
6.4554004213
 20
39.4380704086
 30
0.0
 10
6.6832420675
 20
39.0229986422
 30
0.0
 10
6.96615854
 20
38.6199781582
 30
0.0
 10
7.3023916017
 20
38.2313603411
 30
0.0
 10
7.6897322286
 20
37.8592792231
 30
0.0
 10
8.1258718322
 20
37.5060402753
 30
0.0
 10
8.440677815
 20
37.2890049302
 30
0.0
 10
8.6050649987
 20
37.1839222321
 30
0.0
  0
SPLINE
  5
2A3
100
AcDbEntity
  8
0
100
AcDbSpline
 62
7
  6
BYLAYER
 70
0
 71
3
 72
35
 73
31
 74
0
 42
0.0000001
 43
0.0000001
 44
0.0000000001
 40
0.0
 40
0.0
 40
0.0
 40
0.0
 40
0.0303958572
 40
0.0619747527
 40
0.0946710635
 40
0.1283976029
 40
0.1630525801
 40
0.1985183089
 40
0.2713396478
 40
0.345757852
 40
0.4205636624
 40
0.4945284663
 40
0.5308317935
 40
0.5664876841
 40
0.6013643611
 40
0.6353426542
 40
0.6683148885
 40
0.7001914435
 40
0.7308993274
 40
0.760390097
 40
0.7886383895
 40
0.8156505717
 40
0.8414639931
 40
0.8661565746
 40
0.889844333
 40
0.9126852948
 40
0.9348764784
 40
0.9566559288
 40
0.9782815246
 40
1.0
 40
1.0
 40
1.0
 40
1.0
 10
8.6050649987
 20
37.1839222321
 30
0.0
 10
8.7777312225
 20
37.0735472486
 30
0.0
 10
9.1381198762
 20
36.8613288751
 30
0.0
 10
9.7086475877
 20
36.5742594336
 30
0.0
 10
10.3163905921
 20
36.3139920294
 30
0.0
 10
10.9575345979
 20
36.0820190938
 30
0.0
 10
11.6282058571
 20
35.879849432
 30
0.0
 10
12.5643743792
 20
35.6495797817
 30
0.0
 10
13.7812018276
 20
35.4451447136
 30
0.0
 10
15.2761940737
 20
35.3347754701
 30
0.0
 10
16.7827339915
 20
35.3598922778
 30
0.0
 10
18.0252539463
 20
35.4940434695
 30
0.0
 10
18.9936636058
 20
35.6693426623
 30
0.0
 10
19.695605187
 20
35.8322731135
 30
0.0
 10
20.3732428949
 20
36.0265346543
 30
0.0
 10
21.0224558212
 20
36.2508394641
 30
0.0
 10
21.6392225122
 20
36.5039263386
 30
0.0
 10
22.2198017542
 20
36.7841437212
 30
0.0
 10
22.7605879235
 20
37.0899093819
 30
0.0
 10
23.2583250837
 20
37.4192697793
 30
0.0
 10
23.7098868552
 20
37.7703730598
 30
0.0
 10
24.1125698561
 20
38.14101621
 30
0.0
 10
24.4637695954
 20
38.5291254589
 30
0.0
 10
24.7613517225
 20
38.9323268373
 30
0.0
 10
25.0032229968
 20
39.348329287
 30
0.0
 10
25.1878558269
 20
39.7745221049
 30
0.0
 10
25.3137351994
 20
40.208333403
 30
0.0
 10
25.379950603
 20
40.6469764404
 30
0.0
 10
25.3857829451
 20
41.087313431
 30
0.0
 10
25.349776891
 20
41.3783693631
 30
0.0
 10
25.3221923512
 20
41.5221743347
 30
0.0
  0
SPLINE
  5
2A4
100
AcDbEntity
  8
0
100
AcDbSpline
 62
7
  6
BYLAYER
 70
0
 71
3
 72
38
 73
34
 74
0
 42
0.0000001
 43
0.0000001
 44
0.0000000001
 40
0.0
 40
0.0
 40
0.0
 40
0.0
 40
0.0225498046
 40
0.0450594164
 40
0.0679350418
 40
0.091576675
 40
0.1163147175
 40
0.1423963182
 40
0.1699858742
 40
0.1991708242
 40
0.2299662574
 40
0.2623284165
 40
0.2961644382
 40
0.331338211
 40
0.3676816141
 40
0.4049977519
 40
0.4430696738
 40
0.481664457
 40
0.5594125135
 40
0.5980989575
 40
0.6363219679
 40
0.6738451419
 40
0.7104474823
 40
0.7459264053
 40
0.7801062541
 40
0.8128426872
 40
0.8440298576
 40
0.873612643
 40
0.9015912136
 40
0.9280321044
 40
0.9530817046
 40
0.9769746384
 40
1.0
 40
1.0
 40
1.0
 40
1.0
 10
7.381871658
 20
40.3751084314
 30
0.0
 10
7.3518089986
 20
40.5318324484
 30
0.0
 10
7.3176780895
 20
40.8506841384
 30
0.0
 10
7.3487840917
 20
41.3326845235
 30
0.0
 10
7.4623083736
 20
41.8101195358
 30
0.0
 10
7.6565046549
 20
42.2776391901
 30
0.0
 10
7.9287918173
 20
42.7308106593
 30
0.0
 10
8.2762111556
 20
43.1653596935
 30
0.0
 10
8.6950391553
 20
43.5774842983
 30
0.0
 10
9.1812068118
 20
43.9634676972
 30
0.0
 10
9.7300206434
 20
44.3198545748
 30
0.0
 10
10.3362516306
 20
44.6434085743
 30
0.0
 10
10.9941741626
 20
44.9310675841
 30
0.0
 10
11.6975034355
 20
45.1802326622
 30
0.0
 10
12.4395769261
 20
45.3884697628
 30
0.0
 10
13.2132934787
 20
45.5538544001
 30
0.0
 10
14.0113148766
 20
45.6748202793
 30
0.0
 10
15.0998914241
 20
45.7754694912
 30
0.0
 10
16.1998125583
 20
45.7830786703
 30
0.0
 10
17.2914077241
 20
45.697684883
 30
0.0
 10
18.0942529063
 20
45.5879078246
 30
0.0
 10
18.8746475824
 20
45.4333437771
 30
0.0
 10
19.6251998946
 20
45.2355303113
 30
0.0
 10
20.3387223716
 20
44.9962620213
 30
0.0
 10
21.0084424595
 20
44.7178617754
 30
0.0
 10
21.6279876545
 20
44.4029216056
 30
0.0
 10
22.1914643471
 20
44.0543448876
 30
0.0
 10
22.6935593032
 20
43.6753809625
 30
0.0
 10
23.1293958125
 20
43.2693624334
 30
0.0
 10
23.4948074362
 20
42.8400299942
 30
0.0
 10
23.786040436
 20
42.3910356525
 30
0.0
 10
23.9996630955
 20
41.9266910225
 30
0.0
 10
24.0899954175
 20
41.6053821642
 30
0.0
 10
24.1206920738
 20
41.4453529655
 30
0.0
  0
SPLINE
  5
2A5
100
AcDbEntity
  8
0
100
AcDbSpline
 62
7
  6
BYLAYER
 70
0
 71
3
 72
38
 73
34
 74
0
 42
0.0000001
 43
0.0000001
 44
0.0000000001
 40
0.0
 40
0.0
 40
0.0
 40
0.0
 40
0.0227830755
 40
0.0463820975
 40
0.0710683393
 40
0.0970651995
 40
0.124516287
 40
0.1534938536
 40
0.1840088368
 40
0.2160209985
 40
0.2494444984
 40
0.2841561454
 40
0.3200032981
 40
0.3568071696
 40
0.3943706193
 40
0.4324811709
 40
0.509418848
 40
0.5478162337
 40
0.5858520896
 40
0.6233049221
 40
0.6599650284
 40
0.6956371578
 40
0.7301472306
 40
0.7633465916
 40
0.7951175128
 40
0.8253820043
 40
0.8541061917
 40
0.8813116919
 40
0.9070826737
 40
0.9315732865
 40
0.955011789
 40
0.9776985862
 40
1.0
 40
1.0
 40
1.0
 40
1.0
 10
6.0605269208
 20
39.9231983748
 30
0.0
 10
6.094806168
 20
39.7444922507
 30
0.0
 10
6.1944569574
 20
39.3858308074
 30
0.0
 10
6.4282438717
 20
38.8665102145
 30
0.0
 10
6.7458856477
 20
38.3633105639
 30
0.0
 10
7.1439213249
 20
37.8807657423
 30
0.0
 10
7.6185266972
 20
37.4227258733
 30
0.0
 10
8.1654628228
 20
36.9931359349
 30
0.0
 10
8.7797642027
 20
36.595532905
 30
0.0
 10
9.456017171
 20
36.2333467049
 30
0.0
 10
10.1882428495
 20
35.9097183496
 30
0.0
 10
10.9699406797
 20
35.627418086
 30
0.0
 10
11.7942080464
 20
35.3890035351
 30
0.0
 10
12.6536946924
 20
35.1965132531
 30
0.0
 10
13.5408128098
 20
35.0516766834
 30
0.0
 10
14.7534156478
 20
34.9234976487
 30
0.0
 10
15.9815924085
 20
34.8957412425
 30
0.0
 10
17.2048502867
 20
34.968145125
 30
0.0
 10
18.1089850545
 20
35.0721294599
 30
0.0
 10
18.9920690732
 20
35.2248951583
 30
0.0
 10
19.8463033456
 20
35.4250291028
 30
0.0
 10
20.6640647941
 20
35.6708325415
 30
0.0
 10
21.4381107879
 20
35.9600784074
 30
0.0
 10
22.1615794419
 20
36.2902404763
 30
0.0
 10
22.8280498791
 20
36.6584794301
 30
0.0
 10
23.4316657177
 20
37.06154707
 30
0.0
 10
23.9670244064
 20
37.4960904795
 30
0.0
 10
24.4293667865
 20
37.9583959796
 30
0.0
 10
24.8144496108
 20
38.4446336867
 30
0.0
 10
25.1184718505
 20
38.9507604835
 30
0.0
 10
25.3383754426
 20
39.4723932422
 30
0.0
 10
25.47148108
 20
40.0046975375
 30
0.0
 10
25.5012690729
 20
40.3646874191
 30
0.0
 10
25.5012534443
 20
40.5428046099
 30
0.0
  0
SPLINE
  5
2A6
100
AcDbEntity
  8
0
100
AcDbSpline
 62
7
  6
BYLAYER
 70
0
 71
3
 72
18
 73
14
 74
0
 42
0.0000001
 43
0.0000001
 44
0.0000000001
 40
0.0
 40
0.0
 40
0.0
 40
0.0
 40
0.153075179
 40
0.3040673596
 40
0.4486051146
 40
0.5830867971
 40
0.7049279311
 40
0.7608508466
 40
0.8134828963
 40
0.8631230259
 40
0.9102838653
 40
0.9556484809
 40
1.0
 40
1.0
 40
1.0
 40
1.0
 10
21.1759720822
 20
32.9399425614
 30
0.0
 10
21.280620483
 20
32.9466335573
 30
0.0
 10
21.4895168639
 20
32.9472456443
 30
0.0
 10
21.7954356867
 20
32.911107288
 30
0.0
 10
22.0820761725
 20
32.8393371864
 30
0.0
 10
22.3371970565
 20
32.7350638826
 30
0.0
 10
22.5199651907
 20
32.6211158062
 30
0.0
 10
22.6387517588
 20
32.5167124082
 30
0.0
 10
22.7111461794
 20
32.4356666037
 30
0.0
 10
22.7685170303
 20
32.3504615197
 30
0.0
 10
22.8101585186
 20
32.2619494231
 30
0.0
 10
22.8353648461
 20
32.1711670188
 30
0.0
 10
22.8410723815
 20
32.1095740119
 30
0.0
 10
22.8410790034
 20
32.0791916027
 30
0.0
  0
SPLINE
  5
2A7
100
AcDbEntity
  8
0
100
AcDbSpline
 62
7
  6
BYLAYER
 70
0
 71
3
 72
23
 73
19
 74
0
 42
0.0000001
 43
0.0000001
 44
0.0000000001
 40
0.0
 40
0.0
 40
0.0
 40
0.0
 40
0.0458163616
 40
0.0925018588
 40
0.140688012
 40
0.1909438081
 40
0.2436976738
 40
0.2992430548
 40
0.3577485635
 40
0.4192694127
 40
0.4837627302
 40
0.5510982846
 40
0.6210773902
 40
0.693441675
 40
0.7678761945
 40
0.8440360236
 40
0.9215631747
 40
1.0
 40
1.0
 40
1.0
 40
1.0
 10
25.5001803193
 20
38.1719843479
 30
0.0
 10
25.4957542317
 20
38.0020026182
 30
0.0
 10
25.4596222756
 20
37.6589510758
 30
0.0
 10
25.3255089588
 20
37.1523943712
 30
0.0
 10
25.1125814098
 20
36.655682235
 30
0.0
 10
24.8231520517
 20
36.1731385797
 30
0.0
 10
24.4599856484
 20
35.7084168712
 30
0.0
 10
24.0261864175
 20
35.265152801
 30
0.0
 10
23.5254284551
 20
34.8466988247
 30
0.0
 10
22.9618063281
 20
34.4562494663
 30
0.0
 10
22.3398473075
 20
34.096887377
 30
0.0
 10
21.6645918297
 20
33.7713831115
 30
0.0
 10
20.941461504
 20
33.4823373794
 30
0.0
 10
20.1762935428
 20
33.232089494
 30
0.0
 10
19.3752944748
 20
33.0225815243
 30
0.0
 10
18.5448451534
 20
32.8555386923
 30
0.0
 10
17.6918038
 20
32.7323651555
 30
0.0
 10
17.1149979243
 20
32.6802925211
 30
0.0
 10
16.8244866896
 20
32.6617178513
 30
0.0
  0
SPLINE
  5
2A8
100
AcDbEntity
  8
0
100
AcDbSpline
 62
7
  6
BYLAYER
 70
0
 71
3
 72
37
 73
33
 74
0
 42
0.0000001
 43
0.0000001
 44
0.0000000001
 40
0.0
 40
0.0
 40
0.0
 40
0.0
 40
0.0223033437
 40
0.0449912502
 40
0.0684299877
 40
0.0929214235
 40
0.1186935103
 40
0.1458996194
 40
0.1746251633
 40
0.2048902963
 40
0.2366625027
 40
0.2698629118
 40
0.3043739193
 40
0.340047535
 40
0.4141304283
 40
0.4905365412
 40
0.5290690678
 40
0.5675055127
 40
0.6056171563
 40
0.643181798
 40
0.6799868937
 40
0.7158348944
 40
0.7505479755
 40
0.7839721564
 40
0.8159855764
 40
0.8465013356
 40
0.8754798935
 40
0.9029318952
 40
0.9289289202
 40
0.9536166091
 40
0.9772174007
 40
1.0
 40
1.0
 40
1.0
 40
1.0
 10
7.451314167
 20
40.5428046116
 30
0.0
 10
7.4513013905
 20
40.6944406754
 30
0.0
 10
7.4766464428
 20
41.0009053457
 30
0.0
 10
7.5899701834
 20
41.4540517037
 30
0.0
 10
7.7771770767
 20
41.898102744
 30
0.0
 10
8.0359796104
 20
42.3289618178
 30
0.0
 10
8.3638092717
 20
42.7428736612
 30
0.0
 10
8.7573748432
 20
43.1364482586
 30
0.0
 10
9.213141122
 20
43.506334514
 30
0.0
 10
9.7269726051
 20
43.8494832247
 30
0.0
 10
10.2943355606
 20
44.1629452442
 30
0.0
 10
10.9102107318
 20
44.4439953778
 30
0.0
 10
11.5691457731
 20
44.690259102
 30
0.0
 10
12.5090635369
 20
44.9726927954
 30
0.0
 10
13.7530091739
 20
45.2229276215
 30
0.0
 10
15.0361033108
 20
45.3334653135
 30
0.0
 10
16.0792869286
 20
45.3381372635
 30
0.0
 10
16.8611256898
 20
45.2989254072
 30
0.0
 10
17.6330473859
 20
45.2172795769
 30
0.0
 10
18.3882127357
 20
45.0940118705
 30
0.0
 10
19.1198816153
 20
44.9301412222
 30
0.0
 10
19.8215581014
 20
44.7271681632
 30
0.0
 10
20.4870115006
 20
44.4868795829
 30
0.0
 10
21.1103275617
 20
44.2113477003
 30
0.0
 10
21.6860212584
 20
43.9030543961
 30
0.0
 10
22.2089559565
 20
43.5645663576
 30
0.0
 10
22.6745493749
 20
43.1988635647
 30
0.0
 10
23.0785760599
 20
42.808951969
 30
0.0
 10
23.4174113313
 20
42.3981669619
 30
0.0
 10
23.6878257871
 20
41.9698011035
 30
0.0
 10
23.88682561
 20
41.5277018427
 30
0.0
 10
23.9716678831
 20
41.2223853731
 30
0.0
 10
24.000847614
 20
41.0702642782
 30
0.0
  0
SPLINE
  5
2A9
100
AcDbEntity
  8
0
100
AcDbSpline
 62
7
  6
BYLAYER
 70
0
 71
3
 72
12
 73
8
 74
0
 42
0.0000001
 43
0.0000001
 44
0.0000000001
 40
0.0
 40
0.0
 40
0.0
 40
0.0
 40
0.0926553325
 40
0.2041092598
 40
0.4654720196
 40
0.7447987715
 40
1.0
 40
1.0
 40
1.0
 40
1.0
 10
12.5280374417
 20
30.7493472304
 30
0.0
 10
12.5239760274
 20
30.7705203796
 30
0.0
 10
12.5163018994
 20
30.8174050325
 30
0.0
 10
12.5021297715
 20
30.9247889385
 30
0.0
 10
12.4877459361
 20
31.0758982003
 30
0.0
 10
12.4763693814
 20
31.260758856
 30
0.0
 10
12.4730012969
 20
31.3851348198
 30
0.0
 10
12.4730012969
 20
31.4445153616
 30
0.0
  0
SPLINE
  5
2AA
100
AcDbEntity
  8
0
100
AcDbSpline
 62
7
  6
BYLAYER
 70
0
 71
3
 72
13
 73
9
 74
0
 42
0.0000001
 43
0.0000001
 44
0.0000000001
 40
0.0
 40
0.0
 40
0.0
 40
0.0
 40
0.2805992243
 40
0.4158101956
 40
0.5459254678
 40
0.6700354754
 40
0.7874064116
 40
1.0
 40
1.0
 40
1.0
 40
1.0
 10
12.4730012971
 20
31.4445153616
 30
0.0
 10
12.3545816037
 20
31.4369438586
 30
0.0
 10
12.1794633952
 20
31.4136233846
 30
0.0
 10
11.9554057277
 20
31.3572429926
 30
0.0
 10
11.7992758925
 20
31.3042524036
 30
0.0
 10
11.6552454602
 20
31.2407226208
 30
0.0
 10
11.4878097099
 20
31.1465364253
 30
0.0
 10
11.3769903498
 20
31.0585785289
 30
0.0
 10
11.3158474806
 20
30.9926689353
 30
0.0
  0
SPLINE
  5
2AB
100
AcDbEntity
  8
0
100
AcDbSpline
 62
7
  6
BYLAYER
 70
0
 71
3
 72
13
 73
9
 74
0
 42
0.0000001
 43
0.0000001
 44
0.0000000001
 40
0.0
 40
0.0
 40
0.0
 40
0.0
 40
0.2693901735
 40
0.5281581418
 40
0.6519644561
 40
0.7714572632
 40
0.8871204483
 40
1.0
 40
1.0
 40
1.0
 40
1.0
 10
22.3409675375
 20
30.7232844981
 30
0.0
 10
22.3980705479
 20
30.7227888846
 30
0.0
 10
22.5107925134
 20
30.7374554742
 30
0.0
 10
22.63902903
 20
30.7950529424
 30
0.0
 10
22.7227550444
 20
30.8615138799
 30
0.0
 10
22.7734200951
 20
30.9188729359
 30
0.0
 10
22.8111872925
 20
30.9827745983
 30
0.0
 10
22.8270406638
 20
31.0289874831
 30
0.0
 10
22.8323823947
 20
31.0523117549
 30
0.0
  0
SPLINE
  5
2AC
100
AcDbEntity
  8
0
100
AcDbSpline
 62
7
  6
BYLAYER
 70
0
 71
3
 72
12
 73
8
 74
0
 42
0.0000001
 43
0.0000001
 44
0.0000000001
 40
0.0
 40
0.0
 40
0.0
 40
0.0
 40
0.2552012285
 40
0.5345279804
 40
0.7958907402
 40
0.9073446675
 40
1.0
 40
1.0
 40
1.0
 40
1.0
 10
21.1759720881
 20
32.0009647821
 30
0.0
 10
21.1759720881
 20
31.9415842403
 30
0.0
 10
21.1793401726
 20
31.8172082765
 30
0.0
 10
21.1907167273
 20
31.6323476207
 30
0.0
 10
21.2051005627
 20
31.481238359
 30
0.0
 10
21.2192726906
 20
31.373854453
 30
0.0
 10
21.2269468186
 20
31.3269698
 30
0.0
 10
21.2310082329
 20
31.3057966509
 30
0.0
  0
SPLINE
  5
2AD
100
AcDbEntity
  8
0
100
AcDbSpline
 62
7
  6
BYLAYER
 70
0
 71
3
 72
15
 73
11
 74
0
 42
0.0000001
 43
0.0000001
 44
0.0000000001
 40
0.0
 40
0.0
 40
0.0
 40
0.0
 40
0.1553227086
 40
0.3055589103
 40
0.447687483
 40
0.5796270822
 40
0.7000215241
 40
0.8088177801
 40
0.9076254258
 40
1.0
 40
1.0
 40
1.0
 40
1.0
 10
12.528045887
 20
30.7493477704
 30
0.0
 10
12.4698438241
 20
30.7456264544
 30
0.0
 10
12.3556231026
 20
30.7324498743
 30
0.0
 10
12.1913195652
 20
30.6953824386
 30
0.0
 10
12.040691434
 20
30.6422278508
 30
0.0
 10
11.9083360092
 20
30.5746199604
 30
0.0
 10
11.7981907544
 20
30.4943892648
 30
0.0
 10
11.7136616586
 20
30.4035332043
 30
0.0
 10
11.6577459992
 20
30.3043593928
 30
0.0
 10
11.6413009512
 20
30.2331677086
 30
0.0
 10
11.6389068412
 20
30.1985654274
 30
0.0
  0
SPLINE
  5
2AE
100
AcDbEntity
  8
0
100
AcDbSpline
 62
7
  6
BYLAYER
 70
0
 71
3
 72
18
 73
14
 74
0
 42
0.0000001
 43
0.0000001
 44
0.0000000001
 40
0.0
 40
0.0
 40
0.0
 40
0.0
 40
0.0443940386
 40
0.0896999665
 40
0.136727901
 40
0.1861913528
 40
0.2386347077
 40
0.2943879351
 40
0.41600423
 40
0.5504709903
 40
0.6951979363
 40
0.8465235002
 40
1.0
 40
1.0
 40
1.0
 40
1.0
 10
22.3409674097
 20
30.7232795903
 30
0.0
 10
22.3414984773
 20
30.7436749823
 30
0.0
 10
22.3387167854
 20
30.7850793075
 30
0.0
 10
22.3232063127
 20
30.8462935343
 30
0.0
 10
22.2965078825
 20
30.9060676378
 30
0.0
 10
22.2590678921
 20
30.9636607602
 30
0.0
 10
22.2113837919
 20
31.0184936546
 30
0.0
 10
22.1326337773
 20
31.0892039754
 30
0.0
 10
22.0107206135
 20
31.1664753797
 30
0.0
 10
21.8399025004
 20
31.2372333025
 30
0.0
 10
21.6475041646
 20
31.2860053026
 30
0.0
 10
21.4418788501
 20
31.3106338543
 30
0.0
 10
21.3013897123
 20
31.3102966926
 30
0.0
 10
21.2309997771
 20
31.3057961102
 30
0.0
  0
SPLINE
  5
2AF
100
AcDbEntity
  8
0
100
AcDbSpline
 62
7
  6
BYLAYER
 70
0
 71
3
 72
9
 73
5
 74
0
 42
0.0000001
 43
0.0000001
 44
0.0000000001
 40
0.0
 40
0.0
 40
0.0
 40
0.0
 40
0.5050034002
 40
1.0
 40
1.0
 40
1.0
 40
1.0
 10
13.2192368633
 20
20.2329015596
 30
0.0
 10
13.1903380014
 20
20.3023963421
 30
0.0
 10
13.1397372018
 20
20.4428756646
 30
0.0
 10
13.1038066769
 20
20.5878345983
 30
0.0
 10
13.0899090494
 20
20.6602863394
 30
0.0
  0
SPLINE
  5
2B0
100
AcDbEntity
  8
0
100
AcDbSpline
 62
7
  6
BYLAYER
 70
0
 71
3
 72
21
 73
17
 74
0
 42
0.0000001
 43
0.0000001
 44
0.0000000001
 40
0.0
 40
0.0
 40
0.0
 40
0.0
 40
0.1463961928
 40
0.2915464298
 40
0.362715759
 40
0.4324370397
 40
0.5003744356
 40
0.5662255486
 40
0.6297270358
 40
0.6906685795
 40
0.7489005835
 40
0.8043460191
 40
0.8570122423
 40
0.9070079979
 40
0.9545665801
 40
1.0
 40
1.0
 40
1.0
 40
1.0
 10
16.8244866896
 20
32.6617178513
 30
0.0
 10
16.2393177441
 20
32.624303395
 30
0.0
 10
15.0692426497
 20
32.6109404777
 30
0.0
 10
13.6198059015
 20
32.7451521376
 30
0.0
 10
12.4908961178
 20
32.9434646504
 30
0.0
 10
11.6760697165
 20
33.1344004436
 30
0.0
 10
10.8942916531
 20
33.3668898499
 30
0.0
 10
10.151847567
 20
33.6390538057
 30
0.0
 10
9.4547526203
 20
33.9487613485
 30
0.0
 10
8.8086060299
 20
34.2935008366
 30
0.0
 10
8.218613997
 20
34.6705703804
 30
0.0
 10
7.6895668539
 20
35.0770587158
 30
0.0
 10
7.225715023
 20
35.5097444958
 30
0.0
 10
6.8308766197
 20
35.9654491571
 30
0.0
 10
6.5085893063
 20
36.4405292163
 30
0.0
 10
6.3405571189
 20
36.7744648531
 30
0.0
 10
6.2706846184
 20
36.9424913397
 30
0.0
  0
SPLINE
  5
2B1
100
AcDbEntity
  8
0
100
AcDbSpline
 62
7
  6
BYLAYER
 70
0
 71
3
 72
35
 73
31
 74
0
 42
0.0000001
 43
0.0000001
 44
0.0000000001
 40
0.0
 40
0.0
 40
0.0
 40
0.0
 40
0.0227922567
 40
0.0464104513
 40
0.0711195851
 40
0.0971390002
 40
0.1246149432
 40
0.1536163904
 40
0.1841538563
 40
0.2161865933
 40
0.2496280561
 40
0.2843553254
 40
0.3569922452
 40
0.4326426336
 40
0.5095749779
 40
0.5859638667
 40
0.6234066751
 40
0.6600557317
 40
0.6957159162
 40
0.7302143588
 40
0.763401401
 40
0.7951617911
 40
0.8254154836
 40
0.8541307715
 40
0.8813278428
 40
0.9070923938
 40
0.931578347
 40
0.9550122093
 40
0.9776977455
 40
1.0
 40
1.0
 40
1.0
 40
1.0
 10
13.0912387923
 20
21.061668234
 30
0.0
 10
13.1127027876
 20
20.9517855726
 30
0.0
 10
13.1747631036
 20
20.7312721691
 30
0.0
 10
13.3195600939
 20
20.4120575612
 30
0.0
 10
13.5159009953
 20
20.102821722
 30
0.0
 10
13.7615780201
 20
19.8063174518
 30
0.0
 10
14.0542951281
 20
19.5249563154
 30
0.0
 10
14.3913776145
 20
19.2610732835
 30
0.0
 10
14.7698274555
 20
19.0169072549
 30
0.0
 10
15.1862968461
 20
18.7945555918
 30
0.0
 10
15.6371024648
 20
18.5958743046
 30
0.0
 10
16.2883304358
 20
18.3614943487
 30
0.0
 10
17.1624018402
 20
18.1408281016
 30
0.0
 10
18.261385571
 20
17.9955049014
 30
0.0
 10
19.3880239998
 20
17.9707236704
 30
0.0
 10
20.3236804599
 20
18.0517987376
 30
0.0
 10
21.0523319133
 20
18.1782086404
 30
0.0
 10
21.5775069159
 20
18.3015255362
 30
0.0
 10
22.0802175314
 20
18.4529012235
 30
0.0
 10
22.5560436963
 20
18.6309374643
 30
0.0
 10
23.0007403681
 20
18.8341605782
 30
0.0
 10
23.4104190609
 20
19.0607046527
 30
0.0
 10
23.7814075445
 20
19.3087205295
 30
0.0
 10
24.1104782966
 20
19.5759967906
 30
0.0
 10
24.3946306906
 20
19.8603715173
 30
0.0
 10
24.6312981152
 20
20.1594351669
 30
0.0
 10
24.8181636745
 20
20.4707013229
 30
0.0
 10
24.9533118021
 20
20.7915068889
 30
0.0
 10
25.0351437376
 20
21.1188750604
 30
0.0
 10
25.0534268175
 20
21.3402812697
 30
0.0
 10
25.0534187875
 20
21.4498336749
 30
0.0
  0
SPLINE
  5
2B2
100
AcDbEntity
  8
0
100
AcDbSpline
 62
7
  6
BYLAYER
 70
0
 71
3
 72
31
 73
27
 74
0
 42
0.0000001
 43
0.0000001
 44
0.0000000001
 40
0.0
 40
0.0
 40
0.0
 40
0.0
 40
0.0223152719
 40
0.0450146567
 40
0.0684578629
 40
0.0929547084
 40
0.1187337202
 40
0.1459474474
 40
0.174680092
 40
0.2049524077
 40
0.2367338714
 40
0.2699423981
 40
0.3044634948
 40
0.3401455555
 40
0.414247284
 40
0.490671764
 40
0.5676297673
 40
0.6432932423
 40
0.7159296757
 40
0.784041564
 40
0.8465328684
 40
0.9029033434
 40
0.9289068217
 40
0.9536083135
 40
0.9772199553
 40
1.0
 40
1.0
 40
1.0
 40
1.0
 10
12.5013192703
 20
38.3790732358
 30
0.0
 10
12.501319833
 20
38.4384647923
 30
0.0
 10
12.5112100321
 20
38.5584997281
 30
0.0
 10
12.5556199215
 20
38.7359558376
 30
0.0
 10
12.6289089364
 20
38.9098455862
 30
0.0
 10
12.730302877
 20
39.078514142
 30
0.0
 10
12.8586463561
 20
39.2406013581
 30
0.0
 10
13.0127664945
 20
39.3947014221
 30
0.0
 10
13.1912304128
 20
39.5395288043
 30
0.0
 10
13.3924280962
 20
39.6738953353
 30
0.0
 10
13.6146003532
 20
39.7966092314
 30
0.0
 10
13.8557466361
 20
39.9066870037
 30
0.0
 10
14.1137770554
 20
40.0030755645
 30
0.0
 10
14.4818009369
 20
40.1136978374
 30
0.0
 10
14.9689121708
 20
40.2116549624
 30
0.0
 10
15.5732908033
 20
40.2637058887
 30
0.0
 10
16.1839451562
 20
40.249899813
 30
0.0
 10
16.7794804245
 20
40.1707182829
 30
0.0
 10
17.3391730369
 20
40.0289087019
 30
0.0
 10
17.8437734102
 20
39.8292336487
 30
0.0
 10
18.2758858661
 20
39.5783303403
 30
0.0
 10
18.5713238434
 20
39.3259124351
 30
0.0
 10
18.7530732526
 20
39.1055857141
 30
0.0
 10
18.8589711198
 20
38.937813404
 30
0.0
 10
18.9368643786
 20
38.7646844676
 30
0.0
 10
18.9701120291
 20
38.6451516212
 30
0.0
 10
18.9815335143
 20
38.5856086173
 30
0.0
  0
SPLINE
  5
2B3
100
AcDbEntity
  8
0
100
AcDbSpline
 62
7
  6
BYLAYER
 70
0
 71
3
 72
9
 73
5
 74
0
 42
0.0000001
 43
0.0000001
 44
0.0000000001
 40
0.0
 40
0.0
 40
0.0
 40
0.0
 40
0.4886131001
 40
1.0
 40
1.0
 40
1.0
 40
1.0
 10
10.9804486621
 20
38.0740362892
 30
0.0
 10
11.0011112333
 20
37.9663172372
 30
0.0
 10
11.0655722466
 20
37.7496665725
 30
0.0
 10
11.1683102534
 20
37.5486912459
 30
0.0
 10
11.2284934161
 20
37.4509369462
 30
0.0
  0
ENDSEC
  0
SECTION
  2
OBJECTS
  0
DICTIONARY
  5
C
100
AcDbDictionary
280
0
281
1
  3
ACAD_GROUP
350
D
  3
ACAD_MLINESTYLE
350
17
  3
ACAD_LAYOUT
350
1A
  3
ACAD_PLOTSETTINGS
350
19
  3
ACAD_PLOTSTYLENAME
350
E
  0
DICTIONARY
  5
D
102
{ACAD_REACTORS
330
C
102
}
100
AcDbDictionary
280
0
281
1
  0
ACDBDICTIONARYWDFLT
  5
E
102
{ACAD_REACTORS
330
C
102
}
100
AcDbDictionary
281
1
  3
Normal
350
F
100
AcDbDictionaryWithDefault
340
F
  0
DICTIONARY
  5
17
102
{ACAD_REACTORS
330
C
102
}
100
AcDbDictionary
280
0
281
1
  3
Standard
350
18
  0
DICTIONARY
  5
19
102
{ACAD_REACTORS
330
C
102
}
100
AcDbDictionary
281
1
  0
DICTIONARY
  5
1A
102
{ACAD_REACTORS
330
C
102
}
100
AcDbDictionary
281
1
  3
Model
350
2B4
  3
Layout1
350
2B5
  0
ACDBPLACEHOLDER
  5
F
102
{ACAD_REACTORS
330
E
102
}
  0
MLINESTYLE
  5
18
102
{ACAD_REACTORS
330
17
102
}
100
AcDbMlineStyle
  2
STANDARD
 70
0
  3

 62
256
 51
90.0
 52
90.0
 71
2
 49
0.5
 62
256
  6
BYLAYER
 49
-0.5
 62
256
  6
BYLAYER
  0
LAYOUT
  5
2B4
102
{ACAD_REACTORS
330
1A
102
}
100
AcDbPlotSettings
  1

  2
none_device
  4

  6

 40
0.0
 41
0.0
 42
0.0
 43
0.0
 44
210.0
 45
297.0
 46
0.0
 47
0.0
 48
0.0
 49
0.0
140
0.0
141
0.0
142
1.0
143
1.0
 70
1024
 72
1
 73
0
 74
0
  7

 75
0
147
1.0
148
0.0
149
0.0
100
AcDbLayout
  1
Model
 70
0
 71
0
 10
0.0
 20
0.0
 11
210.0
 21
297.0
 12
0.0
 22
0.0
 32
0.0
 14
0.0
 24
0.0
 34
0.0
 15
0.0
 25
0.0
 35
0.0
146
0.0
 13
0.0
 23
0.0
 33
0.0
 16
1.0
 26
0.0
 36
0.0
 17
0.0
 27
1.0
 37
0.0
 76
0
330
210
345
0
346
0
  0
LAYOUT
  5
2B5
102
{ACAD_REACTORS
330
1A
102
}
100
AcDbPlotSettings
  1

  2
none_device
  4

  6

 40
0.0
 41
0.0
 42
0.0
 43
0.0
 44
210.0
 45
297.0
 46
0.0
 47
0.0
 48
0.0
 49
0.0
140
0.0
141
0.0
142
1.0
143
1.0
 70
0
 72
1
 73
0
 74
0
  7

 75
0
147
1.0
148
0.0
149
0.0
100
AcDbLayout
  1
Layout1
 70
0
 71
1
 10
0.0
 20
0.0
 11
210.0
 21
297.0
 12
0.0
 22
0.0
 32
0.0
 14
0.0
 24
0.0
 34
0.0
 15
0.0
 25
0.0
 35
0.0
146
0.0
 13
0.0
 23
0.0
 33
0.0
 16
1.0
 26
0.0
 36
0.0
 17
0.0
 27
1.0
 37
0.0
 76
0
330
211
345
0
346
0
  0
ENDSEC
  0
EOF
