999
DXF file: C:\Users\sesa63760\Dev\_Creo\CAD\MCADID0004812_3D-CAD\drw0001_1.dxf
999
Pro/ENGINEER 2019471 by Parametric Technology Corporation
  0
SECTION
  2
HEADER
  9
$ACADVER
  1
AC1024
  9
$DWGCODEPAGE
  3
ANSI_1252
  9
$EXTMAX
 10
106.1810433381
 20
150.170332721
 30
0.0
  9
$EXTMIN
 10
0.0
 20
0.0
 30
0.0
  9
$LIMMIN
 10
0.0
 20
0.0
  9
$LIMMAX
 10
106.1810433381
 20
150.170332721
  9
$VIEWCTR
 10
53.090521669
 20
75.0851663605
  9
$VIEWSIZE
 40
150.170332721
  9
$CLAYER
  8
0
  9
$LTSCALE
 40
9.7888809477
  9
$CELTYPE
  6
BYLAYER
  9
$DIMSCALE
 40
1.0
  9
$DIMASZ
 40
1.2640600397
  9
$DIMEXO
 40
1.0
  9
$DIMDLI
 40
6.7632268366
  9
$DIMEXE
 40
1.0
  9
$DIMCEN
 40
1.6018168824
  9
$DIMLFAC
 40
1.0
  9
$DIMBLK
  1
_FILLED
  9
$DIMALT
 70
0
  9
$DIMALTF
 40
0.0393700787
  9
$DIMTXT
 40
1.7696840556
  9
$DIMTOL
 70
1
  9
$DIMLIM
 70
0
  9
$DIMTFAC
 40
1.0
  9
$DIMTP
 40
0.01
  9
$DIMTM
 40
0.01
  9
$DIMGAP
 40
0.625
  9
$DIMDSEP
 70
46
  9
$AUNITS
 70
0
  9
$PDMODE
 70
3
  9
$PDSIZE
 40
0.3125
  9
$HANDSEED
  5
38A
  9
$TILEMODE
 70
1
  9
$MEASUREMENT
 70
1
  9
$INSUNITS
 70
4
  0
ENDSEC
  0
SECTION
  2
CLASSES
  0
CLASS
  1
ACDBDICTIONARYWDFLT
  2
AcDbDictionaryWithDefault
  3
AutoCAD 2000
 90
0
 91
1
280
0
281
0
  0
CLASS
  1
ACDBPLACEHOLDER
  2
AcDbPlaceHolder
  3
AutoCAD 2000
 90
0
 91
1
280
0
281
0
  0
CLASS
  1
LAYOUT
  2
AcDbLayout
  3
AutoCAD 2000
 90
0
 91
0
280
0
281
0
  0
ENDSEC
  0
SECTION
  2
TABLES
  0
TABLE
  2
VPORT
  5
8
100
AcDbSymbolTable
 70
2
  0
VPORT
  5
1F4
100
AcDbSymbolTableRecord
100
AcDbViewportTableRecord
  2
*ACTIVE
 70
0
 10
0.0
 20
0.0
 11
1.0
 21
1.0
 12
53.090521669
 22
75.0851663605
 13
0.0
 23
0.0
 14
1.0
 24
1.0
 15
0.0
 25
0.0
 16
0.0
 26
0.0
 36
1.0
 17
0.0
 27
0.0
 37
0.0
 40
150.170332721
 41
0.7070707071
 42
50.0
 43
0.0
 44
0.0
 50
0.0
 51
0.0
 71
0
 72
100
 73
1
 74
1
 75
0
 76
0
 77
0
 78
0
  0
ENDTAB
  0
TABLE
  2
LTYPE
  5
5
100
AcDbSymbolTable
 70
6
  0
LTYPE
  5
14
100
AcDbSymbolTableRecord
100
AcDbLinetypeTableRecord
  2
BYBLOCK
 70
0
  3

 72
65
 73
0
 40
0.0
  0
LTYPE
  5
15
100
AcDbSymbolTableRecord
100
AcDbLinetypeTableRecord
  2
BYLAYER
 70
0
  3

 72
65
 73
0
 40
0.0
  0
LTYPE
  5
16
100
AcDbSymbolTableRecord
100
AcDbLinetypeTableRecord
  2
CONTINUOUS
 70
64
  3
Solid line
 72
65
 73
0
 40
0.0
  0
LTYPE
  5
1F5
100
AcDbSymbolTableRecord
100
AcDbLinetypeTableRecord
  2
CENTER
 70
64
  3
____ _ ____ _ ____ _ ____ _ ____ _ ____ _ ____
 72
65
 73
4
 40
0.6
 49
0.375
 74
0
 49
-0.075
 74
0
 49
0.075
 74
0
 49
-0.075
 74
0
  0
LTYPE
  5
1F6
100
AcDbSymbolTableRecord
100
AcDbLinetypeTableRecord
  2
HIDDEN
 70
64
  3
- - - - - - - - - - - - - - - - - - - -
 72
65
 73
2
 40
0.2
 49
0.1
 74
0
 49
-0.1
 74
0
  0
LTYPE
  5
1F7
100
AcDbSymbolTableRecord
100
AcDbLinetypeTableRecord
  2
PHANTOM
 70
64
  3
_____ _ _ _____ _ _ _____ _ _ _____
 72
65
 73
6
 40
0.8
 49
0.45
 74
0
 49
-0.05
 74
0
 49
0.1
 74
0
 49
-0.05
 74
0
 49
0.1
 74
0
 49
-0.05
 74
0
  0
LTYPE
  5
1F8
100
AcDbSymbolTableRecord
100
AcDbLinetypeTableRecord
  2
DOT
 70
64
  3
. . . . . . . . . . . . . . . . . . . .
 72
65
 73
2
 40
0.2
 49
0.1
 74
0
 49
-0.1
 74
0
  0
LTYPE
  5
1F9
100
AcDbSymbolTableRecord
100
AcDbLinetypeTableRecord
  2
DASHED
 70
64
  3
- - - - - - - - - - - - - - - - - - - -
 72
65
 73
2
 40
0.2
 49
0.1
 74
0
 49
-0.1
 74
0
  0
ENDTAB
  0
TABLE
  2
LAYER
  5
2
100
AcDbSymbolTable
 70
36
  0
LAYER
  5
10
100
AcDbSymbolTableRecord
100
AcDbLayerTableRecord
  2
0
 70
0
 62
7
  6
CONTINUOUS
370
-3
390
F
  0
LAYER
  5
1FA
100
AcDbSymbolTableRecord
100
AcDbLayerTableRecord
  2
DEFAULT_1
 70
0
 62
7
  6
CENTER
370
-3
390
F
  0
LAYER
  5
1FB
100
AcDbSymbolTableRecord
100
AcDbLayerTableRecord
  2
DEFAULT_2
 70
0
 62
7
  6
HIDDEN
370
-3
390
F
  0
LAYER
  5
1FC
100
AcDbSymbolTableRecord
100
AcDbLayerTableRecord
  2
DEFAULT_3
 70
0
 62
7
  6
PHANTOM
370
-3
390
F
  0
LAYER
  5
1FD
100
AcDbSymbolTableRecord
100
AcDbLayerTableRecord
  2
00_COMPONENTS
 70
0
 62
7
  6
CONTINUOUS
370
-3
390
F
  0
LAYER
  5
1FE
100
AcDbSymbolTableRecord
100
AcDbLayerTableRecord
  2
01_1_DEFAULT_DATUMS
 70
0
 62
7
  6
CONTINUOUS
370
-3
390
F
  0
LAYER
  5
1FF
100
AcDbSymbolTableRecord
100
AcDbLayerTableRecord
  2
01_PLANES
 70
0
 62
7
  6
CONTINUOUS
370
-3
390
F
  0
LAYER
  5
200
100
AcDbSymbolTableRecord
100
AcDbLayerTableRecord
  2
02_COORD_SYS
 70
0
 62
7
  6
CONTINUOUS
370
-3
390
F
  0
LAYER
  5
201
100
AcDbSymbolTableRecord
100
AcDbLayerTableRecord
  2
03_AXES
 70
0
 62
7
  6
CONTINUOUS
370
-3
390
F
  0
LAYER
  5
202
100
AcDbSymbolTableRecord
100
AcDbLayerTableRecord
  2
04_POINTS
 70
0
 62
7
  6
CONTINUOUS
370
-3
390
F
  0
LAYER
  5
203
100
AcDbSymbolTableRecord
100
AcDbLayerTableRecord
  2
05_CURVES
 70
0
 62
7
  6
CONTINUOUS
370
-3
390
F
  0
LAYER
  5
204
100
AcDbSymbolTableRecord
100
AcDbLayerTableRecord
  2
06_SURFS
 70
0
 62
7
  6
CONTINUOUS
370
-3
390
F
  0
LAYER
  5
205
100
AcDbSymbolTableRecord
100
AcDbLayerTableRecord
  2
07_COSMETICS
 70
0
 62
7
  6
CONTINUOUS
370
-3
390
F
  0
LAYER
  5
206
100
AcDbSymbolTableRecord
100
AcDbLayerTableRecord
  2
10_NOTES
 70
0
 62
7
  6
CONTINUOUS
370
-3
390
F
  0
LAYER
  5
207
100
AcDbSymbolTableRecord
100
AcDbLayerTableRecord
  2
11_NOTES_PUB
 70
0
 62
7
  6
CONTINUOUS
370
-3
390
F
  0
LAYER
  5
208
100
AcDbSymbolTableRecord
100
AcDbLayerTableRecord
  2
13_REF_GTOL
 70
0
 62
7
  6
CONTINUOUS
370
-3
390
F
  0
LAYER
  5
209
100
AcDbSymbolTableRecord
100
AcDbLayerTableRecord
  2
16_MISC
 70
0
 62
7
  6
CONTINUOUS
370
-3
390
F
  0
LAYER
  5
20A
100
AcDbSymbolTableRecord
100
AcDbLayerTableRecord
  2
17_NO_PRINT
 70
0
 62
7
  6
CONTINUOUS
370
-3
390
F
  0
LAYER
  5
20B
100
AcDbSymbolTableRecord
100
AcDbLayerTableRecord
  2
18_DATUM_CAMS_JOINTS
 70
0
 62
7
  6
CONTINUOUS
370
-3
390
F
  0
LAYER
  5
20C
100
AcDbSymbolTableRecord
100
AcDbLayerTableRecord
  2
19_DATUM_FUNCTIONAL
 70
0
 62
7
  6
CONTINUOUS
370
-3
390
F
  0
LAYER
  5
20D
100
AcDbSymbolTableRecord
100
AcDbLayerTableRecord
  2
20_DATUM_KINEMATIC_SCHEME
 70
0
 62
7
  6
CONTINUOUS
370
-3
390
F
  0
ENDTAB
  0
TABLE
  2
STYLE
  5
3
100
AcDbSymbolTable
 70
1
  0
STYLE
  5
11
100
AcDbSymbolTableRecord
100
AcDbTextStyleTableRecord
  2
STANDARD
 70
0
 40
0.0
 41
1.0
 50
0.0
 71
0
 42
0.2
  3
ARIAL.TTF
  4

  0
STYLE
  5
20E
100
AcDbSymbolTableRecord
100
AcDbTextStyleTableRecord
  2
TEXTSTYLE_1
 70
0
 40
0.0
 41
0.8
 50
0.0
 71
0
 42
0.2
  3
gdt
  4

  0
ENDTAB
  0
TABLE
  2
VIEW
  5
6
100
AcDbSymbolTable
 70
0
  0
ENDTAB
  0
TABLE
  2
UCS
  5
7
100
AcDbSymbolTable
 70
0
  0
ENDTAB
  0
TABLE
  2
APPID
  5
9
100
AcDbSymbolTable
 70
1
  0
APPID
  5
20F
100
AcDbSymbolTableRecord
100
AcDbRegAppTableRecord
  2
ACAD
 70
0
  0
ENDTAB
  0
TABLE
  2
BLOCK_RECORD
  5
1
100
AcDbSymbolTable
 70
0
  0
BLOCK_RECORD
  5
210
100
AcDbSymbolTableRecord
100
AcDbBlockTableRecord
  2
*Model_Space
  0
BLOCK_RECORD
  5
211
100
AcDbSymbolTableRecord
100
AcDbBlockTableRecord
  2
*Paper_Space
  0
BLOCK_RECORD
  5
212
100
AcDbSymbolTableRecord
100
AcDbBlockTableRecord
  2
_FILLED
  0
ENDTAB
  0
TABLE
  2
DIMSTYLE
  5
A
100
AcDbSymbolTable
 70
1
100
AcDbDimStyleTable
 71
0
  0
DIMSTYLE
105
213
100
AcDbSymbolTableRecord
100
AcDbDimStyleTableRecord
  2
STANDARD
 70
0
  3

  4

 40
1.0
 41
1.2640600397
 42
1.0
 43
0.38
 44
1.0
 45
0.0
 46
0.0
 47
0.01
 48
0.01
140
1.7696840556
141
0.09
142
0.0
143
25.4
144
1.0
145
0.0
146
1.0
147
0.625
 71
1
 72
0
 73
0
 74
0
 75
0
 76
0
 77
1
 78
8
 79
2
170
0
171
1
172
0
173
0
174
0
175
0
176
0
177
0
178
0
270
2
179
2
271
2
272
2
273
2
274
2
275
0
280
0
281
0
282
0
283
1
284
8
285
0
286
0
287
3
288
0
340
11
278
46
341
212
342
212
343
212
344
212
  0
ENDTAB
  0
ENDSEC
  0
SECTION
  2
BLOCKS
  0
BLOCK
  5
20
100
AcDbEntity
  8
0
100
AcDbBlockBegin
  2
*Model_Space
 70
0
 10
0.0
 20
0.0
 30
0.0
  3
*Model_Space
  1

  0
ENDBLK
  5
21
100
AcDbEntity
  8
0
100
AcDbBlockEnd
  0
BLOCK
  5
1C
100
AcDbEntity
  8
0
100
AcDbBlockBegin
  2
*Paper_Space
 70
0
 10
0.0
 20
0.0
 30
0.0
  3
*Paper_Space
  1

  0
ENDBLK
  5
1D
100
AcDbEntity
  8
0
100
AcDbBlockEnd
  0
BLOCK
  5
214
100
AcDbEntity
  8
0
100
AcDbBlockBegin
  2
_FILLED
 70
64
 10
0.0
 20
0.0
  3
_FILLED
  1

  0
SOLID
  5
215
100
AcDbEntity
  8
0
  6
BYBLOCK
 62
0
100
AcDbTrace
 10
0.0
 20
0.0
 11
-1.0
 21
0.25
 12
-1.0
 22
-0.25
 13
-1.0
 23
-0.25
  0
ENDBLK
  5
216
100
AcDbEntity
  8
0
  6
BYBLOCK
 62
0
100
AcDbBlockEnd
  0
ENDSEC
  0
SECTION
  2
ENTITIES
  0
LINE
  5
217
100
AcDbEntity
  8
0
100
AcDbLine
 62
7
  6
BYLAYER
 10
53.7135564586
 20
12.1886774156
 11
53.359086552
 21
12.100198125
  0
LINE
  5
218
100
AcDbEntity
  8
0
100
AcDbLine
 62
7
  6
BYLAYER
 10
54.9624763989
 20
12.1383005032
 11
54.6146602534
 21
12.0578870707
  0
LINE
  5
219
100
AcDbEntity
  8
0
100
AcDbLine
 62
7
  6
BYLAYER
 10
54.581603811
 20
12.0526545545
 11
54.2138849973
 21
12.0198057004
  0
LINE
  5
21A
100
AcDbEntity
  8
0
100
AcDbLine
 62
7
  6
BYLAYER
 10
53.3239488978
 20
14.4899819917
 11
53.5592889386
 21
14.5110052584
  0
LINE
  5
21B
100
AcDbEntity
  8
0
100
AcDbLine
 62
7
  6
BYLAYER
 10
54.1791189078
 20
12.0189795316
 11
53.7942959883
 21
12.0339452553
  0
LINE
  5
21C
100
AcDbEntity
  8
0
100
AcDbLine
 62
7
  6
BYLAYER
 10
53.055411932
 20
14.4990313069
 11
53.3016986005
 21
14.4894532436
  0
LINE
  5
21D
100
AcDbEntity
  8
0
100
AcDbLine
 62
7
  6
BYLAYER
 10
53.7580848426
 20
12.0375317215
 11
53.359086552
 21
12.100198125
  0
LINE
  5
21E
100
AcDbEntity
  8
0
100
AcDbLine
 62
7
  6
BYLAYER
 10
52.7768778928
 20
14.5414331435
 11
53.0322367988
 21
14.5013266452
  0
LINE
  5
21F
100
AcDbEntity
  8
0
100
AcDbLine
 62
7
  6
BYLAYER
 10
50.1401281561
 20
14.2966192443
 11
49.7255957104
 21
14.3656377387
  0
LINE
  5
220
100
AcDbEntity
  8
0
100
AcDbLine
 62
7
  6
BYLAYER
 10
49.7126903059
 20
14.7478360003
 11
49.3045616452
 21
14.8332428122
  0
LINE
  5
221
100
AcDbEntity
  8
0
100
AcDbLine
 62
7
  6
BYLAYER
 10
49.3023099584
 20
15.2314438191
 11
48.902076742
 21
15.3316568557
  0
LINE
  5
222
100
AcDbEntity
  8
0
100
AcDbLine
 62
7
  6
BYLAYER
 10
53.5804450617
 20
14.5143540687
 11
53.8030473949
 21
14.5658186655
  0
LINE
  5
223
100
AcDbEntity
  8
0
100
AcDbLine
 62
7
  6
BYLAYER
 10
56.2147906112
 20
19.6162625256
 11
54.6045284907
 21
19.3517143598
  0
LINE
  5
224
100
AcDbEntity
  8
0
100
AcDbLine
 62
7
  6
BYLAYER
 10
47.2688899418
 20
18.1465504936
 11
48.9089717312
 21
18.4159976995
  0
LINE
  5
225
100
AcDbEntity
  8
0
100
AcDbLine
 62
7
  6
BYLAYER
 10
56.2358498876
 20
19.5659338161
 11
54.6180064276
 21
19.3195039857
  0
LINE
  5
226
100
AcDbEntity
  8
0
100
AcDbLine
 62
7
  6
BYLAYER
 10
47.2478306654
 20
18.1968792031
 11
48.8956341895
 21
18.4478725488
  0
LINE
  5
227
100
AcDbEntity
  8
0
100
AcDbLine
 62
7
  6
BYLAYER
 10
56.3051324581
 20
19.3873688556
 11
54.8170041424
 21
19.2223702397
  0
LINE
  5
228
100
AcDbEntity
  8
0
100
AcDbLine
 62
7
  6
BYLAYER
 10
47.3611590384
 20
18.5935971736
 11
48.8023556624
 21
18.6882833242
  0
LINE
  5
229
100
AcDbEntity
  8
0
100
AcDbLine
 62
7
  6
BYLAYER
 10
56.4481524436
 20
19.0187572718
 11
54.7538800635
 21
18.9693109974
  0
LINE
  5
22A
100
AcDbEntity
  8
0
100
AcDbLine
 62
7
  6
BYLAYER
 10
47.0355281093
 20
18.7440557474
 11
48.761175904
 21
18.7944176936
  0
LINE
  5
22B
100
AcDbEntity
  8
0
100
AcDbLine
 62
7
  6
BYLAYER
 10
56.4662505243
 20
18.9681640343
 11
54.7654628351
 21
18.9369313254
  0
LINE
  5
22C
100
AcDbEntity
  8
0
100
AcDbLine
 62
7
  6
BYLAYER
 10
47.0174300287
 20
18.7946489849
 11
48.7497137862
 21
18.8264600773
  0
LINE
  5
22D
100
AcDbEntity
  8
0
100
AcDbLine
 62
7
  6
BYLAYER
 10
56.5147345863
 20
18.8201127199
 11
54.9537276542
 21
18.8401592628
  0
LINE
  5
22E
100
AcDbEntity
  8
0
100
AcDbLine
 62
7
  6
BYLAYER
 10
47.1475285512
 20
19.1908018251
 11
48.6638387534
 21
19.0886887554
  0
LINE
  5
22F
100
AcDbEntity
  8
0
100
AcDbLine
 62
7
  6
BYLAYER
 10
56.6456963987
 20
18.4202066957
 11
54.8803081947
 21
18.5862386287
  0
LINE
  5
230
100
AcDbEntity
  8
0
100
AcDbLine
 62
7
  6
BYLAYER
 10
46.8379841543
 20
19.3426063235
 11
48.6360647324
 21
19.1734997251
  0
LINE
  5
231
100
AcDbEntity
  8
0
100
AcDbLine
 62
7
  6
BYLAYER
 10
56.6606955464
 20
18.3697339754
 11
54.8899076492
 21
18.5539360877
  0
LINE
  5
232
100
AcDbEntity
  8
0
100
AcDbLine
 62
7
  6
BYLAYER
 10
46.8229850066
 20
19.3930790438
 11
48.6265652722
 21
19.2054657813
  0
LINE
  5
233
100
AcDbEntity
  8
0
100
AcDbLine
 62
7
  6
BYLAYER
 10
56.6919941265
 20
18.2523686712
 11
55.0670400091
 21
18.4588587433
  0
LINE
  5
234
100
AcDbEntity
  8
0
100
AcDbLine
 62
7
  6
BYLAYER
 10
46.9704779966
 20
19.7865838867
 11
48.5515849985
 21
19.4866313354
  0
LINE
  5
235
100
AcDbEntity
  8
0
100
AcDbLine
 62
7
  6
BYLAYER
 10
56.8059190477
 20
17.8251661287
 11
54.9828506901
 21
18.2054126658
  0
LINE
  5
236
100
AcDbEntity
  8
0
100
AcDbLine
 62
7
  6
BYLAYER
 10
46.6777615053
 20
19.9376468905
 11
48.5345903881
 21
19.5503587509
  0
LINE
  5
237
100
AcDbEntity
  8
0
100
AcDbLine
 62
7
  6
BYLAYER
 10
48.9121103557
 20
15.7437621532
 11
48.521204154
 21
15.8570866375
  0
LINE
  5
238
100
AcDbEntity
  8
0
100
AcDbLine
 62
7
  6
BYLAYER
 10
48.5450611526
 20
16.2808919508
 11
48.1648425516
 21
16.4055333197
  0
LINE
  5
239
100
AcDbEntity
  8
0
100
AcDbLine
 62
7
  6
BYLAYER
 10
48.2039558149
 20
16.8387453298
 11
47.8357040618
 21
16.9728228918
  0
LINE
  5
23A
100
AcDbEntity
  8
0
100
AcDbLine
 62
7
  6
BYLAYER
 10
47.8913903605
 20
17.4130766891
 11
47.5362936271
 21
17.5546379377
  0
LINE
  5
23B
100
AcDbEntity
  8
0
100
AcDbLine
 62
7
  6
BYLAYER
 10
47.609743601
 20
17.9995150203
 11
47.2688899418
 21
18.1465504936
  0
LINE
  5
23C
100
AcDbEntity
  8
0
100
AcDbLine
 62
7
  6
BYLAYER
 10
56.064671918
 20
19.9504905975
 11
54.6579100223
 21
19.6025828178
  0
LINE
  5
23D
100
AcDbEntity
  8
0
100
AcDbLine
 62
7
  6
BYLAYER
 10
47.609743601
 20
17.9995150203
 11
48.9660224928
 21
18.2889784346
  0
LINE
  5
23E
100
AcDbEntity
  8
0
100
AcDbLine
 62
7
  6
BYLAYER
 10
50.1597316552
 20
23.2728310275
 11
49.9243916144
 21
23.2518077608
  0
LINE
  5
23F
100
AcDbEntity
  8
0
100
AcDbLine
 62
7
  6
BYLAYER
 10
50.4282686209
 20
23.2637817123
 11
50.1819819525
 21
23.2733597755
  0
LINE
  5
240
100
AcDbEntity
  8
0
100
AcDbLine
 62
7
  6
BYLAYER
 10
50.7068026602
 20
23.2213798757
 11
50.4514437542
 21
23.261486374
  0
LINE
  5
241
100
AcDbEntity
  8
0
100
AcDbLine
 62
7
  6
BYLAYER
 10
53.038463907
 20
21.9724361145
 11
52.7768778928
 21
22.0262484204
  0
LINE
  5
242
100
AcDbEntity
  8
0
100
AcDbLine
 62
7
  6
BYLAYER
 10
53.3120241312
 20
21.6836573907
 11
53.055411932
 21
21.7470341279
  0
LINE
  5
243
100
AcDbEntity
  8
0
100
AcDbLine
 62
7
  6
BYLAYER
 10
53.5746675536
 20
21.3741483866
 11
53.3239488978
 21
21.4460106789
  0
LINE
  5
244
100
AcDbEntity
  8
0
100
AcDbLine
 62
7
  6
BYLAYER
 10
53.8243952993
 20
21.0462646528
 11
53.5804450617
 21
21.1254690436
  0
LINE
  5
245
100
AcDbEntity
  8
0
100
AcDbLine
 62
7
  6
BYLAYER
 10
54.0593067893
 20
20.7025015823
 11
53.822948333
 21
20.7878487374
  0
LINE
  5
246
100
AcDbEntity
  8
0
100
AcDbLine
 62
7
  6
BYLAYER
 10
54.2776142054
 20
20.3454754198
 11
54.0496131153
 21
20.4357192548
  0
LINE
  5
247
100
AcDbEntity
  8
0
100
AcDbLine
 62
7
  6
BYLAYER
 10
47.3611590384
 20
18.5935971736
 11
47.0355281093
 21
18.7440557474
  0
LINE
  5
248
100
AcDbEntity
  8
0
100
AcDbLine
 62
7
  6
BYLAYER
 10
47.1475285512
 20
19.1908018251
 11
46.8379841543
 21
19.3426063235
  0
LINE
  5
249
100
AcDbEntity
  8
0
100
AcDbLine
 62
7
  6
BYLAYER
 10
46.9704779966
 20
19.7865838867
 11
46.6777615053
 21
19.9376468905
  0
LINE
  5
24A
100
AcDbEntity
  8
0
100
AcDbLine
 62
7
  6
BYLAYER
 10
52.5196609742
 20
14.5131300774
 11
50.9640195788
 21
15.4112597373
  0
LINE
  5
24B
100
AcDbEntity
  8
0
100
AcDbLine
 62
7
  6
BYLAYER
 10
50.4109478637
 20
23.3317276737
 11
50.1819819525
 21
23.2733597755
  0
LINE
  5
24C
100
AcDbEntity
  8
0
100
AcDbLine
 62
7
  6
BYLAYER
 10
49.9032354913
 20
23.2484589505
 11
49.6806331581
 21
23.1969943537
  0
LINE
  5
24D
100
AcDbEntity
  8
0
100
AcDbLine
 62
7
  6
BYLAYER
 10
48.521204154
 20
25.624512516
 11
48.8690202996
 21
25.7049259485
  0
LINE
  5
24E
100
AcDbEntity
  8
0
100
AcDbLine
 62
7
  6
BYLAYER
 10
50.6863893556
 20
23.3069740577
 11
50.4514437542
 21
23.261486374
  0
LINE
  5
24F
100
AcDbEntity
  8
0
100
AcDbLine
 62
7
  6
BYLAYER
 10
48.902076742
 20
25.7101584647
 11
49.2697955557
 21
25.7430073188
  0
LINE
  5
250
100
AcDbEntity
  8
0
100
AcDbLine
 62
7
  6
BYLAYER
 10
49.3045616452
 20
25.7438334876
 11
49.6893845647
 21
25.7288677639
  0
LINE
  5
251
100
AcDbEntity
  8
0
100
AcDbLine
 62
7
  6
BYLAYER
 10
49.7255957104
 20
25.7252812977
 11
50.124594001
 21
25.6626148942
  0
LINE
  5
252
100
AcDbEntity
  8
0
100
AcDbLine
 62
7
  6
BYLAYER
 10
54.4776560962
 20
19.9779033498
 11
54.2587143529
 21
20.0717605136
  0
LINE
  5
253
100
AcDbEntity
  8
0
100
AcDbLine
 62
7
  6
BYLAYER
 10
54.6579100223
 20
19.6025828178
 11
54.448660659
 21
19.6987424597
  0
LINE
  5
254
100
AcDbEntity
  8
0
100
AcDbLine
 62
7
  6
BYLAYER
 10
54.8170041424
 20
19.2223702397
 11
54.6180064276
 21
19.3195039857
  0
LINE
  5
255
100
AcDbEntity
  8
0
100
AcDbLine
 62
7
  6
BYLAYER
 10
54.9537276542
 20
18.8401592628
 11
54.7654628351
 21
18.9369313254
  0
LINE
  5
256
100
AcDbEntity
  8
0
100
AcDbLine
 62
7
  6
BYLAYER
 10
55.0670400091
 20
18.4588587433
 11
54.8899076492
 21
18.5539360877
  0
LINE
  5
257
100
AcDbEntity
  8
0
100
AcDbLine
 62
7
  6
BYLAYER
 10
46.13869282
 20
21.2181593598
 11
48.3477135958
 21
19.9428094725
  0
LINE
  5
258
100
AcDbEntity
  8
0
100
AcDbLine
 62
7
  6
BYLAYER
 10
55.1359669572
 20
16.0236982291
 11
57.344987733
 21
14.7483483418
  0
LINE
  5
259
100
AcDbEntity
  8
0
100
AcDbLine
 62
7
  6
BYLAYER
 10
47.5529004944
 20
22.0346476675
 11
48.3477135958
 21
21.5757724906
  0
LINE
  5
25A
100
AcDbEntity
  8
0
100
AcDbLine
 62
7
  6
BYLAYER
 10
56.5501746316
 20
16.8401865368
 11
58.7591954075
 21
15.5648366495
  0
LINE
  5
25B
100
AcDbEntity
  8
0
100
AcDbLine
 62
7
  6
BYLAYER
 10
57.344987733
 20
16.5446536594
 11
55.1359669572
 21
17.8200035467
  0
LINE
  5
25C
100
AcDbEntity
  8
0
100
AcDbLine
 62
7
  6
BYLAYER
 10
48.3477135958
 20
21.7391147901
 11
46.13869282
 21
23.0144646774
  0
LINE
  5
25D
100
AcDbEntity
  8
0
100
AcDbLine
 62
7
  6
BYLAYER
 10
50.9640195788
 20
23.2496829418
 11
52.5196609742
 21
22.3515532818
  0
LINE
  5
25E
100
AcDbEntity
  8
0
100
AcDbLine
 62
7
  6
BYLAYER
 10
52.3782272533
 20
24.0661712495
 11
52.5196609742
 21
23.9845163
  0
LINE
  5
25F
100
AcDbEntity
  8
0
100
AcDbLine
 62
7
  6
BYLAYER
 10
52.5196609742
 20
24.9643610167
 11
50.9640195788
 21
25.8624906766
  0
LINE
  5
260
100
AcDbEntity
  8
0
100
AcDbLine
 62
7
  6
BYLAYER
 10
48.1743194815
 20
28.2895907593
 11
55.3093610715
 21
24.1702657682
  0
LINE
  5
261
100
AcDbEntity
  8
0
100
AcDbLine
 62
7
  6
BYLAYER
 10
46.6777615053
 20
23.6725283271
 11
48.5008298629
 21
21.9477244728
  0
LINE
  5
262
100
AcDbEntity
  8
0
100
AcDbLine
 62
7
  6
BYLAYER
 10
54.9828506901
 20
15.8150885464
 11
56.8059190477
 21
14.0902846921
  0
LINE
  5
263
100
AcDbEntity
  8
0
100
AcDbLine
 62
7
  6
BYLAYER
 10
50.124594001
 20
13.967591024
 11
49.7255957104
 21
14.3656377387
  0
LINE
  5
264
100
AcDbEntity
  8
0
100
AcDbLine
 62
7
  6
BYLAYER
 10
50.4648853846
 20
16.0214196214
 11
50.717584302
 21
15.7693233687
  0
LINE
  5
265
100
AcDbEntity
  8
0
100
AcDbLine
 62
7
  6
BYLAYER
 10
49.6893845647
 20
14.403863356
 11
49.3045616452
 21
14.8332428122
  0
LINE
  5
266
100
AcDbEntity
  8
0
100
AcDbLine
 62
7
  6
BYLAYER
 10
57.0451484953
 20
27.2505909187
 11
49.9740512438
 21
31.3329984639
  0
LINE
  5
267
100
AcDbEntity
  8
0
100
AcDbLine
 62
7
  6
BYLAYER
 10
53.0322367988
 20
21.771498523
 11
52.7768778928
 21
22.0262484204
  0
LINE
  5
268
100
AcDbEntity
  8
0
100
AcDbLine
 62
7
  6
BYLAYER
 10
46.8229850066
 20
24.0494103123
 11
48.5937729038
 21
22.1889289433
  0
LINE
  5
269
100
AcDbEntity
  8
0
100
AcDbLine
 62
7
  6
BYLAYER
 10
54.8899076492
 20
15.5738840759
 11
56.6606955464
 21
13.7134027069
  0
LINE
  5
26A
100
AcDbEntity
  8
0
100
AcDbLine
 62
7
  6
BYLAYER
 10
46.8379841543
 20
24.0825639005
 11
48.6033723583
 21
22.2101472398
  0
LINE
  5
26B
100
AcDbEntity
  8
0
100
AcDbLine
 62
7
  6
BYLAYER
 10
54.8803081947
 20
15.5526657794
 11
56.6456963987
 21
13.6802491187
  0
LINE
  5
26C
100
AcDbEntity
  8
0
100
AcDbLine
 62
7
  6
BYLAYER
 10
50.1982304767
 20
16.3175695012
 11
50.441951659
 21
16.045629179
  0
LINE
  5
26D
100
AcDbEntity
  8
0
100
AcDbLine
 62
7
  6
BYLAYER
 10
47.0174300287
 20
24.4233196789
 11
48.7182177179
 21
22.4282309379
  0
LINE
  5
26E
100
AcDbEntity
  8
0
100
AcDbLine
 62
7
  6
BYLAYER
 10
54.7654628351
 20
15.3345820813
 11
56.4662505243
 21
13.3394933403
  0
LINE
  5
26F
100
AcDbEntity
  8
0
100
AcDbLine
 62
7
  6
BYLAYER
 10
47.0355281093
 20
24.4530155256
 11
48.7298004895
 21
22.4472362798
  0
LINE
  5
270
100
AcDbEntity
  8
0
100
AcDbLine
 62
7
  6
BYLAYER
 10
54.7538800635
 20
15.3155767394
 11
56.4481524436
 21
13.3097974936
  0
LINE
  5
271
100
AcDbEntity
  8
0
100
AcDbLine
 62
7
  6
BYLAYER
 10
49.2697955557
 20
14.8742124951
 11
48.902076742
 21
15.3316568557
  0
LINE
  5
272
100
AcDbEntity
  8
0
100
AcDbLine
 62
7
  6
BYLAYER
 10
49.9433233713
 20
16.6332317288
 11
50.1762119533
 21
16.3435169671
  0
LINE
  5
273
100
AcDbEntity
  8
0
100
AcDbLine
 62
7
  6
BYLAYER
 10
48.8690202996
 20
15.3750588002
 11
48.521204154
 21
15.8570866375
  0
LINE
  5
274
100
AcDbEntity
  8
0
100
AcDbLine
 62
7
  6
BYLAYER
 10
53.359086552
 20
23.7952219952
 11
53.7580848426
 21
23.3971752805
  0
LINE
  5
275
100
AcDbEntity
  8
0
100
AcDbLine
 62
7
  6
BYLAYER
 10
53.3016986005
 20
21.472231276
 11
53.055411932
 21
21.7470341279
  0
LINE
  5
276
100
AcDbEntity
  8
0
100
AcDbLine
 62
7
  6
BYLAYER
 10
53.7942959883
 20
23.3589496632
 11
54.1791189078
 21
22.929570207
  0
LINE
  5
277
100
AcDbEntity
  8
0
100
AcDbLine
 62
7
  6
BYLAYER
 10
53.5592889386
 20
21.1532462881
 11
53.3239488978
 21
21.4460106789
  0
LINE
  5
278
100
AcDbEntity
  8
0
100
AcDbLine
 62
7
  6
BYLAYER
 10
47.2478306654
 20
24.7550517399
 11
48.8656741254
 21
22.640539457
  0
LINE
  5
279
100
AcDbEntity
  8
0
100
AcDbLine
 62
7
  6
BYLAYER
 10
54.6180064276
 20
15.1222735622
 11
56.2358498876
 21
13.0077612793
  0
LINE
  5
27A
100
AcDbEntity
  8
0
100
AcDbLine
 62
7
  6
BYLAYER
 10
47.2688899418
 20
24.7810638418
 11
48.8791520623
 21
22.6571872022
  0
LINE
  5
27B
100
AcDbEntity
  8
0
100
AcDbLine
 62
7
  6
BYLAYER
 10
54.6045284907
 20
15.105625817
 11
56.2147906112
 21
12.9817491773
  0
LINE
  5
27C
100
AcDbEntity
  8
0
100
AcDbLine
 62
7
  6
BYLAYER
 10
49.7021040656
 20
16.966003924
 11
49.9223876245
 21
16.660719627
  0
LINE
  5
27D
100
AcDbEntity
  8
0
100
AcDbLine
 62
7
  6
BYLAYER
 10
47.5124334288
 20
25.0420818142
 11
49.035019894
 21
22.8242387045
  0
LINE
  5
27E
100
AcDbEntity
  8
0
100
AcDbLine
 62
7
  6
BYLAYER
 10
54.448660659
 20
14.9385743147
 11
55.9712471242
 21
12.720731205
  0
LINE
  5
27F
100
AcDbEntity
  8
0
100
AcDbLine
 62
7
  6
BYLAYER
 10
48.4901089383
 20
15.9025905286
 11
48.1648425516
 21
16.4055333197
  0
LINE
  5
280
100
AcDbEntity
  8
0
100
AcDbLine
 62
7
  6
BYLAYER
 10
49.4764083841
 20
17.3133534893
 11
49.682410429
 21
16.994823055
  0
LINE
  5
281
100
AcDbEntity
  8
0
100
AcDbLine
 62
7
  6
BYLAYER
 10
48.1359452159
 20
16.4527928452
 11
47.8357040618
 21
16.9728228918
  0
LINE
  5
282
100
AcDbEntity
  8
0
100
AcDbLine
 62
7
  6
BYLAYER
 10
54.2138849973
 20
22.8886005241
 11
54.581603811
 21
22.4311561635
  0
LINE
  5
283
100
AcDbEntity
  8
0
100
AcDbLine
 62
7
  6
BYLAYER
 10
53.8030473949
 20
20.8169712277
 11
53.5804450617
 21
21.1254690436
  0
LINE
  5
284
100
AcDbEntity
  8
0
100
AcDbLine
 62
7
  6
BYLAYER
 10
54.6146602534
 20
22.387754219
 11
54.9624763989
 21
21.9057263817
  0
LINE
  5
285
100
AcDbEntity
  8
0
100
AcDbLine
 62
7
  6
BYLAYER
 10
47.5362936271
 20
25.0642122035
 11
49.0502904209
 21
22.8384021537
  0
LINE
  5
286
100
AcDbEntity
  8
0
100
AcDbLine
 62
7
  6
BYLAYER
 10
54.4333901321
 20
14.9244108655
 11
55.9473869259
 21
12.6986008157
  0
LINE
  5
287
100
AcDbEntity
  8
0
100
AcDbLine
 62
7
  6
BYLAYER
 10
54.0311188204
 20
20.4659653511
 11
53.822948333
 21
20.7878487374
  0
LINE
  5
288
100
AcDbEntity
  8
0
100
AcDbLine
 62
7
  6
BYLAYER
 10
47.8092245321
 20
25.2822254294
 11
49.2249662001
 21
22.9779306183
  0
LINE
  5
289
100
AcDbEntity
  8
0
100
AcDbLine
 62
7
  6
BYLAYER
 10
54.2587143529
 20
14.7848824009
 11
55.6744560208
 21
12.4805875897
  0
LINE
  5
28A
100
AcDbEntity
  8
0
100
AcDbLine
 62
7
  6
BYLAYER
 10
47.8357040618
 20
25.3003056805
 11
49.2419130991
 21
22.989501979
  0
LINE
  5
28B
100
AcDbEntity
  8
0
100
AcDbLine
 62
7
  6
BYLAYER
 10
54.2417674539
 20
14.7733110402
 11
55.6479764912
 21
12.4625073387
  0
LINE
  5
28C
100
AcDbEntity
  8
0
100
AcDbLine
 62
7
  6
BYLAYER
 10
49.2679540072
 20
17.672636885
 11
49.4581067381
 21
17.3432845222
  0
LINE
  5
28D
100
AcDbEntity
  8
0
100
AcDbLine
 62
7
  6
BYLAYER
 10
47.8092245321
 20
17.0214783783
 11
47.5362936271
 21
17.5546379377
  0
LINE
  5
28E
100
AcDbEntity
  8
0
100
AcDbLine
 62
7
  6
BYLAYER
 10
49.0783273985
 20
18.0411197474
 11
49.2511836384
 21
17.7034520265
  0
LINE
  5
28F
100
AcDbEntity
  8
0
100
AcDbLine
 62
7
  6
BYLAYER
 10
47.5124334288
 20
17.6043190875
 11
47.2688899418
 21
18.1465504936
  0
LINE
  5
290
100
AcDbEntity
  8
0
100
AcDbLine
 62
7
  6
BYLAYER
 10
54.9935716147
 20
21.8602224906
 11
55.3188380014
 21
21.3572796995
  0
LINE
  5
291
100
AcDbEntity
  8
0
100
AcDbLine
 62
7
  6
BYLAYER
 10
54.2417674539
 20
20.102900025
 11
54.0496131153
 21
20.4357192548
  0
LINE
  5
292
100
AcDbEntity
  8
0
100
AcDbLine
 62
7
  6
BYLAYER
 10
55.3477353371
 20
21.310020174
 11
55.6479764912
 21
20.7899901273
  0
LINE
  5
293
100
AcDbEntity
  8
0
100
AcDbLine
 62
7
  6
BYLAYER
 10
48.1359452159
 20
25.4736549478
 11
49.4340674377
 21
23.1004455101
  0
LINE
  5
294
100
AcDbEntity
  8
0
100
AcDbLine
 62
7
  6
BYLAYER
 10
54.0496131153
 20
14.6623675091
 11
55.3477353371
 21
12.2891580714
  0
LINE
  5
295
100
AcDbEntity
  8
0
100
AcDbLine
 62
7
  6
BYLAYER
 10
48.1648425516
 20
25.487547459
 11
49.4525617326
 21
23.1093367172
  0
LINE
  5
296
100
AcDbEntity
  8
0
100
AcDbLine
 62
7
  6
BYLAYER
 10
54.0311188204
 20
14.653476302
 11
55.3188380014
 21
12.2752655602
  0
LINE
  5
297
100
AcDbEntity
  8
0
100
AcDbLine
 62
7
  6
BYLAYER
 10
48.4901089383
 20
25.6149134751
 11
49.66073222
 21
23.1908509675
  0
LINE
  5
298
100
AcDbEntity
  8
0
100
AcDbLine
 62
7
  6
BYLAYER
 10
53.822948333
 20
14.5719620517
 11
54.9935716147
 21
12.1478995441
  0
LINE
  5
299
100
AcDbEntity
  8
0
100
AcDbLine
 62
7
  6
BYLAYER
 10
48.521204154
 20
25.624512516
 11
49.6806331581
 21
23.1969943537
  0
LINE
  5
29A
100
AcDbEntity
  8
0
100
AcDbLine
 62
7
  6
BYLAYER
 10
53.8030473949
 20
14.5658186655
 11
54.9624763989
 21
12.1383005032
  0
LINE
  5
29B
100
AcDbEntity
  8
0
100
AcDbLine
 62
7
  6
BYLAYER
 10
48.9089717312
 20
18.4159976995
 11
49.0632159396
 21
18.0725844756
  0
LINE
  5
29C
100
AcDbEntity
  8
0
100
AcDbLine
 62
7
  6
BYLAYER
 10
47.2478306654
 20
18.1968792031
 11
47.0355281093
 21
18.7440557474
  0
LINE
  5
29D
100
AcDbEntity
  8
0
100
AcDbLine
 62
7
  6
BYLAYER
 10
48.761175904
 20
18.7944176936
 11
48.8956341895
 21
18.4478725488
  0
LINE
  5
29E
100
AcDbEntity
  8
0
100
AcDbLine
 62
7
  6
BYLAYER
 10
57.8870196745
 20
53.048203391
 11
53.4255944109
 21
53.7383669205
  0
LINE
  5
29F
100
AcDbEntity
  8
0
100
AcDbLine
 62
7
  6
BYLAYER
 10
54.4333901321
 20
19.7305383956
 11
54.2587143529
 21
20.0717605136
  0
LINE
  5
2A0
100
AcDbEntity
  8
0
100
AcDbLine
 62
7
  6
BYLAYER
 10
55.6744560208
 20
20.7413346409
 11
55.9473869259
 21
20.2081750815
  0
LINE
  5
2A1
100
AcDbEntity
  8
0
100
AcDbLine
 62
7
  6
BYLAYER
 10
54.6045284907
 20
19.3517143598
 11
54.448660659
 21
19.6987424597
  0
LINE
  5
2A2
100
AcDbEntity
  8
0
100
AcDbLine
 62
7
  6
BYLAYER
 10
48.8690202996
 20
25.7049259485
 11
49.9032354913
 21
23.2484589505
  0
LINE
  5
2A3
100
AcDbEntity
  8
0
100
AcDbLine
 62
7
  6
BYLAYER
 10
53.5804450617
 20
14.5143540687
 11
54.6146602534
 21
12.0578870707
  0
LINE
  5
2A4
100
AcDbEntity
  8
0
100
AcDbLine
 62
7
  6
BYLAYER
 10
48.902076742
 20
25.7101584647
 11
49.9243916144
 21
23.2518077608
  0
LINE
  5
2A5
100
AcDbEntity
  8
0
100
AcDbLine
 62
7
  6
BYLAYER
 10
53.5592889386
 20
14.5110052584
 11
54.581603811
 21
12.0526545545
  0
LINE
  5
2A6
100
AcDbEntity
  8
0
100
AcDbLine
 62
7
  6
BYLAYER
 10
49.2697955557
 20
25.7430073188
 11
50.1597316552
 21
23.2728310275
  0
LINE
  5
2A7
100
AcDbEntity
  8
0
100
AcDbLine
 62
7
  6
BYLAYER
 10
53.3239488978
 20
14.4899819917
 11
54.2138849973
 21
12.0198057004
  0
LINE
  5
2A8
100
AcDbEntity
  8
0
100
AcDbLine
 62
7
  6
BYLAYER
 10
49.3045616452
 20
25.7438334876
 11
50.1819819525
 21
23.2733597755
  0
LINE
  5
2A9
100
AcDbEntity
  8
0
100
AcDbLine
 62
7
  6
BYLAYER
 10
53.3016986005
 20
14.4894532436
 11
54.1791189078
 21
12.0189795316
  0
LINE
  5
2AA
100
AcDbEntity
  8
0
100
AcDbLine
 62
7
  6
BYLAYER
 10
47.0174300287
 20
18.7946489849
 11
46.8379841543
 21
19.3426063235
  0
LINE
  5
2AB
100
AcDbEntity
  8
0
100
AcDbLine
 62
7
  6
BYLAYER
 10
48.6360647324
 20
19.1734997251
 11
48.7497137862
 21
18.8264600773
  0
LINE
  5
2AC
100
AcDbEntity
  8
0
100
AcDbLine
 62
7
  6
BYLAYER
 10
46.8229850066
 20
19.3930790438
 11
46.6777615053
 21
19.9376468905
  0
LINE
  5
2AD
100
AcDbEntity
  8
0
100
AcDbLine
 62
7
  6
BYLAYER
 10
53.4255944109
 20
57.004376589
 11
57.8870196745
 21
56.3142130595
  0
LINE
  5
2AE
100
AcDbEntity
  8
0
100
AcDbLine
 62
7
  6
BYLAYER
 10
55.9712471242
 20
20.1584939317
 11
56.2147906112
 21
19.6162625256
  0
LINE
  5
2AF
100
AcDbEntity
  8
0
100
AcDbLine
 62
7
  6
BYLAYER
 10
54.7538800635
 20
18.9693109974
 11
54.6180064276
 21
19.3195039857
  0
LINE
  5
2B0
100
AcDbEntity
  8
0
100
AcDbLine
 62
7
  6
BYLAYER
 10
56.2358498876
 20
19.5659338161
 11
56.4481524436
 21
19.0187572718
  0
LINE
  5
2B1
100
AcDbEntity
  8
0
100
AcDbLine
 62
7
  6
BYLAYER
 10
54.8803081947
 20
18.5862386287
 11
54.7654628351
 21
18.9369313254
  0
LINE
  5
2B2
100
AcDbEntity
  8
0
100
AcDbLine
 62
7
  6
BYLAYER
 10
49.6893845647
 20
25.7288677639
 11
50.4282686209
 21
23.2637817123
  0
LINE
  5
2B3
100
AcDbEntity
  8
0
100
AcDbLine
 62
7
  6
BYLAYER
 10
53.055411932
 20
14.4990313069
 11
53.7942959883
 21
12.0339452553
  0
LINE
  5
2B4
100
AcDbEntity
  8
0
100
AcDbLine
 62
7
  6
BYLAYER
 10
49.7255957104
 20
25.7252812977
 11
50.4514437542
 21
23.261486374
  0
LINE
  5
2B5
100
AcDbEntity
  8
0
100
AcDbLine
 62
7
  6
BYLAYER
 10
53.0322367988
 20
14.5013266452
 11
53.7580848426
 21
12.0375317215
  0
LINE
  5
2B6
100
AcDbEntity
  8
0
100
AcDbLine
 62
7
  6
BYLAYER
 10
48.5345903881
 20
19.5503587509
 11
48.6265652722
 21
19.2054657813
  0
LINE
  5
2B7
100
AcDbEntity
  8
0
100
AcDbLine
 62
7
  6
BYLAYER
 10
56.4662505243
 20
18.9681640343
 11
56.6456963987
 21
18.4202066957
  0
LINE
  5
2B8
100
AcDbEntity
  8
0
100
AcDbLine
 62
7
  6
BYLAYER
 10
54.9828506901
 20
18.2054126658
 11
54.8899076492
 21
18.5539360877
  0
LINE
  5
2B9
100
AcDbEntity
  8
0
100
AcDbLine
 62
7
  6
BYLAYER
 10
50.124594001
 20
25.6626148942
 11
50.7068026602
 21
23.2213798757
  0
LINE
  5
2BA
100
AcDbEntity
  8
0
100
AcDbLine
 62
7
  6
BYLAYER
 10
52.7768778928
 20
14.5414331435
 11
53.359086552
 21
12.100198125
  0
LINE
  5
2BB
100
AcDbEntity
  8
0
100
AcDbLine
 62
7
  6
BYLAYER
 10
53.4255944109
 20
53.7383669205
 11
52.2301418734
 21
56.3141294271
  0
LINE
  5
2BC
100
AcDbEntity
  8
0
100
AcDbLine
 62
7
  6
BYLAYER
 10
52.2301418734
 20
59.5801390956
 11
53.4255944109
 21
57.004376589
  0
LINE
  5
2BD
100
AcDbEntity
  8
0
100
AcDbLine
 62
7
  6
BYLAYER
 10
56.6606955464
 20
18.3697339754
 11
56.8059190477
 21
17.8251661287
  0
LINE
  5
2BE
100
AcDbEntity
  8
0
100
AcDbLine
 62
7
  6
BYLAYER
 10
48.3477135958
 20
19.9428094725
 11
48.3477135958
 21
21.7391147901
  0
LINE
  5
2BF
100
AcDbEntity
  8
0
100
AcDbLine
 62
7
  6
BYLAYER
 10
58.4593719964
 20
64.8095743189
 11
59.520054912
 21
64.1971712433
  0
LINE
  5
2C0
100
AcDbEntity
  8
0
100
AcDbLine
 62
7
  6
BYLAYER
 10
50.9640195788
 20
25.8624906766
 11
50.9640195788
 21
23.2496829418
  0
LINE
  5
2C1
100
AcDbEntity
  8
0
100
AcDbLine
 62
7
  6
BYLAYER
 10
50.9640195788
 20
15.4112597373
 11
50.9640195788
 21
12.8604946456
  0
LINE
  5
2C2
100
AcDbEntity
  8
0
100
AcDbLine
 62
7
  6
BYLAYER
 10
52.2301418734
 20
59.5801390956
 11
52.2301418734
 21
56.3141294271
  0
LINE
  5
2C3
100
AcDbEntity
  8
0
100
AcDbLine
 62
7
  6
BYLAYER
 10
52.3782272533
 20
25.0460159662
 11
52.3782272533
 21
24.0661712495
  0
LINE
  5
2C4
100
AcDbEntity
  8
0
100
AcDbLine
 62
7
  6
BYLAYER
 10
52.3782272533
 20
14.594785027
 11
52.3782272533
 21
13.6769829533
  0
LINE
  5
2C5
100
AcDbEntity
  8
0
100
AcDbLine
 62
7
  6
BYLAYER
 10
52.5196609742
 20
24.9643610167
 11
52.5196609742
 21
22.3515532818
  0
LINE
  5
2C6
100
AcDbEntity
  8
0
100
AcDbLine
 62
7
  6
BYLAYER
 10
52.5196609742
 20
11.9623649856
 11
52.5196609742
 21
14.5131300774
  0
LINE
  5
2C7
100
AcDbEntity
  8
0
100
AcDbLine
 62
7
  6
BYLAYER
 10
52.691567137
 20
55.3199269336
 11
52.691567137
 21
31.1288933837
  0
LINE
  5
2C8
100
AcDbEntity
  8
0
100
AcDbLine
 62
7
  6
BYLAYER
 10
52.691567137
 20
58.8899755661
 11
52.691567137
 21
62.5642364432
  0
LINE
  5
2C9
100
AcDbEntity
  8
0
100
AcDbLine
 62
7
  6
BYLAYER
 10
53.4255944109
 20
57.004376589
 11
53.4255944109
 21
53.7383669205
  0
LINE
  5
2CA
100
AcDbEntity
  8
0
100
AcDbLine
 62
7
  6
BYLAYER
 10
50.124594001
 20
13.967591024
 11
50.1401281561
 21
14.2966192443
  0
LINE
  5
2CB
100
AcDbEntity
  8
0
100
AcDbLine
 62
7
  6
BYLAYER
 10
49.6893845647
 20
14.403863356
 11
49.7126903059
 21
14.7478360003
  0
LINE
  5
2CC
100
AcDbEntity
  8
0
100
AcDbLine
 62
7
  6
BYLAYER
 10
61.1529924006
 20
58.1998120365
 11
60.691567137
 21
59.19401453
  0
LINE
  5
2CD
100
AcDbEntity
  8
0
100
AcDbLine
 62
7
  6
BYLAYER
 10
55.1359669572
 20
17.8200035467
 11
55.1359669572
 21
16.0236982291
  0
LINE
  5
2CE
100
AcDbEntity
  8
0
100
AcDbLine
 62
7
  6
BYLAYER
 10
55.191567137
 20
138.0907100277
 11
55.191567137
 21
63.7889900688
  0
LINE
  5
2CF
100
AcDbEntity
  8
0
100
AcDbLine
 62
7
  6
BYLAYER
 10
56.5501746316
 20
17.0035288363
 11
56.5501746316
 21
16.8401865368
  0
LINE
  5
2D0
100
AcDbEntity
  8
0
100
AcDbLine
 62
7
  6
BYLAYER
 10
57.8870196745
 20
56.3142130595
 11
57.8870196745
 21
53.048203391
  0
LINE
  5
2D1
100
AcDbEntity
  8
0
100
AcDbLine
 62
7
  6
BYLAYER
 10
58.191567137
 20
138.0907100277
 11
58.191567137
 21
63.7889900689
  0
LINE
  5
2D2
100
AcDbEntity
  8
0
100
AcDbLine
 62
7
  6
BYLAYER
 10
53.0322367988
 20
21.771498523
 11
53.038463907
 21
21.9724361145
  0
LINE
  5
2D3
100
AcDbEntity
  8
0
100
AcDbLine
 62
7
  6
BYLAYER
 10
53.3016986005
 20
21.472231276
 11
53.3120241312
 21
21.6836573907
  0
LINE
  5
2D4
100
AcDbEntity
  8
0
100
AcDbLine
 62
7
  6
BYLAYER
 10
53.5592889386
 20
21.1532462881
 11
53.5746675536
 21
21.3741483866
  0
LINE
  5
2D5
100
AcDbEntity
  8
0
100
AcDbLine
 62
7
  6
BYLAYER
 10
49.2697955557
 20
14.8742124951
 11
49.3023099584
 21
15.2314438191
  0
LINE
  5
2D6
100
AcDbEntity
  8
0
100
AcDbLine
 62
7
  6
BYLAYER
 10
48.8690202996
 20
15.3750588002
 11
48.9121103557
 21
15.7437621532
  0
LINE
  5
2D7
100
AcDbEntity
  8
0
100
AcDbLine
 62
7
  6
BYLAYER
 10
48.4901089383
 20
15.9025905286
 11
48.5450611526
 21
16.2808919508
  0
LINE
  5
2D8
100
AcDbEntity
  8
0
100
AcDbLine
 62
7
  6
BYLAYER
 10
48.1359452159
 20
16.4527928452
 11
48.2039558149
 21
16.8387453298
  0
LINE
  5
2D9
100
AcDbEntity
  8
0
100
AcDbLine
 62
7
  6
BYLAYER
 10
60.2271157627
 20
29.0876896111
 11
60.2271157627
 21
27.4546847768
  0
LINE
  5
2DA
100
AcDbEntity
  8
0
100
AcDbLine
 62
7
  6
BYLAYER
 10
60.691567137
 20
54.6673999581
 11
60.691567137
 21
31.1288933837
  0
LINE
  5
2DB
100
AcDbEntity
  8
0
100
AcDbLine
 62
7
  6
BYLAYER
 10
60.691567137
 20
58.8899755661
 11
60.691567137
 21
62.5642364432
  0
LINE
  5
2DC
100
AcDbEntity
  8
0
100
AcDbLine
 62
7
  6
BYLAYER
 10
61.1529924006
 20
58.1998120365
 11
61.1529924006
 21
54.933802368
  0
LINE
  5
2DD
100
AcDbEntity
  8
0
100
AcDbLine
 62
7
  6
BYLAYER
 10
61.691567137
 20
31.1288933837
 11
61.691567137
 21
29.4958885494
  0
LINE
  5
2DE
100
AcDbEntity
  8
0
100
AcDbLine
 62
7
  6
BYLAYER
 10
53.8030473949
 20
20.8169712277
 11
53.8243952993
 21
21.0462646528
  0
LINE
  5
2DF
100
AcDbEntity
  8
0
100
AcDbLine
 62
7
  6
BYLAYER
 10
54.0311188204
 20
20.4659653511
 11
54.0593067893
 21
20.7025015823
  0
LINE
  5
2E0
100
AcDbEntity
  8
0
100
AcDbLine
 62
7
  6
BYLAYER
 10
54.2417674539
 20
20.102900025
 11
54.2776142054
 21
20.3454754198
  0
LINE
  5
2E1
100
AcDbEntity
  8
0
100
AcDbLine
 62
7
  6
BYLAYER
 10
47.8092245321
 20
17.0214783783
 11
47.8913903605
 21
17.4130766891
  0
LINE
  5
2E2
100
AcDbEntity
  8
0
100
AcDbLine
 62
7
  6
BYLAYER
 10
47.5124334288
 20
17.6043190875
 11
47.609743601
 21
17.9995150203
  0
LINE
  5
2E3
100
AcDbEntity
  8
0
100
AcDbLine
 62
7
  6
BYLAYER
 10
54.4333901321
 20
19.7305383956
 11
54.4776560962
 21
19.9779033498
  0
LINE
  5
2E4
100
AcDbEntity
  8
0
100
AcDbLine
 62
7
  6
BYLAYER
 10
54.6045284907
 20
19.3517143598
 11
54.6579100223
 21
19.6025828178
  0
LINE
  5
2E5
100
AcDbEntity
  8
0
100
AcDbLine
 62
7
  6
BYLAYER
 10
47.2478306654
 20
18.1968792031
 11
47.3611590384
 21
18.5935971736
  0
LINE
  5
2E6
100
AcDbEntity
  8
0
100
AcDbLine
 62
7
  6
BYLAYER
 10
47.0174300287
 20
18.7946489849
 11
47.1475285512
 21
19.1908018251
  0
LINE
  5
2E7
100
AcDbEntity
  8
0
100
AcDbLine
 62
7
  6
BYLAYER
 10
46.8229850066
 20
19.3930790438
 11
46.9704779966
 21
19.7865838867
  0
LINE
  5
2E8
100
AcDbEntity
  8
0
100
AcDbLine
 62
7
  6
BYLAYER
 10
46.6777615053
 20
23.6725283271
 11
46.8229850066
 21
24.0494103123
  0
LINE
  5
2E9
100
AcDbEntity
  8
0
100
AcDbLine
 62
7
  6
BYLAYER
 10
53.8631282364
 20
64.1971994613
 11
54.9237928241
 21
64.8095919552
  0
LINE
  5
2EA
100
AcDbEntity
  8
0
100
AcDbLine
 62
7
  6
BYLAYER
 10
52.2301418734
 20
59.5801390956
 11
52.691567137
 21
59.8465415056
  0
LINE
  5
2EB
100
AcDbEntity
  8
0
100
AcDbLine
 62
7
  6
BYLAYER
 10
54.7538800635
 20
18.9693109974
 11
54.8170041424
 21
19.2223702397
  0
LINE
  5
2EC
100
AcDbEntity
  8
0
100
AcDbLine
 62
7
  6
BYLAYER
 10
54.8803081947
 20
18.5862386287
 11
54.9537276542
 21
18.8401592628
  0
LINE
  5
2ED
100
AcDbEntity
  8
0
100
AcDbLine
 62
7
  6
BYLAYER
 10
53.359086552
 20
23.7952219952
 11
52.7768778928
 21
22.0262484204
  0
LINE
  5
2EE
100
AcDbEntity
  8
0
100
AcDbLine
 62
7
  6
BYLAYER
 10
50.124594001
 20
13.967591024
 11
50.717584302
 21
15.7693233687
  0
LINE
  5
2EF
100
AcDbEntity
  8
0
100
AcDbLine
 62
7
  6
BYLAYER
 10
50.1401281561
 20
14.2966192443
 11
50.670894911
 21
15.8159014097
  0
LINE
  5
2F0
100
AcDbEntity
  8
0
100
AcDbLine
 62
7
  6
BYLAYER
 10
48.5937729038
 20
22.1889289433
 11
48.5008298629
 21
21.9477244728
  0
LINE
  5
2F1
100
AcDbEntity
  8
0
100
AcDbLine
 62
7
  6
BYLAYER
 10
46.8379841543
 20
24.0825639005
 11
47.0174300287
 21
24.4233196789
  0
LINE
  5
2F2
100
AcDbEntity
  8
0
100
AcDbLine
 62
7
  6
BYLAYER
 10
54.9828506901
 20
18.2054126658
 11
55.0670400091
 21
18.4588587433
  0
LINE
  5
2F3
100
AcDbEntity
  8
0
100
AcDbLine
 62
7
  6
BYLAYER
 10
53.6720969513
 20
23.4829580982
 11
53.038463907
 21
21.9724361145
  0
LINE
  5
2F4
100
AcDbEntity
  8
0
100
AcDbLine
 62
7
  6
BYLAYER
 10
53.7580848426
 20
23.3971752805
 11
53.0322367988
 21
21.771498523
  0
LINE
  5
2F5
100
AcDbEntity
  8
0
100
AcDbLine
 62
7
  6
BYLAYER
 10
49.7255957104
 20
14.3656377387
 11
50.4648853846
 21
16.0214196214
  0
LINE
  5
2F6
100
AcDbEntity
  8
0
100
AcDbLine
 62
7
  6
BYLAYER
 10
53.7942959883
 20
23.3589496632
 11
53.055411932
 21
21.7470341279
  0
LINE
  5
2F7
100
AcDbEntity
  8
0
100
AcDbLine
 62
7
  6
BYLAYER
 10
49.6893845647
 20
14.403863356
 11
50.441951659
 21
16.045629179
  0
LINE
  5
2F8
100
AcDbEntity
  8
0
100
AcDbLine
 62
7
  6
BYLAYER
 10
48.7182177179
 20
22.4282309379
 11
48.6033723583
 21
22.2101472398
  0
LINE
  5
2F9
100
AcDbEntity
  8
0
100
AcDbLine
 62
7
  6
BYLAYER
 10
61.1529924006
 20
58.1998120365
 11
57.8870196745
 21
56.3142130595
  0
LINE
  5
2FA
100
AcDbEntity
  8
0
100
AcDbLine
 62
7
  6
BYLAYER
 10
61.1529924006
 20
54.933802368
 11
57.8870196745
 21
53.048203391
  0
LINE
  5
2FB
100
AcDbEntity
  8
0
100
AcDbLine
 62
7
  6
BYLAYER
 10
54.8899076492
 20
15.5738840759
 11
54.9828506901
 21
15.8150885464
  0
LINE
  5
2FC
100
AcDbEntity
  8
0
100
AcDbLine
 62
7
  6
BYLAYER
 10
56.8059190477
 20
14.0902846921
 11
56.6606955464
 21
13.7134027069
  0
LINE
  5
2FD
100
AcDbEntity
  8
0
100
AcDbLine
 62
7
  6
BYLAYER
 10
49.7126903059
 20
14.7478360003
 11
50.3823930147
 21
16.1120837923
  0
LINE
  5
2FE
100
AcDbEntity
  8
0
100
AcDbLine
 62
7
  6
BYLAYER
 10
54.0751487283
 20
23.0455785238
 11
53.3120241312
 21
21.6836573907
  0
LINE
  5
2FF
100
AcDbEntity
  8
0
100
AcDbLine
 62
7
  6
BYLAYER
 10
47.0355281093
 20
24.4530155256
 11
47.2478306654
 21
24.7550517399
  0
LINE
  5
300
100
AcDbEntity
  8
0
100
AcDbLine
 62
7
  6
BYLAYER
 10
48.8656741254
 20
22.640539457
 11
48.7298004895
 21
22.4472362798
  0
LINE
  5
301
100
AcDbEntity
  8
0
100
AcDbLine
 62
7
  6
BYLAYER
 10
54.7654628351
 20
15.3345820813
 11
54.8803081947
 21
15.5526657794
  0
LINE
  5
302
100
AcDbEntity
  8
0
100
AcDbLine
 62
7
  6
BYLAYER
 10
54.1791189078
 20
22.929570207
 11
53.3016986005
 21
21.472231276
  0
LINE
  5
303
100
AcDbEntity
  8
0
100
AcDbLine
 62
7
  6
BYLAYER
 10
49.3045616452
 20
14.8332428122
 11
50.1982304767
 21
16.3175695012
  0
LINE
  5
304
100
AcDbEntity
  8
0
100
AcDbLine
 62
7
  6
BYLAYER
 10
54.2138849973
 20
22.8886005241
 11
53.3239488978
 21
21.4460106789
  0
LINE
  5
305
100
AcDbEntity
  8
0
100
AcDbLine
 62
7
  6
BYLAYER
 10
49.2697955557
 20
14.8742124951
 11
50.1762119533
 21
16.3435169671
  0
LINE
  5
306
100
AcDbEntity
  8
0
100
AcDbLine
 62
7
  6
BYLAYER
 10
49.3023099584
 20
15.2314438191
 11
50.1048894173
 21
16.4322426202
  0
LINE
  5
307
100
AcDbEntity
  8
0
100
AcDbLine
 62
7
  6
BYLAYER
 10
47.2688899418
 20
24.7810638418
 11
47.5124334288
 21
25.0420818142
  0
LINE
  5
308
100
AcDbEntity
  8
0
100
AcDbLine
 62
7
  6
BYLAYER
 10
56.6456963987
 20
13.6802491187
 11
56.4662505243
 21
13.3394933403
  0
LINE
  5
309
100
AcDbEntity
  8
0
100
AcDbLine
 62
7
  6
BYLAYER
 10
54.4616070125
 20
22.5804328845
 11
53.5746675536
 21
21.3741483866
  0
LINE
  5
30A
100
AcDbEntity
  8
0
100
AcDbLine
 62
7
  6
BYLAYER
 10
54.581603811
 20
22.4311561635
 11
53.5592889386
 21
21.1532462881
  0
LINE
  5
30B
100
AcDbEntity
  8
0
100
AcDbLine
 62
7
  6
BYLAYER
 10
48.902076742
 20
15.3316568557
 11
49.9433233713
 21
16.6332317288
  0
LINE
  5
30C
100
AcDbEntity
  8
0
100
AcDbLine
 62
7
  6
BYLAYER
 10
54.6146602534
 20
22.387754219
 11
53.5804450617
 21
21.1254690436
  0
LINE
  5
30D
100
AcDbEntity
  8
0
100
AcDbLine
 62
7
  6
BYLAYER
 10
48.8690202996
 20
15.3750588002
 11
49.9223876245
 21
16.660719627
  0
LINE
  5
30E
100
AcDbEntity
  8
0
100
AcDbLine
 62
7
  6
BYLAYER
 10
49.035019894
 20
22.8242387045
 11
48.8791520623
 21
22.6571872022
  0
LINE
  5
30F
100
AcDbEntity
  8
0
100
AcDbLine
 62
7
  6
BYLAYER
 10
46.6777615053
 20
23.6725283271
 11
46.9316212225
 21
23.9352714841
  0
LINE
  5
310
100
AcDbEntity
  8
0
100
AcDbLine
 62
7
  6
BYLAYER
 10
46.8379841543
 20
24.0825639005
 11
47.1015662039
 21
24.3246247407
  0
LINE
  5
311
100
AcDbEntity
  8
0
100
AcDbLine
 62
7
  6
BYLAYER
 10
54.6180064276
 20
15.1222735622
 11
54.7538800635
 21
15.3155767394
  0
LINE
  5
312
100
AcDbEntity
  8
0
100
AcDbLine
 62
7
  6
BYLAYER
 10
56.4481524436
 20
13.3097974936
 11
56.2358498876
 21
13.0077612793
  0
LINE
  5
313
100
AcDbEntity
  8
0
100
AcDbLine
 62
7
  6
BYLAYER
 10
48.9121103557
 20
15.7437621532
 11
49.8409134972
 21
16.7736321467
  0
LINE
  5
314
100
AcDbEntity
  8
0
100
AcDbLine
 62
7
  6
BYLAYER
 10
54.82905594
 20
22.0906297454
 11
53.8243952993
 21
21.0462646528
  0
LINE
  5
315
100
AcDbEntity
  8
0
100
AcDbLine
 62
7
  6
BYLAYER
 10
47.0355281093
 20
24.4530155256
 11
47.3090385049
 21
24.6750534387
  0
LINE
  5
316
100
AcDbEntity
  8
0
100
AcDbLine
 62
7
  6
BYLAYER
 10
47.5362936271
 20
25.0642122035
 11
47.8092245321
 21
25.2822254294
  0
LINE
  5
317
100
AcDbEntity
  8
0
100
AcDbLine
 62
7
  6
BYLAYER
 10
49.2249662001
 20
22.9779306183
 11
49.0502904209
 21
22.8384021537
  0
LINE
  5
318
100
AcDbEntity
  8
0
100
AcDbLine
 62
7
  6
BYLAYER
 10
47.2688899418
 20
24.7810638418
 11
47.5536429278
 21
24.9843606538
  0
LINE
  5
319
100
AcDbEntity
  8
0
100
AcDbLine
 62
7
  6
BYLAYER
 10
49.9740512438
 20
31.3329984639
 11
52.691567137
 21
32.901947631
  0
LINE
  5
31A
100
AcDbEntity
  8
0
100
AcDbLine
 62
7
  6
BYLAYER
 10
54.8899076492
 20
15.5738840759
 11
55.0467736698
 21
15.7546110545
  0
LINE
  5
31B
100
AcDbEntity
  8
0
100
AcDbLine
 62
7
  6
BYLAYER
 10
54.448660659
 20
14.9385743147
 11
54.6045284907
 21
15.105625817
  0
LINE
  5
31C
100
AcDbEntity
  8
0
100
AcDbLine
 62
7
  6
BYLAYER
 10
54.7654628351
 20
15.3345820813
 11
54.9304936381
 21
15.5036904004
  0
LINE
  5
31D
100
AcDbEntity
  8
0
100
AcDbLine
 62
7
  6
BYLAYER
 10
54.9624763989
 20
21.9057263817
 11
53.8030473949
 21
20.8169712277
  0
LINE
  5
31E
100
AcDbEntity
  8
0
100
AcDbLine
 62
7
  6
BYLAYER
 10
48.521204154
 20
15.8570866375
 11
49.7021040656
 21
16.966003924
  0
LINE
  5
31F
100
AcDbEntity
  8
0
100
AcDbLine
 62
7
  6
BYLAYER
 10
54.9935716147
 20
21.8602224906
 11
53.822948333
 21
20.7878487374
  0
LINE
  5
320
100
AcDbEntity
  8
0
100
AcDbLine
 62
7
  6
BYLAYER
 10
48.4901089383
 20
15.9025905286
 11
49.682410429
 21
16.994823055
  0
LINE
  5
321
100
AcDbEntity
  8
0
100
AcDbLine
 62
7
  6
BYLAYER
 10
48.5450611526
 20
16.2808919508
 11
49.5928749946
 21
17.1332671214
  0
LINE
  5
322
100
AcDbEntity
  8
0
100
AcDbLine
 62
7
  6
BYLAYER
 10
55.1751978312
 20
21.579383154
 11
54.0593067893
 21
20.7025015823
  0
LINE
  5
323
100
AcDbEntity
  8
0
100
AcDbLine
 62
7
  6
BYLAYER
 10
47.5362936271
 20
25.0642122035
 11
47.8306954089
 21
25.247793459
  0
LINE
  5
324
100
AcDbEntity
  8
0
100
AcDbLine
 62
7
  6
BYLAYER
 10
47.8357040618
 20
25.3003056805
 11
48.1359452159
 21
25.4736549478
  0
LINE
  5
325
100
AcDbEntity
  8
0
100
AcDbLine
 62
7
  6
BYLAYER
 10
46.13869282
 20
21.2181593598
 11
47.5529004944
 21
22.0346476675
  0
LINE
  5
326
100
AcDbEntity
  8
0
100
AcDbLine
 62
7
  6
BYLAYER
 10
49.4340674377
 20
23.1004455101
 11
49.2419130991
 21
22.989501979
  0
LINE
  5
327
100
AcDbEntity
  8
0
100
AcDbLine
 62
7
  6
BYLAYER
 10
60.2271157627
 20
29.0876896111
 11
57.0451484953
 21
27.2505909187
  0
LINE
  5
328
100
AcDbEntity
  8
0
100
AcDbLine
 62
7
  6
BYLAYER
 10
47.8357040618
 20
25.3003056805
 11
48.1406686428
 21
25.4649034442
  0
LINE
  5
329
100
AcDbEntity
  8
0
100
AcDbLine
 62
7
  6
BYLAYER
 10
56.2147906112
 20
12.9817491773
 11
55.9712471242
 21
12.720731205
  0
LINE
  5
32A
100
AcDbEntity
  8
0
100
AcDbLine
 62
7
  6
BYLAYER
 10
54.6180064276
 20
15.1222735622
 11
54.7886200864
 21
15.2773580794
  0
LINE
  5
32B
100
AcDbEntity
  8
0
100
AcDbLine
 62
7
  6
BYLAYER
 10
54.448660659
 20
14.9385743147
 11
54.6249634564
 21
15.0801845689
  0
LINE
  5
32C
100
AcDbEntity
  8
0
100
AcDbLine
 62
7
  6
BYLAYER
 10
54.2587143529
 20
14.7848824009
 11
54.4333901321
 21
14.9244108655
  0
LINE
  5
32D
100
AcDbEntity
  8
0
100
AcDbLine
 62
7
  6
BYLAYER
 10
55.3188380014
 20
21.3572796995
 11
54.0311188204
 21
20.4659653511
  0
LINE
  5
32E
100
AcDbEntity
  8
0
100
AcDbLine
 62
7
  6
BYLAYER
 10
48.1648425516
 20
16.4055333197
 11
49.4764083841
 21
17.3133534893
  0
LINE
  5
32F
100
AcDbEntity
  8
0
100
AcDbLine
 62
7
  6
BYLAYER
 10
55.3477353371
 20
21.310020174
 11
54.0496131153
 21
20.4357192548
  0
LINE
  5
330
100
AcDbEntity
  8
0
100
AcDbLine
 62
7
  6
BYLAYER
 10
48.1359452159
 20
16.4527928452
 11
49.4581067381
 21
17.3432845222
  0
LINE
  5
331
100
AcDbEntity
  8
0
100
AcDbLine
 62
7
  6
BYLAYER
 10
52.3782272533
 20
24.0661712495
 11
50.9640195788
 21
23.2496829418
  0
LINE
  5
332
100
AcDbEntity
  8
0
100
AcDbLine
 62
7
  6
BYLAYER
 10
56.6915965767
 20
25.7807875188
 11
55.4099582694
 21
25.040837714
  0
LINE
  5
333
100
AcDbEntity
  8
0
100
AcDbLine
 62
7
  6
BYLAYER
 10
60.2271157627
 20
27.4546847768
 11
57.0451484953
 21
25.6175860844
  0
LINE
  5
334
100
AcDbEntity
  8
0
100
AcDbLine
 62
7
  6
BYLAYER
 10
59.5200060376
 20
26.6381719057
 11
59.166451175
 21
26.4340410743
  0
LINE
  5
335
100
AcDbEntity
  8
0
100
AcDbLine
 62
7
  6
BYLAYER
 10
49.6551869514
 20
23.2028646157
 11
49.4525617326
 21
23.1093367172
  0
LINE
  5
336
100
AcDbEntity
  8
0
100
AcDbLine
 62
7
  6
BYLAYER
 10
48.1648425516
 20
25.487547459
 11
48.4901089383
 21
25.6149134751
  0
LINE
  5
337
100
AcDbEntity
  8
0
100
AcDbLine
 62
7
  6
BYLAYER
 10
49.66073222
 20
23.1908509675
 11
49.4525617326
 21
23.1093367172
  0
LINE
  5
338
100
AcDbEntity
  8
0
100
AcDbLine
 62
7
  6
BYLAYER
 10
49.8914213726
 20
23.2788731405
 11
49.6806331581
 21
23.1969943537
  0
LINE
  5
339
100
AcDbEntity
  8
0
100
AcDbLine
 62
7
  6
BYLAYER
 10
55.9473869259
 20
12.6986008157
 11
55.6744560208
 21
12.4805875897
  0
LINE
  5
33A
100
AcDbEntity
  8
0
100
AcDbLine
 62
7
  6
BYLAYER
 10
54.2587143529
 20
14.7848824009
 11
54.44102393
 21
14.9135985937
  0
LINE
  5
33B
100
AcDbEntity
  8
0
100
AcDbLine
 62
7
  6
BYLAYER
 10
48.2039558149
 20
16.8387453298
 11
49.363031605
 21
17.5079585691
  0
LINE
  5
33C
100
AcDbEntity
  8
0
100
AcDbLine
 62
7
  6
BYLAYER
 10
55.4978576517
 20
21.0500021413
 11
54.2776142054
 21
20.3454754198
  0
LINE
  5
33D
100
AcDbEntity
  8
0
100
AcDbLine
 62
7
  6
BYLAYER
 10
56.4559051108
 20
19.7705110235
 11
57.8701127852
 21
20.5869993313
  0
LINE
  5
33E
100
AcDbEntity
  8
0
100
AcDbLine
 62
7
  6
BYLAYER
 10
55.6479764912
 20
20.7899901273
 11
54.2417674539
 21
20.102900025
  0
LINE
  5
33F
100
AcDbEntity
  8
0
100
AcDbLine
 62
7
  6
BYLAYER
 10
47.8357040618
 20
16.9728228918
 11
49.2679540072
 21
17.672636885
  0
LINE
  5
340
100
AcDbEntity
  8
0
100
AcDbLine
 62
7
  6
BYLAYER
 10
55.6744560208
 20
20.7413346409
 11
54.2587143529
 21
20.0717605136
  0
LINE
  5
341
100
AcDbEntity
  8
0
100
AcDbLine
 62
7
  6
BYLAYER
 10
47.8092245321
 20
17.0214783783
 11
49.2511836384
 21
17.7034520265
  0
LINE
  5
342
100
AcDbEntity
  8
0
100
AcDbLine
 62
7
  6
BYLAYER
 10
55.7949875835
 20
20.5058810751
 11
54.4776560962
 21
19.9779033498
  0
LINE
  5
343
100
AcDbEntity
  8
0
100
AcDbLine
 62
7
  6
BYLAYER
 10
50.1440041331
 20
23.3220224524
 11
49.9243916144
 21
23.2518077608
  0
LINE
  5
344
100
AcDbEntity
  8
0
100
AcDbLine
 62
7
  6
BYLAYER
 10
55.6427623059
 20
12.470968489
 11
55.3477353371
 21
12.2891580714
  0
LINE
  5
345
100
AcDbEntity
  8
0
100
AcDbLine
 62
7
  6
BYLAYER
 10
56.5501746316
 20
16.8401865368
 11
55.1359669572
 21
16.0236982291
  0
LINE
  5
346
100
AcDbEntity
  8
0
100
AcDbLine
 62
7
  6
BYLAYER
 10
54.0496131153
 20
14.6623675091
 11
54.2417674539
 21
14.7733110402
  0
LINE
  5
347
100
AcDbEntity
  8
0
100
AcDbLine
 62
7
  6
BYLAYER
 10
57.344987733
 20
16.5446536594
 11
58.7591954075
 21
17.3611419672
  0
LINE
  5
348
100
AcDbEntity
  8
0
100
AcDbLine
 62
7
  6
BYLAYER
 10
52.3782272533
 20
13.6769829533
 11
50.9640195788
 21
12.8604946456
  0
LINE
  5
349
100
AcDbEntity
  8
0
100
AcDbLine
 62
7
  6
BYLAYER
 10
58.7591954075
 20
15.5648366495
 11
57.344987733
 21
14.7483483418
  0
LINE
  5
34A
100
AcDbEntity
  8
0
100
AcDbLine
 62
7
  6
BYLAYER
 10
55.6479764912
 20
12.4625073387
 11
55.3477353371
 21
12.2891580714
  0
LINE
  5
34B
100
AcDbEntity
  8
0
100
AcDbLine
 62
7
  6
BYLAYER
 10
55.741822369
 20
11.9531929404
 11
57.1560300434
 21
12.7696812482
  0
LINE
  5
34C
100
AcDbEntity
  8
0
100
AcDbLine
 62
7
  6
BYLAYER
 10
47.8913903605
 20
17.4130766891
 11
49.1534587789
 21
17.8943536138
  0
LINE
  5
34D
100
AcDbEntity
  8
0
100
AcDbLine
 62
7
  6
BYLAYER
 10
55.9473869259
 20
20.2081750815
 11
54.4333901321
 21
19.7305383956
  0
LINE
  5
34E
100
AcDbEntity
  8
0
100
AcDbLine
 62
7
  6
BYLAYER
 10
47.5362936271
 20
17.5546379377
 11
49.0783273985
 21
18.0411197474
  0
LINE
  5
34F
100
AcDbEntity
  8
0
100
AcDbLine
 62
7
  6
BYLAYER
 10
55.9712471242
 20
20.1584939317
 11
54.448660659
 21
19.6987424597
  0
LINE
  5
350
100
AcDbEntity
  8
0
100
AcDbLine
 62
7
  6
BYLAYER
 10
47.5124334288
 20
17.6043190875
 11
49.0632159396
 21
18.0725844756
  0
LINE
  5
351
100
AcDbEntity
  8
0
100
AcDbLine
 62
7
  6
BYLAYER
 10
55.2997570637
 20
12.3110703954
 11
54.9935716147
 21
12.1478995441
  0
LINE
  5
352
100
AcDbEntity
  8
0
100
AcDbLine
 62
7
  6
BYLAYER
 10
55.2773889022
 20
11.7411467763
 11
55.741820183
 21
11.9531967269
  0
LINE
  5
353
100
AcDbEntity
  8
0
100
AcDbLine
 62
7
  6
BYLAYER
 10
54.9330951651
 20
12.2028439213
 11
54.6146602534
 21
12.0578870707
  0
LINE
  5
354
100
AcDbEntity
  8
0
100
AcDbLine
 62
7
  6
BYLAYER
 10
53.822948333
 20
14.5719620517
 11
54.0311188204
 21
14.653476302
  0
LINE
  5
355
100
AcDbEntity
  8
0
100
AcDbLine
 62
7
  6
BYLAYER
 10
55.3188380014
 20
12.2752655602
 11
54.9935716147
 21
12.1478995441
  0
LINE
  5
356
100
AcDbEntity
  8
0
100
AcDbLine
 62
7
  6
BYLAYER
 10
54.5429289286
 20
12.1456556708
 11
54.2138849973
 21
12.0198057004
  0
LINE
  5
357
100
AcDbEntity
  8
0
100
AcDbLine
 62
7
  6
BYLAYER
 10
54.1357158903
 20
12.1411855176
 11
53.7942959883
 21
12.0339452553
  0
ARC
  5
358
100
AcDbEntity
  8
0
100
AcDbCircle
 62
7
  6
BYLAYER
 10
66.4868426429
 20
25.7828805493
 40
9.7952462899
100
AcDbArc
 50
180.0122428585
 51
183.0406022818
  0
SPLINE
  5
359
100
AcDbEntity
  8
0
100
AcDbSpline
 62
7
  6
BYLAYER
 70
0
 71
3
 72
11
 73
7
 74
0
 42
0.0000001
 43
0.0000001
 44
0.0000000001
 40
0.0
 40
0.0
 40
0.0
 40
0.0
 40
0.2318633542
 40
0.4772789724
 40
0.734171413
 40
1.0
 40
1.0
 40
1.0
 40
1.0
 10
59.166451175
 20
26.4340410743
 30
0.0
 10
59.0529790474
 20
26.368528302
 30
0.0
 10
58.8112695942
 20
26.247448537
 30
0.0
 10
58.4228814146
 20
26.0998877584
 30
0.0
 10
58.0041992477
 20
25.9832660153
 30
0.0
 10
57.7135879806
 20
25.9282303178
 30
0.0
 10
57.56500393
 20
25.9061214921
 30
0.0
  0
SPLINE
  5
35A
100
AcDbEntity
  8
0
100
AcDbSpline
 62
7
  6
BYLAYER
 70
0
 71
3
 72
11
 73
7
 74
0
 42
0.0000001
 43
0.0000001
 44
0.0000000001
 40
0.0
 40
0.0
 40
0.0
 40
0.0
 40
0.2227017412
 40
0.4621638651
 40
0.7210028869
 40
1.0
 40
1.0
 40
1.0
 40
1.0
 10
60.5728302601
 20
27.7126393752
 30
0.0
 10
60.5278665655
 20
27.6084931637
 30
0.0
 10
60.4108544884
 20
27.4021122067
 30
0.0
 10
60.1732165911
 20
27.1199420207
 30
0.0
 10
59.8729678977
 20
26.8597433614
 30
0.0
 10
59.6430798699
 20
26.7092281917
 30
0.0
 10
59.5200060376
 20
26.6381719057
 30
0.0
  0
SPLINE
  5
35B
100
AcDbEntity
  8
0
100
AcDbSpline
 62
7
  6
BYLAYER
 70
0
 71
3
 72
11
 73
7
 74
0
 42
0.0000001
 43
0.0000001
 44
0.0000000001
 40
0.0
 40
0.0
 40
0.0
 40
0.0
 40
0.2328146594
 40
0.4782952765
 40
0.7347063564
 40
1.0
 40
1.0
 40
1.0
 40
1.0
 10
59.5200060376
 20
26.6381719057
 30
0.0
 10
59.4013997311
 20
26.5696949315
 30
0.0
 10
59.1499727219
 20
26.4421734608
 30
0.0
 10
58.7473978201
 20
26.2834579242
 30
0.0
 10
58.3145037966
 20
26.1541439614
 30
0.0
 10
58.0140981268
 20
26.0896736685
 30
0.0
 10
57.8604103503
 20
26.0625637007
 30
0.0
  0
SPLINE
  5
35C
100
AcDbEntity
  8
0
100
AcDbSpline
 62
7
  6
BYLAYER
 70
0
 71
3
 72
15
 73
11
 74
0
 42
0.0000001
 43
0.0000001
 44
0.0000000001
 40
0.0
 40
0.0
 40
0.0
 40
0.0
 40
0.1485651372
 40
0.2895100829
 40
0.4227290316
 40
0.548639536
 40
0.6680017659
 40
0.7819392484
 40
0.8919875144
 40
1.0
 40
1.0
 40
1.0
 40
1.0
 10
53.8631282364
 20
64.1971994613
 30
0.0
 10
53.7729269425
 20
64.1451220308
 30
0.0
 10
53.601236489
 20
64.036283915
 30
0.0
 10
53.3664921565
 20
63.8546149616
 30
0.0
 10
53.1634535728
 20
63.6602670179
 30
0.0
 10
52.9941663614
 20
63.4550485331
 30
0.0
 10
52.8602970212
 20
63.240795984
 30
0.0
 10
52.7634254322
 20
63.0194017037
 30
0.0
 10
52.7047158359
 20
62.7931465844
 30
0.0
 10
52.6915766302
 20
62.6399613135
 30
0.0
 10
52.691571776
 20
62.5642364431
 30
0.0
  0
SPLINE
  5
35D
100
AcDbEntity
  8
0
100
AcDbSpline
 62
7
  6
BYLAYER
 70
0
 71
3
 72
21
 73
17
 74
0
 42
0.0000001
 43
0.0000001
 44
0.0000000001
 40
0.0
 40
0.0
 40
0.0
 40
0.0
 40
0.0623959622
 40
0.1287862953
 40
0.1984018331
 40
0.2704112464
 40
0.4174494206
 40
0.5616837492
 40
0.6303111466
 40
0.6954279898
 40
0.7564015014
 40
0.812862374
 40
0.8647858885
 40
0.9125815856
 40
0.9571748987
 40
1.0
 40
1.0
 40
1.0
 40
1.0
 10
57.7522317247
 20
63.1766289371
 30
0.0
 10
57.6983521988
 20
63.145521764
 30
0.0
 10
57.5828475697
 20
63.0885881324
 30
0.0
 10
57.396555221
 20
63.0210643682
 30
0.0
 10
57.1952012467
 20
62.9699541614
 30
0.0
 10
56.9106030104
 20
62.92485046
 30
0.0
 10
56.5467037968
 20
62.9148456967
 30
0.0
 10
56.1893475669
 20
62.9649709373
 30
0.0
 10
55.9226282095
 20
63.041808802
 30
0.0
 10
55.7421815401
 20
63.1145021327
 30
0.0
 10
55.5818811057
 20
63.2016930378
 30
0.0
 10
55.4450701483
 20
63.3016682923
 30
0.0
 10
55.3346544496
 20
63.4125378832
 30
0.0
 10
55.2531884096
 20
63.5323578562
 30
0.0
 10
55.2030003909
 20
63.65875544
 30
0.0
 10
55.1915688609
 20
63.7462894275
 30
0.0
 10
55.1915731191
 20
63.7889900687
 30
0.0
  0
SPLINE
  5
35E
100
AcDbEntity
  8
0
100
AcDbSpline
 62
7
  6
BYLAYER
 70
0
 71
3
 72
13
 73
9
 74
0
 42
0.0000001
 43
0.0000001
 44
0.0000000001
 40
0.0
 40
0.0
 40
0.0
 40
0.0
 40
0.1080924985
 40
0.2182264828
 40
0.3322569899
 40
0.4516931148
 40
0.7106075468
 40
1.0
 40
1.0
 40
1.0
 40
1.0
 10
58.1915611549
 20
63.7889900691
 30
0.0
 10
58.1915583232
 20
63.7605942008
 30
0.0
 10
58.1866317844
 20
63.7031508023
 30
0.0
 10
58.1646194082
 20
63.6183035902
 30
0.0
 10
58.1282789321
 20
63.5352877923
 30
0.0
 10
58.0595558708
 20
63.4252411257
 30
0.0
 10
57.937458807
 20
63.2967956555
 30
0.0
 10
57.8180699446
 20
63.2146404242
 30
0.0
 10
57.7522317247
 20
63.1766289371
 30
0.0
  0
SPLINE
  5
35F
100
AcDbEntity
  8
0
100
AcDbSpline
 62
7
  6
BYLAYER
 70
0
 71
3
 72
9
 73
5
 74
0
 42
0.0000001
 43
0.0000001
 44
0.0000000001
 40
0.0
 40
0.0
 40
0.0
 40
0.0
 40
0.2440657934
 40
1.0
 40
1.0
 40
1.0
 40
1.0
 10
58.4593639244
 20
64.8095696552
 30
0.0
 10
58.439082227
 20
64.8212796102
 30
0.0
 10
58.355271569
 20
64.8680205566
 30
0.0
 10
58.2687685833
 20
64.9098921716
 30
0.0
 10
58.2023225937
 20
64.9389851708
 30
0.0
  0
SPLINE
  5
360
100
AcDbEntity
  8
0
100
AcDbSpline
 62
7
  6
BYLAYER
 70
0
 71
3
 72
9
 73
5
 74
0
 42
0.0000001
 43
0.0000001
 44
0.0000000001
 40
0.0
 40
0.0
 40
0.0
 40
0.0
 40
0.2558162114
 40
1.0
 40
1.0
 40
1.0
 40
1.0
 10
55.1677214378
 20
64.9332088541
 30
0.0
 10
55.1464033632
 20
64.9237438683
 30
0.0
 10
55.0635326677
 20
64.8857166674
 30
0.0
 10
54.9825554693
 20
64.8435183817
 30
0.0
 10
54.9237928241
 20
64.8095919552
 30
0.0
  0
SPLINE
  5
361
100
AcDbEntity
  8
0
100
AcDbSpline
 62
7
  6
BYLAYER
 70
0
 71
3
 72
14
 73
10
 74
0
 42
0.0000001
 43
0.0000001
 44
0.0000000001
 40
0.0
 40
0.0
 40
0.0
 40
0.0
 40
0.1080472915
 40
0.2181313362
 40
0.3321065584
 40
0.4515018381
 40
0.5774629987
 40
0.7107284398
 40
1.0
 40
1.0
 40
1.0
 40
1.0
 10
60.691562498
 20
62.5642364433
 30
0.0
 10
60.6915673521
 20
62.6399594412
 30
0.0
 10
60.6784039152
 20
62.793139105
 30
0.0
 10
60.6197283994
 20
63.0193972477
 30
0.0
 10
60.5228276739
 20
63.2407712533
 30
0.0
 10
60.388999501
 20
63.4550381372
 30
0.0
 10
60.2196755635
 20
63.6602603066
 30
0.0
 10
59.9414983515
 20
63.9265103631
 30
0.0
 10
59.695618108
 20
64.0958004933
 30
0.0
 10
59.5200493699
 20
64.1971680437
 30
0.0
  0
SPLINE
  5
362
100
AcDbEntity
  8
0
100
AcDbSpline
 62
7
  6
BYLAYER
 70
0
 71
3
 72
29
 73
25
 74
0
 42
0.0000001
 43
0.0000001
 44
0.0000000001
 40
0.0
 40
0.0
 40
0.0
 40
0.0
 40
0.0603343628
 40
0.0881308807
 40
0.1143991847
 40
0.1393012796
 40
0.1630733162
 40
0.1860329932
 40
0.2085679172
 40
0.2311035361
 40
0.2540639804
 40
0.2778356951
 40
0.3027385516
 40
0.3290099912
 40
0.3568057306
 40
0.4171391426
 40
0.4836748618
 40
0.5554662086
 40
0.6310336216
 40
0.7085685883
 40
0.7861019999
 40
0.8616707517
 40
0.9334619005
 40
1.0
 40
1.0
 40
1.0
 40
1.0
 10
54.9237928241
 20
64.8095919552
 30
0.0
 10
54.8140557725
 20
64.7462356171
 30
0.0
 10
54.6603693619
 20
64.6404254142
 30
0.0
 10
54.4865038982
 20
64.4740143452
 30
0.0
 10
54.38068011
 20
64.3457469236
 30
0.0
 10
54.297038795
 20
64.2118286914
 30
0.0
 10
54.2364709377
 20
64.0734773004
 30
0.0
 10
54.1997927179
 20
63.9320297682
 30
0.0
 10
54.1875035168
 20
63.7889882227
 30
0.0
 10
54.1997923261
 20
63.6459439083
 30
0.0
 10
54.2364839009
 20
63.5044984105
 30
0.0
 10
54.2970327413
 20
63.3661360043
 30
0.0
 10
54.3807020441
 20
63.2322231646
 30
0.0
 10
54.4865141047
 20
63.1039499328
 30
0.0
 10
54.6604430813
 20
62.9375262098
 30
0.0
 10
54.9297536672
 20
62.7520606725
 30
0.0
 10
55.3093577053
 20
62.5753516842
 30
0.0
 10
55.7404154683
 20
62.4442986719
 30
0.0
 10
56.2069235554
 20
62.3636998463
 30
0.0
 10
56.6915739798
 20
62.3364945686
 30
0.0
 10
57.17621401
 20
62.3636926717
 30
0.0
 10
57.6427596744
 20
62.4443165434
 30
0.0
 10
58.073693794
 20
62.5752879612
 30
0.0
 10
58.338320948
 20
62.6985173803
 30
0.0
 10
58.4593414499
 20
62.7683881826
 30
0.0
  0
SPLINE
  5
363
100
AcDbEntity
  8
0
100
AcDbSpline
 62
7
  6
BYLAYER
 70
0
 71
3
 72
21
 73
17
 74
0
 42
0.0000001
 43
0.0000001
 44
0.0000000001
 40
0.0
 40
0.0
 40
0.0
 40
0.0
 40
0.1446391537
 40
0.2112756572
 40
0.2742486355
 40
0.3339464372
 40
0.3909351498
 40
0.4459763438
 40
0.4999991776
 40
0.5540235325
 40
0.6090661437
 40
0.6660534228
 40
0.7257521999
 40
0.7887317138
 40
0.85536529
 40
1.0
 40
1.0
 40
1.0
 40
1.0
 10
58.4593414499
 20
62.7683881826
 30
0.0
 10
58.5690766852
 20
62.831743472
 30
0.0
 10
58.7227607116
 20
62.9375517459
 30
0.0
 10
58.8966242346
 20
63.103959377
 30
0.0
 10
59.0024474668
 20
63.2322241583
 30
0.0
 10
59.0860890633
 20
63.3661396273
 30
0.0
 10
59.1466581009
 20
63.5044881918
 30
0.0
 10
59.1833384007
 20
63.6459329317
 30
0.0
 10
59.1956306242
 20
63.7889718029
 30
0.0
 10
59.1833456558
 20
63.9320136938
 30
0.0
 10
59.1466589144
 20
64.0734569881
 30
0.0
 10
59.0861149921
 20
64.2118179248
 30
0.0
 10
59.0024537635
 20
64.34572824
 30
0.0
 10
58.8966402611
 20
64.4740053773
 30
0.0
 10
58.7227659539
 20
64.6404018405
 30
0.0
 10
58.5690948947
 20
64.7462147645
 30
0.0
 10
58.4593639244
 20
64.8095696552
 30
0.0
  0
SPLINE
  5
364
100
AcDbEntity
  8
0
100
AcDbSpline
 62
7
  6
BYLAYER
 70
0
 71
3
 72
9
 73
5
 74
0
 42
0.0000001
 43
0.0000001
 44
0.0000000001
 40
0.0
 40
0.0
 40
0.0
 40
0.0
 40
0.5080782025
 40
1.0
 40
1.0
 40
1.0
 40
1.0
 10
52.8278681421
 20
58.2922578423
 30
0.0
 10
52.7838956319
 20
58.3870025015
 30
0.0
 10
52.7153469598
 20
58.5826268046
 30
0.0
 10
52.6915687149
 20
58.7888454531
 30
0.0
 10
52.6915679947
 20
58.8899755698
 30
0.0
  0
SPLINE
  5
365
100
AcDbEntity
  8
0
100
AcDbSpline
 62
7
  6
BYLAYER
 70
0
 71
3
 72
15
 73
11
 74
0
 42
0.0000001
 43
0.0000001
 44
0.0000000001
 40
0.0
 40
0.0
 40
0.0
 40
0.0
 40
0.1108358809
 40
0.2280592334
 40
0.3507071806
 40
0.4776244039
 40
0.6074734086
 40
0.7388088968
 40
0.8701571191
 40
1.0
 40
1.0
 40
1.0
 40
1.0
 10
59.5200060376
 20
57.257012548
 30
0.0
 10
59.3927254428
 20
57.183527501
 30
0.0
 10
59.1218760889
 20
57.0474872923
 30
0.0
 10
58.6869971959
 20
56.8809225622
 30
0.0
 10
58.2183916696
 20
56.7483826428
 30
0.0
 10
57.7240297038
 20
56.6520806136
 30
0.0
 10
57.2122125204
 20
56.5936511102
 30
0.0
 10
56.6915734315
 20
56.5740512379
 30
0.0
 10
56.1709758823
 20
56.5936425784
 30
0.0
 10
55.8264576031
 20
56.6329732556
 30
0.0
 10
55.6563070427
 20
56.6592948243
 30
0.0
  0
SPLINE
  5
366
100
AcDbEntity
  8
0
100
AcDbSpline
 62
7
  6
BYLAYER
 70
0
 71
3
 72
15
 73
11
 74
0
 42
0.0000001
 43
0.0000001
 44
0.0000000001
 40
0.0
 40
0.0
 40
0.0
 40
0.0
 40
0.1491305983
 40
0.2932652176
 40
0.4309983985
 40
0.5612458924
 40
0.6832522346
 40
0.7967293079
 40
0.9019851823
 40
1.0
 40
1.0
 40
1.0
 40
1.0
 10
55.6563070427
 20
56.6592948243
 30
0.0
 10
55.4899980396
 20
56.6850221203
 30
0.0
 10
55.1647501885
 20
56.7483763819
 30
0.0
 10
54.6961887693
 20
56.8809039092
 30
0.0
 10
54.2612518336
 20
57.0474979595
 30
0.0
 10
53.8672522103
 20
57.2453815779
 30
0.0
 10
53.5207600141
 20
57.4714076758
 30
0.0
 10
53.2275318318
 20
57.7220925228
 30
0.0
 10
52.9927399219
 20
57.9935233668
 30
0.0
 10
52.8744312853
 20
58.1919313177
 30
0.0
 10
52.8278681421
 20
58.2922578423
 30
0.0
  0
SPLINE
  5
367
100
AcDbEntity
  8
0
100
AcDbSpline
 62
7
  6
BYLAYER
 70
0
 71
3
 72
15
 73
11
 74
0
 42
0.0000001
 43
0.0000001
 44
0.0000000001
 40
0.0
 40
0.0
 40
0.0
 40
0.0
 40
0.1080078379
 40
0.2180581002
 40
0.3319961704
 40
0.4513566963
 40
0.5772740214
 40
0.7104896557
 40
0.8514193146
 40
1.0
 40
1.0
 40
1.0
 40
1.0
 10
60.6915662792
 20
58.8899755624
 30
0.0
 10
60.6915668185
 20
58.8142539642
 30
0.0
 10
60.6784000542
 20
58.6610733542
 30
0.0
 10
60.6197241755
 20
58.434812209
 30
0.0
 10
60.5228304336
 20
58.2134253466
 30
0.0
 10
60.3889738191
 20
57.9991618315
 30
0.0
 10
60.2196786369
 20
57.7939466649
 30
0.0
 10
60.0166458371
 20
57.5996062356
 30
0.0
 10
59.781912119
 20
57.4179266076
 30
0.0
 10
59.6102167551
 20
57.3090954191
 30
0.0
 10
59.5200060376
 20
57.257012548
 30
0.0
  0
SPLINE
  5
368
100
AcDbEntity
  8
0
100
AcDbSpline
 62
7
  6
BYLAYER
 70
0
 71
3
 72
15
 73
11
 74
0
 42
0.0000001
 43
0.0000001
 44
0.0000000001
 40
0.0
 40
0.0
 40
0.0
 40
0.0
 40
0.1485651372
 40
0.2895100829
 40
0.4227290316
 40
0.548639536
 40
0.6680017659
 40
0.7819392484
 40
0.8919875144
 40
1.0
 40
1.0
 40
1.0
 40
1.0
 10
59.5200060376
 20
60.9312734251
 30
0.0
 10
59.6102073315
 20
60.9833508556
 30
0.0
 10
59.781897785
 20
61.0921889713
 30
0.0
 10
60.0166421175
 20
61.2738579248
 30
0.0
 10
60.2196807012
 20
61.4682058684
 30
0.0
 10
60.3889679126
 20
61.6734243532
 30
0.0
 10
60.5228372528
 20
61.8876769023
 30
0.0
 10
60.6197088418
 20
62.1090711826
 30
0.0
 10
60.6784184381
 20
62.3353263019
 30
0.0
 10
60.6915576437
 20
62.4885115729
 30
0.0
 10
60.691562498
 20
62.5642364433
 30
0.0
  0
SPLINE
  5
369
100
AcDbEntity
  8
0
100
AcDbSpline
 62
7
  6
BYLAYER
 70
0
 71
3
 72
25
 73
21
 74
0
 42
0.0000001
 43
0.0000001
 44
0.0000000001
 40
0.0
 40
0.0
 40
0.0
 40
0.0
 40
0.0213317598
 40
0.0428920866
 40
0.0648970432
 40
0.0875418435
 40
0.1353165675
 40
0.1872171291
 40
0.2436545348
 40
0.3046023601
 40
0.3696903132
 40
0.4382880202
 40
0.5095749652
 40
0.5825996012
 40
0.6563314538
 40
0.7297084721
 40
0.8016858914
 40
0.8712765506
 40
0.9376191385
 40
1.0
 40
1.0
 40
1.0
 40
1.0
 10
52.691571776
 20
62.5642364431
 30
0.0
 10
52.6915681385
 20
62.50749217
 30
0.0
 10
52.6988931397
 20
62.3932633363
 30
0.0
 10
52.7317175839
 20
62.2233484773
 30
0.0
 10
52.7861490081
 20
62.0553880327
 30
0.0
 10
52.8888633376
 20
61.8314893106
 30
0.0
 10
53.0731494324
 20
61.5602950746
 30
0.0
 10
53.3675536064
 20
61.2647137213
 30
0.0
 10
53.7324021722
 20
60.9980920081
 30
0.0
 10
54.1598815163
 20
60.7655953685
 30
0.0
 10
54.6410534265
 20
60.571746549
 30
0.0
 10
55.1658042627
 20
60.4205167963
 30
0.0
 10
55.7230405263
 20
60.3150552873
 30
0.0
 10
56.3009231926
 20
60.2575898268
 30
0.0
 10
56.8871371046
 20
60.2493441666
 30
0.0
 10
57.4691831852
 20
60.2904880464
 30
0.0
 10
58.0346336775
 20
60.3801556789
 30
0.0
 10
58.5715154469
 20
60.5164392134
 30
0.0
 10
59.0683174306
 20
60.6964581933
 30
0.0
 10
59.376299012
 20
60.8483046305
 30
0.0
 10
59.5200060376
 20
60.9312734251
 30
0.0
  0
SPLINE
  5
36A
100
AcDbEntity
  8
0
100
AcDbSpline
 62
7
  6
BYLAYER
 70
0
 71
3
 72
25
 73
21
 74
0
 42
0.0000001
 43
0.0000001
 44
0.0000000001
 40
0.0
 40
0.0
 40
0.0
 40
0.0
 40
0.0623788855
 40
0.1287246131
 40
0.1983142198
 40
0.2702915356
 40
0.3436680503
 40
0.4174011637
 40
0.4904268184
 40
0.561714094
 40
0.630311557
 40
0.6953990421
 40
0.7563465177
 40
0.8127837515
 40
0.8646841118
 40
0.9124584659
 40
0.9351027557
 40
0.9571078198
 40
0.978668123
 40
1.0
 40
1.0
 40
1.0
 40
1.0
 10
59.5200060376
 20
29.4959303656
 30
0.0
 10
59.3763036661
 20
29.412964258
 30
0.0
 10
59.068317627
 20
29.2611208923
 30
0.0
 10
58.5715182543
 20
29.081094626
 30
0.0
 10
58.0346294457
 20
28.9448186319
 30
0.0
 10
57.4691850658
 20
28.8551449608
 30
0.0
 10
56.8871374639
 20
28.8140015168
 30
0.0
 10
56.3009192268
 20
28.8222443435
 30
0.0
 10
55.7230301598
 20
28.8797136552
 30
0.0
 10
55.1657926035
 20
28.9851821378
 30
0.0
 10
54.6410446648
 20
29.1364165043
 30
0.0
 10
54.1598763461
 20
29.330265407
 30
0.0
 10
53.7323988048
 20
29.562758526
 30
0.0
 10
53.3675486729
 20
29.8293747981
 30
0.0
 10
53.0731460556
 20
30.1249536289
 30
0.0
 10
52.8888573846
 20
30.3961441225
 30
0.0
 10
52.7861592297
 20
30.6200477956
 30
0.0
 10
52.7317231768
 20
30.7880043655
 30
0.0
 10
52.6988885009
 20
30.9579190622
 30
0.0
 10
52.6915807709
 20
31.0721488293
 30
0.0
 10
52.6915806527
 20
31.128893374
 30
0.0
  0
SPLINE
  5
36B
100
AcDbEntity
  8
0
100
AcDbSpline
 62
7
  6
BYLAYER
 70
0
 71
3
 72
15
 73
11
 74
0
 42
0.0000001
 43
0.0000001
 44
0.0000000001
 40
0.0
 40
0.0
 40
0.0
 40
0.0
 40
0.1080111677
 40
0.2180577797
 40
0.3319951408
 40
0.4513555683
 40
0.5772633994
 40
0.7104881421
 40
0.8514445753
 40
1.0
 40
1.0
 40
1.0
 40
1.0
 10
60.6915536213
 20
31.1288933934
 30
0.0
 10
60.691553779
 20
31.0531695368
 30
0.0
 10
60.6784200921
 20
30.8999856272
 30
0.0
 10
60.6197099911
 20
30.6737324375
 30
0.0
 10
60.5228305616
 20
30.4523454182
 30
0.0
 10
60.3889769693
 20
30.2380874135
 30
0.0
 10
60.2196848009
 20
30.0328716648
 30
0.0
 10
60.0166438627
 20
29.8385119133
 30
0.0
 10
59.781888671
 20
29.6568486474
 30
0.0
 10
59.6102013273
 20
29.5480043296
 30
0.0
 10
59.5200060376
 20
29.4959303656
 30
0.0
  0
SPLINE
  5
36C
100
AcDbEntity
  8
0
100
AcDbSpline
 62
7
  6
BYLAYER
 70
0
 71
3
 72
11
 73
7
 74
0
 42
0.0000001
 43
0.0000001
 44
0.0000000001
 40
0.0
 40
0.0
 40
0.0
 40
0.0
 40
0.2762197121
 40
0.5336998516
 40
0.7739584511
 40
1.0
 40
1.0
 40
1.0
 40
1.0
 10
48.1743194815
 20
28.2895907593
 30
0.0
 10
48.1477938914
 20
27.9839076387
 30
0.0
 10
48.0631380887
 20
27.3953373496
 30
0.0
 10
47.8273232045
 20
26.5655345178
 30
0.0
 10
47.4897687875
 20
25.83202696
 30
0.0
 10
47.1914448098
 20
25.404141317
 30
0.0
 10
47.0277754422
 20
25.2137210838
 30
0.0
  0
SPLINE
  5
36D
100
AcDbEntity
  8
0
100
AcDbSpline
 62
7
  6
BYLAYER
 70
0
 71
3
 72
12
 73
8
 74
0
 42
0.0000001
 43
0.0000001
 44
0.0000000001
 40
0.0
 40
0.0
 40
0.0
 40
0.0
 40
0.2775581846
 40
0.5344976101
 40
0.7735864126
 40
0.8880591146
 40
1.0
 40
1.0
 40
1.0
 40
1.0
 10
52.5196609742
 20
11.9623649856
 30
0.0
 10
52.7609624221
 20
11.8617319306
 30
0.0
 10
53.2390959207
 20
11.6975468133
 30
0.0
 10
53.9598278593
 20
11.570351182
 30
0.0
 10
54.539034699
 20
11.5750765211
 30
0.0
 10
54.9720999415
 20
11.6481639541
 30
0.0
 10
55.1777786242
 20
11.7065654867
 30
0.0
 10
55.2773889022
 20
11.7411467763
 30
0.0
  0
SPLINE
  5
36E
100
AcDbEntity
  8
0
100
AcDbSpline
 62
7
  6
BYLAYER
 70
0
 71
3
 72
15
 73
11
 74
0
 42
0.0000001
 43
0.0000001
 44
0.0000000001
 40
0.0
 40
0.0
 40
0.0
 40
0.0
 40
0.1175281881
 40
0.2413334875
 40
0.3695386977
 40
0.5000009028
 40
0.6304629869
 40
0.7586678405
 40
0.8824725673
 40
1.0
 40
1.0
 40
1.0
 40
1.0
 10
46.13869282
 20
21.2181593598
 30
0.0
 10
46.1819902593
 20
20.8330104668
 30
0.0
 10
46.3209994975
 20
20.0472394002
 30
0.0
 10
46.6623957838
 20
18.8753106786
 30
0.0
 10
47.1342710623
 20
17.7034601994
 30
0.0
 10
47.7245316351
 20
16.5619467138
 30
0.0
 10
48.4179855409
 20
15.4800136052
 30
0.0
 10
49.1969031389
 20
14.4854390766
 30
0.0
 10
50.0411263609
 20
13.6038257802
 30
0.0
 10
50.6521197366
 20
13.0905617999
 30
0.0
 10
50.9640195788
 20
12.8604946456
 30
0.0
  0
SPLINE
  5
36F
100
AcDbEntity
  8
0
100
AcDbSpline
 62
7
  6
BYLAYER
 70
0
 71
3
 72
11
 73
7
 74
0
 42
0.0000001
 43
0.0000001
 44
0.0000000001
 40
0.0
 40
0.0
 40
0.0
 40
0.0
 40
0.228329047
 40
0.4694963213
 40
0.7262062298
 40
1.0
 40
1.0
 40
1.0
 40
1.0
 10
47.0277754422
 20
25.2137210838
 30
0.0
 10
46.9085321029
 20
25.0749880709
 30
0.0
 10
46.6893227976
 20
24.7665768619
 30
0.0
 10
46.4331110016
 20
24.2417797434
 30
0.0
 10
46.2441606284
 20
23.6511391432
 30
0.0
 10
46.1667979941
 20
23.2320196708
 30
0.0
 10
46.13869282
 20
23.0144646774
 30
0.0
  0
SPLINE
  5
370
100
AcDbEntity
  8
0
100
AcDbSpline
 62
7
  6
BYLAYER
 70
0
 71
3
 72
14
 73
10
 74
0
 42
0.0000001
 43
0.0000001
 44
0.0000000001
 40
0.0
 40
0.0
 40
0.0
 40
0.0
 40
0.2892800351
 40
0.4225460944
 40
0.5484944961
 40
0.6678941079
 40
0.7818690326
 40
0.8919524604
 40
1.0
 40
1.0
 40
1.0
 40
1.0
 10
53.9338804244
 20
17.6158601706
 30
0.0
 10
53.9338804244
 20
17.4587296294
 30
0.0
 10
53.9155364397
 20
17.2280836591
 30
0.0
 10
53.84462989
 20
16.9381898963
 30
0.0
 10
53.7724838347
 20
16.7450211469
 30
0.0
 10
53.68054763
 20
16.572154336
 30
0.0
 10
53.5694930023
 20
16.4213374126
 30
0.0
 10
53.4403830518
 20
16.294253604
 30
0.0
 10
53.3426544202
 20
16.2260771081
 30
0.0
 10
53.2918281794
 20
16.1967326539
 30
0.0
  0
SPLINE
  5
371
100
AcDbEntity
  8
0
100
AcDbSpline
 62
7
  6
BYLAYER
 70
0
 71
3
 72
24
 73
20
 74
0
 42
0.0000001
 43
0.0000001
 44
0.0000000001
 40
0.0
 40
0.0
 40
0.0
 40
0.0
 40
0.0213340386
 40
0.0428966233
 40
0.0874752731
 40
0.1352545362
 40
0.1871598674
 40
0.2436019803
 40
0.3045541598
 40
0.3696461088
 40
0.438247743
 40
0.5095389678
 40
0.5825685049
 40
0.6563054537
 40
0.7296863819
 40
0.8016687895
 40
0.8712636772
 40
0.9376154307
 40
1.0
 40
1.0
 40
1.0
 40
1.0
 10
50.1918523736
 20
21.5660803653
 30
0.0
 10
50.2299386192
 20
21.5880694022
 30
0.0
 10
50.3094493106
 20
21.6274264238
 30
0.0
 10
50.4802476289
 20
21.6864865038
 30
0.0
 10
50.7149374772
 20
21.7210457091
 30
0.0
 10
51.0134675295
 20
21.6989914709
 30
0.0
 10
51.3260411369
 20
21.615969808
 30
0.0
 10
51.6463385883
 20
21.4743969103
 30
0.0
 10
51.9680395909
 20
21.2775828307
 30
0.0
 10
52.284594319
 20
21.0297560604
 30
0.0
 10
52.5894359784
 20
20.7361700942
 30
0.0
 10
52.8761482287
 20
20.4030452307
 30
0.0
 10
53.1386473527
 20
20.0374616557
 30
0.0
 10
53.3713358634
 20
19.6472124073
 30
0.0
 10
53.5692630997
 20
19.2406227781
 30
0.0
 10
53.7281857981
 20
18.8263678349
 30
0.0
 10
53.8447669863
 20
18.4132159927
 30
0.0
 10
53.9164482254
 20
18.0100146748
 30
0.0
 10
53.9338804244
 20
17.7444602699
 30
0.0
 10
53.9338804244
 20
17.6158601706
 30
0.0
  0
SPLINE
  5
372
100
AcDbEntity
  8
0
100
AcDbSpline
 62
7
  6
BYLAYER
 70
0
 71
3
 72
9
 73
5
 74
0
 42
0.0000001
 43
0.0000001
 44
0.0000000001
 40
0.0
 40
0.0
 40
0.0
 40
0.0
 40
0.4791728256
 40
1.0
 40
1.0
 40
1.0
 40
1.0
 10
51.0613917852
 20
21.6532803276
 30
0.0
 10
51.0277820903
 20
21.546862764
 30
0.0
 10
50.9784003183
 20
21.3179864084
 30
0.0
 10
50.964007803
 20
21.0847412905
 30
0.0
 10
50.964007803
 20
20.9634411564
 30
0.0
  0
SPLINE
  5
373
100
AcDbEntity
  8
0
100
AcDbSpline
 62
7
  6
BYLAYER
 70
0
 71
3
 72
15
 73
11
 74
0
 42
0.0000001
 43
0.0000001
 44
0.0000000001
 40
0.0
 40
0.0
 40
0.0
 40
0.0
 40
0.1268299197
 40
0.2568090231
 40
0.3880619028
 40
0.5187120042
 40
0.6468802267
 40
0.7708013042
 40
0.8889357745
 40
1.0
 40
1.0
 40
1.0
 40
1.0
 10
48.3388610179
 20
29.1232452592
 30
0.0
 10
48.3724694307
 20
29.2371292563
 30
0.0
 10
48.4516137436
 20
29.4645772622
 30
0.0
 10
48.6009463875
 20
29.7962427639
 30
0.0
 10
48.7797518215
 20
30.1171182624
 30
0.0
 10
48.9841443827
 20
30.420288246
 30
0.0
 10
49.2097766726
 20
30.6992558435
 30
0.0
 10
49.4518272484
 20
30.9480910062
 30
0.0
 10
49.7051123513
 20
31.1614119394
 30
0.0
 10
49.8840021598
 20
31.2810089113
 30
0.0
 10
49.9740512438
 20
31.3329984639
 30
0.0
  0
SPLINE
  5
374
100
AcDbEntity
  8
0
100
AcDbSpline
 62
7
  6
BYLAYER
 70
0
 71
3
 72
11
 73
7
 74
0
 42
0.0000001
 43
0.0000001
 44
0.0000000001
 40
0.0
 40
0.0
 40
0.0
 40
0.0
 40
0.2608423851
 40
0.515694452
 40
0.7626428392
 40
1.0
 40
1.0
 40
1.0
 40
1.0
 10
57.8701127852
 20
20.5869993313
 30
0.0
 10
57.985739818
 20
20.3189621139
 30
0.0
 10
58.1970193877
 20
19.7813541346
 30
0.0
 10
58.4541449398
 20
18.9667957458
 30
0.0
 10
58.6455218805
 20
18.1612805197
 30
0.0
 10
58.7295207954
 20
17.6251100948
 30
0.0
 10
58.7591954075
 20
17.3611419672
 30
0.0
  0
SPLINE
  5
375
100
AcDbEntity
  8
0
100
AcDbSpline
 62
7
  6
BYLAYER
 70
0
 71
3
 72
11
 73
7
 74
0
 42
0.0000001
 43
0.0000001
 44
0.0000000001
 40
0.0
 40
0.0
 40
0.0
 40
0.0
 40
0.233949418
 40
0.4801008969
 40
0.7363055203
 40
1.0
 40
1.0
 40
1.0
 40
1.0
 10
56.7053861353
 20
25.2633052727
 30
0.0
 10
56.7251867474
 20
24.8862031496
 30
0.0
 10
56.8081201979
 20
24.114146312
 30
0.0
 10
57.0465920457
 20
22.9482904614
 30
0.0
 10
57.3984477208
 20
21.7614497091
 30
0.0
 10
57.7015192466
 20
20.9778192101
 30
0.0
 10
57.8701127852
 20
20.5869993313
 30
0.0
  0
SPLINE
  5
376
100
AcDbEntity
  8
0
100
AcDbSpline
 62
7
  6
BYLAYER
 70
0
 71
3
 72
15
 73
11
 74
0
 42
0.0000001
 43
0.0000001
 44
0.0000000001
 40
0.0
 40
0.0
 40
0.0
 40
0.0
 40
0.1080129694
 40
0.21805998
 40
0.3319953508
 40
0.4513562265
 40
0.5772700877
 40
0.7104873406
 40
0.8514257218
 40
1.0
 40
1.0
 40
1.0
 40
1.0
 10
61.6915649407
 20
29.4958885494
 30
0.0
 10
61.6915649244
 20
29.4012320458
 30
0.0
 10
61.6751132371
 20
29.2097535065
 30
0.0
 10
61.6017550873
 20
28.9269314852
 30
0.0
 10
61.4806529764
 20
28.650196947
 30
0.0
 10
61.3133238973
 20
28.3823780449
 30
0.0
 10
61.1017131041
 20
28.1258550668
 30
0.0
 10
60.8479172756
 20
27.8829246838
 30
0.0
 10
60.5544923488
 20
27.6558299423
 30
0.0
 10
60.3398743074
 20
27.5197855644
 30
0.0
 10
60.2271157627
 20
27.4546847768
 30
0.0
  0
SPLINE
  5
377
100
AcDbEntity
  8
0
100
AcDbSpline
 62
7
  6
BYLAYER
 70
0
 71
3
 72
13
 73
9
 74
0
 42
0.0000001
 43
0.0000001
 44
0.0000000001
 40
0.0
 40
0.0
 40
0.0
 40
0.0
 40
0.1128224437
 40
0.22700917
 40
0.3438472871
 40
0.464471565
 40
0.720310515
 40
1.0
 40
1.0
 40
1.0
 40
1.0
 10
61.6915648833
 20
31.1288933836
 30
0.0
 10
61.6915649556
 20
31.204369274
 30
0.0
 10
61.6811683732
 20
31.356429627
 30
0.0
 10
61.6347074355
 20
31.5823678504
 30
0.0
 10
61.5576321241
 20
31.8053125733
 30
0.0
 10
61.4121828904
 20
32.1023392187
 30
0.0
 10
61.1515392236
 20
32.4599361673
 30
0.0
 10
60.887695212
 20
32.7052246028
 30
0.0
 10
60.7414019082
 20
32.8218741325
 30
0.0
  0
SPLINE
  5
378
100
AcDbEntity
  8
0
100
AcDbSpline
 62
7
  6
BYLAYER
 70
0
 71
3
 72
14
 73
10
 74
0
 42
0.0000001
 43
0.0000001
 44
0.0000000001
 40
0.0
 40
0.0
 40
0.0
 40
0.0
 40
0.280933206
 40
0.4120310274
 40
0.5374093906
 40
0.6578185618
 40
0.7742296372
 40
0.8878308425
 40
1.0
 40
1.0
 40
1.0
 40
1.0
 10
58.7591954075
 20
15.5648366495
 30
0.0
 10
58.7191529782
 20
15.2548784057
 30
0.0
 10
58.6250983552
 20
14.8028992157
 30
0.0
 10
58.4174038937
 20
14.2413675268
 30
0.0
 10
58.2303940482
 20
13.8650904109
 30
0.0
 10
58.0097537354
 20
13.5267608305
 30
0.0
 10
57.7567343776
 20
13.228720227
 30
0.0
 10
57.4730422883
 20
12.9732020358
 30
0.0
 10
57.2641000291
 20
12.8320715802
 30
0.0
 10
57.1560278062
 20
12.7696851235
 30
0.0
  0
SPLINE
  5
379
100
AcDbEntity
  8
0
100
AcDbSpline
 62
7
  6
BYLAYER
 70
0
 71
3
 72
19
 73
15
 74
0
 42
0.0000001
 43
0.0000001
 44
0.0000000001
 40
0.0
 40
0.0
 40
0.0
 40
0.0
 40
0.0580084158
 40
0.1190935765
 40
0.1828241418
 40
0.2487506358
 40
0.3848625871
 40
0.5226759515
 40
0.6571479984
 40
0.7216922834
 40
0.7837243067
 40
0.8428255736
 40
0.8986887559
 40
1.0
 40
1.0
 40
1.0
 40
1.0
 10
50.964007803
 20
20.9634411564
 30
0.0
 10
50.964007803
 20
20.8613193504
 30
0.0
 10
50.9749772821
 20
20.651558014
 30
0.0
 10
51.0208703515
 20
20.332618777
 30
0.0
 10
51.096086529
 20
20.004973044
 30
0.0
 10
51.2355010889
 20
19.5579661249
 30
0.0
 10
51.4754802569
 20
19.0075613675
 30
0.0
 10
51.8495781345
 20
18.3912508573
 30
0.0
 10
52.2245139413
 20
17.9289705464
 30
0.0
 10
52.5527643641
 20
17.6067413799
 30
0.0
 10
52.8039425888
 20
17.3969881715
 30
0.0
 10
53.0601658185
 20
17.2187060487
 30
0.0
 10
53.3925035149
 20
17.0325427237
 30
0.0
 10
53.6558129585
 20
16.9357733113
 30
0.0
 10
53.8305702685
 20
16.9001311269
 30
0.0
  0
SPLINE
  5
37A
100
AcDbEntity
  8
0
100
AcDbSpline
 62
7
  6
BYLAYER
 70
0
 71
3
 72
9
 73
5
 74
0
 42
0.0000001
 43
0.0000001
 44
0.0000000001
 40
0.0
 40
0.0
 40
0.0
 40
0.0
 40
0.5248745447
 40
1.0
 40
1.0
 40
1.0
 40
1.0
 10
48.3388610179
 20
29.1232452592
 30
0.0
 10
48.2967304081
 20
28.9804833185
 30
0.0
 10
48.2280888643
 20
28.7049018969
 30
0.0
 10
48.1859677858
 20
28.4238267926
 30
0.0
 10
48.1743194815
 20
28.2895907593
 30
0.0
  0
SPLINE
  5
37B
100
AcDbEntity
  8
0
100
AcDbSpline
 62
7
  6
BYLAYER
 70
0
 71
3
 72
11
 73
7
 74
0
 42
0.0000001
 43
0.0000001
 44
0.0000000001
 40
0.0
 40
0.0
 40
0.0
 40
0.0
 40
0.2616895119
 40
0.5228076691
 40
0.7721068433
 40
1.0
 40
1.0
 40
1.0
 40
1.0
 10
56.7419756086
 20
25.2443287777
 30
0.0
 10
56.7577979616
 20
25.2839060283
 30
0.0
 10
56.7955858666
 20
25.3606299139
 30
0.0
 10
56.8672539626
 20
25.4645156541
 30
0.0
 10
56.9501358447
 20
25.5522974444
 30
0.0
 10
57.013003118
 20
25.599027053
 30
0.0
 10
57.0451484953
 20
25.6175860844
 30
0.0
  0
SPLINE
  5
37C
100
AcDbEntity
  8
0
100
AcDbSpline
 62
7
  6
BYLAYER
 70
0
 71
3
 72
11
 73
7
 74
0
 42
0.0000001
 43
0.0000001
 44
0.0000000001
 40
0.0
 40
0.0
 40
0.0
 40
0.0
 40
0.2373571608
 40
0.484305548
 40
0.7391576149
 40
1.0
 40
1.0
 40
1.0
 40
1.0
 10
57.344987733
 20
16.5446536594
 30
0.0
 10
57.315313121
 20
16.808621787
 30
0.0
 10
57.2313142061
 20
17.3447922119
 30
0.0
 10
57.0399372654
 20
18.1503074381
 30
0.0
 10
56.7828117133
 20
18.9648658269
 30
0.0
 10
56.5715321436
 20
19.5024738062
 30
0.0
 10
56.4559051108
 20
19.7705110235
 30
0.0
  0
SPLINE
  5
37D
100
AcDbEntity
  8
0
100
AcDbSpline
 62
7
  6
BYLAYER
 70
0
 71
3
 72
14
 73
10
 74
0
 42
0.0000001
 43
0.0000001
 44
0.0000000001
 40
0.0
 40
0.0
 40
0.0
 40
0.0
 40
0.2892800351
 40
0.4225460944
 40
0.5484944961
 40
0.6678941079
 40
0.7818690326
 40
0.8919524604
 40
1.0
 40
1.0
 40
1.0
 40
1.0
 10
49.5498001285
 20
20.1469528486
 30
0.0
 10
49.5498001285
 20
20.3040833898
 30
0.0
 10
49.5681441133
 20
20.5347293601
 30
0.0
 10
49.639050663
 20
20.8246231229
 30
0.0
 10
49.7111967183
 20
21.0177918723
 30
0.0
 10
49.803132923
 20
21.1906586832
 30
0.0
 10
49.9141875507
 20
21.3414756066
 30
0.0
 10
50.0432975012
 20
21.4685594152
 30
0.0
 10
50.1410261328
 20
21.5367359111
 30
0.0
 10
50.1918523736
 20
21.5660803653
 30
0.0
  0
SPLINE
  5
37E
100
AcDbEntity
  8
0
100
AcDbSpline
 62
7
  6
BYLAYER
 70
0
 71
3
 72
24
 73
20
 74
0
 42
0.0000001
 43
0.0000001
 44
0.0000000001
 40
0.0
 40
0.0
 40
0.0
 40
0.0
 40
0.0213340386
 40
0.0428966233
 40
0.0874752731
 40
0.1352545362
 40
0.1871598674
 40
0.2436019803
 40
0.3045541598
 40
0.3696461088
 40
0.438247743
 40
0.5095389678
 40
0.5825685049
 40
0.6563054537
 40
0.7296863819
 40
0.8016687895
 40
0.8712636772
 40
0.9376154307
 40
1.0
 40
1.0
 40
1.0
 40
1.0
 10
53.2918281794
 20
16.1967326539
 30
0.0
 10
53.2537419338
 20
16.174743617
 30
0.0
 10
53.1742312424
 20
16.1353865953
 30
0.0
 10
53.0034329241
 20
16.0763265154
 30
0.0
 10
52.7687430758
 20
16.0417673101
 30
0.0
 10
52.4702130235
 20
16.0638215483
 30
0.0
 10
52.1576394161
 20
16.1468432111
 30
0.0
 10
51.8373419647
 20
16.2884161089
 30
0.0
 10
51.515640962
 20
16.4852301885
 30
0.0
 10
51.199086234
 20
16.7330569588
 30
0.0
 10
50.8942445746
 20
17.026642925
 30
0.0
 10
50.6075323243
 20
17.3597677885
 30
0.0
 10
50.3450332003
 20
17.7253513635
 30
0.0
 10
50.1123446896
 20
18.1156006119
 30
0.0
 10
49.9144174533
 20
18.5221902411
 30
0.0
 10
49.7554947549
 20
18.9364451842
 30
0.0
 10
49.6389135667
 20
19.3495970265
 30
0.0
 10
49.5672323276
 20
19.7527983443
 30
0.0
 10
49.5498001285
 20
20.0183527493
 30
0.0
 10
49.5498001285
 20
20.1469528486
 30
0.0
  0
SPLINE
  5
37F
100
AcDbEntity
  8
0
100
AcDbSpline
 62
7
  6
BYLAYER
 70
0
 71
3
 72
14
 73
10
 74
0
 42
0.0000001
 43
0.0000001
 44
0.0000000001
 40
0.0
 40
0.0
 40
0.0
 40
0.0
 40
0.1121691575
 40
0.2257703628
 40
0.3421814382
 40
0.4625906094
 40
0.5879689726
 40
0.719066794
 40
1.0
 40
1.0
 40
1.0
 40
1.0
 10
55.7418201318
 20
11.9531968157
 30
0.0
 10
55.8498923547
 20
12.0155832724
 30
0.0
 10
56.0588346138
 20
12.1567137281
 30
0.0
 10
56.3425267032
 20
12.4122319192
 30
0.0
 10
56.595546061
 20
12.7102725228
 30
0.0
 10
56.8161863737
 20
13.0486021032
 30
0.0
 10
57.0031962193
 20
13.4248792191
 30
0.0
 10
57.2108906807
 20
13.986410908
 30
0.0
 10
57.3049453038
 20
14.438390098
 30
0.0
 10
57.344987733
 20
14.7483483418
 30
0.0
  0
SPLINE
  5
380
100
AcDbEntity
  8
0
100
AcDbSpline
 62
7
  6
BYLAYER
 70
0
 71
3
 72
9
 73
5
 74
0
 42
0.0000001
 43
0.0000001
 44
0.0000000001
 40
0.0
 40
0.0
 40
0.0
 40
0.0
 40
0.4865945872
 40
1.0
 40
1.0
 40
1.0
 40
1.0
 10
55.3093610715
 20
24.1702657682
 30
0.0
 10
55.298137791
 20
24.3125630269
 30
0.0
 10
55.3060334934
 20
24.6079507076
 30
0.0
 10
55.3673308729
 20
24.8963923837
 30
0.0
 10
55.4099582694
 20
25.040837714
 30
0.0
  0
SPLINE
  5
381
100
AcDbEntity
  8
0
100
AcDbSpline
 62
7
  6
BYLAYER
 70
0
 71
3
 72
15
 73
11
 74
0
 42
0.0000001
 43
0.0000001
 44
0.0000000001
 40
0.0
 40
0.0
 40
0.0
 40
0.0
 40
0.1485730884
 40
0.289509041
 40
0.4227256693
 40
0.5486399215
 40
0.6680012869
 40
0.781937541
 40
0.8919856818
 40
1.0
 40
1.0
 40
1.0
 40
1.0
 10
60.2271157627
 20
29.0876896111
 30
0.0
 10
60.3398734071
 20
29.1527898788
 30
0.0
 10
60.5544893246
 20
29.2888317245
 30
0.0
 10
60.8479108953
 20
29.5159247176
 30
0.0
 10
61.1017061516
 20
29.7588522365
 30
0.0
 10
61.3133182214
 20
30.0153745204
 30
0.0
 10
61.4806489199
 20
30.2831942086
 30
0.0
 10
61.6017534325
 20
30.5599301401
 30
0.0
 10
61.6751125211
 20
30.8427550166
 30
0.0
 10
61.6915647927
 20
31.0342356958
 30
0.0
 10
61.6915648833
 20
31.1288933836
 30
0.0
  0
SPLINE
  5
382
100
AcDbEntity
  8
0
100
AcDbSpline
 62
7
  6
BYLAYER
 70
0
 71
3
 72
15
 73
11
 74
0
 42
0.0000001
 43
0.0000001
 44
0.0000000001
 40
0.0
 40
0.0
 40
0.0
 40
0.0
 40
0.1110642255
 40
0.2291986958
 40
0.3531197733
 40
0.4812879958
 40
0.6119380972
 40
0.7431909769
 40
0.8731700803
 40
1.0
 40
1.0
 40
1.0
 40
1.0
 10
57.0451484953
 20
27.2505909187
 30
0.0
 10
56.9550994112
 20
27.1986013661
 30
0.0
 10
56.7762096028
 20
27.0790043942
 30
0.0
 10
56.5229244999
 20
26.865683461
 30
0.0
 10
56.2808739241
 20
26.6168482983
 30
0.0
 10
56.0552416342
 20
26.3378807008
 30
0.0
 10
55.850849073
 20
26.0347107172
 30
0.0
 10
55.6720436389
 20
25.7138352187
 30
0.0
 10
55.5227109951
 20
25.382169717
 30
0.0
 10
55.4435666822
 20
25.1547217111
 30
0.0
 10
55.4099582694
 20
25.040837714
 30
0.0
  0
SPLINE
  5
383
100
AcDbEntity
  8
0
100
AcDbSpline
 62
7
  6
BYLAYER
 70
0
 71
3
 72
11
 73
7
 74
0
 42
0.0000001
 43
0.0000001
 44
0.0000000001
 40
0.0
 40
0.0
 40
0.0
 40
0.0
 40
0.2624250334
 40
0.5180320939
 40
0.7645439478
 40
1.0
 40
1.0
 40
1.0
 40
1.0
 10
56.4559051108
 20
19.7705110235
 30
0.0
 10
56.297715813
 20
20.1372126345
 30
0.0
 10
56.0113187459
 20
20.872609936
 30
0.0
 10
55.6717811752
 20
21.9866719056
 30
0.0
 10
55.4315085341
 20
23.0843758685
 30
0.0
 10
55.3375353827
 20
23.8130504912
 30
0.0
 10
55.3093610715
 20
24.1702657682
 30
0.0
  0
SPLINE
  5
384
100
AcDbEntity
  8
0
100
AcDbSpline
 62
7
  6
BYLAYER
 70
0
 71
3
 72
17
 73
13
 74
0
 42
0.0000001
 43
0.0000001
 44
0.0000000001
 40
0.0
 40
0.0
 40
0.0
 40
0.0
 40
0.1286846399
 40
0.2703037419
 40
0.4174443608
 40
0.5617832479
 40
0.6954508413
 40
0.8127146287
 40
0.8646809539
 40
0.9125101916
 40
0.9571399587
 40
1.0
 40
1.0
 40
1.0
 40
1.0
 10
57.7522228928
 20
138.7030762585
 30
0.0
 10
57.6411919588
 20
138.7671785479
 30
0.0
 10
57.3897612127
 20
138.8708919224
 30
0.0
 10
56.9800277048
 20
138.9529032893
 30
0.0
 10
56.5466491974
 20
138.9648536905
 30
0.0
 10
56.1250463781
 20
138.9056218817
 30
0.0
 10
55.749329724
 20
138.7801258389
 30
0.0
 10
55.4880667979
 20
138.621029415
 30
0.0
 10
55.3346497333
 20
138.4671826732
 30
0.0
 10
55.2532554926
 20
138.3473195803
 30
0.0
 10
55.2029676393
 20
138.2209615168
 30
0.0
 10
55.1916343229
 20
138.1334107946
 30
0.0
 10
55.1916326773
 20
138.0907099192
 30
0.0
  0
SPLINE
  5
385
100
AcDbEntity
  8
0
100
AcDbSpline
 62
7
  6
BYLAYER
 70
0
 71
3
 72
11
 73
7
 74
0
 42
0.0000001
 43
0.0000001
 44
0.0000000001
 40
0.0
 40
0.0
 40
0.0
 40
0.0
 40
0.2177223257
 40
0.4508705615
 40
0.7104663776
 40
1.0
 40
1.0
 40
1.0
 40
1.0
 10
58.1915015967
 20
138.0907101361
 30
0.0
 10
58.1915037979
 20
138.1478262682
 30
0.0
 10
58.1704993937
 20
138.2669120046
 30
0.0
 10
58.0801741106
 20
138.4328806159
 30
0.0
 10
57.9373734605
 20
138.5827885564
 30
0.0
 10
57.8180019912
 20
138.6650995375
 30
0.0
 10
57.7522228928
 20
138.7030762585
 30
0.0
  0
SPLINE
  5
386
100
AcDbEntity
  8
0
100
AcDbSpline
 62
7
  6
BYLAYER
 70
0
 71
3
 72
17
 73
13
 74
0
 42
0.0000001
 43
0.0000001
 44
0.0000000001
 40
0.0
 40
0.0
 40
0.0
 40
0.0
 40
0.1286846399
 40
0.2703037419
 40
0.4174443608
 40
0.5617832479
 40
0.6954508413
 40
0.8127146287
 40
0.8646809539
 40
0.9125101916
 40
0.9571399587
 40
1.0
 40
1.0
 40
1.0
 40
1.0
 10
55.6309113812
 20
137.4783437969
 30
0.0
 10
55.7419423151
 20
137.4142415074
 30
0.0
 10
55.9933730613
 20
137.310528133
 30
0.0
 10
56.4031065691
 20
137.228516766
 30
0.0
 10
56.8364850766
 20
137.2165663649
 30
0.0
 10
57.2580878959
 20
137.2757981736
 30
0.0
 10
57.63380455
 20
137.4012942164
 30
0.0
 10
57.8950674761
 20
137.5603906404
 30
0.0
 10
58.0484845407
 20
137.7142373821
 30
0.0
 10
58.1298787813
 20
137.834100475
 30
0.0
 10
58.1801666347
 20
137.9604585385
 30
0.0
 10
58.191499951
 20
138.0480092607
 30
0.0
 10
58.1915015967
 20
138.0907101361
 30
0.0
  0
SPLINE
  5
387
100
AcDbEntity
  8
0
100
AcDbSpline
 62
7
  6
BYLAYER
 70
0
 71
3
 72
11
 73
7
 74
0
 42
0.0000001
 43
0.0000001
 44
0.0000000001
 40
0.0
 40
0.0
 40
0.0
 40
0.0
 40
0.2177223257
 40
0.4508705615
 40
0.7104663776
 40
1.0
 40
1.0
 40
1.0
 40
1.0
 10
55.1916326773
 20
138.0907099192
 30
0.0
 10
55.1916304761
 20
138.0335937872
 30
0.0
 10
55.2126348803
 20
137.9145080507
 30
0.0
 10
55.3029601634
 20
137.7485394394
 30
0.0
 10
55.4457608135
 20
137.5986314989
 30
0.0
 10
55.5651322828
 20
137.5163205178
 30
0.0
 10
55.6309113812
 20
137.4783437969
 30
0.0
  0
ENDSEC
  0
SECTION
  2
OBJECTS
  0
DICTIONARY
  5
C
100
AcDbDictionary
280
0
281
1
  3
ACAD_GROUP
350
D
  3
ACAD_MLINESTYLE
350
17
  3
ACAD_LAYOUT
350
1A
  3
ACAD_PLOTSETTINGS
350
19
  3
ACAD_PLOTSTYLENAME
350
E
  0
DICTIONARY
  5
D
102
{ACAD_REACTORS
330
C
102
}
100
AcDbDictionary
280
0
281
1
  0
ACDBDICTIONARYWDFLT
  5
E
102
{ACAD_REACTORS
330
C
102
}
100
AcDbDictionary
281
1
  3
Normal
350
F
100
AcDbDictionaryWithDefault
340
F
  0
DICTIONARY
  5
17
102
{ACAD_REACTORS
330
C
102
}
100
AcDbDictionary
280
0
281
1
  3
Standard
350
18
  0
DICTIONARY
  5
19
102
{ACAD_REACTORS
330
C
102
}
100
AcDbDictionary
281
1
  0
DICTIONARY
  5
1A
102
{ACAD_REACTORS
330
C
102
}
100
AcDbDictionary
281
1
  3
Model
350
388
  3
Layout1
350
389
  0
ACDBPLACEHOLDER
  5
F
102
{ACAD_REACTORS
330
E
102
}
  0
MLINESTYLE
  5
18
102
{ACAD_REACTORS
330
17
102
}
100
AcDbMlineStyle
  2
STANDARD
 70
0
  3

 62
256
 51
90.0
 52
90.0
 71
2
 49
0.5
 62
256
  6
BYLAYER
 49
-0.5
 62
256
  6
BYLAYER
  0
LAYOUT
  5
388
102
{ACAD_REACTORS
330
1A
102
}
100
AcDbPlotSettings
  1

  2
none_device
  4

  6

 40
0.0
 41
0.0
 42
0.0
 43
0.0
 44
210.0
 45
297.0
 46
0.0
 47
0.0
 48
0.0
 49
0.0
140
0.0
141
0.0
142
1.0
143
1.0
 70
1024
 72
1
 73
0
 74
0
  7

 75
0
147
1.0
148
0.0
149
0.0
100
AcDbLayout
  1
Model
 70
0
 71
0
 10
0.0
 20
0.0
 11
210.0
 21
297.0
 12
0.0
 22
0.0
 32
0.0
 14
0.0
 24
0.0
 34
0.0
 15
0.0
 25
0.0
 35
0.0
146
0.0
 13
0.0
 23
0.0
 33
0.0
 16
1.0
 26
0.0
 36
0.0
 17
0.0
 27
1.0
 37
0.0
 76
0
330
210
345
0
346
0
  0
LAYOUT
  5
389
102
{ACAD_REACTORS
330
1A
102
}
100
AcDbPlotSettings
  1

  2
none_device
  4

  6

 40
0.0
 41
0.0
 42
0.0
 43
0.0
 44
210.0
 45
297.0
 46
0.0
 47
0.0
 48
0.0
 49
0.0
140
0.0
141
0.0
142
1.0
143
1.0
 70
0
 72
1
 73
0
 74
0
  7

 75
0
147
1.0
148
0.0
149
0.0
100
AcDbLayout
  1
Layout1
 70
0
 71
1
 10
0.0
 20
0.0
 11
210.0
 21
297.0
 12
0.0
 22
0.0
 32
0.0
 14
0.0
 24
0.0
 34
0.0
 15
0.0
 25
0.0
 35
0.0
146
0.0
 13
0.0
 23
0.0
 33
0.0
 16
1.0
 26
0.0
 36
0.0
 17
0.0
 27
1.0
 37
0.0
 76
0
330
211
345
0
346
0
  0
ENDSEC
  0
EOF
