999
DXF file: C:\Users\sesa63760\Dev\_Creo\CAD\MCADID0004745_3D-CAD\drw0001_1.dxf
999
Pro/ENGINEER 2019471 by Parametric Technology Corporation
  0
SECTION
  2
HEADER
  9
$ACADVER
  1
AC1024
  9
$DWGCODEPAGE
  3
ANSI_1252
  9
$EXTMAX
 10
31.1953058104
 20
44.1190753604
 30
0.0
  9
$EXTMIN
 10
0.0
 20
0.0
 30
0.0
  9
$LIMMIN
 10
0.0
 20
0.0
  9
$LIMMAX
 10
31.1953058104
 20
44.1190753604
  9
$VIEWCTR
 10
15.5976529052
 20
22.0595376802
  9
$VIEWSIZE
 40
44.1190753604
  9
$CLAYER
  8
0
  9
$LTSCALE
 40
2.8759100976
  9
$CELTYPE
  6
BYLAYER
  9
$DIMSCALE
 40
1.0
  9
$DIMASZ
 40
0.3713726882
  9
$DIMEXO
 40
1.0
  9
$DIMDLI
 40
1.986992431
  9
$DIMEXE
 40
1.0
  9
$DIMCEN
 40
0.4706034705
  9
$DIMLFAC
 40
1.0
  9
$DIMBLK
  1
_FILLED
  9
$DIMALT
 70
0
  9
$DIMALTF
 40
0.0393700787
  9
$DIMTXT
 40
0.5199217635
  9
$DIMTOL
 70
1
  9
$DIMLIM
 70
0
  9
$DIMTFAC
 40
1.0
  9
$DIMTP
 40
0.01
  9
$DIMTM
 40
0.01
  9
$DIMGAP
 40
0.625
  9
$DIMDSEP
 70
46
  9
$AUNITS
 70
0
  9
$PDMODE
 70
3
  9
$PDSIZE
 40
0.3125
  9
$HANDSEED
  5
29D
  9
$TILEMODE
 70
1
  9
$MEASUREMENT
 70
1
  9
$INSUNITS
 70
4
  0
ENDSEC
  0
SECTION
  2
CLASSES
  0
CLASS
  1
ACDBDICTIONARYWDFLT
  2
AcDbDictionaryWithDefault
  3
AutoCAD 2000
 90
0
 91
1
280
0
281
0
  0
CLASS
  1
ACDBPLACEHOLDER
  2
AcDbPlaceHolder
  3
AutoCAD 2000
 90
0
 91
1
280
0
281
0
  0
CLASS
  1
LAYOUT
  2
AcDbLayout
  3
AutoCAD 2000
 90
0
 91
0
280
0
281
0
  0
ENDSEC
  0
SECTION
  2
TABLES
  0
TABLE
  2
VPORT
  5
8
100
AcDbSymbolTable
 70
2
  0
VPORT
  5
1F4
100
AcDbSymbolTableRecord
100
AcDbViewportTableRecord
  2
*ACTIVE
 70
0
 10
0.0
 20
0.0
 11
1.0
 21
1.0
 12
15.5976529052
 22
22.0595376802
 13
0.0
 23
0.0
 14
1.0
 24
1.0
 15
0.0
 25
0.0
 16
0.0
 26
0.0
 36
1.0
 17
0.0
 27
0.0
 37
0.0
 40
44.1190753604
 41
0.7070707071
 42
50.0
 43
0.0
 44
0.0
 50
0.0
 51
0.0
 71
0
 72
100
 73
1
 74
1
 75
0
 76
0
 77
0
 78
0
  0
ENDTAB
  0
TABLE
  2
LTYPE
  5
5
100
AcDbSymbolTable
 70
6
  0
LTYPE
  5
14
100
AcDbSymbolTableRecord
100
AcDbLinetypeTableRecord
  2
BYBLOCK
 70
0
  3

 72
65
 73
0
 40
0.0
  0
LTYPE
  5
15
100
AcDbSymbolTableRecord
100
AcDbLinetypeTableRecord
  2
BYLAYER
 70
0
  3

 72
65
 73
0
 40
0.0
  0
LTYPE
  5
16
100
AcDbSymbolTableRecord
100
AcDbLinetypeTableRecord
  2
CONTINUOUS
 70
64
  3
Solid line
 72
65
 73
0
 40
0.0
  0
LTYPE
  5
1F5
100
AcDbSymbolTableRecord
100
AcDbLinetypeTableRecord
  2
CENTER
 70
64
  3
____ _ ____ _ ____ _ ____ _ ____ _ ____ _ ____
 72
65
 73
4
 40
0.6
 49
0.375
 74
0
 49
-0.075
 74
0
 49
0.075
 74
0
 49
-0.075
 74
0
  0
LTYPE
  5
1F6
100
AcDbSymbolTableRecord
100
AcDbLinetypeTableRecord
  2
HIDDEN
 70
64
  3
- - - - - - - - - - - - - - - - - - - -
 72
65
 73
2
 40
0.2
 49
0.1
 74
0
 49
-0.1
 74
0
  0
LTYPE
  5
1F7
100
AcDbSymbolTableRecord
100
AcDbLinetypeTableRecord
  2
PHANTOM
 70
64
  3
_____ _ _ _____ _ _ _____ _ _ _____
 72
65
 73
6
 40
0.8
 49
0.45
 74
0
 49
-0.05
 74
0
 49
0.1
 74
0
 49
-0.05
 74
0
 49
0.1
 74
0
 49
-0.05
 74
0
  0
LTYPE
  5
1F8
100
AcDbSymbolTableRecord
100
AcDbLinetypeTableRecord
  2
DOT
 70
64
  3
. . . . . . . . . . . . . . . . . . . .
 72
65
 73
2
 40
0.2
 49
0.1
 74
0
 49
-0.1
 74
0
  0
LTYPE
  5
1F9
100
AcDbSymbolTableRecord
100
AcDbLinetypeTableRecord
  2
DASHED
 70
64
  3
- - - - - - - - - - - - - - - - - - - -
 72
65
 73
2
 40
0.2
 49
0.1
 74
0
 49
-0.1
 74
0
  0
ENDTAB
  0
TABLE
  2
LAYER
  5
2
100
AcDbSymbolTable
 70
36
  0
LAYER
  5
10
100
AcDbSymbolTableRecord
100
AcDbLayerTableRecord
  2
0
 70
0
 62
7
  6
CONTINUOUS
370
-3
390
F
  0
LAYER
  5
1FA
100
AcDbSymbolTableRecord
100
AcDbLayerTableRecord
  2
DEFAULT_1
 70
0
 62
7
  6
CENTER
370
-3
390
F
  0
LAYER
  5
1FB
100
AcDbSymbolTableRecord
100
AcDbLayerTableRecord
  2
DEFAULT_2
 70
0
 62
7
  6
HIDDEN
370
-3
390
F
  0
LAYER
  5
1FC
100
AcDbSymbolTableRecord
100
AcDbLayerTableRecord
  2
DEFAULT_3
 70
0
 62
7
  6
PHANTOM
370
-3
390
F
  0
LAYER
  5
1FD
100
AcDbSymbolTableRecord
100
AcDbLayerTableRecord
  2
00_COMPONENTS
 70
0
 62
7
  6
CONTINUOUS
370
-3
390
F
  0
LAYER
  5
1FE
100
AcDbSymbolTableRecord
100
AcDbLayerTableRecord
  2
01_1_DEFAULT_DATUMS
 70
0
 62
7
  6
CONTINUOUS
370
-3
390
F
  0
LAYER
  5
1FF
100
AcDbSymbolTableRecord
100
AcDbLayerTableRecord
  2
01_PLANES
 70
0
 62
7
  6
CONTINUOUS
370
-3
390
F
  0
LAYER
  5
200
100
AcDbSymbolTableRecord
100
AcDbLayerTableRecord
  2
02_COORD_SYS
 70
0
 62
7
  6
CONTINUOUS
370
-3
390
F
  0
LAYER
  5
201
100
AcDbSymbolTableRecord
100
AcDbLayerTableRecord
  2
03_AXES
 70
0
 62
7
  6
CONTINUOUS
370
-3
390
F
  0
LAYER
  5
202
100
AcDbSymbolTableRecord
100
AcDbLayerTableRecord
  2
04_POINTS
 70
0
 62
7
  6
CONTINUOUS
370
-3
390
F
  0
LAYER
  5
203
100
AcDbSymbolTableRecord
100
AcDbLayerTableRecord
  2
05_CURVES
 70
0
 62
7
  6
CONTINUOUS
370
-3
390
F
  0
LAYER
  5
204
100
AcDbSymbolTableRecord
100
AcDbLayerTableRecord
  2
06_SURFS
 70
0
 62
7
  6
CONTINUOUS
370
-3
390
F
  0
LAYER
  5
205
100
AcDbSymbolTableRecord
100
AcDbLayerTableRecord
  2
07_COSMETICS
 70
0
 62
7
  6
CONTINUOUS
370
-3
390
F
  0
LAYER
  5
206
100
AcDbSymbolTableRecord
100
AcDbLayerTableRecord
  2
10_NOTES
 70
0
 62
7
  6
CONTINUOUS
370
-3
390
F
  0
LAYER
  5
207
100
AcDbSymbolTableRecord
100
AcDbLayerTableRecord
  2
11_NOTES_PUB
 70
0
 62
7
  6
CONTINUOUS
370
-3
390
F
  0
LAYER
  5
208
100
AcDbSymbolTableRecord
100
AcDbLayerTableRecord
  2
13_REF_GTOL
 70
0
 62
7
  6
CONTINUOUS
370
-3
390
F
  0
LAYER
  5
209
100
AcDbSymbolTableRecord
100
AcDbLayerTableRecord
  2
16_MISC
 70
0
 62
7
  6
CONTINUOUS
370
-3
390
F
  0
LAYER
  5
20A
100
AcDbSymbolTableRecord
100
AcDbLayerTableRecord
  2
17_NO_PRINT
 70
0
 62
7
  6
CONTINUOUS
370
-3
390
F
  0
LAYER
  5
20B
100
AcDbSymbolTableRecord
100
AcDbLayerTableRecord
  2
18_DATUM_CAMS_JOINTS
 70
0
 62
7
  6
CONTINUOUS
370
-3
390
F
  0
LAYER
  5
20C
100
AcDbSymbolTableRecord
100
AcDbLayerTableRecord
  2
19_DATUM_FUNCTIONAL
 70
0
 62
7
  6
CONTINUOUS
370
-3
390
F
  0
LAYER
  5
20D
100
AcDbSymbolTableRecord
100
AcDbLayerTableRecord
  2
20_DATUM_KINEMATIC_SCHEME
 70
0
 62
7
  6
CONTINUOUS
370
-3
390
F
  0
ENDTAB
  0
TABLE
  2
STYLE
  5
3
100
AcDbSymbolTable
 70
1
  0
STYLE
  5
11
100
AcDbSymbolTableRecord
100
AcDbTextStyleTableRecord
  2
STANDARD
 70
0
 40
0.0
 41
1.0
 50
0.0
 71
0
 42
0.2
  3
ARIAL.TTF
  4

  0
STYLE
  5
20E
100
AcDbSymbolTableRecord
100
AcDbTextStyleTableRecord
  2
TEXTSTYLE_1
 70
0
 40
0.0
 41
0.8
 50
0.0
 71
0
 42
0.2
  3
gdt
  4

  0
ENDTAB
  0
TABLE
  2
VIEW
  5
6
100
AcDbSymbolTable
 70
0
  0
ENDTAB
  0
TABLE
  2
UCS
  5
7
100
AcDbSymbolTable
 70
0
  0
ENDTAB
  0
TABLE
  2
APPID
  5
9
100
AcDbSymbolTable
 70
1
  0
APPID
  5
20F
100
AcDbSymbolTableRecord
100
AcDbRegAppTableRecord
  2
ACAD
 70
0
  0
ENDTAB
  0
TABLE
  2
BLOCK_RECORD
  5
1
100
AcDbSymbolTable
 70
0
  0
BLOCK_RECORD
  5
210
100
AcDbSymbolTableRecord
100
AcDbBlockTableRecord
  2
*Model_Space
  0
BLOCK_RECORD
  5
211
100
AcDbSymbolTableRecord
100
AcDbBlockTableRecord
  2
*Paper_Space
  0
BLOCK_RECORD
  5
212
100
AcDbSymbolTableRecord
100
AcDbBlockTableRecord
  2
_FILLED
  0
ENDTAB
  0
TABLE
  2
DIMSTYLE
  5
A
100
AcDbSymbolTable
 70
1
100
AcDbDimStyleTable
 71
0
  0
DIMSTYLE
105
213
100
AcDbSymbolTableRecord
100
AcDbDimStyleTableRecord
  2
STANDARD
 70
0
  3

  4

 40
1.0
 41
0.3713726882
 42
1.0
 43
0.38
 44
1.0
 45
0.0
 46
0.0
 47
0.01
 48
0.01
140
0.5199217635
141
0.09
142
0.0
143
25.4
144
1.0
145
0.0
146
1.0
147
0.625
 71
1
 72
0
 73
0
 74
0
 75
0
 76
0
 77
1
 78
8
 79
2
170
0
171
1
172
0
173
0
174
0
175
0
176
0
177
0
178
0
270
2
179
2
271
2
272
2
273
2
274
2
275
0
280
0
281
0
282
0
283
1
284
8
285
0
286
0
287
3
288
0
340
11
278
46
341
212
342
212
343
212
344
212
  0
ENDTAB
  0
ENDSEC
  0
SECTION
  2
BLOCKS
  0
BLOCK
  5
20
100
AcDbEntity
  8
0
100
AcDbBlockBegin
  2
*Model_Space
 70
0
 10
0.0
 20
0.0
 30
0.0
  3
*Model_Space
  1

  0
ENDBLK
  5
21
100
AcDbEntity
  8
0
100
AcDbBlockEnd
  0
BLOCK
  5
1C
100
AcDbEntity
  8
0
100
AcDbBlockBegin
  2
*Paper_Space
 70
0
 10
0.0
 20
0.0
 30
0.0
  3
*Paper_Space
  1

  0
ENDBLK
  5
1D
100
AcDbEntity
  8
0
100
AcDbBlockEnd
  0
BLOCK
  5
214
100
AcDbEntity
  8
0
100
AcDbBlockBegin
  2
_FILLED
 70
64
 10
0.0
 20
0.0
  3
_FILLED
  1

  0
SOLID
  5
215
100
AcDbEntity
  8
0
  6
BYBLOCK
 62
0
100
AcDbTrace
 10
0.0
 20
0.0
 11
-1.0
 21
0.25
 12
-1.0
 22
-0.25
 13
-1.0
 23
-0.25
  0
ENDBLK
  5
216
100
AcDbEntity
  8
0
  6
BYBLOCK
 62
0
100
AcDbBlockEnd
  0
ENDSEC
  0
SECTION
  2
ENTITIES
  0
LINE
  5
217
100
AcDbEntity
  8
0
100
AcDbLine
 62
7
  6
BYLAYER
 10
11.9508463998
 20
8.5890569932
 11
11.2695614034
 21
9.1302584261
  0
LINE
  5
218
100
AcDbEntity
  8
0
100
AcDbLine
 62
7
  6
BYLAYER
 10
7.8399175045
 20
13.6513331786
 11
7.8399175045
 21
15.0393872877
  0
LINE
  5
219
100
AcDbEntity
  8
0
100
AcDbLine
 62
7
  6
BYLAYER
 10
9.4899175045
 20
7.282614325
 11
9.4899175045
 21
8.645249716
  0
LINE
  5
21A
100
AcDbEntity
  8
0
100
AcDbLine
 62
7
  6
BYLAYER
 10
9.4899175045
 20
9.8954220598
 11
9.4899175045
 21
10.8343998395
  0
LINE
  5
21B
100
AcDbEntity
  8
0
100
AcDbLine
 62
7
  6
BYLAYER
 10
9.6399175045
 20
15.4476384963
 11
9.6399175045
 21
21.7347071082
  0
LINE
  5
21C
100
AcDbEntity
  8
0
100
AcDbLine
 62
7
  6
BYLAYER
 10
11.8725532149
 20
32.2762119218
 11
11.8714392432
 21
32.2711655753
  0
LINE
  5
21D
100
AcDbEntity
  8
0
100
AcDbLine
 62
7
  6
BYLAYER
 10
11.3784922409
 20
38.6987418557
 11
11.3784922409
 21
36.8514903039
  0
LINE
  5
21E
100
AcDbEntity
  8
0
100
AcDbLine
 62
7
  6
BYLAYER
 10
11.4093829355
 20
36.0825869008
 11
11.4093829355
 21
33.3795464191
  0
LINE
  5
21F
100
AcDbEntity
  8
0
100
AcDbLine
 62
7
  6
BYLAYER
 10
11.8399175045
 20
22.0673736563
 11
11.8399175045
 21
31.9818124432
  0
LINE
  5
220
100
AcDbEntity
  8
0
100
AcDbLine
 62
7
  6
BYLAYER
 10
11.8725532149
 20
32.2762119218
 11
11.8719893535
 21
32.271125454
  0
LWPOLYLINE
  5
221
100
AcDbEntity
  8
0
100
AcDbPolyline
 62
7
  6
BYLAYER
 90
6
 70
0
 10
11.8399175045
 20
24.4169960585
 10
11.2034088741
 20
23.9104483204
 10
10.7034761007
 20
23.0191557404
 10
10.7042292042
 20
22.0805116764
 10
11.2041439388
 20
21.1911313867
 10
11.4524551469
 20
20.9935896371
  0
LINE
  5
222
100
AcDbEntity
  8
0
100
AcDbLine
 62
7
  6
BYLAYER
 10
11.8399175045
 20
24.4875549893
 11
11.4557614532
 21
24.2657560483
  0
LINE
  5
223
100
AcDbEntity
  8
0
100
AcDbLine
 62
7
  6
BYLAYER
 10
12.5739447784
 20
36.1229793491
 11
12.5739447784
 21
34.2757277973
  0
LINE
  5
224
100
AcDbEntity
  8
0
100
AcDbLine
 62
7
  6
BYLAYER
 10
12.7321961399
 20
33.6756341473
 11
12.7321961399
 21
30.7820367121
  0
LINE
  5
225
100
AcDbEntity
  8
0
100
AcDbLine
 62
7
  6
BYLAYER
 10
19.6841022353
 20
26.5261669459
 11
16.9455008497
 21
24.9450441367
  0
LINE
  5
226
100
AcDbEntity
  8
0
100
AcDbLine
 62
7
  6
BYLAYER
 10
9.4899175045
 20
10.1316229572
 11
9.6646819931
 21
10.5441042757
  0
LWPOLYLINE
  5
227
100
AcDbEntity
  8
0
100
AcDbPolyline
 62
7
  6
BYLAYER
 90
5
 70
0
 10
10.1574120796
 20
18.2736116124
 10
8.967980881
 20
17.1822048
 10
8.3879884639
 20
15.9370871399
 10
8.4690097032
 20
14.6477153888
 10
9.0891748504
 20
13.6206923608
  0
LINE
  5
228
100
AcDbEntity
  8
0
100
AcDbLine
 62
7
  6
BYLAYER
 10
16.9455008497
 20
24.9450441367
 11
16.9455008497
 21
29.7624083978
  0
LINE
  5
229
100
AcDbEntity
  8
0
100
AcDbLine
 62
7
  6
BYLAYER
 10
17.035370042
 20
35.4328158195
 11
17.035370042
 21
33.5855642677
  0
LINE
  5
22A
100
AcDbEntity
  8
0
100
AcDbLine
 62
7
  6
BYLAYER
 10
17.0662607367
 20
32.8166608647
 11
17.0662607367
 21
30.1136203829
  0
LINE
  5
22B
100
AcDbEntity
  8
0
100
AcDbLine
 62
7
  6
BYLAYER
 10
12.4136986638
 20
31.1982998851
 11
11.844961789
 21
32.2741215999
  0
LINE
  5
22C
100
AcDbEntity
  8
0
100
AcDbLine
 62
7
  6
BYLAYER
 10
19.6841022353
 20
31.3435312069
 11
19.6841022353
 21
26.5261669459
  0
LINE
  5
22D
100
AcDbEntity
  8
0
100
AcDbLine
 62
7
  6
BYLAYER
 10
19.8399175045
 20
22.1028568373
 11
19.8399175045
 21
31.5975096828
  0
LWPOLYLINE
  5
22E
100
AcDbEntity
  8
0
100
AcDbPolyline
 62
7
  6
BYLAYER
 90
6
 70
0
 10
20.227565038
 20
20.9934790502
 10
20.4764261349
 20
21.1919707303
 10
20.9763589083
 20
22.0832633103
 10
20.9756058048
 20
23.0219073742
 10
20.4756910702
 20
23.9112876639
 10
19.8399175045
 20
24.4170716093
  0
LINE
  5
22F
100
AcDbEntity
  8
0
100
AcDbLine
 62
7
  6
BYLAYER
 10
20.2239612952
 20
24.2658208622
 11
19.8399175045
 21
24.4875549877
  0
LINE
  5
230
100
AcDbEntity
  8
0
100
AcDbLine
 62
7
  6
BYLAYER
 10
20.2704520735
 20
34.6665905529
 11
20.2704520735
 21
31.9635500712
  0
LINE
  5
231
100
AcDbEntity
  8
0
100
AcDbLine
 62
7
  6
BYLAYER
 10
20.3013427681
 20
37.3184147966
 11
20.3013427681
 21
35.4711632448
  0
LINE
  5
232
100
AcDbEntity
  8
0
100
AcDbLine
 62
7
  6
BYLAYER
 10
22.0399175045
 20
15.4476384963
 11
22.0399175045
 21
21.7347071082
  0
LINE
  5
233
100
AcDbEntity
  8
0
100
AcDbLine
 62
7
  6
BYLAYER
 10
22.1899175045
 20
7.282614325
 11
22.1899175045
 21
8.6794182618
  0
LINE
  5
234
100
AcDbEntity
  8
0
100
AcDbLine
 62
7
  6
BYLAYER
 10
22.1899175045
 20
9.8954220598
 11
22.1899175045
 21
10.8343998395
  0
LWPOLYLINE
  5
235
100
AcDbEntity
  8
0
100
AcDbPolyline
 62
7
  6
BYLAYER
 90
4
 70
0
 10
23.8399175045
 20
15.0393872877
 10
23.6570853522
 20
16.0211890594
 10
22.8613334585
 20
17.2529287724
 10
22.0399175045
 20
17.8864309993
  0
LINE
  5
236
100
AcDbEntity
  8
0
100
AcDbLine
 62
7
  6
BYLAYER
 10
23.8399175045
 20
13.6513331786
 11
23.8399175045
 21
15.0393872877
  0
LINE
  5
237
100
AcDbEntity
  8
0
100
AcDbLine
 62
7
  6
BYLAYER
 10
15.6391303742
 20
30.0836069019
 11
13.7757211297
 21
30.4119536373
  0
LINE
  5
238
100
AcDbEntity
  8
0
100
AcDbLine
 62
7
  6
BYLAYER
 10
13.0114297295
 20
34.0231385202
 11
12.5739094317
 21
34.2757482041
  0
LINE
  5
239
100
AcDbEntity
  8
0
100
AcDbLine
 62
7
  6
BYLAYER
 10
12.5739447784
 20
34.2757277973
 11
12.5739093662
 21
34.275748762
  0
LWPOLYLINE
  5
23A
100
AcDbEntity
  8
0
100
AcDbPolyline
 62
7
  6
BYLAYER
 90
9
 70
0
 10
22.1978649644
 20
10.8569754466
 10
21.9814979572
 20
10.3906367575
 10
20.9204456819
 20
9.4149307931
 10
20.212994401
 20
9.0060694079
 10
18.5239016386
 20
8.3924293692
 10
16.5976804195
 20
8.0933078018
 10
14.6029113146
 20
8.1349876946
 10
12.7152765448
 20
8.5149044167
 10
11.1023217952
 20
9.2014422717
  0
LWPOLYLINE
  5
23B
100
AcDbEntity
  8
0
100
AcDbPolyline
 62
7
  6
BYLAYER
 90
6
 70
0
 10
22.5877543763
 20
13.5991998521
 10
22.711854128
 20
13.7130721926
 10
23.2918465451
 20
14.9581898527
 10
23.2108253058
 20
16.2475616038
 10
22.4746353883
 20
17.4667271787
 10
22.0399175045
 20
17.8071849578
  0
LWPOLYLINE
  5
23C
100
AcDbEntity
  8
0
100
AcDbPolyline
 62
7
  6
BYLAYER
 90
7
 70
0
 10
20.364860848
 20
9.0938384565
 10
19.7201686068
 20
8.5839799926
 10
18.3296905324
 20
8.0030103605
 10
16.6971479065
 20
7.6978264072
 10
14.9770692403
 20
7.6983391398
 10
13.3482220251
 20
8.0035720287
 10
11.9508463998
 20
8.5890569932
  0
LINE
  5
23D
100
AcDbEntity
  8
0
100
AcDbLine
 62
7
  6
BYLAYER
 10
18.6684052795
 20
40.1467665803
 11
19.1059255773
 21
39.8941568964
  0
ARC
  5
23E
100
AcDbEntity
  8
0
100
AcDbCircle
 62
7
  6
BYLAYER
 10
-2.0716100481
 20
26.5869572803
 40
23.7581189
100
AcDbArc
 50
19.8816768757
 51
21.3096121637
  0
ARC
  5
23F
100
AcDbEntity
  8
0
100
AcDbCircle
 62
7
  6
BYLAYER
 10
21.4077450562
 20
25.0498807624
 40
14.8891856672
100
AcDbArc
 50
131.3988680765
 51
132.1843639969
  0
ARC
  5
240
100
AcDbEntity
  8
0
100
AcDbCircle
 62
7
  6
BYLAYER
 10
15.8397932982
 20
40.2723842632
 40
6.9256752838
100
AcDbArc
 50
268.3396928982
 51
273.0529379132
  0
ARC
  5
241
100
AcDbEntity
  8
0
100
AcDbCircle
 62
7
  6
BYLAYER
 10
15.8473690931
 20
40.1285139128
 40
6.7816056454
100
AcDbArc
 50
273.0537599019
 51
277.1795275181
  0
ARC
  5
242
100
AcDbEntity
  8
0
100
AcDbCircle
 62
7
  6
BYLAYER
 10
15.8720612559
 20
39.9144320326
 40
6.5661166838
100
AcDbArc
 50
277.1992230921
 51
278.362502981
  0
ARC
  5
243
100
AcDbEntity
  8
0
100
AcDbCircle
 62
7
  6
BYLAYER
 10
14.4467484536
 20
9.6462386348
 40
5.9869192743
100
AcDbArc
 50
239.6568112164
 51
240.0008341239
  0
ARC
  5
244
100
AcDbEntity
  8
0
100
AcDbCircle
 62
7
  6
BYLAYER
 10
14.3276735623
 20
9.8482567513
 40
5.955885513
100
AcDbArc
 50
239.6568361166
 51
240.0008590242
  0
ARC
  5
245
100
AcDbEntity
  8
0
100
AcDbCircle
 62
7
  6
BYLAYER
 10
15.3521396586
 20
38.2274916333
 40
4.8149042961
100
AcDbArc
 50
246.350033109
 51
250.8887206183
  0
ARC
  5
246
100
AcDbEntity
  8
0
100
AcDbCircle
 62
7
  6
BYLAYER
 10
19.7384540263
 20
28.2881079712
 40
3.0559066195
100
AcDbArc
 50
91.0191058921
 51
94.1793582528
  0
ARC
  5
247
100
AcDbEntity
  8
0
100
AcDbCircle
 62
7
  6
BYLAYER
 10
18.2692017081
 20
32.0491465418
 40
1.5810871269
100
AcDbArc
 50
333.4944233631
 51
340.3280863077
  0
ARC
  5
248
100
AcDbEntity
  8
0
100
AcDbCircle
 62
7
  6
BYLAYER
 10
13.1512836905
 20
22.3889179512
 40
1.3763561401
100
AcDbArc
 50
180.0419994868
 51
193.5434004974
  0
ARC
  5
249
100
AcDbEntity
  8
0
100
AcDbCircle
 62
7
  6
BYLAYER
 10
18.5286041307
 20
22.3889139807
 40
1.3763033249
100
AcDbArc
 50
346.4469516394
 51
359.9581641941
  0
ARC
  5
24A
100
AcDbEntity
  8
0
100
AcDbCircle
 62
7
  6
BYLAYER
 10
18.5295981096
 20
22.38697805
 40
1.3753092942
100
AcDbArc
 50
0.0387853941
 51
13.216067155
  0
ARC
  5
24B
100
AcDbEntity
  8
0
100
AcDbCircle
 62
7
  6
BYLAYER
 10
13.1469157857
 20
22.3872123401
 40
1.3719880424
100
AcDbArc
 50
167.8741363688
 51
179.9709049408
  0
ARC
  5
24C
100
AcDbEntity
  8
0
100
AcDbCircle
 62
7
  6
BYLAYER
 10
13.1871199291
 20
31.9812457054
 40
1.3472032322
100
AcDbArc
 50
169.2902011114
 51
179.9758969672
  0
SPLINE
  5
24D
100
AcDbEntity
  8
0
100
AcDbSpline
 62
7
  6
BYLAYER
 70
0
 71
3
 72
38
 73
34
 74
0
 42
0.0000001
 43
0.0000001
 44
0.0000000001
 40
0.0
 40
0.0
 40
0.0
 40
0.0
 40
0.0305919261
 40
0.0620893275
 40
0.0944191795
 40
0.1275263135
 40
0.1613452956
 40
0.1957869863
 40
0.2307531374
 40
0.2661383339
 40
0.3018311605
 40
0.3377142332
 40
0.4095545967
 40
0.4807157862
 40
0.5502781699
 40
0.5842085538
 40
0.6174438372
 40
0.6499086277
 40
0.6815400582
 40
0.7122938886
 40
0.7421425538
 40
0.7710804524
 40
0.7991225752
 40
0.8263084913
 40
0.8526992344
 40
0.878378043
 40
0.8909854915
 40
0.9034533405
 40
0.9280242078
 40
0.9522193679
 40
0.9642215993
 40
0.9761777974
 40
1.0
 40
1.0
 40
1.0
 40
1.0
 10
20.3325747362
 20
6.5230627343
 30
0.0
 10
20.2175763256
 20
6.4566687674
 30
0.0
 10
19.9797577725
 20
6.3294447424
 30
0.0
 10
19.6073616696
 20
6.1577955779
 30
0.0
 10
19.2158077811
 20
6.0032018686
 30
0.0
 10
18.8071153767
 20
5.8662673021
 30
0.0
 10
18.3832584994
 20
5.7475172538
 30
0.0
 10
17.9463389779
 20
5.6474332707
 30
0.0
 10
17.4985702806
 20
5.5664840018
 30
0.0
 10
17.0422432555
 20
5.5050113168
 30
0.0
 10
16.5796857332
 20
5.4633026832
 30
0.0
 10
15.9576871041
 20
5.4342959494
 30
0.0
 10
15.1802859164
 20
5.448099763
 30
0.0
 10
14.2614960283
 20
5.5438598922
 30
0.0
 10
13.5162886451
 20
5.6894761668
 30
0.0
 10
12.9433089403
 20
5.8449109795
 30
0.0
 10
12.5319030728
 20
5.9788294464
 30
0.0
 10
12.1373547478
 20
6.1304599627
 30
0.0
 10
11.7615926288
 20
6.2992538176
 30
0.0
 10
11.4064370311
 20
6.4845781287
 30
0.0
 10
11.0736202209
 20
6.6858380303
 30
0.0
 10
10.7647802537
 20
6.9024009649
 30
0.0
 10
10.4815096072
 20
7.1336655548
 30
0.0
 10
10.2253774653
 20
7.3790151194
 30
0.0
 10
9.9979905171
 20
7.6377624142
 30
0.0
 10
9.8328152362
 20
7.8653667703
 30
0.0
 10
9.7172577542
 20
8.0530356792
 30
0.0
 10
9.6139180255
 20
8.2422330456
 30
0.0
 10
9.5054677509
 20
8.4855227244
 30
0.0
 10
9.4260465196
 20
8.7377342263
 30
0.0
 10
9.3814580062
 20
8.942063165
 30
0.0
 10
9.3495847562
 20
9.147087437
 30
0.0
 10
9.3398912822
 20
9.3026089038
 30
0.0
 10
9.3399201515
 20
9.4060124977
 30
0.0
  0
SPLINE
  5
24E
100
AcDbEntity
  8
0
100
AcDbSpline
 62
7
  6
BYLAYER
 70
0
 71
3
 72
11
 73
7
 74
0
 42
0.0000001
 43
0.0000001
 44
0.0000000001
 40
0.0
 40
0.0
 40
0.0
 40
0.0
 40
0.2488442915
 40
0.4981612139
 40
0.7483884849
 40
1.0
 40
1.0
 40
1.0
 40
1.0
 10
9.3399201515
 20
9.4060124977
 30
0.0
 10
9.3399373852
 20
9.4677395108
 30
0.0
 10
9.3445648728
 20
9.5913570731
 30
0.0
 10
9.3651599256
 20
9.7760138677
 30
0.0
 10
9.3993171231
 20
9.9593461592
 30
0.0
 10
9.4309081599
 20
10.0798818648
 30
0.0
 10
9.4488279134
 20
10.1396674797
 30
0.0
  0
SPLINE
  5
24F
100
AcDbEntity
  8
0
100
AcDbSpline
 62
7
  6
BYLAYER
 70
0
 71
3
 72
11
 73
7
 74
0
 42
0.0000001
 43
0.0000001
 44
0.0000000001
 40
0.0
 40
0.0
 40
0.0
 40
0.0
 40
0.2517580919
 40
0.5020199767
 40
0.7512686671
 40
1.0
 40
1.0
 40
1.0
 40
1.0
 10
22.2210501746
 20
10.172161504
 30
0.0
 10
22.2406154813
 20
10.1097750902
 30
0.0
 10
22.2751127362
 20
9.9838993846
 30
0.0
 10
22.3124121371
 20
9.7922061889
 30
0.0
 10
22.3349219803
 20
9.5990087751
 30
0.0
 10
22.3399328922
 20
9.4696251172
 30
0.0
 10
22.3399148575
 20
9.4050287214
 30
0.0
  0
SPLINE
  5
250
100
AcDbEntity
  8
0
100
AcDbSpline
 62
7
  6
BYLAYER
 70
0
 71
3
 72
21
 73
17
 74
0
 42
0.0000001
 43
0.0000001
 44
0.0000000001
 40
0.0
 40
0.0
 40
0.0
 40
0.0
 40
0.0570525848
 40
0.1142433771
 40
0.171702169
 40
0.2295736488
 40
0.2879952657
 40
0.3470950868
 40
0.4070170334
 40
0.4678843538
 40
0.5298106819
 40
0.5929056898
 40
0.6572563982
 40
0.7229455401
 40
0.8585704829
 40
1.0
 40
1.0
 40
1.0
 40
1.0
 10
22.3399148575
 20
9.4050287214
 30
0.0
 10
22.3398953224
 20
9.3350586102
 30
0.0
 10
22.3339506465
 20
9.1948810063
 30
0.0
 10
22.307505468
 20
8.9857375272
 30
0.0
 10
22.2636486394
 20
8.7785045758
 30
0.0
 10
22.2027713696
 20
8.5740600365
 30
0.0
 10
22.1253677928
 20
8.3731356787
 30
0.0
 10
22.0318774517
 20
8.1764002559
 30
0.0
 10
21.9228979474
 20
7.9843648873
 30
0.0
 10
21.7989723874
 20
7.7974604997
 30
0.0
 10
21.6606368853
 20
7.6160542555
 30
0.0
 10
21.5084475718
 20
7.440429576
 30
0.0
 10
21.3429094156
 20
7.2708272166
 30
0.0
 10
21.1025049626
 20
7.0506986187
 30
0.0
 10
20.7700601311
 20
6.7922134808
 30
0.0
 10
20.4827881079
 20
6.6097879473
 30
0.0
 10
20.3325747362
 20
6.5230627343
 30
0.0
  0
SPLINE
  5
251
100
AcDbEntity
  8
0
100
AcDbSpline
 62
7
  6
BYLAYER
 70
0
 71
3
 72
10
 73
6
 74
0
 42
0.0000001
 43
0.0000001
 44
0.0000000001
 40
0.0
 40
0.0
 40
0.0
 40
0.0
 40
0.4957171876
 40
0.7467029108
 40
1.0
 40
1.0
 40
1.0
 40
1.0
 10
17.0662607367
 20
30.1136203829
 30
0.0
 10
16.831126092
 20
30.0928793618
 30
0.0
 10
16.4758821341
 20
30.0715089896
 30
0.0
 10
15.9996283724
 20
30.0686199912
 30
0.0
 10
15.759554003
 20
30.0768419678
 30
0.0
 10
15.6391303742
 20
30.0836069019
 30
0.0
  0
SPLINE
  5
252
100
AcDbEntity
  8
0
100
AcDbSpline
 62
7
  6
BYLAYER
 70
0
 71
3
 72
14
 73
10
 74
0
 42
0.0000001
 43
0.0000001
 44
0.0000000001
 40
0.0
 40
0.0
 40
0.0
 40
0.0
 40
0.1340578082
 40
0.2653006911
 40
0.3937640592
 40
0.5195708037
 40
0.6428928487
 40
0.7639293456
 40
1.0
 40
1.0
 40
1.0
 40
1.0
 10
18.668356405
 20
30.7571006336
 30
0.0
 10
18.6013213994
 20
30.7183981861
 30
0.0
 10
18.467279649
 20
30.6441630313
 30
0.0
 10
18.2643903292
 20
30.5414417649
 30
0.0
 10
18.0621062777
 20
30.4484154647
 30
0.0
 10
17.8607142823
 20
30.3647712543
 30
0.0
 10
17.6604274435
 20
30.2900173715
 30
0.0
 10
17.3972659008
 20
30.2021551887
 30
0.0
 10
17.1985367046
 20
30.146527012
 30
0.0
 10
17.0662607367
 20
30.1136203829
 30
0.0
  0
SPLINE
  5
253
100
AcDbEntity
  8
0
100
AcDbSpline
 62
7
  6
BYLAYER
 70
0
 71
3
 72
9
 73
5
 74
0
 42
0.0000001
 43
0.0000001
 44
0.0000000001
 40
0.0
 40
0.0
 40
0.0
 40
0.0
 40
0.2491151275
 40
1.0
 40
1.0
 40
1.0
 40
1.0
 10
13.7757211297
 20
30.4119536373
 30
0.0
 10
13.687545639
 20
30.4380746494
 30
0.0
 10
13.3351382386
 20
30.5481496822
 30
0.0
 10
12.9888696259
 20
30.6773637792
 30
0.0
 10
12.7321961399
 20
30.7820367121
 30
0.0
  0
SPLINE
  5
254
100
AcDbEntity
  8
0
100
AcDbSpline
 62
7
  6
BYLAYER
 70
0
 71
3
 72
9
 73
5
 74
0
 42
0.0000001
 43
0.0000001
 44
0.0000000001
 40
0.0
 40
0.0
 40
0.0
 40
0.0
 40
0.4746863611
 40
1.0
 40
1.0
 40
1.0
 40
1.0
 10
12.7321961399
 20
30.7820367121
 30
0.0
 10
12.6772797046
 20
30.8442454944
 30
0.0
 10
12.5662213564
 20
30.9794448393
 30
0.0
 10
12.4646764648
 20
31.121918443
 30
0.0
 10
12.4136986638
 20
31.1982998851
 30
0.0
  0
SPLINE
  5
255
100
AcDbEntity
  8
0
100
AcDbSpline
 62
7
  6
BYLAYER
 70
0
 71
3
 72
11
 73
7
 74
0
 42
0.0000001
 43
0.0000001
 44
0.0000000001
 40
0.0
 40
0.0
 40
0.0
 40
0.0
 40
0.2376263949
 40
0.4844411417
 40
0.739000917
 40
1.0
 40
1.0
 40
1.0
 40
1.0
 10
11.844961789
 20
32.2741215999
 30
0.0
 10
11.8072223084
 20
32.3603513736
 30
0.0
 10
11.7323552714
 20
32.537055923
 30
0.0
 10
11.6233140286
 20
32.8087304641
 30
0.0
 10
11.5152427265
 20
33.090726992
 30
0.0
 10
11.4446242203
 20
33.2823533198
 30
0.0
 10
11.4093829355
 20
33.3795464191
 30
0.0
  0
SPLINE
  5
256
100
AcDbEntity
  8
0
100
AcDbSpline
 62
7
  6
BYLAYER
 70
0
 71
3
 72
11
 73
7
 74
0
 42
0.0000001
 43
0.0000001
 44
0.0000000001
 40
0.0
 40
0.0
 40
0.0
 40
0.0
 40
0.2601661205
 40
0.5145925149
 40
0.7616858779
 40
1.0
 40
1.0
 40
1.0
 40
1.0
 10
20.2704520735
 20
31.9635500712
 30
0.0
 10
20.1413267917
 20
31.8465727536
 30
0.0
 10
19.8820950442
 20
31.6193600784
 30
0.0
 10
19.4844321215
 20
31.2995764346
 30
0.0
 10
19.0821866508
 20
31.0098428381
 30
0.0
 10
18.8065729288
 20
30.8368995045
 30
0.0
 10
18.668356405
 20
30.7571006336
 30
0.0
  0
SPLINE
  5
257
100
AcDbEntity
  8
0
100
AcDbSpline
 62
7
  6
BYLAYER
 70
0
 71
3
 72
9
 73
5
 74
0
 42
0.0000001
 43
0.0000001
 44
0.0000000001
 40
0.0
 40
0.0
 40
0.0
 40
0.0
 40
0.5116616552
 40
1.0
 40
1.0
 40
1.0
 40
1.0
 10
18.0170919599
 20
33.7187572606
 30
0.0
 10
18.132004705
 20
33.7618022405
 30
0.0
 10
18.3535865892
 20
33.854251007
 30
0.0
 10
18.5669302106
 20
33.964552211
 30
0.0
 10
18.6683564051
 20
34.0231103022
 30
0.0
  0
SPLINE
  5
258
100
AcDbEntity
  8
0
100
AcDbSpline
 62
7
  6
BYLAYER
 70
0
 71
3
 72
9
 73
5
 74
0
 42
0.0000001
 43
0.0000001
 44
0.0000000001
 40
0.0
 40
0.0
 40
0.0
 40
0.0
 40
0.2440562894
 40
1.0
 40
1.0
 40
1.0
 40
1.0
 10
13.0114320544
 20
34.0231378303
 30
0.0
 10
13.0437239029
 20
34.0044936123
 30
0.0
 10
13.1771672128
 20
33.9300670495
 30
0.0
 10
13.3148752578
 20
33.8633525796
 30
0.0
 10
13.4206502951
 20
33.8169755388
 30
0.0
  0
SPLINE
  5
259
100
AcDbEntity
  8
0
100
AcDbSpline
 62
7
  6
BYLAYER
 70
0
 71
3
 72
14
 73
10
 74
0
 42
0.0000001
 43
0.0000001
 44
0.0000000001
 40
0.0
 40
0.0
 40
0.0
 40
0.0
 40
0.1340578344
 40
0.2653007512
 40
0.39376408
 40
0.5195707773
 40
0.6428928204
 40
0.7639293042
 40
1.0
 40
1.0
 40
1.0
 40
1.0
 10
18.6683564051
 20
34.0231103022
 30
0.0
 10
18.7353914228
 20
34.0618127567
 30
0.0
 10
18.8694331903
 20
34.1360479452
 30
0.0
 10
19.0723224541
 20
34.2387693413
 30
0.0
 10
19.2746064827
 20
34.3317956193
 30
0.0
 10
19.4759985277
 20
34.4154395712
 30
0.0
 10
19.6762854111
 20
34.4901932256
 30
0.0
 10
19.9394470395
 20
34.5780551599
 30
0.0
 10
20.1381760843
 20
34.6336839185
 30
0.0
 10
20.2704520735
 20
34.6665905529
 30
0.0
  0
SPLINE
  5
25A
100
AcDbEntity
  8
0
100
AcDbSpline
 62
7
  6
BYLAYER
 70
0
 71
3
 72
9
 73
5
 74
0
 42
0.0000001
 43
0.0000001
 44
0.0000000001
 40
0.0
 40
0.0
 40
0.0
 40
0.0
 40
0.5032369036
 40
1.0
 40
1.0
 40
1.0
 40
1.0
 10
13.7757211297
 20
33.6779633058
 30
0.0
 10
13.6008813545
 20
33.6877851287
 30
0.0
 10
13.2527599076
 20
33.696249188
 30
0.0
 10
12.9047942564
 20
33.6851944834
 30
0.0
 10
12.7321961399
 20
33.6756341473
 30
0.0
  0
SPLINE
  5
25B
100
AcDbEntity
  8
0
100
AcDbSpline
 62
7
  6
BYLAYER
 70
0
 71
3
 72
10
 73
6
 74
0
 42
0.0000001
 43
0.0000001
 44
0.0000000001
 40
0.0
 40
0.0
 40
0.0
 40
0.0
 40
0.2508792079
 40
0.5013338129
 40
1.0
 40
1.0
 40
1.0
 40
1.0
 10
17.0662607367
 20
32.8166608647
 30
0.0
 10
16.9496157459
 20
32.868057468
 30
0.0
 10
16.715303452
 20
32.9680495114
 30
0.0
 10
16.2427086623
 20
33.1546560169
 30
0.0
 10
15.8820567566
 20
33.2776523215
 30
0.0
 10
15.6391303742
 20
33.3496165704
 30
0.0
  0
SPLINE
  5
25C
100
AcDbEntity
  8
0
100
AcDbSpline
 62
7
  6
BYLAYER
 70
0
 71
3
 72
9
 73
5
 74
0
 42
0.0000001
 43
0.0000001
 44
0.0000000001
 40
0.0
 40
0.0
 40
0.0
 40
0.0
 40
0.5227292841
 40
1.0
 40
1.0
 40
1.0
 40
1.0
 10
11.7173233333
 20
35.7210804218
 30
0.0
 10
11.6677963564
 20
35.7874228722
 30
0.0
 10
11.5690074137
 20
35.9113892206
 30
0.0
 10
11.462162683
 20
36.0284737408
 30
0.0
 10
11.4093829355
 20
36.0825869008
 30
0.0
  0
SPLINE
  5
25D
100
AcDbEntity
  8
0
100
AcDbSpline
 62
7
  6
BYLAYER
 70
0
 71
3
 72
9
 73
5
 74
0
 42
0.0000001
 43
0.0000001
 44
0.0000000001
 40
0.0
 40
0.0
 40
0.0
 40
0.0
 40
0.5108798381
 40
1.0
 40
1.0
 40
1.0
 40
1.0
 10
12.7321961399
 20
33.6756341473
 30
0.0
 10
12.6863225137
 20
33.7972179159
 30
0.0
 10
12.594543383
 20
34.0344650096
 30
0.0
 10
12.4975848716
 20
34.2696603469
 30
0.0
 10
12.4485099035
 20
34.3839877887
 30
0.0
  0
SPLINE
  5
25E
100
AcDbEntity
  8
0
100
AcDbSpline
 62
7
  6
BYLAYER
 70
0
 71
3
 72
11
 73
7
 74
0
 42
0.0000001
 43
0.0000001
 44
0.0000000001
 40
0.0
 40
0.0
 40
0.0
 40
0.0
 40
0.2601663211
 40
0.5145925442
 40
0.7616858578
 40
1.0
 40
1.0
 40
1.0
 40
1.0
 10
17.0662607367
 20
32.8166608647
 30
0.0
 10
17.1953861189
 20
32.9336382731
 30
0.0
 10
17.4546174736
 20
33.1608514339
 30
0.0
 10
17.852280777
 20
33.4806346134
 30
0.0
 10
18.2545262863
 20
33.7703679003
 30
0.0
 10
18.5301398688
 20
33.9433114241
 30
0.0
 10
18.6683564051
 20
34.0231103022
 30
0.0
  0
SPLINE
  5
25F
100
AcDbEntity
  8
0
100
AcDbSpline
 62
7
  6
BYLAYER
 70
0
 71
3
 72
11
 73
7
 74
0
 42
0.0000001
 43
0.0000001
 44
0.0000000001
 40
0.0
 40
0.0
 40
0.0
 40
0.0
 40
0.2320672137
 40
0.4774730187
 40
0.734285406
 40
1.0
 40
1.0
 40
1.0
 40
1.0
 10
18.6684011948
 20
40.1467642221
 30
0.0
 10
18.5411101409
 20
40.2202578446
 30
0.0
 10
18.2702588239
 20
40.35630279
 30
0.0
 10
17.8353497203
 20
40.5228840906
 30
0.0
 10
17.3667546739
 20
40.6554278127
 30
0.0
 10
17.0414946164
 20
40.718783986
 30
0.0
 10
16.8751776049
 20
40.7445125209
 30
0.0
  0
SPLINE
  5
260
100
AcDbEntity
  8
0
100
AcDbSpline
 62
7
  6
BYLAYER
 70
0
 71
3
 72
15
 73
11
 74
0
 42
0.0000001
 43
0.0000001
 44
0.0000000001
 40
0.0
 40
0.0
 40
0.0
 40
0.0
 40
0.0840309413
 40
0.1760832716
 40
0.2780599502
 40
0.3919724358
 40
0.5197326364
 40
0.6630093748
 40
0.8229603066
 40
1.0
 40
1.0
 40
1.0
 40
1.0
 10
12.5739094321
 20
34.2757482038
 30
0.0
 10
12.5496703251
 20
34.2897430484
 30
0.0
 10
12.5004289917
 20
34.3218281315
 30
0.0
 10
12.4282385922
 20
34.3800745259
 30
0.0
 10
12.3547813871
 20
34.4518677456
 30
0.0
 10
12.2801326226
 20
34.5388106984
 30
0.0
 10
12.2043650761
 20
34.6423902329
 30
0.0
 10
12.1276791676
 20
34.7638596285
 30
0.0
 10
12.0503410687
 20
34.9039764922
 30
0.0
 10
12.0010433606
 20
35.004867132
 30
0.0
 10
11.9762185078
 20
35.0583556003
 30
0.0
  0
SPLINE
  5
261
100
AcDbEntity
  8
0
100
AcDbSpline
 62
7
  6
BYLAYER
 70
0
 71
3
 72
16
 73
12
 74
0
 42
0.0000001
 43
0.0000001
 44
0.0000000001
 40
0.0
 40
0.0
 40
0.0
 40
0.0
 40
0.0545749794
 40
0.1108707053
 40
0.2280894667
 40
0.3507326104
 40
0.477644863
 40
0.6074887821
 40
0.7388191265
 40
0.8701622045
 40
1.0
 40
1.0
 40
1.0
 40
1.0
 10
18.6683564051
 20
34.0231103022
 30
0.0
 10
18.6056816841
 20
33.986925251
 30
0.0
 10
18.4762109356
 20
33.9170714331
 30
0.0
 10
18.2026852073
 20
33.7877093411
 30
0.0
 10
17.8353165395
 20
33.6470107599
 30
0.0
 10
17.3667508256
 20
33.5144831044
 30
0.0
 10
16.8723776159
 20
33.4181776121
 30
0.0
 10
16.3605635531
 20
33.3597490707
 30
0.0
 10
15.8399236095
 20
33.3401489361
 30
0.0
 10
15.3193262921
 20
33.359740349
 30
0.0
 10
14.9748079609
 20
33.3990710112
 30
0.0
 10
14.8046574002
 20
33.42539258
 30
0.0
  0
SPLINE
  5
262
100
AcDbEntity
  8
0
100
AcDbSpline
 62
7
  6
BYLAYER
 70
0
 71
3
 72
11
 73
7
 74
0
 42
0.0000001
 43
0.0000001
 44
0.0000000001
 40
0.0
 40
0.0
 40
0.0
 40
0.0
 40
0.265714594
 40
0.5225269812
 40
0.7679327863
 40
1.0
 40
1.0
 40
1.0
 40
1.0
 10
14.8046574002
 20
33.42539258
 30
0.0
 10
14.6383403892
 20
33.451121115
 30
0.0
 10
14.3130803324
 20
33.5144772885
 30
0.0
 10
13.844485287
 20
33.6470210104
 30
0.0
 10
13.4095761843
 20
33.8136023108
 30
0.0
 10
13.1387248679
 20
33.949647256
 30
0.0
 10
13.0114338142
 20
34.0231408784
 30
0.0
  0
SPLINE
  5
263
100
AcDbEntity
  8
0
100
AcDbSpline
 62
7
  6
BYLAYER
 70
0
 71
3
 72
16
 73
12
 74
0
 42
0.0000001
 43
0.0000001
 44
0.0000000001
 40
0.0
 40
0.0
 40
0.0
 40
0.0
 40
0.1298377955
 40
0.2611808735
 40
0.3925112179
 40
0.522355137
 40
0.6492673896
 40
0.7719105333
 40
0.8891292947
 40
0.9454250206
 40
1.0
 40
1.0
 40
1.0
 40
1.0
 10
16.8751776049
 20
40.7445125209
 30
0.0
 10
16.7050270444
 20
40.7708340897
 30
0.0
 10
16.3605087135
 20
40.8101647517
 30
0.0
 10
15.8399113966
 20
40.8297561644
 30
0.0
 10
15.3192714535
 20
40.8101560295
 30
0.0
 10
14.8074573912
 20
40.751727488
 30
0.0
 10
14.313084182
 20
40.6554219958
 30
0.0
 10
13.8445184687
 20
40.5228943403
 30
0.0
 10
13.4771498013
 20
40.3821957592
 30
0.0
 10
13.2036240732
 20
40.2528336672
 30
0.0
 10
13.0741533249
 20
40.1829798494
 30
0.0
 10
13.0114786039
 20
40.1467947983
 30
0.0
  0
SPLINE
  5
264
100
AcDbEntity
  8
0
100
AcDbSpline
 62
7
  6
BYLAYER
 70
0
 71
3
 72
15
 73
11
 74
0
 42
0.0000001
 43
0.0000001
 44
0.0000000001
 40
0.0
 40
0.0
 40
0.0
 40
0.0
 40
0.1770400213
 40
0.3369923806
 40
0.4802689615
 40
0.608029193
 40
0.7219413089
 40
0.8239171258
 40
0.9159690574
 40
1.0
 40
1.0
 40
1.0
 40
1.0
 10
19.7036165001
 20
39.1115495024
 30
0.0
 10
19.6787916016
 20
39.1650380692
 30
0.0
 10
19.6294933736
 20
39.2659290934
 30
0.0
 10
19.5521554968
 20
39.4060466988
 30
0.0
 10
19.4754688401
 20
39.5275161289
 30
0.0
 10
19.3997017561
 20
39.6310957853
 30
0.0
 10
19.3250530645
 20
39.7180382988
 30
0.0
 10
19.2515958699
 20
39.7898307557
 30
0.0
 10
19.1794056806
 20
39.8480766914
 30
0.0
 10
19.130164684
 20
39.8801620518
 30
0.0
 10
19.1059255769
 20
39.8941568967
 30
0.0
  0
SPLINE
  5
265
100
AcDbEntity
  8
0
100
AcDbSpline
 62
7
  6
BYLAYER
 70
0
 71
3
 72
13
 73
9
 74
0
 42
0.0000001
 43
0.0000001
 44
0.0000000001
 40
0.0
 40
0.0
 40
0.0
 40
0.0
 40
0.2634530644
 40
0.3929392895
 40
0.5203971704
 40
0.6453496902
 40
0.7672777227
 40
1.0
 40
1.0
 40
1.0
 40
1.0
 10
20.3013427681
 20
35.4711632448
 30
0.0
 10
20.175323367
 20
35.3256481858
 30
0.0
 10
19.9827044453
 20
35.1125143223
 30
0.0
 10
19.7154381382
 20
34.8419690474
 30
0.0
 10
19.5125209049
 20
34.65033621
 30
0.0
 10
19.3061808906
 20
34.4706323818
 30
0.0
 10
19.0314256527
 20
34.2530272053
 30
0.0
 10
18.8156190005
 20
34.1081318936
 30
0.0
 10
18.6683564051
 20
34.0231103022
 30
0.0
  0
SPLINE
  5
266
100
AcDbEntity
  8
0
100
AcDbSpline
 62
7
  6
BYLAYER
 70
0
 71
3
 72
14
 73
10
 74
0
 42
0.0000001
 43
0.0000001
 44
0.0000000001
 40
0.0
 40
0.0
 40
0.0
 40
0.0
 40
0.2795104363
 40
0.4140843537
 40
0.5441474495
 40
0.6687640948
 40
0.7869184678
 40
0.8976224483
 40
1.0
 40
1.0
 40
1.0
 40
1.0
 10
20.3013427681
 20
37.3184147966
 30
0.0
 10
20.2557128509
 20
37.4887043192
 30
0.0
 10
20.1858774196
 20
37.7404024576
 30
0.0
 10
20.0875523909
 20
38.0692402498
 30
0.0
 10
20.0134593168
 20
38.3033226366
 30
0.0
 10
19.9381714334
 20
38.5261226339
 30
0.0
 10
19.8618357815
 20
38.7356235931
 30
0.0
 10
19.7847153511
 20
38.9298239434
 30
0.0
 10
19.7308007741
 20
39.0529773454
 30
0.0
 10
19.7036165001
 20
39.1115495024
 30
0.0
  0
SPLINE
  5
267
100
AcDbEntity
  8
0
100
AcDbSpline
 62
7
  6
BYLAYER
 70
0
 71
3
 72
13
 73
9
 74
0
 42
0.0000001
 43
0.0000001
 44
0.0000000001
 40
0.0
 40
0.0
 40
0.0
 40
0.0
 40
0.2327233372
 40
0.354651667
 40
0.4796039254
 40
0.6070617506
 40
0.7365476407
 40
1.0
 40
1.0
 40
1.0
 40
1.0
 10
13.0114786039
 20
40.1467947983
 30
0.0
 10
12.8642153369
 20
40.0617728191
 30
0.0
 10
12.6484076586
 20
39.9168771982
 30
0.0
 10
12.373652352
 20
39.6992708239
 30
0.0
 10
12.1673119522
 20
39.5195674717
 30
0.0
 10
11.9643952295
 20
39.3279347637
 30
0.0
 10
11.6971299728
 20
39.0573895852
 30
0.0
 10
11.5045113055
 20
38.8442565261
 30
0.0
 10
11.3784922409
 20
38.6987418557
 30
0.0
  0
SPLINE
  5
268
100
AcDbEntity
  8
0
100
AcDbSpline
 62
7
  6
BYLAYER
 70
0
 71
3
 72
14
 73
10
 74
0
 42
0.0000001
 43
0.0000001
 44
0.0000000001
 40
0.0
 40
0.0
 40
0.0
 40
0.0
 40
0.102378009
 40
0.2130825759
 40
0.3312373745
 40
0.4558536942
 40
0.5859167896
 40
0.720490428
 40
1.0
 40
1.0
 40
1.0
 40
1.0
 10
11.9762185078
 20
35.0583556003
 30
0.0
 10
11.9490341125
 20
35.1169280189
 30
0.0
 10
11.8951194785
 20
35.2400821121
 30
0.0
 10
11.8179983471
 20
35.4342831807
 30
0.0
 10
11.7416629304
 20
35.6437846893
 30
0.0
 10
11.6663747578
 20
35.8665846513
 30
0.0
 10
11.5922819522
 20
36.1006667267
 30
0.0
 10
11.4939574199
 20
36.4295039118
 30
0.0
 10
11.424122017
 20
36.6812013079
 30
0.0
 10
11.3784922409
 20
36.8514903039
 30
0.0
  0
SPLINE
  5
269
100
AcDbEntity
  8
0
100
AcDbSpline
 62
7
  6
BYLAYER
 70
0
 71
3
 72
14
 73
10
 74
0
 42
0.0000001
 43
0.0000001
 44
0.0000000001
 40
0.0
 40
0.0
 40
0.0
 40
0.0
 40
0.241578439
 40
0.3642316903
 40
0.4882983485
 40
0.6138885355
 40
0.7410659884
 40
0.8698182658
 40
1.0
 40
1.0
 40
1.0
 40
1.0
 10
17.035370042
 20
33.5855642677
 30
0.0
 10
16.8601386823
 20
33.5386098806
 30
0.0
 10
16.5932767436
 20
33.4769556834
 30
0.0
 10
16.2312641229
 20
33.417924704
 30
0.0
 10
15.9533268824
 20
33.3864510096
 30
0.0
 10
15.6706937226
 20
33.3697069242
 30
0.0
 10
15.3840186651
 20
33.3693535206
 30
0.0
 10
15.094409902
 20
33.3866920362
 30
0.0
 10
14.9012681494
 20
33.4104473074
 30
0.0
 10
14.804657404
 20
33.4253925792
 30
0.0
  0
SPLINE
  5
26A
100
AcDbEntity
  8
0
100
AcDbSpline
 62
7
  6
BYLAYER
 70
0
 71
3
 72
15
 73
11
 74
0
 42
0.0000001
 43
0.0000001
 44
0.0000000001
 40
0.0
 40
0.0
 40
0.0
 40
0.0
 40
0.1411887591
 40
0.2769398985
 40
0.4074362918
 40
0.5331328574
 40
0.6546231613
 40
0.7725349536
 40
0.8874844842
 40
1.0
 40
1.0
 40
1.0
 40
1.0
 10
18.6683564051
 20
34.0231103022
 30
0.0
 10
18.598624248
 20
33.9828506628
 30
0.0
 10
18.4592547346
 20
33.9082496679
 30
0.0
 10
18.2471118756
 20
33.8129954398
 30
0.0
 10
18.0369807431
 20
33.7362110839
 30
0.0
 10
17.829718492
 20
33.6769343913
 30
0.0
 10
17.6258758425
 20
33.6337076301
 30
0.0
 10
17.4257107143
 20
33.6049247072
 30
0.0
 10
17.2292897619
 20
33.5888622567
 30
0.0
 10
17.0995373935
 20
33.5855636275
 30
0.0
 10
17.035370042
 20
33.5855642677
 30
0.0
  0
SPLINE
  5
26B
100
AcDbEntity
  8
0
100
AcDbSpline
 62
7
  6
BYLAYER
 70
0
 71
3
 72
11
 73
7
 74
0
 42
0.0000001
 43
0.0000001
 44
0.0000000001
 40
0.0
 40
0.0
 40
0.0
 40
0.0
 40
0.2474598164
 40
0.4973990324
 40
0.7485578523
 40
1.0
 40
1.0
 40
1.0
 40
1.0
 10
14.804657404
 20
33.4253925792
 30
0.0
 10
14.6500657454
 20
33.4493072521
 30
0.0
 10
14.3415461114
 20
33.5129108826
 30
0.0
 10
13.8883427349
 20
33.6509576143
 30
0.0
 10
13.4455227694
 20
33.8259596271
 30
0.0
 10
13.1583943938
 20
33.9625012967
 30
0.0
 10
13.0167795112
 20
34.0346792318
 30
0.0
  0
SPLINE
  5
26C
100
AcDbEntity
  8
0
100
AcDbSpline
 62
7
  6
BYLAYER
 70
0
 71
3
 72
9
 73
5
 74
0
 42
0.0000001
 43
0.0000001
 44
0.0000000001
 40
0.0
 40
0.0
 40
0.0
 40
0.0
 40
0.2502034865
 40
1.0
 40
1.0
 40
1.0
 40
1.0
 10
13.0167795112
 20
34.0346792318
 30
0.0
 10
12.9793125152
 20
34.0537753209
 30
0.0
 10
12.8301235551
 20
34.1311889495
 30
0.0
 10
12.6830827395
 20
34.2127172104
 30
0.0
 10
12.5739447784
 20
34.2757277973
 30
0.0
  0
SPLINE
  5
26D
100
AcDbEntity
  8
0
100
AcDbSpline
 62
7
  6
BYLAYER
 70
0
 71
3
 72
14
 73
10
 74
0
 42
0.0000001
 43
0.0000001
 44
0.0000000001
 40
0.0
 40
0.0
 40
0.0
 40
0.0
 40
0.2415784143
 40
0.3642316685
 40
0.4882983597
 40
0.6138885662
 40
0.7410660248
 40
0.86981828
 40
1.0
 40
1.0
 40
1.0
 40
1.0
 10
12.5739447784
 20
36.1229793491
 30
0.0
 10
12.7491761171
 20
36.1699337305
 30
0.0
 10
13.0160380751
 20
36.2315877521
 30
0.0
 10
13.3780506961
 20
36.2906187235
 30
0.0
 10
13.6559879684
 20
36.3220924523
 30
0.0
 10
13.9386211607
 20
36.3388366499
 30
0.0
 10
14.225296216
 20
36.3391900548
 30
0.0
 10
14.5149049536
 20
36.3218515898
 30
0.0
 10
14.7080466746
 20
36.2980963086
 30
0.0
 10
14.8046574077
 20
36.2831510388
 30
0.0
  0
SPLINE
  5
26E
100
AcDbEntity
  8
0
100
AcDbSpline
 62
7
  6
BYLAYER
 70
0
 71
3
 72
14
 73
10
 74
0
 42
0.0000001
 43
0.0000001
 44
0.0000000001
 40
0.0
 40
0.0
 40
0.0
 40
0.0
 40
0.1023780249
 40
0.2130825969
 40
0.3312373753
 40
0.4558536417
 40
0.5859166889
 40
0.720490334
 40
1.0
 40
1.0
 40
1.0
 40
1.0
 10
11.9762185089
 20
37.916114058
 30
0.0
 10
12.0034029087
 20
37.8575416301
 30
0.0
 10
12.0573175408
 20
37.7343875209
 30
0.0
 10
12.1344386909
 20
37.5401864582
 30
0.0
 10
12.2107740977
 20
37.3306849908
 30
0.0
 10
12.2860622774
 20
37.1078851112
 30
0.0
 10
12.3601550716
 20
36.8738030935
 30
0.0
 10
12.4584796106
 20
36.544965874
 30
0.0
 10
12.5283149867
 20
36.2932684032
 30
0.0
 10
12.5739447784
 20
36.1229793491
 30
0.0
  0
SPLINE
  5
26F
100
AcDbEntity
  8
0
100
AcDbSpline
 62
7
  6
BYLAYER
 70
0
 71
3
 72
12
 73
8
 74
0
 42
0.0000001
 43
0.0000001
 44
0.0000000001
 40
0.0
 40
0.0
 40
0.0
 40
0.0
 40
0.2233502512
 40
0.3411501381
 40
0.4633993989
 40
0.7219821601
 40
1.0
 40
1.0
 40
1.0
 40
1.0
 10
19.7036165009
 20
39.1115495
 30
0.0
 10
19.6570557076
 20
39.2118709617
 30
0.0
 10
19.5698721494
 20
39.3580796135
 30
0.0
 10
19.4278230236
 20
39.5384766621
 30
0.0
 10
19.2596273902
 20
39.7196135625
 30
0.0
 10
19.0107768526
 20
39.9323643956
 30
0.0
 10
18.7876263425
 20
40.0779275856
 30
0.0
 10
18.6684011948
 20
40.1467642221
 30
0.0
  0
SPLINE
  5
270
100
AcDbEntity
  8
0
100
AcDbSpline
 62
7
  6
BYLAYER
 70
0
 71
3
 72
22
 73
18
 74
0
 42
0.0000001
 43
0.0000001
 44
0.0000000001
 40
0.0
 40
0.0
 40
0.0
 40
0.0
 40
0.0772068441
 40
0.1518305804
 40
0.2930017354
 40
0.3597339062
 40
0.424028821
 40
0.4860682551
 40
0.5460937471
 40
0.6044159055
 40
0.6613996239
 40
0.717459667
 40
0.7730442828
 40
0.8286300928
 40
0.8846998543
 40
0.941699407
 40
1.0
 40
1.0
 40
1.0
 40
1.0
 10
18.6683564051
 20
36.8808687621
 30
0.0
 10
18.7290120436
 20
36.9158881023
 30
0.0
 10
18.8464153082
 20
36.9881130077
 30
0.0
 10
19.0640625151
 20
37.1408436496
 30
0.0
 10
19.2596368195
 20
37.3080597633
 30
0.0
 10
19.4278061086
 20
37.4891682737
 30
0.0
 10
19.5362747871
 20
37.6269523791
 30
0.0
 10
19.6289598743
 20
37.7686150941
 30
0.0
 10
19.7054019463
 20
37.9135942171
 30
0.0
 10
19.7652797262
 20
38.0612496967
 30
0.0
 10
19.8082522139
 20
38.2109629364
 30
0.0
 10
19.8341425537
 20
38.3620504709
 30
0.0
 10
19.8427900814
 20
38.513835658
 30
0.0
 10
19.834147407
 20
38.6656285818
 30
0.0
 10
19.8082532313
 20
38.8167448803
 30
0.0
 10
19.7652498991
 20
38.9664391099
 30
0.0
 10
19.7258815329
 20
39.0635765082
 30
0.0
 10
19.7036165009
 20
39.1115495
 30
0.0
  0
SPLINE
  5
271
100
AcDbEntity
  8
0
100
AcDbSpline
 62
7
  6
BYLAYER
 70
0
 71
3
 72
16
 73
12
 74
0
 42
0.0000001
 43
0.0000001
 44
0.0000000001
 40
0.0
 40
0.0
 40
0.0
 40
0.0
 40
0.1298377955
 40
0.2611808735
 40
0.3925112179
 40
0.522355137
 40
0.6492673896
 40
0.7719105333
 40
0.8891292947
 40
0.9454250206
 40
1.0
 40
1.0
 40
1.0
 40
1.0
 10
14.8046574041
 20
36.2831510395
 30
0.0
 10
14.9748079646
 20
36.2568294707
 30
0.0
 10
15.3193262955
 20
36.2174988087
 30
0.0
 10
15.8399236124
 20
36.197907396
 30
0.0
 10
16.3605635555
 20
36.2175075309
 30
0.0
 10
16.8723776178
 20
36.2759360724
 30
0.0
 10
17.366750827
 20
36.3722415646
 30
0.0
 10
17.8353165403
 20
36.5047692201
 30
0.0
 10
18.2026852077
 20
36.6454678012
 30
0.0
 10
18.4762109358
 20
36.7748298932
 30
0.0
 10
18.6056816841
 20
36.844683711
 30
0.0
 10
18.6683564051
 20
36.8808687621
 30
0.0
  0
SPLINE
  5
272
100
AcDbEntity
  8
0
100
AcDbSpline
 62
7
  6
BYLAYER
 70
0
 71
3
 72
16
 73
12
 74
0
 42
0.0000001
 43
0.0000001
 44
0.0000000001
 40
0.0
 40
0.0
 40
0.0
 40
0.0
 40
0.0980062441
 40
0.1496970643
 40
0.2033403843
 40
0.3168075314
 40
0.4388032013
 40
0.5690393021
 40
0.706760435
 40
0.8508824465
 40
1.0
 40
1.0
 40
1.0
 40
1.0
 10
11.9762185081
 20
37.9161140605
 30
0.0
 10
12.0227816511
 20
37.8157875358
 30
0.0
 10
12.1099702161
 20
37.6695718729
 30
0.0
 10
12.2520295294
 20
37.4891663913
 30
0.0
 10
12.420233458
 20
37.3080235569
 30
0.0
 10
12.6691329413
 20
37.0952478301
 30
0.0
 10
13.0155958867
 20
36.8692425547
 30
0.0
 10
13.4096041521
 20
36.6713527833
 30
0.0
 10
13.8445385648
 20
36.5047605284
 30
0.0
 10
14.3131007211
 20
36.3722324757
 30
0.0
 10
14.6383484009
 20
36.3088783356
 30
0.0
 10
14.8046574041
 20
36.2831510395
 30
0.0
  0
SPLINE
  5
273
100
AcDbEntity
  8
0
100
AcDbSpline
 62
7
  6
BYLAYER
 70
0
 71
3
 72
22
 73
18
 74
0
 42
0.0000001
 43
0.0000001
 44
0.0000000001
 40
0.0
 40
0.0
 40
0.0
 40
0.0
 40
0.0772068441
 40
0.1518305804
 40
0.2930017354
 40
0.3597339062
 40
0.424028821
 40
0.4860682551
 40
0.5460937471
 40
0.6044159055
 40
0.6613996239
 40
0.717459667
 40
0.7730442828
 40
0.8286300928
 40
0.8846998543
 40
0.941699407
 40
1.0
 40
1.0
 40
1.0
 40
1.0
 10
13.0114786039
 20
40.1467947983
 30
0.0
 10
12.9508229654
 20
40.1117754582
 30
0.0
 10
12.8334197008
 20
40.0395505527
 30
0.0
 10
12.6157724939
 20
39.8868199108
 30
0.0
 10
12.4201981895
 20
39.7196037971
 30
0.0
 10
12.2520289004
 20
39.5384952867
 30
0.0
 10
12.1435602219
 20
39.4007111813
 30
0.0
 10
12.0508751347
 20
39.2590484663
 30
0.0
 10
11.9744330627
 20
39.1140693433
 30
0.0
 10
11.9145552828
 20
38.9664138638
 30
0.0
 10
11.8715827951
 20
38.816700624
 30
0.0
 10
11.8456924553
 20
38.6656130895
 30
0.0
 10
11.8370449276
 20
38.5138279024
 30
0.0
 10
11.845687602
 20
38.3620349787
 30
0.0
 10
11.8715817777
 20
38.2109186801
 30
0.0
 10
11.9145851099
 20
38.0612244506
 30
0.0
 10
11.9539534761
 20
37.9640870522
 30
0.0
 10
11.9762185081
 20
37.9161140605
 30
0.0
  0
SPLINE
  5
274
100
AcDbEntity
  8
0
100
AcDbSpline
 62
7
  6
BYLAYER
 70
0
 71
3
 72
13
 73
9
 74
0
 42
0.0000001
 43
0.0000001
 44
0.0000000001
 40
0.0
 40
0.0
 40
0.0
 40
0.0
 40
0.263453485
 40
0.3929398934
 40
0.5203974687
 40
0.6453496758
 40
0.7672777262
 40
1.0
 40
1.0
 40
1.0
 40
1.0
 10
17.035370042
 20
35.4328158195
 30
0.0
 10
17.1613896493
 20
35.5783311166
 30
0.0
 10
17.3540088114
 20
35.7914653569
 30
0.0
 10
17.6212747048
 20
36.0620113664
 30
0.0
 10
17.8241916305
 20
36.2536441001
 30
0.0
 10
18.0305318727
 20
36.4333470265
 30
0.0
 10
18.3052873923
 20
36.6509514875
 30
0.0
 10
18.521093806
 20
36.7958471686
 30
0.0
 10
18.6683564051
 20
36.8808687621
 30
0.0
  0
SPLINE
  5
275
100
AcDbEntity
  8
0
100
AcDbSpline
 62
7
  6
BYLAYER
 70
0
 71
3
 72
13
 73
9
 74
0
 42
0.0000001
 43
0.0000001
 44
0.0000000001
 40
0.0
 40
0.0
 40
0.0
 40
0.0
 40
0.1233408366
 40
0.2476381032
 40
0.3725913187
 40
0.4979558591
 40
0.7490846562
 40
1.0
 40
1.0
 40
1.0
 40
1.0
 10
14.8046574077
 20
36.2831510388
 30
0.0
 10
14.9022011342
 20
36.2680614389
 30
0.0
 10
15.0971435391
 20
36.2316050462
 30
0.0
 10
15.3865582688
 20
36.1592252054
 30
0.0
 10
15.6729560188
 20
36.0701179145
 30
0.0
 10
16.0495630489
 20
35.9311330186
 30
0.0
 10
16.5078858117
 20
35.7245600562
 30
0.0
 10
16.861475471
 20
35.5332135077
 30
0.0
 10
17.035370042
 20
35.4328158195
 30
0.0
  0
SPLINE
  5
276
100
AcDbEntity
  8
0
100
AcDbSpline
 62
7
  6
BYLAYER
 70
0
 71
3
 72
15
 73
11
 74
0
 42
0.0000001
 43
0.0000001
 44
0.0000000001
 40
0.0
 40
0.0
 40
0.0
 40
0.0
 40
0.1411888469
 40
0.2769399394
 40
0.4074359946
 40
0.5331325217
 40
0.6546231771
 40
0.7725350951
 40
0.8874845764
 40
1.0
 40
1.0
 40
1.0
 40
1.0
 10
18.6683564051
 20
36.8808687621
 30
0.0
 10
18.7380885963
 20
36.9211284213
 30
0.0
 10
18.8774580708
 20
36.9957294833
 30
0.0
 10
19.0896006773
 20
37.0909838096
 30
0.0
 10
19.2997317975
 20
37.167767477
 30
0.0
 10
19.5069942893
 20
37.2270431311
 30
0.0
 10
19.7108370892
 20
37.2702701058
 30
0.0
 10
19.9110023027
 20
37.2990539865
 30
0.0
 10
20.1074232092
 20
37.3151166903
 30
0.0
 10
20.2371754777
 20
37.3184154368
 30
0.0
 10
20.3013427681
 20
37.3184147966
 30
0.0
  0
SPLINE
  5
277
100
AcDbEntity
  8
0
100
AcDbSpline
 62
7
  6
BYLAYER
 70
0
 71
3
 72
15
 73
11
 74
0
 42
0.0000001
 43
0.0000001
 44
0.0000000001
 40
0.0
 40
0.0
 40
0.0
 40
0.0
 40
0.0840294975
 40
0.1760802775
 40
0.2780554745
 40
0.3919668489
 40
0.5197266221
 40
0.6630040148
 40
0.8229568764
 40
1.0
 40
1.0
 40
1.0
 40
1.0
 10
11.3784922409
 20
38.6987418557
 30
0.0
 10
11.402732649
 20
38.6847479452
 30
0.0
 10
11.4519766951
 20
38.6526644319
 30
0.0
 10
11.524171185
 20
38.5944194287
 30
0.0
 10
11.5976326679
 20
38.522626538
 30
0.0
 10
11.6722858646
 20
38.4356825317
 30
0.0
 10
11.7480580259
 20
38.3321002317
 30
0.0
 10
11.8247486233
 20
38.2106260023
 30
0.0
 10
11.9020915487
 20
38.0705020505
 30
0.0
 10
11.9513921634
 20
37.9696057425
 30
0.0
 10
11.9762185089
 20
37.916114058
 30
0.0
  0
SPLINE
  5
278
100
AcDbEntity
  8
0
100
AcDbSpline
 62
7
  6
BYLAYER
 70
0
 71
3
 72
15
 73
11
 74
0
 42
0.0000001
 43
0.0000001
 44
0.0000000001
 40
0.0
 40
0.0
 40
0.0
 40
0.0
 40
0.1080086838
 40
0.2180584951
 40
0.3319960795
 40
0.451356945
 40
0.5772731821
 40
0.7104891942
 40
0.8514214915
 40
1.0
 40
1.0
 40
1.0
 40
1.0
 10
11.8399168161
 20
31.9818124432
 30
0.0
 10
11.8399164469
 20
31.9060892302
 30
0.0
 10
11.8530845204
 20
31.7529063506
 30
0.0
 10
11.9117611126
 20
31.5266423681
 30
0.0
 10
12.0086553062
 20
31.3052523694
 30
0.0
 10
12.1425176883
 20
31.0909894394
 30
0.0
 10
12.3118144507
 20
30.8857714697
 30
0.0
 10
12.5148530209
 20
30.6914293366
 30
0.0
 10
12.7495930673
 20
30.5097505165
 30
0.0
 10
12.9212911671
 20
30.4009179879
 30
0.0
 10
13.0115021556
 20
30.3488358277
 30
0.0
  0
SPLINE
  5
279
100
AcDbEntity
  8
0
100
AcDbSpline
 62
7
  6
BYLAYER
 70
0
 71
3
 72
9
 73
5
 74
0
 42
0.0000001
 43
0.0000001
 44
0.0000000001
 40
0.0
 40
0.0
 40
0.0
 40
0.0
 40
0.5033795412
 40
1.0
 40
1.0
 40
1.0
 40
1.0
 10
16.9455008497
 20
29.7624083978
 30
0.0
 10
17.0128692418
 20
29.8389638269
 30
0.0
 10
17.1487978332
 20
29.9892194659
 30
0.0
 10
17.2896804946
 20
30.1348708937
 30
0.0
 10
17.3610855501
 20
30.2057451306
 30
0.0
  0
SPLINE
  5
27A
100
AcDbEntity
  8
0
100
AcDbSpline
 62
7
  6
BYLAYER
 70
0
 71
3
 72
15
 73
11
 74
0
 42
0.0000001
 43
0.0000001
 44
0.0000000001
 40
0.0
 40
0.0
 40
0.0
 40
0.0
 40
0.1108414487
 40
0.2281638897
 40
0.3509642324
 40
0.4780386146
 40
0.6079950256
 40
0.7393320837
 40
0.8705227497
 40
1.0
 40
1.0
 40
1.0
 40
1.0
 10
13.0115021556
 20
30.3488358277
 30
0.0
 10
13.141065782
 20
30.2740339254
 30
0.0
 10
13.4170488959
 20
30.1357732898
 30
0.0
 10
13.8604774341
 20
29.9672298101
 30
0.0
 10
14.3385225516
 20
29.8339876068
 30
0.0
 10
14.8427722345
 20
29.7383480203
 30
0.0
 10
15.3644651296
 20
29.6819919388
 30
0.0
 10
15.8944956743
 20
29.665872739
 30
0.0
 10
16.4235265429
 20
29.6903039976
 30
0.0
 10
16.7731015525
 20
29.7337826439
 30
0.0
 10
16.9455008497
 20
29.7624083978
 30
0.0
  0
SPLINE
  5
27B
100
AcDbEntity
  8
0
100
AcDbSpline
 62
7
  6
BYLAYER
 70
0
 71
3
 72
15
 73
11
 74
0
 42
0.0000001
 43
0.0000001
 44
0.0000000001
 40
0.0
 40
0.0
 40
0.0
 40
0.0
 40
0.1485062959
 40
0.2920781794
 40
0.4293630108
 40
0.5594038861
 40
0.6814924722
 40
0.7953457079
 40
0.9012447733
 40
1.0
 40
1.0
 40
1.0
 40
1.0
 10
16.9455008497
 20
24.9450441367
 30
0.0
 10
17.1051550418
 20
24.9715536509
 30
0.0
 10
17.4173398956
 20
25.0356050346
 30
0.0
 10
17.8671120301
 20
25.1665358066
 30
0.0
 10
18.2850390112
 20
25.3290786415
 30
0.0
 10
18.6645422258
 20
25.5206564141
 30
0.0
 10
18.9997212675
 20
25.7384551438
 30
0.0
 10
19.2854096576
 20
25.9793012388
 30
0.0
 10
19.516875893
 20
26.2396782457
 30
0.0
 10
19.6361164552
 20
26.4298348388
 30
0.0
 10
19.6841022353
 20
26.5261669459
 30
0.0
  0
SPLINE
  5
27C
100
AcDbEntity
  8
0
100
AcDbSpline
 62
7
  6
BYLAYER
 70
0
 71
3
 72
14
 73
10
 74
0
 42
0.0000001
 43
0.0000001
 44
0.0000000001
 40
0.0
 40
0.0
 40
0.0
 40
0.0
 40
0.1095253503
 40
0.22217123
 40
0.3388070756
 40
0.4601230758
 40
0.5866488674
 40
0.7187280226
 40
1.0
 40
1.0
 40
1.0
 40
1.0
 10
19.8665820378
 20
22.0663834205
 30
0.0
 10
19.8525849573
 20
22.0079703377
 30
0.0
 10
19.8166881452
 20
21.8911579548
 30
0.0
 10
19.7412462832
 20
21.7209248242
 30
0.0
 10
19.6440559545
 20
21.5545832152
 30
0.0
 10
19.5257830258
 20
21.3930389808
 30
0.0
 10
19.3870463686
 20
21.2371821677
 30
0.0
 10
19.1714775893
 20
21.0338121828
 30
0.0
 10
18.9879264979
 20
20.898884648
 30
0.0
 10
18.8579957623
 20
20.815738447
 30
0.0
  0
SPLINE
  5
27D
100
AcDbEntity
  8
0
100
AcDbSpline
 62
7
  6
BYLAYER
 70
0
 71
3
 72
17
 73
13
 74
0
 42
0.0000001
 43
0.0000001
 44
0.0000000001
 40
0.0
 40
0.0
 40
0.0
 40
0.0
 40
0.1485518389
 40
0.2894540639
 40
0.4226445685
 40
0.5485381475
 40
0.6678755044
 40
0.7817905846
 40
0.8372253421
 40
0.8919099509
 40
0.9460843547
 40
1.0
 40
1.0
 40
1.0
 40
1.0
 10
11.3498081382
 20
7.3030716827
 30
0.0
 10
11.2065969832
 20
7.3857528111
 30
0.0
 10
10.9340271046
 20
7.5585207607
 30
0.0
 10
10.561381574
 20
7.8469377544
 30
0.0
 10
10.2390609589
 20
8.1554497999
 30
0.0
 10
9.9702963242
 20
8.4812409437
 30
0.0
 10
9.7578021467
 20
8.8213462184
 30
0.0
 10
9.6284227989
 20
9.1170191509
 30
0.0
 10
9.5564438091
 20
9.3560413015
 30
0.0
 10
9.5181067748
 20
9.5350888803
 30
0.0
 10
9.4950475539
 20
9.7150172078
 30
0.0
 10
9.4899216437
 20
9.8354041846
 30
0.0
 10
9.4899245
 20
9.8954220485
 30
0.0
  0
SPLINE
  5
27E
100
AcDbEntity
  8
0
100
AcDbSpline
 62
7
  6
BYLAYER
 70
0
 71
3
 72
23
 73
19
 74
0
 42
0.0000001
 43
0.0000001
 44
0.0000000001
 40
0.0
 40
0.0
 40
0.0
 40
0.0
 40
0.0558369583
 40
0.114177364
 40
0.1747801107
 40
0.237349709
 40
0.3015447501
 40
0.3669881194
 40
0.4332784576
 40
0.4999961832
 40
0.5667141551
 40
0.6330033508
 40
0.698447224
 40
0.7626440037
 40
0.8252119365
 40
0.8858153369
 40
0.9441747598
 40
1.0
 40
1.0
 40
1.0
 40
1.0
 10
18.8557837981
 20
20.8100978768
 30
0.0
 10
18.75474516
 20
20.7517617335
 30
0.0
 10
18.5428869761
 20
20.6413927127
 30
0.0
 10
18.2066627683
 20
20.4980371277
 30
0.0
 10
17.8478165671
 20
20.3743335727
 30
0.0
 10
17.4697915661
 20
20.2714753448
 30
0.0
 10
17.0761793496
 20
20.1904514643
 30
0.0
 10
16.6707464797
 20
20.131998203
 30
0.0
 10
16.2573618455
 20
20.0967152626
 30
0.0
 10
15.8399827852
 20
20.0849084718
 30
0.0
 10
15.4226051727
 20
20.0967016593
 30
0.0
 10
15.0092224431
 20
20.1319918657
 30
0.0
 10
14.6037827095
 20
20.1904152249
 30
0.0
 10
14.2101725921
 20
20.271456434
 30
0.0
 10
13.8321401445
 20
20.3742891093
 30
0.0
 10
13.4732506442
 20
20.4979873808
 30
0.0
 10
13.1370261569
 20
20.6413825658
 30
0.0
 10
12.9251382753
 20
20.7517263915
 30
0.0
 10
12.8241196388
 20
20.8100482091
 30
0.0
  0
SPLINE
  5
27F
100
AcDbEntity
  8
0
100
AcDbSpline
 62
7
  6
BYLAYER
 70
0
 71
3
 72
17
 73
13
 74
0
 42
0.0000001
 43
0.0000001
 44
0.0000000001
 40
0.0
 40
0.0
 40
0.0
 40
0.0
 40
0.1485766414
 40
0.2894446609
 40
0.4226432049
 40
0.5485383993
 40
0.6678748284
 40
0.7817911352
 40
0.8372267453
 40
0.8919107278
 40
0.9460846077
 40
1.0
 40
1.0
 40
1.0
 40
1.0
 10
11.4557614532
 20
24.2657560483
 30
0.0
 10
11.3159172169
 20
24.1850146267
 30
0.0
 10
11.0498023046
 20
24.0163429608
 30
0.0
 10
10.6859981888
 20
23.7347218142
 30
0.0
 10
10.371320579
 20
23.4335310445
 30
0.0
 10
10.1089163292
 20
23.1154354412
 30
0.0
 10
9.9014458397
 20
22.7833755903
 30
0.0
 10
9.7751532137
 20
22.4946875408
 30
0.0
 10
9.7048552837
 20
22.2613259801
 30
0.0
 10
9.6674360492
 20
22.0865119776
 30
0.0
 10
9.6449353171
 20
21.9108415456
 30
0.0
 10
9.6399174038
 20
21.7933046348
 30
0.0
 10
9.6399175045
 20
21.7347071082
 30
0.0
  0
SPLINE
  5
280
100
AcDbEntity
  8
0
100
AcDbSpline
 62
7
  6
BYLAYER
 70
0
 71
3
 72
15
 73
11
 74
0
 42
0.0000001
 43
0.0000001
 44
0.0000000001
 40
0.0
 40
0.0
 40
0.0
 40
0.0
 40
0.1418193939
 40
0.2787542598
 40
0.4106472023
 40
0.537535838
 40
0.6595942925
 40
0.7770912124
 40
0.8903950655
 40
1.0
 40
1.0
 40
1.0
 40
1.0
 10
11.1023217952
 20
9.2014422717
 30
0.0
 10
10.9979415484
 20
9.2617048719
 30
0.0
 10
10.7961135755
 20
9.3860752185
 30
0.0
 10
10.5107585069
 20
9.5874010403
 30
0.0
 10
10.249376726
 20
9.799451799
 30
0.0
 10
10.0132100879
 20
10.0212179215
 30
0.0
 10
9.8033199026
 20
10.2517524984
 30
0.0
 10
9.6206397407
 20
10.4900641571
 30
0.0
 10
9.4660398726
 20
10.7350694784
 30
0.0
 10
9.3809385615
 20
10.9047514561
 30
0.0
 10
9.3436267855
 20
10.9901014893
 30
0.0
  0
SPLINE
  5
281
100
AcDbEntity
  8
0
100
AcDbSpline
 62
7
  6
BYLAYER
 70
0
 71
3
 72
17
 73
13
 74
0
 42
0.0000001
 43
0.0000001
 44
0.0000000001
 40
0.0
 40
0.0
 40
0.0
 40
0.0
 40
0.0539150631
 40
0.108088636
 40
0.1627721992
 40
0.2182071752
 40
0.3321230059
 40
0.451462212
 40
0.5773524243
 40
0.7105439844
 40
0.8514542702
 40
1.0
 40
1.0
 40
1.0
 40
1.0
 10
22.0399175045
 20
21.7347071082
 30
0.0
 10
22.0399174039
 20
21.7933065986
 30
0.0
 10
22.034898748
 20
21.9108474569
 30
0.0
 10
22.0123963341
 20
22.0865235865
 30
0.0
 10
21.9749751768
 20
22.2613429023
 30
0.0
 10
21.904674553
 20
22.4947119556
 30
0.0
 10
21.778373486
 20
22.783412493
 30
0.0
 10
21.5708823632
 20
23.1154742709
 30
0.0
 10
21.3084764361
 20
23.4335753749
 30
0.0
 10
20.9937644875
 20
23.7348048993
 30
0.0
 10
20.6299133164
 20
24.0164029789
 30
0.0
 10
20.3637837688
 20
24.1850961457
 30
0.0
 10
20.2239612952
 20
24.2658208622
 30
0.0
  0
SPLINE
  5
282
100
AcDbEntity
  8
0
100
AcDbSpline
 62
7
  6
BYLAYER
 70
0
 71
3
 72
19
 73
15
 74
0
 42
0.0000001
 43
0.0000001
 44
0.0000000001
 40
0.0
 40
0.0
 40
0.0
 40
0.0
 40
0.1485350131
 40
0.2894100029
 40
0.4225797146
 40
0.5484561712
 40
0.6089087932
 40
0.6678458858
 40
0.7254250828
 40
0.7818260237
 40
0.837252259
 40
0.891928206
 40
0.9460932803
 40
1.0
 40
1.0
 40
1.0
 40
1.0
 10
10.1830868068
 20
10.3853799476
 30
0.0
 10
10.002655906
 20
10.4895494202
 30
0.0
 10
9.659258704
 20
10.7072031602
 30
0.0
 10
9.1897817923
 20
11.0705816802
 30
0.0
 10
8.783738284
 20
11.4592195269
 30
0.0
 10
8.4977404456
 20
11.8059118943
 30
0.0
 10
8.3062235865
 20
12.0919763255
 30
0.0
 10
8.1826609571
 20
12.307509606
 30
0.0
 10
8.0775412932
 20
12.5263346799
 30
0.0
 10
7.9911497324
 20
12.7479486851
 30
0.0
 10
7.9237293596
 20
12.9718126469
 30
0.0
 10
7.8754183509
 20
13.1973719607
 30
0.0
 10
7.8463825875
 20
13.4240555026
 30
0.0
 10
7.8399284527
 20
13.5757209741
 30
0.0
 10
7.8399285419
 20
13.6513331779
 30
0.0
  0
SPLINE
  5
283
100
AcDbEntity
  8
0
100
AcDbSpline
 62
7
  6
BYLAYER
 70
0
 71
3
 72
19
 73
15
 74
0
 42
0.0000001
 43
0.0000001
 44
0.0000000001
 40
0.0
 40
0.0
 40
0.0
 40
0.0
 40
0.145044037
 40
0.2832235023
 40
0.4147821526
 40
0.4782491003
 40
0.5402674871
 40
0.6603303269
 40
0.718692185
 40
0.7761186529
 40
0.8327782953
 40
0.8888508391
 40
0.9445255945
 40
1.0
 40
1.0
 40
1.0
 40
1.0
 10
9.6273498324
 20
17.9493236428
 30
0.0
 10
9.4875808785
 20
17.8498643942
 30
0.0
 10
9.2222766119
 20
17.6445682557
 30
0.0
 10
8.8624214948
 20
17.3101639738
 30
0.0
 10
8.6013442291
 20
17.0138987614
 30
0.0
 10
8.4199459749
 20
16.7697478791
 30
0.0
 10
8.2603983907
 20
16.5269504869
 30
0.0
 10
8.1257100752
 20
16.2754763055
 30
0.0
 10
8.0189178514
 20
16.017602076
 30
0.0
 10
7.9537853834
 20
15.824148331
 30
0.0
 10
7.9029906087
 20
15.6292459657
 30
0.0
 10
7.8666205111
 20
15.4332396932
 30
0.0
 10
7.8447808371
 20
15.2365053778
 30
0.0
 10
7.8399260766
 20
15.1049972037
 30
0.0
 10
7.8399260619
 20
15.0393872877
 30
0.0
  0
SPLINE
  5
284
100
AcDbEntity
  8
0
100
AcDbSpline
 62
7
  6
BYLAYER
 70
0
 71
3
 72
14
 73
10
 74
0
 42
0.0000001
 43
0.0000001
 44
0.0000000001
 40
0.0
 40
0.0
 40
0.0
 40
0.0
 40
0.1436130482
 40
0.2814592832
 40
0.5397692894
 40
0.6610866996
 40
0.7777473403
 40
0.8904301845
 40
1.0
 40
1.0
 40
1.0
 40
1.0
 10
12.8175124307
 20
20.8185184613
 30
0.0
 10
12.7514370455
 20
20.8609413796
 30
0.0
 10
12.6246276695
 20
20.9484353137
 30
0.0
 10
12.3945591283
 20
21.1334994732
 30
0.0
 10
12.1951315009
 20
21.3366513
 30
0.0
 10
12.0348298276
 20
21.5560691273
 30
0.0
 10
11.9380487107
 20
21.7220200526
 30
0.0
 10
11.862913601
 20
21.8918288603
 30
0.0
 10
11.8271507978
 20
22.0083390083
 30
0.0
 10
11.8132001459
 20
22.0666003253
 30
0.0
  0
SPLINE
  5
285
100
AcDbEntity
  8
0
100
AcDbSpline
 62
7
  6
BYLAYER
 70
0
 71
3
 72
37
 73
33
 74
0
 42
0.0000001
 43
0.0000001
 44
0.0000000001
 40
0.0
 40
0.0
 40
0.0
 40
0.0
 40
0.0213244219
 40
0.0428772717
 40
0.0648746848
 40
0.0875115146
 40
0.110952557
 40
0.1353310378
 40
0.1607450696
 40
0.1872616054
 40
0.2149158079
 40
0.2437168605
 40
0.273648241
 40
0.3046732204
 40
0.3367353285
 40
0.3697628331
 40
0.403669348
 40
0.4383572861
 40
0.473718673
 40
0.5096377554
 40
0.5826369918
 40
0.6563432527
 40
0.693138202
 40
0.7297122715
 40
0.7659352162
 40
0.8016819557
 40
0.8368320424
 40
0.871271211
 40
0.9048930907
 40
0.937609797
 40
0.9693415903
 40
1.0
 40
1.0
 40
1.0
 40
1.0
 10
23.8399064671
 20
13.6513331794
 30
0.0
 10
23.8399063334
 20
13.5378449632
 30
0.0
 10
23.8252754918
 20
13.3093885427
 30
0.0
 10
23.7596150239
 20
12.9695568753
 30
0.0
 10
23.6507622469
 20
12.6336523342
 30
0.0
 10
23.4993586647
 20
12.3036635293
 30
0.0
 10
23.3064425282
 20
11.9813218363
 30
0.0
 10
23.0730983689
 20
11.6683794486
 30
0.0
 10
22.8007229088
 20
11.3664180978
 30
0.0
 10
22.4907829015
 20
11.0770498496
 30
0.0
 10
22.145011605
 20
10.8017319741
 30
0.0
 10
21.7652494298
 20
10.5419433517
 30
0.0
 10
21.3535650215
 20
10.2990103443
 30
0.0
 10
20.9121545953
 20
10.0742487114
 30
0.0
 10
20.4434023133
 20
9.868824808
 30
0.0
 10
19.9498213217
 20
9.6838551463
 30
0.0
 10
19.4340713512
 20
9.5203140706
 30
0.0
 10
18.8989308338
 20
9.3790891298
 30
0.0
 10
18.3472732294
 20
9.2609316467
 30
0.0
 10
17.5897024373
 20
9.1343415764
 30
0.0
 10
16.6212516513
 20
9.0380422745
 30
0.0
 10
15.6435210019
 20
9.0242704606
 30
0.0
 10
14.8615522337
 20
9.0630775757
 30
0.0
 10
14.2806077594
 20
9.1169351169
 30
0.0
 10
13.7080927989
 20
9.1952934007
 30
0.0
 10
13.1470768686
 20
9.297691676
 30
0.0
 10
12.6006005737
 20
9.4236300102
 30
0.0
 10
12.0716073838
 20
9.5723649274
 30
0.0
 10
11.5629447474
 20
9.7431532292
 30
0.0
 10
11.0773003016
 20
9.9350618087
 30
0.0
 10
10.6174045446
 20
10.1470859698
 30
0.0
 10
10.3243913793
 20
10.3037995603
 30
0.0
 10
10.1830868068
 20
10.3853799476
 30
0.0
  0
SPLINE
  5
286
100
AcDbEntity
  8
0
100
AcDbSpline
 62
7
  6
BYLAYER
 70
0
 71
3
 72
18
 73
14
 74
0
 42
0.0000001
 43
0.0000001
 44
0.0000000001
 40
0.0
 40
0.0
 40
0.0
 40
0.0
 40
0.1411202305
 40
0.2765193769
 40
0.4063907125
 40
0.5313450055
 40
0.652156896
 40
0.7113465852
 40
0.7698845747
 40
0.8278772706
 40
0.8854426128
 40
0.9427478123
 40
1.0
 40
1.0
 40
1.0
 40
1.0
 10
11.4222867745
 20
4.4794375018
 30
0.0
 10
11.2775902005
 20
4.5641386594
 30
0.0
 10
11.0008691046
 20
4.7421873932
 30
0.0
 10
10.6208070992
 20
5.0412323242
 30
0.0
 10
10.2881078556
 20
5.3655321563
 30
0.0
 10
10.0066976762
 20
5.7133493764
 30
0.0
 10
9.8170155413
 20
6.0235450485
 30
0.0
 10
9.6962693746
 20
6.2801931488
 30
0.0
 10
9.6217932437
 20
6.4754552584
 30
0.0
 10
9.5632263225
 20
6.6740544646
 30
0.0
 10
9.521045603
 20
6.8752889966
 30
0.0
 10
9.495600481
 20
7.0784205454
 30
0.0
 10
9.4899175045
 20
7.2145931816
 30
0.0
 10
9.4899175045
 20
7.282614325
 30
0.0
  0
SPLINE
  5
287
100
AcDbEntity
  8
0
100
AcDbSpline
 62
7
  6
BYLAYER
 70
0
 71
3
 72
33
 73
29
 74
0
 42
0.0000001
 43
0.0000001
 44
0.0000000001
 40
0.0
 40
0.0
 40
0.0
 40
0.0
 40
0.0238987277
 40
0.0478791445
 40
0.0721188413
 40
0.0967419443
 40
0.121848102
 40
0.1475586928
 40
0.1739740154
 40
0.2011789288
 40
0.2292342601
 40
0.2581783657
 40
0.2880290003
 40
0.3187799048
 40
0.3504050574
 40
0.3828601746
 40
0.4499785745
 40
0.5195078966
 40
0.5906322932
 40
0.6624350257
 40
0.733957338
 40
0.8042590269
 40
0.8386865551
 40
0.872491043
 40
0.9055883584
 40
0.937916609
 40
0.9694132445
 40
1.0
 40
1.0
 40
1.0
 40
1.0
 10
22.1899175045
 20
7.282614325
 30
0.0
 10
22.1899175045
 20
7.1812752429
 30
0.0
 10
22.1772588878
 20
6.97802987
 30
0.0
 10
22.1207886587
 20
6.676747028
 30
0.0
 10
22.0277579608
 20
6.3814590199
 30
0.0
 10
21.8998960707
 20
6.094347261
 30
0.0
 10
21.7386901547
 20
5.8173693273
 30
0.0
 10
21.5460784048
 20
5.5518782536
 30
0.0
 10
21.3237860993
 20
5.2988036255
 30
0.0
 10
21.073459546
 20
5.0588967341
 30
0.0
 10
20.7966607415
 20
4.8328048451
 30
0.0
 10
20.4949334511
 20
4.6211198026
 30
0.0
 10
20.1698239149
 20
4.4244360063
 30
0.0
 10
19.8229434776
 20
4.243329455
 30
0.0
 10
19.4559593031
 20
4.0784010713
 30
0.0
 10
18.9364752363
 20
3.8786539981
 30
0.0
 10
18.2476978725
 20
3.6745846112
 30
0.0
 10
17.3818808086
 20
3.5052850304
 30
0.0
 10
16.4847024335
 20
3.4116841694
 30
0.0
 10
15.5743876446
 20
3.3954624823
 30
0.0
 10
14.6695283042
 20
3.4568969483
 30
0.0
 10
13.9300621008
 20
3.5727110802
 30
0.0
 10
13.3572751843
 20
3.7038951296
 30
0.0
 10
12.9433569836
 20
3.8198408842
 30
0.0
 10
12.5442115262
 20
3.9535737707
 30
0.0
 10
12.1617537874
 20
4.1045825489
 30
0.0
 10
11.7979925703
 20
4.2722563029
 30
0.0
 10
11.5656872959
 20
4.3965226283
 30
0.0
 10
11.4533642985
 20
4.461370874
 30
0.0
  0
SPLINE
  5
288
100
AcDbEntity
  8
0
100
AcDbSpline
 62
7
  6
BYLAYER
 70
0
 71
3
 72
36
 73
32
 74
0
 42
0.0000001
 43
0.0000001
 44
0.0000000001
 40
0.0
 40
0.0
 40
0.0
 40
0.0
 40
0.0213251434
 40
0.0428785152
 40
0.0648767592
 40
0.0875140795
 40
0.1109561239
 40
0.1353348651
 40
0.1607495695
 40
0.1872659356
 40
0.2149205647
 40
0.2437214332
 40
0.2736534048
 40
0.3046784842
 40
0.3367413835
 40
0.3697691865
 40
0.4036765233
 40
0.4383648279
 40
0.4737269575
 40
0.5096464373
 40
0.5826468398
 40
0.6563543669
 40
0.7297076054
 40
0.7659311253
 40
0.8016786412
 40
0.836829408
 40
0.8712686958
 40
0.9048909732
 40
0.9376093806
 40
0.9693424236
 40
1.0
 40
1.0
 40
1.0
 40
1.0
 10
22.189910509
 20
9.8954220711
 30
0.0
 10
22.1899062219
 20
9.8053392906
 30
0.0
 10
22.1782839714
 20
9.6240014577
 30
0.0
 10
22.126184295
 20
9.3542516744
 30
0.0
 10
22.0397587431
 20
9.087632049
 30
0.0
 10
21.9195999302
 20
8.8256900194
 30
0.0
 10
21.7664496549
 20
8.5698420971
 30
0.0
 10
21.581248326
 20
8.3214292664
 30
0.0
 10
21.3650340418
 20
8.0817647096
 30
0.0
 10
21.1190336483
 20
7.8520663349
 30
0.0
 10
20.8445695549
 20
7.6335516344
 30
0.0
 10
20.543145126
 20
7.4273324411
 30
0.0
 10
20.2163658276
 20
7.2345206372
 30
0.0
 10
19.8660035057
 20
7.0561033182
 30
0.0
 10
19.4939273564
 20
6.8930616842
 30
0.0
 10
19.1021511763
 20
6.7462297831
 30
0.0
 10
18.6927718413
 20
6.6164308178
 30
0.0
 10
18.268006462
 20
6.5043230834
 30
0.0
 10
17.8301265629
 20
6.4105449963
 30
0.0
 10
17.228811291
 20
6.3100559784
 30
0.0
 10
16.4600707363
 20
6.2336198397
 30
0.0
 10
15.5295260215
 20
6.2205237359
 30
0.0
 10
14.7561670546
 20
6.2751786332
 30
0.0
 10
14.1477870509
 20
6.3584399369
 30
0.0
 10
13.702473576
 20
6.4397192621
 30
0.0
 10
13.2687113284
 20
6.5396854709
 30
0.0
 10
12.8488234067
 20
6.657738005
 30
0.0
 10
12.4450712351
 20
6.7933040755
 30
0.0
 10
12.0595844138
 20
6.9456343514
 30
0.0
 10
11.6945418592
 20
7.1139326907
 30
0.0
 10
11.4619636784
 20
7.2383201163
 30
0.0
 10
11.3498081382
 20
7.3030716827
 30
0.0
  0
SPLINE
  5
289
100
AcDbEntity
  8
0
100
AcDbSpline
 62
7
  6
BYLAYER
 70
0
 71
3
 72
10
 73
6
 74
0
 42
0.0000001
 43
0.0000001
 44
0.0000000001
 40
0.0
 40
0.0
 40
0.0
 40
0.0
 40
0.4753337807
 40
0.7316096417
 40
1.0
 40
1.0
 40
1.0
 40
1.0
 10
9.0489856668
 20
13.6098168121
 30
0.0
 10
9.2422533416
 20
13.3717583857
 30
0.0
 10
9.5827372202
 20
13.0389972021
 30
0.0
 10
10.0995828401
 20
12.6525179099
 30
0.0
 10
10.3866974635
 20
12.4723740118
 30
0.0
 10
10.5366387254
 20
12.3858073423
 30
0.0
  0
SPLINE
  5
28A
100
AcDbEntity
  8
0
100
AcDbSpline
 62
7
  6
BYLAYER
 70
0
 71
3
 72
25
 73
21
 74
0
 42
0.0000001
 43
0.0000001
 44
0.0000000001
 40
0.0
 40
0.0
 40
0.0
 40
0.0
 40
0.0287096249
 40
0.0582525013
 40
0.1196010155
 40
0.1836429793
 40
0.2498967813
 40
0.3177898188
 40
0.3867059031
 40
0.4559963172
 40
0.5250019494
 40
0.5930723526
 40
0.6595842713
 40
0.7239617603
 40
0.7856981956
 40
0.8443802797
 40
0.899715426
 40
0.9260887093
 40
0.9515884258
 40
1.0
 40
1.0
 40
1.0
 40
1.0
 10
10.5366387254
 20
12.3858073423
 30
0.0
 10
10.6438387337
 20
12.3239167887
 30
0.0
 10
10.864691672
 20
12.2040421343
 30
0.0
 10
11.32948006
 20
11.980328531
 30
0.0
 10
11.9510966175
 20
11.733115812
 30
0.0
 10
12.7425605763
 20
11.4928235689
 30
0.0
 10
13.5777732451
 20
11.3084651619
 30
0.0
 10
14.4449623684
 20
11.1826832138
 30
0.0
 10
15.3318778598
 20
11.1172341981
 30
0.0
 10
16.2259798023
 20
11.1130424272
 30
0.0
 10
17.1146202841
 20
11.1701637203
 30
0.0
 10
17.9852339632
 20
11.2877895722
 30
0.0
 10
18.8255257496
 20
11.4642664567
 30
0.0
 10
19.6236412387
 20
11.6971206422
 30
0.0
 10
20.3683818806
 20
11.9831095962
 30
0.0
 10
21.0492447275
 20
12.318256044
 30
0.0
 10
21.5636217271
 20
12.6397877767
 30
0.0
 10
21.9328595367
 20
12.9183300225
 30
0.0
 10
22.2615038896
 20
13.1995392576
 30
0.0
 10
22.4833542923
 20
13.4302378067
 30
0.0
 10
22.61588581
 20
13.5914932491
 30
0.0
  0
SPLINE
  5
28B
100
AcDbEntity
  8
0
100
AcDbSpline
 62
7
  6
BYLAYER
 70
0
 71
3
 72
17
 73
13
 74
0
 42
0.0000001
 43
0.0000001
 44
0.0000000001
 40
0.0
 40
0.0
 40
0.0
 40
0.0
 40
0.1485453083
 40
0.2894550394
 40
0.4226467165
 40
0.5485371237
 40
0.6678757253
 40
0.7817902358
 40
0.8372250887
 40
0.8919092617
 40
0.9460838642
 40
1.0
 40
1.0
 40
1.0
 40
1.0
 10
11.4558737138
 20
12.9165247423
 30
0.0
 10
11.3160516923
 20
12.9972491978
 30
0.0
 10
11.049922962
 20
13.1659414587
 30
0.0
 10
10.6860729303
 20
13.447539166
 30
0.0
 10
10.3713609423
 20
13.7487680244
 30
0.0
 10
10.1089557781
 20
14.06686918
 30
0.0
 10
9.9014654189
 20
14.3989288567
 30
0.0
 10
9.7751634074
 20
14.6876265022
 30
0.0
 10
9.7048641323
 20
14.9209949516
 30
0.0
 10
9.6674430315
 20
15.0958158653
 30
0.0
 10
9.6449398037
 20
15.2714947787
 30
0.0
 10
9.6399206181
 20
15.3890378634
 30
0.0
 10
9.6399203973
 20
15.4476384965
 30
0.0
  0
SPLINE
  5
28C
100
AcDbEntity
  8
0
100
AcDbSpline
 62
7
  6
BYLAYER
 70
0
 71
3
 72
17
 73
13
 74
0
 42
0.0000001
 43
0.0000001
 44
0.0000000001
 40
0.0
 40
0.0
 40
0.0
 40
0.0
 40
0.1483334703
 40
0.2890648537
 40
0.4221469029
 40
0.5480056291
 40
0.6673873996
 40
0.7814194885
 40
0.8369340986
 40
0.8917092901
 40
0.9459819979
 40
1.0
 40
1.0
 40
1.0
 40
1.0
 10
11.3188916996
 20
4.7082369122
 30
0.0
 10
11.1779137233
 20
4.7907613111
 30
0.0
 10
10.9096412891
 20
4.9630450456
 30
0.0
 10
10.543056922
 20
5.2501424257
 30
0.0
 10
10.2261009662
 20
5.5568377935
 30
0.0
 10
9.9618995409
 20
5.8803759411
 30
0.0
 10
9.7530736113
 20
6.217859591
 30
0.0
 10
9.6259830614
 20
6.511033482
 30
0.0
 10
9.5552699695
 20
6.7479742284
 30
0.0
 10
9.5176082525
 20
6.9254625197
 30
0.0
 10
9.4949560725
 20
7.1038066513
 30
0.0
 10
9.489918424
 20
7.2231257587
 30
0.0
 10
9.4899211517
 20
7.2826143249
 30
0.0
  0
SPLINE
  5
28D
100
AcDbEntity
  8
0
100
AcDbSpline
 62
7
  6
BYLAYER
 70
0
 71
3
 72
32
 73
28
 74
0
 42
0.0000001
 43
0.0000001
 44
0.0000000001
 40
0.0
 40
0.0
 40
0.0
 40
0.0
 40
0.0306583957
 40
0.0623945368
 40
0.0951168017
 40
0.1287416605
 40
0.1631827698
 40
0.1983362398
 40
0.2702956964
 40
0.3436548983
 40
0.4173685963
 40
0.4903751482
 40
0.5616443025
 40
0.6302248422
 40
0.6952966077
 40
0.7263247404
 40
0.7562589838
 40
0.7850628308
 40
0.8127198182
 40
0.8392387912
 40
0.8646555668
 40
0.8890362169
 40
0.9124799086
 40
0.9351187407
 40
0.957118582
 40
0.9786734137
 40
1.0
 40
1.0
 40
1.0
 40
1.0
 10
11.4558737138
 20
19.2035933542
 30
0.0
 10
11.5653739446
 20
19.1403747966
 30
0.0
 10
11.7924554159
 20
19.018930572
 30
0.0
 10
12.1488737822
 20
18.8546053647
 30
0.0
 10
12.5252598178
 20
18.7058676797
 30
0.0
 10
12.9194737878
 20
18.573505356
 30
0.0
 10
13.3294427365
 20
18.4582387508
 30
0.0
 10
13.8984986742
 20
18.3271089799
 30
0.0
 10
14.6346817713
 20
18.2103900651
 30
0.0
 10
15.5368103834
 20
18.1466196387
 30
0.0
 10
16.4454514034
 20
18.1594064968
 30
0.0
 10
17.341157179
 20
18.2484811234
 30
0.0
 10
18.2048840378
 20
18.4119558216
 30
0.0
 10
19.0181836295
 20
18.6463454235
 30
0.0
 10
19.6495435246
 20
18.9006873099
 30
0.0
 10
20.1129909609
 20
19.1366497682
 30
0.0
 10
20.4320503297
 20
19.3249290138
 30
0.0
 10
20.7263626752
 20
19.5262661528
 30
0.0
 10
20.9943410048
 20
19.7396310821
 30
0.0
 10
21.2345347334
 20
19.9639017017
 30
0.0
 10
21.4456410724
 20
20.1979081489
 30
0.0
 10
21.6264620207
 20
20.4404547477
 30
0.0
 10
21.7760002385
 20
20.6902532756
 30
0.0
 10
21.8933037369
 20
20.9460111143
 30
0.0
 10
21.9777053965
 20
21.2063241839
 30
0.0
 10
22.0285472671
 20
21.4697032847
 30
0.0
 10
22.0399176556
 20
21.6467534583
 30
0.0
 10
22.0399175045
 20
21.7347071082
 30
0.0
  0
SPLINE
  5
28E
100
AcDbEntity
  8
0
100
AcDbSpline
 62
7
  6
BYLAYER
 70
0
 71
3
 72
23
 73
19
 74
0
 42
0.0000001
 43
0.0000001
 44
0.0000000001
 40
0.0
 40
0.0
 40
0.0
 40
0.0
 40
0.0573588055
 40
0.1176417105
 40
0.1804731032
 40
0.2454483813
 40
0.3120743856
 40
0.3798182452
 40
0.4481190134
 40
0.5163980476
 40
0.584078391
 40
0.650599334
 40
0.7154302742
 40
0.7780872465
 40
0.8381517821
 40
0.8952891288
 40
0.9492702506
 40
1.0
 40
1.0
 40
1.0
 40
1.0
 10
12.162977551
 20
20.4283399252
 30
0.0
 10
12.3049796723
 20
20.346356817
 30
0.0
 10
12.6047727422
 20
20.1927162711
 30
0.0
 10
13.0831887009
 20
19.9981537967
 30
0.0
 10
13.5963484618
 20
19.8358244133
 30
0.0
 10
14.1376911542
 20
19.7077373245
 30
0.0
 10
14.7004862478
 20
19.6155006659
 30
0.0
 10
15.2776359029
 20
19.5602655472
 30
0.0
 10
15.8618752464
 20
19.5427189823
 30
0.0
 10
16.4458411509
 20
19.5631057989
 30
0.0
 10
17.0221694309
 20
19.6211536416
 30
0.0
 10
17.5836031018
 20
19.7161257626
 30
0.0
 10
18.1230773575
 20
19.8468418182
 30
0.0
 10
18.6338186834
 20
20.0116742073
 30
0.0
 10
19.1094304506
 20
20.2085578762
 30
0.0
 10
19.5439974763
 20
20.4350995511
 30
0.0
 10
19.9320163646
 20
20.6885059588
 30
0.0
 10
20.1637003001
 20
20.8793562398
 30
0.0
 10
20.2694242639
 20
20.9786180207
 30
0.0
  0
SPLINE
  5
28F
100
AcDbEntity
  8
0
100
AcDbSpline
 62
7
  6
BYLAYER
 70
0
 71
3
 72
22
 73
18
 74
0
 42
0.0000001
 43
0.0000001
 44
0.0000000001
 40
0.0
 40
0.0
 40
0.0
 40
0.0
 40
0.0773017736
 40
0.1518235677
 40
0.2921648627
 40
0.358224508
 40
0.4217242601
 40
0.4829057911
 40
0.5420823283
 40
0.5996522329
 40
0.6560770405
 40
0.7118712422
 40
0.7675767791
 40
0.8237416448
 40
0.8808901477
 40
0.9395042834
 40
1.0
 40
1.0
 40
1.0
 40
1.0
 10
12.8241196388
 20
20.8100482091
 30
0.0
 10
12.754680652
 20
20.8501379198
 30
0.0
 10
12.6206022825
 20
20.9330040472
 30
0.0
 10
12.3736501556
 20
21.1088495923
 30
0.0
 10
12.1540071192
 20
21.3024214647
 30
0.0
 10
11.9688360069
 20
21.512792076
 30
0.0
 10
11.851838704
 20
21.6727033137
 30
0.0
 10
11.7545226567
 20
21.8370841517
 30
0.0
 10
11.6774839824
 20
22.0051864995
 30
0.0
 10
11.6211031322
 20
22.1761402752
 30
0.0
 10
11.5857618292
 20
22.3490960161
 30
0.0
 10
11.5716618398
 20
22.5231345283
 30
0.0
 10
11.5788810487
 20
22.6973284431
 30
0.0
 10
11.6074231209
 20
22.8707300592
 30
0.0
 10
11.6570362661
 20
23.0424403883
 30
0.0
 10
11.7274800399
 20
23.2115325896
 30
0.0
 10
11.7869930168
 20
23.3200925488
 30
0.0
 10
11.8198116371
 20
23.3735747944
 30
0.0
  0
SPLINE
  5
290
100
AcDbEntity
  8
0
100
AcDbSpline
 62
7
  6
BYLAYER
 70
0
 71
3
 72
21
 73
17
 74
0
 42
0.0000001
 43
0.0000001
 44
0.0000000001
 40
0.0
 40
0.0
 40
0.0
 40
0.0
 40
0.0603645232
 40
0.1188760387
 40
0.1759558336
 40
0.2320829775
 40
0.2877811574
 40
0.34359248
 40
0.4000552927
 40
0.4576759528
 40
0.5169119737
 40
0.5781500973
 40
0.6417087843
 40
0.7078247971
 40
0.8482234554
 40
1.0
 40
1.0
 40
1.0
 40
1.0
 10
19.8666841808
 20
23.3626363528
 30
0.0
 10
19.8989437349
 20
23.3092820596
 30
0.0
 10
19.9573727358
 20
23.2010002678
 30
0.0
 10
20.0262396583
 20
23.0324339847
 30
0.0
 10
20.0744984795
 20
22.8613466601
 30
0.0
 10
20.1017747216
 20
22.6886129398
 30
0.0
 10
20.1079739107
 20
22.5151492892
 30
0.0
 10
20.0929957458
 20
22.3418756387
 30
0.0
 10
20.0569614983
 20
22.1697179222
 30
0.0
 10
20.0001085477
 20
21.9995626136
 30
0.0
 10
19.9227318183
 20
21.8322899618
 30
0.0
 10
19.8253300844
 20
21.6686902817
 30
0.0
 10
19.7083613441
 20
21.5095809426
 30
0.0
 10
19.5235163992
 20
21.3002402495
 30
0.0
 10
19.2444816929
 20
21.0547743811
 30
0.0
 10
18.9915457748
 20
20.8884820503
 30
0.0
 10
18.8557837981
 20
20.8100978768
 30
0.0
  0
SPLINE
  5
291
100
AcDbEntity
  8
0
100
AcDbSpline
 62
7
  6
BYLAYER
 70
0
 71
3
 72
9
 73
5
 74
0
 42
0.0000001
 43
0.0000001
 44
0.0000000001
 40
0.0
 40
0.0
 40
0.0
 40
0.0
 40
0.4840158539
 40
1.0
 40
1.0
 40
1.0
 40
1.0
 10
11.4103655659
 20
20.9786473837
 30
0.0
 10
11.5202079087
 20
20.8755151036
 30
0.0
 10
11.7616807215
 20
20.677632343
 30
0.0
 10
12.023874017
 20
20.5086495711
 30
0.0
 10
12.162977551
 20
20.4283399252
 30
0.0
  0
SPLINE
  5
292
100
AcDbEntity
  8
0
100
AcDbSpline
 62
7
  6
BYLAYER
 70
0
 71
3
 72
19
 73
15
 74
0
 42
0.0000001
 43
0.0000001
 44
0.0000000001
 40
0.0
 40
0.0
 40
0.0
 40
0.0
 40
0.0539066778
 40
0.1080716843
 40
0.1627475707
 40
0.2181738288
 40
0.2745749527
 40
0.332154436
 40
0.3910917688
 40
0.451544465
 40
0.5774207638
 40
0.7105901939
 40
0.8514650091
 40
1.0
 40
1.0
 40
1.0
 40
1.0
 10
7.8399260619
 20
15.0393872877
 30
0.0
 10
7.839926045
 20
14.9637751219
 30
0.0
 10
7.846380313
 20
14.8121097694
 30
0.0
 10
7.8754161901
 20
14.5854264231
 30
0.0
 10
7.9237272232
 20
14.3598672015
 30
0.0
 10
7.9911478548
 20
14.1360030304
 30
0.0
 10
8.0775401057
 20
13.9143884795
 30
0.0
 10
8.1826605405
 20
13.6955626036
 30
0.0
 10
8.3062236837
 20
13.4800285747
 30
0.0
 10
8.4977407176
 20
13.193963869
 30
0.0
 10
8.7837390913
 20
12.8472724372
 30
0.0
 10
9.1897821619
 20
12.4586352112
 30
0.0
 10
9.6592588182
 20
12.0952571775
 30
0.0
 10
10.0026558834
 20
11.8776035423
 30
0.0
 10
10.1830868068
 20
11.7734340568
 30
0.0
  0
SPLINE
  5
293
100
AcDbEntity
  8
0
100
AcDbSpline
 62
7
  6
BYLAYER
 70
0
 71
3
 72
37
 73
33
 74
0
 42
0.0000001
 43
0.0000001
 44
0.0000000001
 40
0.0
 40
0.0
 40
0.0
 40
0.0
 40
0.0306569352
 40
0.0623891376
 40
0.0951066942
 40
0.1287282653
 40
0.1631669139
 40
0.1983169478
 40
0.2340636337
 40
0.2702864692
 40
0.3068607344
 40
0.3436563372
 40
0.4173638761
 40
0.4903641077
 40
0.526283492
 40
0.5616453783
 40
0.5963331006
 40
0.6302394981
 40
0.6632662653
 40
0.6953281311
 40
0.7263524352
 40
0.7562838826
 40
0.7850844869
 40
0.8127389476
 40
0.8392551315
 40
0.8646694355
 40
0.889047602
 40
0.9124888434
 40
0.9351254075
 40
0.9571229202
 40
0.9786755844
 40
1.0
 40
1.0
 40
1.0
 40
1.0
 10
11.3498081382
 20
8.2420494624
 30
0.0
 10
11.4619632301
 20
8.1772981548
 30
0.0
 10
11.6945396455
 20
8.0529112564
 30
0.0
 10
12.059579438
 20
7.8846141952
 30
0.0
 10
12.4450632216
 20
7.7322848301
 30
0.0
 10
12.84881335
 20
7.5967188412
 30
0.0
 10
13.2686993818
 20
7.4786663799
 30
0.0
 10
13.7024612374
 20
7.378699036
 30
0.0
 10
14.1477669725
 20
7.2974222474
 30
0.0
 10
14.6022001878
 20
7.235220739
 30
0.0
 10
15.0633283665
 20
7.1924760346
 30
0.0
 10
15.6840245956
 20
7.1616660728
 30
0.0
 10
16.4601105363
 20
7.1726016057
 30
0.0
 10
17.2288297013
 20
7.2490364864
 30
0.0
 10
17.8301571275
 20
7.349528436
 30
0.0
 10
18.2680392245
 20
7.4433097593
 30
0.0
 10
18.6928048692
 20
7.5554173154
 30
0.0
 10
19.1021797118
 20
7.685218522
 30
0.0
 10
19.493950731
 20
7.8320481522
 30
0.0
 10
19.866021126
 20
7.995090092
 30
0.0
 10
20.2163805452
 20
8.1735060277
 30
0.0
 10
20.5431587275
 20
8.3663193351
 30
0.0
 10
20.8445847683
 20
8.5725400143
 30
0.0
 10
21.1190496867
 20
8.7910589678
 30
0.0
 10
21.3650520558
 20
9.020759033
 30
0.0
 10
21.5812631324
 20
9.2604271687
 30
0.0
 10
21.7664638545
 20
9.5088376491
 30
0.0
 10
21.9196078808
 20
9.7646846809
 30
0.0
 10
22.0397647365
 20
10.026622251
 30
0.0
 10
22.1261860575
 20
10.2932384853
 30
0.0
 10
22.1782850564
 20
10.5629837097
 30
0.0
 10
22.1899064955
 20
10.7443186143
 30
0.0
 10
22.1899106342
 20
10.8343998444
 30
0.0
  0
SPLINE
  5
294
100
AcDbEntity
  8
0
100
AcDbSpline
 62
7
  6
BYLAYER
 70
0
 71
3
 72
32
 73
28
 74
0
 42
0.0000001
 43
0.0000001
 44
0.0000000001
 40
0.0
 40
0.0
 40
0.0
 40
0.0
 40
0.0213269292
 40
0.0428820325
 40
0.0648821279
 40
0.0875212232
 40
0.1109651228
 40
0.1353459977
 40
0.1607629063
 40
0.1872820414
 40
0.214939081
 40
0.2437429998
 40
0.2736772143
 40
0.3047053121
 40
0.3697768307
 40
0.438356964
 40
0.5096256731
 40
0.5826318312
 40
0.656345606
 40
0.7297046032
 40
0.8016627012
 40
0.8368160185
 40
0.8712571507
 40
0.9048822123
 40
0.9376048895
 40
0.969341436
 40
1.0
 40
1.0
 40
1.0
 40
1.0
 10
22.0399146117
 20
15.4476384961
 30
0.0
 10
22.039914943
 20
15.3596834727
 30
0.0
 10
22.0285435424
 20
15.1826308361
 30
0.0
 10
21.9776997513
 20
14.9192486179
 30
0.0
 10
21.8932960278
 20
14.6589328603
 30
0.0
 10
21.7759889792
 20
14.4031735473
 30
0.0
 10
21.6264492042
 20
14.1533727126
 30
0.0
 10
21.445623785
 20
13.9108267188
 30
0.0
 10
21.2345163977
 20
13.6768185367
 30
0.0
 10
20.9943188405
 20
13.4525501103
 30
0.0
 10
20.7263400663
 20
13.2391841522
 30
0.0
 10
20.4320253911
 20
13.0378499553
 30
0.0
 10
20.1129662635
 20
12.8495706576
 30
0.0
 10
19.6495185778
 20
12.6136119361
 30
0.0
 10
19.0181613536
 20
12.3592722228
 30
0.0
 10
18.2048659683
 20
12.1248856134
 30
0.0
 10
17.3411444002
 20
11.9614131235
 30
0.0
 10
16.4454421431
 20
11.8723387919
 30
0.0
 10
15.5368037215
 20
11.8595534111
 30
0.0
 10
14.6346814885
 20
11.9233216598
 30
0.0
 10
13.898505987
 20
12.040040802
 30
0.0
 10
13.329455901
 20
12.1711673532
 30
0.0
 10
12.9194866556
 20
12.2864333052
 30
0.0
 10
12.5252699925
 20
12.4187952922
 30
0.0
 10
12.1488801869
 20
12.567534431
 30
0.0
 10
11.7924581965
 20
12.7318610261
 30
0.0
 10
11.5653744955
 20
12.8533058667
 30
0.0
 10
11.4558737138
 20
12.9165247423
 30
0.0
  0
SPLINE
  5
295
100
AcDbEntity
  8
0
100
AcDbSpline
 62
7
  6
BYLAYER
 70
0
 71
3
 72
36
 73
32
 74
0
 42
0.0000001
 43
0.0000001
 44
0.0000000001
 40
0.0
 40
0.0
 40
0.0
 40
0.0
 40
0.0213248496
 40
0.0428779498
 40
0.0648759536
 40
0.0875129751
 40
0.1109547485
 40
0.135333363
 40
0.1607481826
 40
0.1872648031
 40
0.2149198092
 40
0.2437209716
 40
0.2736531795
 40
0.3046783476
 40
0.3367412935
 40
0.369769088
 40
0.4036764553
 40
0.4383648208
 40
0.4737270791
 40
0.5096467107
 40
0.582647433
 40
0.656355181
 40
0.7297085707
 40
0.7659322265
 40
0.8016797804
 40
0.8368303803
 40
0.8712694595
 40
0.9048914876
 40
0.9376095721
 40
0.9693424114
 40
1.0
 40
1.0
 40
1.0
 40
1.0
 10
22.1899138572
 20
7.2826143251
 30
0.0
 10
22.1899097266
 20
7.1925327497
 30
0.0
 10
22.1782856147
 20
7.0111974593
 30
0.0
 10
22.126190682
 20
6.7414501621
 30
0.0
 10
22.0397648289
 20
6.4748340647
 30
0.0
 10
21.9196109088
 20
6.2128935428
 30
0.0
 10
21.7664624948
 20
5.9570477133
 30
0.0
 10
21.5812638142
 20
5.7086342848
 30
0.0
 10
21.3650492934
 20
5.4689683723
 30
0.0
 10
21.1190482591
 20
5.2392658334
 30
0.0
 10
20.844580587
 20
5.0207491092
 30
0.0
 10
20.5431542294
 20
4.8145256874
 30
0.0
 10
20.2163718143
 20
4.6217136789
 30
0.0
 10
19.8660087606
 20
4.4432940281
 30
0.0
 10
19.4939314283
 20
4.2802533097
 30
0.0
 10
19.1021552626
 20
4.1334201104
 30
0.0
 10
18.6927751029
 20
4.0036219859
 30
0.0
 10
18.2680088933
 20
3.8915131
 30
0.0
 10
17.8301271949
 20
3.7977356291
 30
0.0
 10
17.2288093105
 20
3.6972454868
 30
0.0
 10
16.4600653851
 20
3.6208100147
 30
0.0
 10
15.5295173972
 20
3.6077146927
 30
0.0
 10
14.7561559958
 20
3.6623705811
 30
0.0
 10
14.1477746136
 20
3.7456336703
 30
0.0
 10
13.7024609495
 20
3.8269130939
 30
0.0
 10
13.2687000893
 20
3.9268798257
 30
0.0
 10
12.8488148508
 20
4.0449327593
 30
0.0
 10
12.4450657638
 20
4.1804981596
 30
0.0
 10
12.0595819399
 20
4.3328275308
 30
0.0
 10
11.6945411863
 20
4.5011249751
 30
0.0
 10
11.4619637675
 20
4.62551233
 30
0.0
 10
11.3498081382
 20
4.6902639479
 30
0.0
  0
SPLINE
  5
296
100
AcDbEntity
  8
0
100
AcDbSpline
 62
7
  6
BYLAYER
 70
0
 71
3
 72
30
 73
26
 74
0
 42
0.0000001
 43
0.0000001
 44
0.0000000001
 40
0.0
 40
0.0
 40
0.0
 40
0.0
 40
0.030286688
 40
0.0616015188
 40
0.093861487
 40
0.1269915075
 40
0.1609133911
 40
0.1955324351
 40
0.2664221999
 40
0.3387860133
 40
0.4116682014
 40
0.4840911653
 40
0.5550971914
 40
0.6237869509
 40
0.6893641854
 40
0.7511844623
 40
0.8088097007
 40
0.8360035822
 40
0.8621144658
 40
0.8871785457
 40
0.9112576954
 40
0.9344438513
 40
0.9568581423
 40
0.9786513241
 40
1.0
 40
1.0
 40
1.0
 40
1.0
 10
11.3498081382
 20
6.3232687822
 30
0.0
 10
11.457900569
 20
6.2608629999
 30
0.0
 10
11.6817765573
 20
6.1407926167
 30
0.0
 10
12.0327113401
 20
5.9776647576
 30
0.0
 10
12.4028039653
 20
5.8293277454
 30
0.0
 10
12.7900999101
 20
5.6965111804
 30
0.0
 10
13.1927049137
 20
5.5798900686
 30
0.0
 10
13.7515862868
 20
5.4456679895
 30
0.0
 10
14.4752392484
 20
5.3226390906
 30
0.0
 10
15.3637662528
 20
5.2475544769
 30
0.0
 10
16.2617984332
 20
5.2453409552
 30
0.0
 10
17.151438714
 20
5.3160482237
 30
0.0
 10
18.0150399643
 20
5.4582739036
 30
0.0
 10
18.8354830693
 20
5.6692032841
 30
0.0
 10
19.5966189487
 20
5.9447377338
 30
0.0
 10
20.2834000833
 20
6.2795040962
 30
0.0
 10
20.7923326815
 20
6.6089421903
 30
0.0
 10
21.1474773523
 20
6.8973896678
 30
0.0
 10
21.3820821072
 20
7.1198581295
 30
0.0
 10
21.5888828424
 20
7.3514873942
 30
0.0
 10
21.7667929393
 20
7.5911930244
 30
0.0
 10
21.9148819821
 20
7.8377873905
 30
0.0
 10
22.0323257211
 20
8.090080888
 30
0.0
 10
22.1184305506
 20
8.3467485789
 30
0.0
 10
22.1548874676
 20
8.5212775917
 30
0.0
 10
22.1675673806
 20
8.608338533
 30
0.0
  0
SPLINE
  5
297
100
AcDbEntity
  8
0
100
AcDbSpline
 62
7
  6
BYLAYER
 70
0
 71
3
 72
17
 73
13
 74
0
 42
0.0000001
 43
0.0000001
 44
0.0000000001
 40
0.0
 40
0.0
 40
0.0
 40
0.0
 40
0.0539150631
 40
0.108088636
 40
0.1627721992
 40
0.2182071752
 40
0.3321230059
 40
0.451462212
 40
0.5773524243
 40
0.7105439844
 40
0.8514542702
 40
1.0
 40
1.0
 40
1.0
 40
1.0
 10
9.6399175045
 20
21.7347071082
 30
0.0
 10
9.6399176051
 20
21.6761076178
 30
0.0
 10
9.644936261
 20
21.5585667595
 30
0.0
 10
9.6674386749
 20
21.3828906299
 30
0.0
 10
9.7048598322
 20
21.2080713141
 30
0.0
 10
9.775160456
 20
20.9747022607
 30
0.0
 10
9.901461523
 20
20.6860017234
 30
0.0
 10
10.1089526458
 20
20.3539399454
 30
0.0
 10
10.3713585729
 20
20.0358388415
 30
0.0
 10
10.6860705215
 20
19.7346093171
 30
0.0
 10
11.0499216926
 20
19.4530112375
 30
0.0
 10
11.3160512402
 20
19.2843180707
 30
0.0
 10
11.4558737138
 20
19.2035933542
 30
0.0
  0
SPLINE
  5
298
100
AcDbEntity
  8
0
100
AcDbSpline
 62
7
  6
BYLAYER
 70
0
 71
3
 72
15
 73
11
 74
0
 42
0.0000001
 43
0.0000001
 44
0.0000000001
 40
0.0
 40
0.0
 40
0.0
 40
0.0
 40
0.1078384591
 40
0.2189481199
 40
0.334444002
 40
0.4552029278
 40
0.5818425745
 40
0.714775322
 40
0.8542082767
 40
1.0
 40
1.0
 40
1.0
 40
1.0
 10
9.5306292695
 20
8.5012002559
 30
0.0
 10
9.5509421297
 20
8.3981176414
 30
0.0
 10
9.6073153174
 20
8.1915352194
 30
0.0
 10
9.7352129711
 20
7.8908834908
 30
0.0
 10
9.9062596586
 20
7.5978849491
 30
0.0
 10
10.1190838543
 20
7.3146550027
 30
0.0
 10
10.3720553622
 20
7.0430418447
 30
0.0
 10
10.663388419
 20
6.7848387551
 30
0.0
 10
10.9909680198
 20
6.5418700342
 30
0.0
 10
11.2267954175
 20
6.3942886029
 30
0.0
 10
11.3498081382
 20
6.3232687822
 30
0.0
  0
SPLINE
  5
299
100
AcDbEntity
  8
0
100
AcDbSpline
 62
7
  6
BYLAYER
 70
0
 71
3
 72
17
 73
13
 74
0
 42
0.0000001
 43
0.0000001
 44
0.0000000001
 40
0.0
 40
0.0
 40
0.0
 40
0.0
 40
0.0539096672
 40
0.1080813422
 40
0.1627659909
 40
0.2182031645
 40
0.332127704
 40
0.4514753405
 40
0.5773753102
 40
0.7105666267
 40
0.8514630131
 40
1.0
 40
1.0
 40
1.0
 40
1.0
 10
9.4899259006
 20
10.8317590728
 30
0.0
 10
9.4899979455
 20
10.771795262
 30
0.0
 10
9.4952653175
 20
10.6515196239
 30
0.0
 10
9.5185055431
 20
10.4717691563
 30
0.0
 10
9.5569939241
 20
10.2929026454
 30
0.0
 10
9.6291407116
 20
10.0541236307
 30
0.0
 10
9.7586497214
 20
9.7587626333
 30
0.0
 10
9.9711816561
 20
9.419023601
 30
0.0
 10
10.2398713312
 20
9.0935811137
 30
0.0
 10
10.5620130964
 20
8.7853921981
 30
0.0
 10
10.9343838189
 20
8.4972664454
 30
0.0
 10
11.2067242986
 20
8.3246570869
 30
0.0
 10
11.3498081382
 20
8.2420494624
 30
0.0
  0
SPLINE
  5
29A
100
AcDbEntity
  8
0
100
AcDbSpline
 62
7
  6
BYLAYER
 70
0
 71
3
 72
37
 73
33
 74
0
 42
0.0000001
 43
0.0000001
 44
0.0000000001
 40
0.0
 40
0.0
 40
0.0
 40
0.0
 40
0.0306583613
 40
0.062389972
 40
0.0951064088
 40
0.1287280546
 40
0.1631670047
 40
0.1983169741
 40
0.2340637648
 40
0.2702868027
 40
0.3068609054
 40
0.343655892
 40
0.4173623503
 40
0.4903618083
 40
0.5262809948
 40
0.5616424646
 40
0.5963304654
 40
0.6302370114
 40
0.663264526
 40
0.6953266292
 40
0.7263516001
 40
0.7562829616
 40
0.785083995
 40
0.8127381766
 40
0.8392547087
 40
0.8646687582
 40
0.8890472836
 40
0.9124883781
 40
0.9351252603
 40
0.9571227084
 40
0.9786755763
 40
1.0
 40
1.0
 40
1.0
 40
1.0
 10
10.1830868068
 20
11.7734340568
 30
0.0
 10
10.3243911993
 20
11.6918537733
 30
0.0
 10
10.6174032682
 20
11.5351405244
 30
0.0
 10
11.0772967386
 20
11.3231174033
 30
0.0
 10
11.562937736
 20
11.131209599
 30
0.0
 10
12.0715967976
 20
10.9604222496
 30
0.0
 10
12.6005867936
 20
10.8116865479
 30
0.0
 10
13.1470617645
 20
10.6857484137
 30
0.0
 10
13.7080777892
 20
10.5833489146
 30
0.0
 10
14.2805937868
 20
10.5049899161
 30
0.0
 10
14.8615391954
 20
10.4511310477
 30
0.0
 10
15.6435096191
 20
10.4123235576
 30
0.0
 10
16.6212430092
 20
10.4260939966
 30
0.0
 10
17.589696935
 20
10.5223930446
 30
0.0
 10
18.3472702279
 20
10.6489827874
 30
0.0
 10
18.8989293204
 20
10.7671405026
 30
0.0
 10
19.4340710149
 20
10.9083653372
 30
0.0
 10
19.949821686
 20
11.0719065834
 30
0.0
 10
20.4434031202
 20
11.2568760778
 30
0.0
 10
20.9121555257
 20
11.4623000428
 30
0.0
 10
21.3535660784
 20
11.6870613859
 30
0.0
 10
21.7652503882
 20
11.929994355
 30
0.0
 10
22.1450126206
 20
12.1897825904
 30
0.0
 10
22.4907838213
 20
12.4651004215
 30
0.0
 10
22.8007241905
 20
12.7544684269
 30
0.0
 10
23.0730998452
 20
13.0564301861
 30
0.0
 10
23.3064447712
 20
13.3693729173
 30
0.0
 10
23.4993611743
 20
13.6917155175
 30
0.0
 10
23.6507652387
 20
14.0217050411
 30
0.0
 10
23.759617965
 20
14.3576103151
 30
0.0
 10
23.8252783129
 20
14.6974424116
 30
0.0
 10
23.8399089217
 20
14.9258990272
 30
0.0
 10
23.8399089471
 20
15.0393872877
 30
0.0
  0
ENDSEC
  0
SECTION
  2
OBJECTS
  0
DICTIONARY
  5
C
100
AcDbDictionary
280
0
281
1
  3
ACAD_GROUP
350
D
  3
ACAD_MLINESTYLE
350
17
  3
ACAD_LAYOUT
350
1A
  3
ACAD_PLOTSETTINGS
350
19
  3
ACAD_PLOTSTYLENAME
350
E
  0
DICTIONARY
  5
D
102
{ACAD_REACTORS
330
C
102
}
100
AcDbDictionary
280
0
281
1
  0
ACDBDICTIONARYWDFLT
  5
E
102
{ACAD_REACTORS
330
C
102
}
100
AcDbDictionary
281
1
  3
Normal
350
F
100
AcDbDictionaryWithDefault
340
F
  0
DICTIONARY
  5
17
102
{ACAD_REACTORS
330
C
102
}
100
AcDbDictionary
280
0
281
1
  3
Standard
350
18
  0
DICTIONARY
  5
19
102
{ACAD_REACTORS
330
C
102
}
100
AcDbDictionary
281
1
  0
DICTIONARY
  5
1A
102
{ACAD_REACTORS
330
C
102
}
100
AcDbDictionary
281
1
  3
Model
350
29B
  3
Layout1
350
29C
  0
ACDBPLACEHOLDER
  5
F
102
{ACAD_REACTORS
330
E
102
}
  0
MLINESTYLE
  5
18
102
{ACAD_REACTORS
330
17
102
}
100
AcDbMlineStyle
  2
STANDARD
 70
0
  3

 62
256
 51
90.0
 52
90.0
 71
2
 49
0.5
 62
256
  6
BYLAYER
 49
-0.5
 62
256
  6
BYLAYER
  0
LAYOUT
  5
29B
102
{ACAD_REACTORS
330
1A
102
}
100
AcDbPlotSettings
  1

  2
none_device
  4

  6

 40
0.0
 41
0.0
 42
0.0
 43
0.0
 44
210.0
 45
297.0
 46
0.0
 47
0.0
 48
0.0
 49
0.0
140
0.0
141
0.0
142
1.0
143
1.0
 70
1024
 72
1
 73
0
 74
0
  7

 75
0
147
1.0
148
0.0
149
0.0
100
AcDbLayout
  1
Model
 70
0
 71
0
 10
0.0
 20
0.0
 11
210.0
 21
297.0
 12
0.0
 22
0.0
 32
0.0
 14
0.0
 24
0.0
 34
0.0
 15
0.0
 25
0.0
 35
0.0
146
0.0
 13
0.0
 23
0.0
 33
0.0
 16
1.0
 26
0.0
 36
0.0
 17
0.0
 27
1.0
 37
0.0
 76
0
330
210
345
0
346
0
  0
LAYOUT
  5
29C
102
{ACAD_REACTORS
330
1A
102
}
100
AcDbPlotSettings
  1

  2
none_device
  4

  6

 40
0.0
 41
0.0
 42
0.0
 43
0.0
 44
210.0
 45
297.0
 46
0.0
 47
0.0
 48
0.0
 49
0.0
140
0.0
141
0.0
142
1.0
143
1.0
 70
0
 72
1
 73
0
 74
0
  7

 75
0
147
1.0
148
0.0
149
0.0
100
AcDbLayout
  1
Layout1
 70
0
 71
1
 10
0.0
 20
0.0
 11
210.0
 21
297.0
 12
0.0
 22
0.0
 32
0.0
 14
0.0
 24
0.0
 34
0.0
 15
0.0
 25
0.0
 35
0.0
146
0.0
 13
0.0
 23
0.0
 33
0.0
 16
1.0
 26
0.0
 36
0.0
 17
0.0
 27
1.0
 37
0.0
 76
0
330
211
345
0
346
0
  0
ENDSEC
  0
EOF
