999
DXF file: C:\Users\sesa63760\Dev\_Creo\CAD\MCADID0004828_3D-CAD\drw0001_1.dxf
999
Pro/ENGINEER 2019471 by Parametric Technology Corporation
  0
SECTION
  2
HEADER
  9
$ACADVER
  1
AC1024
  9
$DWGCODEPAGE
  3
ANSI_1252
  9
$EXTMAX
 10
84.564543863
 20
119.5984263206
 30
0.0
  9
$EXTMIN
 10
0.0
 20
0.0
 30
0.0
  9
$LIMMIN
 10
0.0
 20
0.0
  9
$LIMMAX
 10
84.564543863
 20
119.5984263206
  9
$VIEWCTR
 10
42.2822719315
 20
59.7992131603
  9
$VIEWSIZE
 40
119.5984263206
  9
$CLAYER
  8
0
  9
$LTSCALE
 40
7.7960455676
  9
$CELTYPE
  6
BYLAYER
  9
$DIMSCALE
 40
1.0
  9
$DIMASZ
 40
1.0067207603
  9
$DIMEXO
 40
1.0
  9
$DIMDLI
 40
5.3863587558
  9
$DIMEXE
 40
1.0
  9
$DIMCEN
 40
1.2757165474
  9
$DIMLFAC
 40
1.0
  9
$DIMBLK
  1
_FILLED
  9
$DIMALT
 70
0
  9
$DIMALTF
 40
0.0393700787
  9
$DIMTXT
 40
1.4094090644
  9
$DIMTOL
 70
1
  9
$DIMLIM
 70
0
  9
$DIMTFAC
 40
1.0
  9
$DIMTP
 40
0.01
  9
$DIMTM
 40
0.01
  9
$DIMGAP
 40
0.625
  9
$DIMDSEP
 70
46
  9
$AUNITS
 70
0
  9
$PDMODE
 70
3
  9
$PDSIZE
 40
0.3125
  9
$HANDSEED
  5
306
  9
$TILEMODE
 70
1
  9
$MEASUREMENT
 70
1
  9
$INSUNITS
 70
4
  0
ENDSEC
  0
SECTION
  2
CLASSES
  0
CLASS
  1
ACDBDICTIONARYWDFLT
  2
AcDbDictionaryWithDefault
  3
AutoCAD 2000
 90
0
 91
1
280
0
281
0
  0
CLASS
  1
ACDBPLACEHOLDER
  2
AcDbPlaceHolder
  3
AutoCAD 2000
 90
0
 91
1
280
0
281
0
  0
CLASS
  1
LAYOUT
  2
AcDbLayout
  3
AutoCAD 2000
 90
0
 91
0
280
0
281
0
  0
ENDSEC
  0
SECTION
  2
TABLES
  0
TABLE
  2
VPORT
  5
8
100
AcDbSymbolTable
 70
2
  0
VPORT
  5
1F4
100
AcDbSymbolTableRecord
100
AcDbViewportTableRecord
  2
*ACTIVE
 70
0
 10
0.0
 20
0.0
 11
1.0
 21
1.0
 12
42.2822719315
 22
59.7992131603
 13
0.0
 23
0.0
 14
1.0
 24
1.0
 15
0.0
 25
0.0
 16
0.0
 26
0.0
 36
1.0
 17
0.0
 27
0.0
 37
0.0
 40
119.5984263206
 41
0.7070707071
 42
50.0
 43
0.0
 44
0.0
 50
0.0
 51
0.0
 71
0
 72
100
 73
1
 74
1
 75
0
 76
0
 77
0
 78
0
  0
ENDTAB
  0
TABLE
  2
LTYPE
  5
5
100
AcDbSymbolTable
 70
6
  0
LTYPE
  5
14
100
AcDbSymbolTableRecord
100
AcDbLinetypeTableRecord
  2
BYBLOCK
 70
0
  3

 72
65
 73
0
 40
0.0
  0
LTYPE
  5
15
100
AcDbSymbolTableRecord
100
AcDbLinetypeTableRecord
  2
BYLAYER
 70
0
  3

 72
65
 73
0
 40
0.0
  0
LTYPE
  5
16
100
AcDbSymbolTableRecord
100
AcDbLinetypeTableRecord
  2
CONTINUOUS
 70
64
  3
Solid line
 72
65
 73
0
 40
0.0
  0
LTYPE
  5
1F5
100
AcDbSymbolTableRecord
100
AcDbLinetypeTableRecord
  2
CENTER
 70
64
  3
____ _ ____ _ ____ _ ____ _ ____ _ ____ _ ____
 72
65
 73
4
 40
0.6
 49
0.375
 74
0
 49
-0.075
 74
0
 49
0.075
 74
0
 49
-0.075
 74
0
  0
LTYPE
  5
1F6
100
AcDbSymbolTableRecord
100
AcDbLinetypeTableRecord
  2
HIDDEN
 70
64
  3
- - - - - - - - - - - - - - - - - - - -
 72
65
 73
2
 40
0.2
 49
0.1
 74
0
 49
-0.1
 74
0
  0
LTYPE
  5
1F7
100
AcDbSymbolTableRecord
100
AcDbLinetypeTableRecord
  2
PHANTOM
 70
64
  3
_____ _ _ _____ _ _ _____ _ _ _____
 72
65
 73
6
 40
0.8
 49
0.45
 74
0
 49
-0.05
 74
0
 49
0.1
 74
0
 49
-0.05
 74
0
 49
0.1
 74
0
 49
-0.05
 74
0
  0
LTYPE
  5
1F8
100
AcDbSymbolTableRecord
100
AcDbLinetypeTableRecord
  2
DOT
 70
64
  3
. . . . . . . . . . . . . . . . . . . .
 72
65
 73
2
 40
0.2
 49
0.1
 74
0
 49
-0.1
 74
0
  0
LTYPE
  5
1F9
100
AcDbSymbolTableRecord
100
AcDbLinetypeTableRecord
  2
DASHED
 70
64
  3
- - - - - - - - - - - - - - - - - - - -
 72
65
 73
2
 40
0.2
 49
0.1
 74
0
 49
-0.1
 74
0
  0
ENDTAB
  0
TABLE
  2
LAYER
  5
2
100
AcDbSymbolTable
 70
36
  0
LAYER
  5
10
100
AcDbSymbolTableRecord
100
AcDbLayerTableRecord
  2
0
 70
0
 62
7
  6
CONTINUOUS
370
-3
390
F
  0
LAYER
  5
1FA
100
AcDbSymbolTableRecord
100
AcDbLayerTableRecord
  2
DEFAULT_1
 70
0
 62
7
  6
CENTER
370
-3
390
F
  0
LAYER
  5
1FB
100
AcDbSymbolTableRecord
100
AcDbLayerTableRecord
  2
DEFAULT_2
 70
0
 62
7
  6
HIDDEN
370
-3
390
F
  0
LAYER
  5
1FC
100
AcDbSymbolTableRecord
100
AcDbLayerTableRecord
  2
DEFAULT_3
 70
0
 62
7
  6
PHANTOM
370
-3
390
F
  0
LAYER
  5
1FD
100
AcDbSymbolTableRecord
100
AcDbLayerTableRecord
  2
00_COMPONENTS
 70
0
 62
7
  6
CONTINUOUS
370
-3
390
F
  0
LAYER
  5
1FE
100
AcDbSymbolTableRecord
100
AcDbLayerTableRecord
  2
01_1_DEFAULT_DATUMS
 70
0
 62
7
  6
CONTINUOUS
370
-3
390
F
  0
LAYER
  5
1FF
100
AcDbSymbolTableRecord
100
AcDbLayerTableRecord
  2
01_PLANES
 70
0
 62
7
  6
CONTINUOUS
370
-3
390
F
  0
LAYER
  5
200
100
AcDbSymbolTableRecord
100
AcDbLayerTableRecord
  2
02_COORD_SYS
 70
0
 62
7
  6
CONTINUOUS
370
-3
390
F
  0
LAYER
  5
201
100
AcDbSymbolTableRecord
100
AcDbLayerTableRecord
  2
03_AXES
 70
0
 62
7
  6
CONTINUOUS
370
-3
390
F
  0
LAYER
  5
202
100
AcDbSymbolTableRecord
100
AcDbLayerTableRecord
  2
04_POINTS
 70
0
 62
7
  6
CONTINUOUS
370
-3
390
F
  0
LAYER
  5
203
100
AcDbSymbolTableRecord
100
AcDbLayerTableRecord
  2
05_CURVES
 70
0
 62
7
  6
CONTINUOUS
370
-3
390
F
  0
LAYER
  5
204
100
AcDbSymbolTableRecord
100
AcDbLayerTableRecord
  2
06_SURFS
 70
0
 62
7
  6
CONTINUOUS
370
-3
390
F
  0
LAYER
  5
205
100
AcDbSymbolTableRecord
100
AcDbLayerTableRecord
  2
07_COSMETICS
 70
0
 62
7
  6
CONTINUOUS
370
-3
390
F
  0
LAYER
  5
206
100
AcDbSymbolTableRecord
100
AcDbLayerTableRecord
  2
10_NOTES
 70
0
 62
7
  6
CONTINUOUS
370
-3
390
F
  0
LAYER
  5
207
100
AcDbSymbolTableRecord
100
AcDbLayerTableRecord
  2
11_NOTES_PUB
 70
0
 62
7
  6
CONTINUOUS
370
-3
390
F
  0
LAYER
  5
208
100
AcDbSymbolTableRecord
100
AcDbLayerTableRecord
  2
13_REF_GTOL
 70
0
 62
7
  6
CONTINUOUS
370
-3
390
F
  0
LAYER
  5
209
100
AcDbSymbolTableRecord
100
AcDbLayerTableRecord
  2
16_MISC
 70
0
 62
7
  6
CONTINUOUS
370
-3
390
F
  0
LAYER
  5
20A
100
AcDbSymbolTableRecord
100
AcDbLayerTableRecord
  2
17_NO_PRINT
 70
0
 62
7
  6
CONTINUOUS
370
-3
390
F
  0
LAYER
  5
20B
100
AcDbSymbolTableRecord
100
AcDbLayerTableRecord
  2
18_DATUM_CAMS_JOINTS
 70
0
 62
7
  6
CONTINUOUS
370
-3
390
F
  0
LAYER
  5
20C
100
AcDbSymbolTableRecord
100
AcDbLayerTableRecord
  2
19_DATUM_FUNCTIONAL
 70
0
 62
7
  6
CONTINUOUS
370
-3
390
F
  0
LAYER
  5
20D
100
AcDbSymbolTableRecord
100
AcDbLayerTableRecord
  2
20_DATUM_KINEMATIC_SCHEME
 70
0
 62
7
  6
CONTINUOUS
370
-3
390
F
  0
ENDTAB
  0
TABLE
  2
STYLE
  5
3
100
AcDbSymbolTable
 70
1
  0
STYLE
  5
11
100
AcDbSymbolTableRecord
100
AcDbTextStyleTableRecord
  2
STANDARD
 70
0
 40
0.0
 41
1.0
 50
0.0
 71
0
 42
0.2
  3
ARIAL.TTF
  4

  0
STYLE
  5
20E
100
AcDbSymbolTableRecord
100
AcDbTextStyleTableRecord
  2
TEXTSTYLE_1
 70
0
 40
0.0
 41
0.8
 50
0.0
 71
0
 42
0.2
  3
gdt
  4

  0
ENDTAB
  0
TABLE
  2
VIEW
  5
6
100
AcDbSymbolTable
 70
0
  0
ENDTAB
  0
TABLE
  2
UCS
  5
7
100
AcDbSymbolTable
 70
0
  0
ENDTAB
  0
TABLE
  2
APPID
  5
9
100
AcDbSymbolTable
 70
1
  0
APPID
  5
20F
100
AcDbSymbolTableRecord
100
AcDbRegAppTableRecord
  2
ACAD
 70
0
  0
ENDTAB
  0
TABLE
  2
BLOCK_RECORD
  5
1
100
AcDbSymbolTable
 70
0
  0
BLOCK_RECORD
  5
210
100
AcDbSymbolTableRecord
100
AcDbBlockTableRecord
  2
*Model_Space
  0
BLOCK_RECORD
  5
211
100
AcDbSymbolTableRecord
100
AcDbBlockTableRecord
  2
*Paper_Space
  0
BLOCK_RECORD
  5
212
100
AcDbSymbolTableRecord
100
AcDbBlockTableRecord
  2
_FILLED
  0
ENDTAB
  0
TABLE
  2
DIMSTYLE
  5
A
100
AcDbSymbolTable
 70
1
100
AcDbDimStyleTable
 71
0
  0
DIMSTYLE
105
213
100
AcDbSymbolTableRecord
100
AcDbDimStyleTableRecord
  2
STANDARD
 70
0
  3

  4

 40
1.0
 41
1.0067207603
 42
1.0
 43
0.38
 44
1.0
 45
0.0
 46
0.0
 47
0.01
 48
0.01
140
1.4094090644
141
0.09
142
0.0
143
25.4
144
1.0
145
0.0
146
1.0
147
0.625
 71
1
 72
0
 73
0
 74
0
 75
0
 76
0
 77
1
 78
8
 79
2
170
0
171
1
172
0
173
0
174
0
175
0
176
0
177
0
178
0
270
2
179
2
271
2
272
2
273
2
274
2
275
0
280
0
281
0
282
0
283
1
284
8
285
0
286
0
287
3
288
0
340
11
278
46
341
212
342
212
343
212
344
212
  0
ENDTAB
  0
ENDSEC
  0
SECTION
  2
BLOCKS
  0
BLOCK
  5
20
100
AcDbEntity
  8
0
100
AcDbBlockBegin
  2
*Model_Space
 70
0
 10
0.0
 20
0.0
 30
0.0
  3
*Model_Space
  1

  0
ENDBLK
  5
21
100
AcDbEntity
  8
0
100
AcDbBlockEnd
  0
BLOCK
  5
1C
100
AcDbEntity
  8
0
100
AcDbBlockBegin
  2
*Paper_Space
 70
0
 10
0.0
 20
0.0
 30
0.0
  3
*Paper_Space
  1

  0
ENDBLK
  5
1D
100
AcDbEntity
  8
0
100
AcDbBlockEnd
  0
BLOCK
  5
214
100
AcDbEntity
  8
0
100
AcDbBlockBegin
  2
_FILLED
 70
64
 10
0.0
 20
0.0
  3
_FILLED
  1

  0
SOLID
  5
215
100
AcDbEntity
  8
0
  6
BYBLOCK
 62
0
100
AcDbTrace
 10
0.0
 20
0.0
 11
-1.0
 21
0.25
 12
-1.0
 22
-0.25
 13
-1.0
 23
-0.25
  0
ENDBLK
  5
216
100
AcDbEntity
  8
0
  6
BYBLOCK
 62
0
100
AcDbBlockEnd
  0
ENDSEC
  0
SECTION
  2
ENTITIES
  0
LINE
  5
217
100
AcDbEntity
  8
0
100
AcDbLine
 62
7
  6
BYLAYER
 10
9.8644310736
 20
51.0832056555
 11
9.8104600263
 21
54.622419204
  0
LINE
  5
218
100
AcDbEntity
  8
0
100
AcDbLine
 62
7
  6
BYLAYER
 10
9.8605018979
 20
56.2788954186
 11
9.8104600641
 21
54.6224167261
  0
LINE
  5
219
100
AcDbEntity
  8
0
100
AcDbLine
 62
7
  6
BYLAYER
 10
12.1647200331
 20
49.2692660579
 11
12.1472834752
 21
49.3231399142
  0
LINE
  5
21A
100
AcDbEntity
  8
0
100
AcDbLine
 62
7
  6
BYLAYER
 10
11.9317892395
 20
53.3976944625
 11
11.9857602491
 21
49.858483392
  0
LINE
  5
21B
100
AcDbEntity
  8
0
100
AcDbLine
 62
7
  6
BYLAYER
 10
12.2853423357
 20
41.4102885178
 11
12.2853423357
 21
52.5839578383
  0
LINE
  5
21C
100
AcDbEntity
  8
0
100
AcDbLine
 62
7
  6
BYLAYER
 10
14.1945215186
 20
65.6474601648
 11
14.1945215186
 21
54.9495830597
  0
LINE
  5
21D
100
AcDbEntity
  8
0
100
AcDbLine
 62
7
  6
BYLAYER
 10
11.9568288359
 20
55.0686078769
 11
11.9317892395
 21
53.3976944625
  0
LINE
  5
21E
100
AcDbEntity
  8
0
100
AcDbLine
 62
7
  6
BYLAYER
 10
29.5388196293
 20
31.4492141075
 11
12.2853423357
 21
41.4102885178
  0
LINE
  5
21F
100
AcDbEntity
  8
0
100
AcDbLine
 62
7
  6
BYLAYER
 10
14.3005870942
 20
54.4716737679
 11
14.3005870942
 21
54.2420786051
  0
LINE
  5
220
100
AcDbEntity
  8
0
100
AcDbLine
 62
7
  6
BYLAYER
 10
33.9935738038
 20
34.0211522769
 11
36.1617706458
 21
32.7693715655
  0
LWPOLYLINE
  5
221
100
AcDbEntity
  8
0
100
AcDbPolyline
 62
7
  6
BYLAYER
 90
8
 70
0
 10
18.1543068342
 20
56.4338823179
 10
18.267299485
 20
54.791795452
 10
19.1559555642
 20
51.2888686717
 10
20.8377599197
 20
47.8239008005
 10
23.1399074773
 20
44.7623208334
 10
25.7931570742
 20
42.4610113797
 10
27.1618235528
 20
41.6736241841
 10
28.2761577269
 20
41.3574329217
  0
LINE
  5
222
100
AcDbEntity
  8
0
100
AcDbLine
 62
7
  6
BYLAYER
 10
18.1543068342
 20
56.4338823179
 11
18.1543068342
 21
57.0960631695
  0
LINE
  5
223
100
AcDbEntity
  8
0
100
AcDbLine
 62
7
  6
BYLAYER
 10
31.9539175462
 20
37.8439928263
 11
29.9642727017
 21
38.9926888259
  0
LINE
  5
224
100
AcDbEntity
  8
0
100
AcDbLine
 62
7
  6
BYLAYER
 10
10.1749380117
 20
50.4178080655
 11
12.1645828563
 21
49.2691120659
  0
LINE
  5
225
100
AcDbEntity
  8
0
100
AcDbLine
 62
7
  6
BYLAYER
 10
31.6434106081
 20
38.5093904163
 11
29.5220814327
 21
39.7341126799
  0
LINE
  5
226
100
AcDbEntity
  8
0
100
AcDbLine
 62
7
  6
BYLAYER
 10
11.9857602491
 20
49.858483392
 11
9.8644310736
 21
51.0832056555
  0
LINE
  5
227
100
AcDbEntity
  8
0
100
AcDbLine
 62
7
  6
BYLAYER
 10
29.6836046589
 20
39.1987692021
 11
29.9644206499
 21
38.9930052293
  0
LINE
  5
228
100
AcDbEntity
  8
0
100
AcDbLine
 62
7
  6
BYLAYER
 10
20.1695459991
 20
57.7150300538
 11
20.1695459991
 21
49.2006006279
  0
LINE
  5
229
100
AcDbEntity
  8
0
100
AcDbLine
 62
7
  6
BYLAYER
 10
29.4774893215
 20
42.6582916967
 11
28.7281023159
 21
43.0909406983
  0
LINE
  5
22A
100
AcDbEntity
  8
0
100
AcDbLine
 62
7
  6
BYLAYER
 10
13.0960596491
 20
52.1159005681
 11
12.2853423357
 21
52.5839578383
  0
LINE
  5
22B
100
AcDbEntity
  8
0
100
AcDbLine
 62
7
  6
BYLAYER
 10
9.8104600641
 20
54.6224167261
 11
11.9317892395
 21
53.3976944625
  0
LINE
  5
22C
100
AcDbEntity
  8
0
100
AcDbLine
 62
7
  6
BYLAYER
 10
29.4681104232
 20
43.2733237504
 11
31.5894395986
 21
42.0486014869
  0
LINE
  5
22D
100
AcDbEntity
  8
0
100
AcDbLine
 62
7
  6
BYLAYER
 10
33.9582374533
 20
41.8954322493
 11
34.2485511148
 21
41.7278233705
  0
LINE
  5
22E
100
AcDbEntity
  8
0
100
AcDbLine
 62
7
  6
BYLAYER
 10
51.9538623043
 20
85.2152316706
 11
50.9900790236
 21
84.6587944556
  0
LINE
  5
22F
100
AcDbEntity
  8
0
100
AcDbLine
 62
7
  6
BYLAYER
 10
34.3743101557
 20
42.0240984576
 11
33.9582374533
 21
42.26431271
  0
LINE
  5
230
100
AcDbEntity
  8
0
100
AcDbLine
 62
7
  6
BYLAYER
 10
34.3337571131
 20
42.1151537378
 11
33.9582374533
 21
42.3319552097
  0
LINE
  5
231
100
AcDbEntity
  8
0
100
AcDbLine
 62
7
  6
BYLAYER
 10
31.5894769576
 20
43.7339496232
 11
29.493150016
 21
44.9442369317
  0
LINE
  5
232
100
AcDbEntity
  8
0
100
AcDbLine
 62
7
  6
BYLAYER
 10
9.8605018979
 20
56.2788954186
 11
11.9568288359
 21
55.0686078769
  0
LINE
  5
233
100
AcDbEntity
  8
0
100
AcDbLine
 62
7
  6
BYLAYER
 10
34.7714068661
 20
42.1453995951
 11
34.6899333628
 21
42.19243728
  0
LINE
  5
234
100
AcDbEntity
  8
0
100
AcDbLine
 62
7
  6
BYLAYER
 10
35.0964013518
 20
42.1775927201
 11
34.8762325527
 21
42.3047043598
  0
LINE
  5
235
100
AcDbEntity
  8
0
100
AcDbLine
 62
7
  6
BYLAYER
 10
14.4121115082
 20
54.8239602612
 11
14.1945215186
 21
54.9495830597
  0
LINE
  5
236
100
AcDbEntity
  8
0
100
AcDbLine
 62
7
  6
BYLAYER
 10
15.1509963499
 20
54.4936331901
 11
14.8309161497
 21
54.6784273992
  0
LINE
  5
237
100
AcDbEntity
  8
0
100
AcDbLine
 62
7
  6
BYLAYER
 10
14.566417295
 20
54.9312552641
 11
15.1496037359
 21
54.5945600325
  0
LINE
  5
238
100
AcDbEntity
  8
0
100
AcDbLine
 62
7
  6
BYLAYER
 10
34.117332112
 20
43.6437846883
 11
34.3443656642
 21
43.5127097711
  0
LINE
  5
239
100
AcDbEntity
  8
0
100
AcDbLine
 62
7
  6
BYLAYER
 10
15.1721133805
 20
55.3526044158
 11
15.4652861416
 21
55.1833448724
  0
LINE
  5
23A
100
AcDbEntity
  8
0
100
AcDbLine
 62
7
  6
BYLAYER
 10
34.6032435647
 20
44.1342899655
 11
34.6633038501
 21
44.099614928
  0
LINE
  5
23B
100
AcDbEntity
  8
0
100
AcDbLine
 62
7
  6
BYLAYER
 10
12.1472834752
 20
49.3231399142
 11
12.2853423357
 21
49.4640427658
  0
LINE
  5
23C
100
AcDbEntity
  8
0
100
AcDbLine
 62
7
  6
BYLAYER
 10
18.1543068342
 20
57.0960631695
 11
17.8791974082
 21
57.2548940774
  0
LINE
  5
23D
100
AcDbEntity
  8
0
100
AcDbLine
 62
7
  6
BYLAYER
 10
34.3742680682
 20
42.0241227563
 11
34.3337571131
 21
42.1151537378
  0
LINE
  5
23E
100
AcDbEntity
  8
0
100
AcDbLine
 62
7
  6
BYLAYER
 10
29.5220814327
 20
39.7341126799
 11
29.4681104232
 21
43.2733237504
  0
LINE
  5
23F
100
AcDbEntity
  8
0
100
AcDbLine
 62
7
  6
BYLAYER
 10
31.58943976
 20
42.0485909011
 11
31.6434106081
 21
38.5093904163
  0
LINE
  5
240
100
AcDbEntity
  8
0
100
AcDbLine
 62
7
  6
BYLAYER
 10
29.5388196293
 20
31.4492141075
 11
29.5388196293
 21
39.5651486845
  0
LINE
  5
241
100
AcDbEntity
  8
0
100
AcDbLine
 62
7
  6
BYLAYER
 10
31.5894395986
 20
42.0486014869
 11
31.5894769576
 21
43.7339496232
  0
LINE
  5
242
100
AcDbEntity
  8
0
100
AcDbLine
 62
7
  6
BYLAYER
 10
29.4681104232
 20
43.2733237504
 11
29.4931500143
 21
44.9442368151
  0
LINE
  5
243
100
AcDbEntity
  8
0
100
AcDbLine
 62
7
  6
BYLAYER
 10
12.2853423357
 20
52.5839578383
 11
14.8309161497
 21
54.6784273992
  0
LINE
  5
244
100
AcDbEntity
  8
0
100
AcDbLine
 62
7
  6
BYLAYER
 10
29.2224343754
 20
52.4884607536
 11
19.2603032825
 21
58.2399697053
  0
LINE
  5
245
100
AcDbEntity
  8
0
100
AcDbLine
 62
7
  6
BYLAYER
 10
33.9582374533
 20
41.7879523504
 11
33.9582374533
 21
43.1226349362
  0
LINE
  5
246
100
AcDbEntity
  8
0
100
AcDbLine
 62
7
  6
BYLAYER
 10
33.9935738038
 20
39.1473855276
 11
33.9935738038
 21
34.0211522769
  0
LINE
  5
247
100
AcDbEntity
  8
0
100
AcDbLine
 62
7
  6
BYLAYER
 10
34.3443656642
 20
43.5127097711
 11
34.3337571131
 21
42.1151537378
  0
LINE
  5
248
100
AcDbEntity
  8
0
100
AcDbLine
 62
7
  6
BYLAYER
 10
19.2814837032
 20
58.2277414603
 11
19.0806581613
 21
58.1117954717
  0
LINE
  5
249
100
AcDbEntity
  8
0
100
AcDbLine
 62
7
  6
BYLAYER
 10
18.1543068342
 20
56.4338823179
 11
15.1607804595
 21
54.7055793763
  0
LINE
  5
24A
100
AcDbEntity
  8
0
100
AcDbLine
 62
7
  6
BYLAYER
 10
14.1945215186
 20
65.6474601648
 11
31.7308427023
 21
55.5230894527
  0
LINE
  5
24B
100
AcDbEntity
  8
0
100
AcDbLine
 62
7
  6
BYLAYER
 10
35.2310243603
 20
41.0837272499
 11
35.2310243603
 21
41.880031724
  0
LINE
  5
24C
100
AcDbEntity
  8
0
100
AcDbLine
 62
7
  6
BYLAYER
 10
36.1617706458
 20
32.7693715655
 11
36.236236811
 21
42.5794424225
  0
LINE
  5
24D
100
AcDbEntity
  8
0
100
AcDbLine
 62
7
  6
BYLAYER
 10
67.5102762575
 20
76.2339350712
 11
67.3609743808
 21
76.147736107
  0
LINE
  5
24E
100
AcDbEntity
  8
0
100
AcDbLine
 62
7
  6
BYLAYER
 10
28.7922811867
 20
52.7368041946
 11
20.7162919186
 21
48.0741574489
  0
LINE
  5
24F
100
AcDbEntity
  8
0
100
AcDbLine
 62
7
  6
BYLAYER
 10
66.5880638309
 20
70.3982779887
 11
75.7773915157
 21
75.7400646216
  0
LINE
  5
250
100
AcDbEntity
  8
0
100
AcDbLine
 62
7
  6
BYLAYER
 10
69.0659294287
 20
73.7028355944
 11
70.4801371031
 21
74.5193239022
  0
LINE
  5
251
100
AcDbEntity
  8
0
100
AcDbLine
 62
7
  6
BYLAYER
 10
66.5715968587
 20
70.3748091627
 11
65.1318980299
 21
69.5536119573
  0
LINE
  5
252
100
AcDbEntity
  8
0
100
AcDbLine
 62
7
  6
BYLAYER
 10
51.9538623043
 20
85.2152316706
 11
51.9538623043
 21
84.5438652835
  0
LINE
  5
253
100
AcDbEntity
  8
0
100
AcDbLine
 62
7
  6
BYLAYER
 10
33.0840098493
 20
38.2190846971
 11
34.6865837783
 21
39.8546713999
  0
LINE
  5
254
100
AcDbEntity
  8
0
100
AcDbLine
 62
7
  6
BYLAYER
 10
66.5902903238
 20
70.8480184914
 11
66.5606265891
 21
70.8188646771
  0
LINE
  5
255
100
AcDbEntity
  8
0
100
AcDbLine
 62
7
  6
BYLAYER
 10
65.2997692388
 20
69.5875593591
 11
65.1779567989
 21
69.4694143514
  0
LINE
  5
256
100
AcDbEntity
  8
0
100
AcDbLine
 62
7
  6
BYLAYER
 10
66.5902903238
 20
70.8480184914
 11
66.5601454362
 21
70.8201702119
  0
LINE
  5
257
100
AcDbEntity
  8
0
100
AcDbLine
 62
7
  6
BYLAYER
 10
65.2815140768
 20
69.6389522223
 11
65.1582538267
 21
69.5250826353
  0
LINE
  5
258
100
AcDbEntity
  8
0
100
AcDbLine
 62
7
  6
BYLAYER
 10
34.7920031157
 20
42.255982931
 11
34.9686123212
 21
42.3581402426
  0
LINE
  5
259
100
AcDbEntity
  8
0
100
AcDbLine
 62
7
  6
BYLAYER
 10
29.3709261389
 20
43.5330474129
 11
29.4726248905
 21
43.5745779718
  0
LINE
  5
25A
100
AcDbEntity
  8
0
100
AcDbLine
 62
7
  6
BYLAYER
 10
64.8187021117
 20
49.3424128167
 11
64.7969827987
 21
49.3669269157
  0
LINE
  5
25B
100
AcDbEntity
  8
0
100
AcDbLine
 62
7
  6
BYLAYER
 10
64.8274868406
 20
49.3447948829
 11
64.8071947984
 21
49.3697038077
  0
LINE
  5
25C
100
AcDbEntity
  8
0
100
AcDbLine
 62
7
  6
BYLAYER
 10
62.5599584761
 20
78.4318419756
 11
62.5600057516
 21
78.4299921917
  0
LINE
  5
25D
100
AcDbEntity
  8
0
100
AcDbLine
 62
7
  6
BYLAYER
 10
63.0802822201
 20
77.4706539045
 11
63.0807753233
 21
77.4507317583
  0
LINE
  5
25E
100
AcDbEntity
  8
0
100
AcDbLine
 62
7
  6
BYLAYER
 10
62.5600569077
 20
78.5109160592
 11
62.5599584761
 21
78.4318419756
  0
LINE
  5
25F
100
AcDbEntity
  8
0
100
AcDbLine
 62
7
  6
BYLAYER
 10
65.0457056714
 20
49.268581675
 11
64.9390439456
 21
49.2065857023
  0
LINE
  5
260
100
AcDbEntity
  8
0
100
AcDbLine
 62
7
  6
BYLAYER
 10
33.9935738038
 20
34.0211522769
 11
29.5388196293
 21
31.4492141075
  0
LINE
  5
261
100
AcDbEntity
  8
0
100
AcDbLine
 62
7
  6
BYLAYER
 10
65.4089652351
 20
80.7550640819
 11
65.360147771
 21
83.0450709066
  0
LINE
  5
262
100
AcDbEntity
  8
0
100
AcDbLine
 62
7
  6
BYLAYER
 10
65.365229796
 20
83.1394283139
 11
65.4138584894
 21
80.86487812
  0
LINE
  5
263
100
AcDbEntity
  8
0
100
AcDbLine
 62
7
  6
BYLAYER
 10
64.9406472142
 20
49.4502167844
 11
64.9391342805
 21
49.2063508489
  0
LINE
  5
264
100
AcDbEntity
  8
0
100
AcDbLine
 62
7
  6
BYLAYER
 10
66.5874882866
 20
70.3978947733
 11
66.5902903238
 21
70.8480184914
  0
LINE
  5
265
100
AcDbEntity
  8
0
100
AcDbLine
 62
7
  6
BYLAYER
 10
65.4134358716
 20
80.8648750596
 11
65.4089652083
 21
80.7550638396
  0
LINE
  5
266
100
AcDbEntity
  8
0
100
AcDbLine
 62
7
  6
BYLAYER
 10
65.3652538631
 20
83.1382537184
 11
65.3601478996
 21
83.0450648632
  0
LINE
  5
267
100
AcDbEntity
  8
0
100
AcDbLine
 62
7
  6
BYLAYER
 10
54.8677634617
 20
84.8285228339
 11
54.8483913339
 21
84.8234569827
  0
LWPOLYLINE
  5
268
100
AcDbEntity
  8
0
100
AcDbPolyline
 62
7
  6
BYLAYER
 90
4
 70
0
 10
54.8201706679
 20
84.8161581647
 10
54.2307200567
 20
84.6858575245
 10
53.4841188724
 20
84.5758099276
 10
52.8221179214
 20
84.5265417239
  0
LINE
  5
269
100
AcDbEntity
  8
0
100
AcDbLine
 62
7
  6
BYLAYER
 10
52.8375769317
 20
84.3651909014
 11
52.8249131922
 21
84.3639775895
  0
LINE
  5
26A
100
AcDbEntity
  8
0
100
AcDbLine
 62
7
  6
BYLAYER
 10
66.5583261801
 20
70.8909130696
 11
66.5715985717
 21
70.3748081962
  0
LINE
  5
26B
100
AcDbEntity
  8
0
100
AcDbLine
 62
7
  6
BYLAYER
 10
67.3609743808
 20
73.3552892399
 11
67.3609743808
 21
76.147736107
  0
LINE
  5
26C
100
AcDbEntity
  8
0
100
AcDbLine
 62
7
  6
BYLAYER
 10
67.5102762575
 20
76.2339350712
 11
67.5102762575
 21
73.3552895987
  0
LINE
  5
26D
100
AcDbEntity
  8
0
100
AcDbLine
 62
7
  6
BYLAYER
 10
52.8376129484
 20
84.3645868732
 11
52.8249126321
 21
84.3639882834
  0
LWPOLYLINE
  5
26E
100
AcDbEntity
  8
0
100
AcDbPolyline
 62
7
  6
BYLAYER
 90
4
 70
0
 10
52.8221155902
 20
84.5265684379
 10
52.2277547384
 20
84.5237986166
 10
51.5320394042
 20
84.5747700423
 10
50.9762095755
 20
84.660944746
  0
LWPOLYLINE
  5
26F
100
AcDbEntity
  8
0
100
AcDbPolyline
 62
7
  6
BYLAYER
 90
4
 70
0
 10
62.8078790242
 20
85.1606775062
 10
59.7083473855
 20
85.3643315568
 10
57.0370972729
 20
85.2315606452
 10
54.8677514911
 20
84.8285196889
  0
LWPOLYLINE
  5
270
100
AcDbEntity
  8
0
100
AcDbPolyline
 62
7
  6
BYLAYER
 90
5
 70
0
 10
50.9762095745
 20
84.6609447462
 10
50.9232584809
 20
84.671476371
 10
50.6512156906
 20
84.7325925343
 10
50.5354861937
 20
84.7623708018
 10
50.3421468679
 20
84.8176299967
  0
LWPOLYLINE
  5
271
100
AcDbEntity
  8
0
100
AcDbPolyline
 62
7
  6
BYLAYER
 90
4
 70
0
 10
50.3000159549
 20
84.8306462977
 10
48.4114046155
 20
85.371194329
 10
46.3583343231
 20
85.8503605215
 10
44.4917894727
 20
86.1966078781
  0
LINE
  5
272
100
AcDbEntity
  8
0
100
AcDbLine
 62
7
  6
BYLAYER
 10
50.3629806356
 20
84.8113265815
 11
50.3318694816
 21
84.8207717464
  0
LWPOLYLINE
  5
273
100
AcDbEntity
  8
0
100
AcDbPolyline
 62
7
  6
BYLAYER
 90
3
 70
0
 10
63.0968960488
 20
77.4349415217
 10
63.0859084134
 20
77.4456946462
 10
63.0762956763
 20
77.4551989177
  0
LINE
  5
274
100
AcDbEntity
  8
0
100
AcDbLine
 62
7
  6
BYLAYER
 10
66.590275915
 20
70.8480871071
 11
66.5583261801
 21
70.8909130696
  0
LINE
  5
275
100
AcDbEntity
  8
0
100
AcDbLine
 62
7
  6
BYLAYER
 10
66.590275915
 20
70.8480871071
 11
66.5602480547
 21
70.8918992098
  0
LWPOLYLINE
  5
276
100
AcDbEntity
  8
0
100
AcDbPolyline
 62
7
  6
BYLAYER
 90
4
 70
0
 10
62.7971065487
 20
77.7861122245
 10
62.6802950231
 20
77.9835963598
 10
62.5876890885
 20
78.2307174321
 10
62.5601290896
 20
78.4299868795
  0
LINE
  5
277
100
AcDbEntity
  8
0
100
AcDbLine
 62
7
  6
BYLAYER
 10
66.4073692277
 20
73.5277890722
 11
66.4987657454
 21
73.2066020073
  0
LINE
  5
278
100
AcDbEntity
  8
0
100
AcDbLine
 62
7
  6
BYLAYER
 10
62.8810649433
 20
85.0343915227
 11
62.7959795394
 21
85.0429949423
  0
LINE
  5
279
100
AcDbEntity
  8
0
100
AcDbLine
 62
7
  6
BYLAYER
 10
62.8810650381
 20
85.0343911332
 11
62.7960335388
 21
85.0441065117
  0
LINE
  5
27A
100
AcDbEntity
  8
0
100
AcDbLine
 62
7
  6
BYLAYER
 10
63.0762956763
 20
77.4551989177
 11
63.0613133741
 21
77.4701975604
  0
LWPOLYLINE
  5
27B
100
AcDbEntity
  8
0
100
AcDbPolyline
 62
7
  6
BYLAYER
 90
4
 70
0
 10
66.4077240336
 20
73.5282251203
 10
65.4871886616
 20
74.777061666
 10
64.3126660252
 20
76.1725488679
 10
63.0968971224
 20
77.4349404191
  0
LWPOLYLINE
  5
27C
100
AcDbEntity
  8
0
100
AcDbPolyline
 62
7
  6
BYLAYER
 90
5
 70
0
 10
65.3652522277
 20
83.1383198515
 10
65.2054646418
 20
83.8124227861
 10
64.6561840705
 20
84.492191471
 10
63.9693319414
 20
84.8885146034
 10
63.0355995659
 20
85.1327721366
  0
LINE
  5
27D
100
AcDbEntity
  8
0
100
AcDbLine
 62
7
  6
BYLAYER
 10
63.0009625256
 20
85.0519770877
 11
55.2876380797
 21
88.358698641
  0
LINE
  5
27E
100
AcDbEntity
  8
0
100
AcDbLine
 62
7
  6
BYLAYER
 10
62.8810673209
 20
85.0343908692
 11
62.8078790242
 21
85.1606775062
  0
LINE
  5
27F
100
AcDbEntity
  8
0
100
AcDbLine
 62
7
  6
BYLAYER
 10
63.1027902634
 20
85.0076697736
 11
63.0355991908
 21
85.1327721792
  0
LINE
  5
280
100
AcDbEntity
  8
0
100
AcDbLine
 62
7
  6
BYLAYER
 10
75.661173614
 20
55.4387231712
 11
75.7773780308
 21
75.7402311252
  0
LINE
  5
281
100
AcDbEntity
  8
0
100
AcDbLine
 62
7
  6
BYLAYER
 10
75.9514075009
 20
55.8435175886
 11
76.0676142661
 21
76.1448683237
  0
ARC
  5
282
100
AcDbEntity
  8
0
100
AcDbCircle
 62
7
  6
BYLAYER
 10
-5545.8929110522
 20
9666.3750878195
 40
11091.8742401039
100
AcDbArc
 50
300.0753933645
 51
300.2630778517
  0
ARC
  5
283
100
AcDbEntity
  8
0
100
AcDbCircle
 62
7
  6
BYLAYER
 10
-205.2207813218
 20
371.2799223322
 40
385.2087740162
100
AcDbArc
 50
305.391885769
 51
305.6443183717
  0
ARC
  5
284
100
AcDbEntity
  8
0
100
AcDbCircle
 62
7
  6
BYLAYER
 10
-146.2756206606
 20
287.5039026792
 40
282.7729207941
100
AcDbArc
 50
304.6287798884
 51
304.7502504959
  0
ARC
  5
285
100
AcDbEntity
  8
0
100
AcDbCircle
 62
7
  6
BYLAYER
 10
-131.5873989037
 20
272.4613441899
 40
282.7053758788
100
AcDbArc
 50
314.1420316839
 51
314.4992067948
  0
ARC
  5
286
100
AcDbEntity
  8
0
100
AcDbCircle
 62
7
  6
BYLAYER
 10
-112.1055248566
 20
237.3770389732
 40
222.4159481441
100
AcDbArc
 50
304.999454089
 51
305.8495367194
  0
ARC
  5
287
100
AcDbEntity
  8
0
100
AcDbCircle
 62
7
  6
BYLAYER
 10
-90.1525338482
 20
221.9715629108
 40
217.2403829743
100
AcDbArc
 50
304.0836123589
 51
304.9939940914
  0
ARC
  5
288
100
AcDbEntity
  8
0
100
AcDbCircle
 62
7
  6
BYLAYER
 10
169.738453012
 20
-32.1476242424
 40
177.6562456296
100
AcDbArc
 50
151.2518447837
 51
151.497437797
  0
ARC
  5
289
100
AcDbEntity
  8
0
100
AcDbCircle
 62
7
  6
BYLAYER
 10
43.6780815459
 20
57.688905867
 40
28.0733254784
100
AcDbArc
 50
50.3347766452
 51
51.2037060521
  0
ARC
  5
28A
100
AcDbEntity
  8
0
100
AcDbCircle
 62
7
  6
BYLAYER
 10
46.8628513574
 20
34.7303090636
 40
23.1583963998
100
AcDbArc
 50
38.6894104417
 51
39.1288434038
  0
ARC
  5
28B
100
AcDbEntity
  8
0
100
AcDbCircle
 62
7
  6
BYLAYER
 10
60.4408684367
 20
63.8534639762
 40
21.3210283695
100
AcDbArc
 50
82.8279298977
 51
83.4280840722
  0
ARC
  5
28C
100
AcDbEntity
  8
0
100
AcDbCircle
 62
7
  6
BYLAYER
 10
27.0441475241
 20
54.4289078929
 40
12.4380547108
100
AcDbArc
 50
181.7659900422
 51
185.3136348982
  0
ARC
  5
28D
100
AcDbEntity
  8
0
100
AcDbCircle
 62
7
  6
BYLAYER
 10
26.495089
 20
54.7006348641
 40
11.3459811276
100
AcDbArc
 50
180.5356723792
 51
181.0453904528
  0
ARC
  5
28E
100
AcDbEntity
  8
0
100
AcDbCircle
 62
7
  6
BYLAYER
 10
52.2470931328
 20
95.5389182655
 40
11.197197345
100
AcDbArc
 50
284.6616458352
 51
284.948010793
  0
ARC
  5
28F
100
AcDbEntity
  8
0
100
AcDbCircle
 62
7
  6
BYLAYER
 10
51.9622610774
 20
91.1235360912
 40
6.7117991158
100
AcDbArc
 50
252.4922746673
 51
253.2081857213
  0
ARC
  5
290
100
AcDbEntity
  8
0
100
AcDbCircle
 62
7
  6
BYLAYER
 10
65.1485857809
 20
80.2822723538
 40
3.8730359159
100
AcDbArc
 50
224.8531560989
 51
225.8397988815
  0
ARC
  5
291
100
AcDbEntity
  8
0
100
AcDbCircle
 62
7
  6
BYLAYER
 10
61.6467021728
 20
83.6575733107
 40
3.7636202527
100
AcDbArc
 50
349.1803267558
 51
350.6338611262
  0
ARC
  5
292
100
AcDbEntity
  8
0
100
AcDbCircle
 62
7
  6
BYLAYER
 10
25.2496152128
 20
41.6517362074
 40
3.0590887385
100
AcDbArc
 50
293.1848158515
 51
297.7479691242
  0
ARC
  5
293
100
AcDbEntity
  8
0
100
AcDbCircle
 62
7
  6
BYLAYER
 10
64.1264020078
 20
78.6889983681
 40
2.7132436866
100
AcDbArc
 50
134.4341076335
 51
135.2968314571
  0
ARC
  5
294
100
AcDbEntity
  8
0
100
AcDbCircle
 62
7
  6
BYLAYER
 10
67.3545410464
 20
75.988719486
 40
2.6117727238
100
AcDbArc
 50
248.9454612418
 51
250.1036332559
  0
ARC
  5
295
100
AcDbEntity
  8
0
100
AcDbCircle
 62
7
  6
BYLAYER
 10
67.3275870622
 20
75.9187460259
 40
2.5367873778
100
AcDbArc
 50
247.7504716302
 51
248.9458246406
  0
ARC
  5
296
100
AcDbEntity
  8
0
100
AcDbCircle
 62
7
  6
BYLAYER
 10
36.0124615441
 20
40.0745645287
 40
2.4158298356
100
AcDbArc
 50
127.2606156129
 51
130.0959864123
  0
ARC
  5
297
100
AcDbEntity
  8
0
100
AcDbCircle
 62
7
  6
BYLAYER
 10
35.9386436542
 20
40.171278995
 40
2.2941633718
100
AcDbArc
 50
125.9061771773
 51
127.2557215649
  0
ARC
  5
298
100
AcDbEntity
  8
0
100
AcDbCircle
 62
7
  6
BYLAYER
 10
64.2571695619
 20
78.2917061579
 40
1.7554080752
100
AcDbArc
 50
134.3320633183
 51
135.3556638712
  0
ARC
  5
299
100
AcDbEntity
  8
0
100
AcDbCircle
 62
7
  6
BYLAYER
 10
15.5198653237
 20
54.3731681012
 40
1.2317015969
100
AcDbArc
 50
156.6322878952
 51
158.1579481338
  0
ARC
  5
29A
100
AcDbEntity
  8
0
100
AcDbCircle
 62
7
  6
BYLAYER
 10
35.1983564875
 20
43.4234859579
 40
0.8663460214
100
AcDbArc
 50
142.9511625878
 51
151.4972422061
  0
ARC
  5
29B
100
AcDbEntity
  8
0
100
AcDbCircle
 62
7
  6
BYLAYER
 10
35.0527882843
 20
41.6594832555
 40
0.5615070717
100
AcDbArc
 50
115.2003773462
 51
120.0740077401
  0
ARC
  5
29C
100
AcDbEntity
  8
0
100
AcDbCircle
 62
7
  6
BYLAYER
 10
50.2266173678
 20
84.5929383268
 40
0.2486266986
100
AcDbArc
 50
72.8406655494
 51
79.155897131
  0
ARC
  5
29D
100
AcDbEntity
  8
0
100
AcDbCircle
 62
7
  6
BYLAYER
 10
54.9113725356
 20
84.6605715685
 40
0.1733235523
100
AcDbArc
 50
103.0629358256
 51
104.555513014
  0
ARC
  5
29E
100
AcDbEntity
  8
0
100
AcDbCircle
 62
7
  6
BYLAYER
 10
54.8618604673
 20
84.6497234304
 40
0.1714165197
100
AcDbArc
 50
93.0889459366
 51
97.4540282144
  0
ARC
  5
29F
100
AcDbEntity
  8
0
100
AcDbCircle
 62
7
  6
BYLAYER
 10
54.8612442661
 20
84.6544567437
 40
0.1666432663
100
AcDbArc
 50
97.4550809876
 51
104.2520630493
  0
SPLINE
  5
2A0
100
AcDbEntity
  8
0
100
AcDbSpline
 62
7
  6
BYLAYER
 70
0
 71
3
 72
11
 73
7
 74
0
 42
0.0000001
 43
0.0000001
 44
0.0000000001
 40
0.0
 40
0.0
 40
0.0
 40
0.0
 40
0.2187370765
 40
0.4522702605
 40
0.7113463774
 40
1.0
 40
1.0
 40
1.0
 40
1.0
 10
10.1749497101
 20
50.4178282133
 30
0.0
 10
10.1265997321
 20
50.4457672415
 30
0.0
 10
10.0359750711
 20
50.5212303199
 30
0.0
 10
9.9383367567
 20
50.6772148605
 30
0.0
 10
9.8788553424
 20
50.8694112793
 30
0.0
 10
9.8655546894
 20
51.0095232597
 30
0.0
 10
9.8644310736
 20
51.0832056555
 30
0.0
  0
SPLINE
  5
2A1
100
AcDbEntity
  8
0
100
AcDbSpline
 62
7
  6
BYLAYER
 70
0
 71
3
 72
22
 73
18
 74
0
 42
0.0000001
 43
0.0000001
 44
0.0000000001
 40
0.0
 40
0.0
 40
0.0
 40
0.0
 40
0.0437387639
 40
0.0885581038
 40
0.1354130166
 40
0.1850450079
 40
0.2379513711
 40
0.2943938015
 40
0.3544235924
 40
0.4179166552
 40
0.4846072714
 40
0.5541140731
 40
0.6259645496
 40
0.6996185882
 40
0.7744860469
 40
0.8499442688
 40
1.0
 40
1.0
 40
1.0
 40
1.0
 10
16.9127224694
 20
60.013494901
 30
0.0
 10
17.1407881014
 20
60.1451805071
 30
0.0
 10
17.6302318344
 20
60.3666520228
 30
0.0
 10
18.4279772212
 20
60.555562794
 30
0.0
 10
19.281684337
 20
60.6017308911
 30
0.0
 10
20.179471937
 20
60.5059804147
 30
0.0
 10
21.1102521667
 20
60.2708612683
 30
0.0
 10
22.0627340783
 20
59.9000446832
 30
0.0
 10
23.0254486679
 20
59.398613721
 30
0.0
 10
23.9867049131
 20
58.7730492451
 30
0.0
 10
24.9346707358
 20
58.0312089643
 30
0.0
 10
25.8575703895
 20
57.1823914199
 30
0.0
 10
26.7439205947
 20
56.2372770033
 30
0.0
 10
27.5825828611
 20
55.2077619717
 30
0.0
 10
28.3630638678
 20
54.1066472511
 30
0.0
 10
29.3107415717
 20
52.5652520689
 30
0.0
 10
29.9092223639
 20
51.3406547728
 30
0.0
 10
30.2501449995
 20
50.5039514823
 30
0.0
  0
SPLINE
  5
2A2
100
AcDbEntity
  8
0
100
AcDbSpline
 62
7
  6
BYLAYER
 70
0
 71
3
 72
13
 73
9
 74
0
 42
0.0000001
 43
0.0000001
 44
0.0000000001
 40
0.0
 40
0.0
 40
0.0
 40
0.0
 40
0.0983922518
 40
0.2006744223
 40
0.3100438509
 40
0.4285711801
 40
0.6955457144
 40
1.0
 40
1.0
 40
1.0
 40
1.0
 10
31.9539292446
 20
37.844012974
 30
0.0
 10
31.9900717242
 20
37.823128047
 30
0.0
 10
32.0695594364
 20
37.7898390404
 30
0.0
 10
32.2006303903
 20
37.7695009625
 30
0.0
 10
32.3413889163
 20
37.7782528018
 30
0.0
 10
32.5459458884
 20
37.8296344584
 30
0.0
 10
32.8083615489
 20
37.9679160364
 30
0.0
 10
32.9936127301
 20
38.1268254113
 30
0.0
 10
33.0840098493
 20
38.2190846971
 30
0.0
  0
SPLINE
  5
2A3
100
AcDbEntity
  8
0
100
AcDbSpline
 62
7
  6
BYLAYER
 70
0
 71
3
 72
11
 73
7
 74
0
 42
0.0000001
 43
0.0000001
 44
0.0000000001
 40
0.0
 40
0.0
 40
0.0
 40
0.0
 40
0.2176618231
 40
0.45093112
 40
0.7108286546
 40
1.0
 40
1.0
 40
1.0
 40
1.0
 10
34.0203699287
 20
41.6505813346
 30
0.0
 10
34.0104722496
 20
41.6562836621
 30
0.0
 10
33.9919554659
 20
41.6718575828
 30
0.0
 10
33.9722155931
 20
41.7041159924
 30
0.0
 10
33.9605874398
 20
41.7438725142
 30
0.0
 10
33.9582374533
 20
41.7727767476
 30
0.0
 10
33.9582374533
 20
41.7879523504
 30
0.0
  0
SPLINE
  5
2A4
100
AcDbEntity
  8
0
100
AcDbSpline
 62
7
  6
BYLAYER
 70
0
 71
3
 72
11
 73
7
 74
0
 42
0.0000001
 43
0.0000001
 44
0.0000000001
 40
0.0
 40
0.0
 40
0.0
 40
0.0
 40
0.237959279
 40
0.4820705479
 40
0.7352273892
 40
1.0
 40
1.0
 40
1.0
 40
1.0
 10
65.4089652083
 20
80.7550638396
 30
0.0
 10
65.3711417577
 20
80.4131661502
 30
0.0
 10
65.2409567906
 20
79.7254251816
 30
0.0
 10
64.8913955748
 20
78.7180957718
 30
0.0
 10
64.3891287517
 20
77.7341378027
 30
0.0
 10
63.9658609849
 20
77.1140039006
 30
0.0
 10
63.7327295627
 20
76.8104541417
 30
0.0
  0
LINE
  5
2A5
100
AcDbEntity
  8
0
100
AcDbLine
 62
7
  6
BYLAYER
 10
66.4987657454
 20
73.2066020073
 11
66.5583266338
 21
70.8909133368
  0
SPLINE
  5
2A6
100
AcDbEntity
  8
0
100
AcDbSpline
 62
7
  6
BYLAYER
 70
0
 71
3
 72
11
 73
7
 74
0
 42
0.0000001
 43
0.0000001
 44
0.0000000001
 40
0.0
 40
0.0
 40
0.0
 40
0.0
 40
0.2419971424
 40
0.4895762868
 40
0.7423776873
 40
1.0
 40
1.0
 40
1.0
 40
1.0
 10
34.4323980321
 20
44.0057390646
 30
0.0
 10
37.0741882913
 20
45.8553759526
 30
0.0
 10
42.3369187815
 20
49.7154391463
 30
0.0
 10
50.0665325722
 20
55.8943857714
 30
0.0
 10
57.7015952009
 20
62.5121218475
 30
0.0
 10
62.6689115691
 20
67.1618100149
 30
0.0
 10
65.131899232
 20
69.5535239387
 30
0.0
  0
SPLINE
  5
2A7
100
AcDbEntity
  8
0
100
AcDbSpline
 62
7
  6
BYLAYER
 70
0
 71
3
 72
11
 73
7
 74
0
 42
0.0000001
 43
0.0000001
 44
0.0000000001
 40
0.0
 40
0.0
 40
0.0
 40
0.0
 40
0.2660843817
 40
0.5233093365
 40
0.7687441207
 40
1.0
 40
1.0
 40
1.0
 40
1.0
 10
12.6790962291
 20
67.836412597
 30
0.0
 10
12.2539927847
 20
66.8643104591
 30
0.0
 10
11.4941858403
 20
64.9178974969
 30
0.0
 10
10.6264853447
 20
61.9738461472
 30
0.0
 10
10.0614961591
 20
59.0980950168
 30
0.0
 10
9.8883476906
 20
57.2005872876
 30
0.0
 10
9.8605018979
 20
56.2788954186
 30
0.0
  0
SPLINE
  5
2A8
100
AcDbEntity
  8
0
100
AcDbSpline
 62
7
  6
BYLAYER
 70
0
 71
3
 72
11
 73
7
 74
0
 42
0.0000001
 43
0.0000001
 44
0.0000000001
 40
0.0
 40
0.0
 40
0.0
 40
0.0
 40
0.2343548633
 40
0.4937547945
 40
0.7565082598
 40
1.0
 40
1.0
 40
1.0
 40
1.0
 10
33.9582374533
 20
43.1226349362
 30
0.0
 10
33.9582374533
 20
43.2033948518
 30
0.0
 10
33.9865097138
 20
43.3736890265
 30
0.0
 10
34.0868443267
 20
43.6161731548
 30
0.0
 10
34.235804931
 20
43.8360379663
 30
0.0
 10
34.3640235324
 20
43.9574982763
 30
0.0
 10
34.4327766293
 20
44.0055987265
 30
0.0
  0
SPLINE
  5
2A9
100
AcDbEntity
  8
0
100
AcDbSpline
 62
7
  6
BYLAYER
 70
0
 71
3
 72
11
 73
7
 74
0
 42
0.0000001
 43
0.0000001
 44
0.0000000001
 40
0.0
 40
0.0
 40
0.0
 40
0.0
 40
0.2895411595
 40
0.5491183966
 40
0.7822559144
 40
1.0
 40
1.0
 40
1.0
 40
1.0
 10
35.2310243603
 20
41.880031724
 30
0.0
 10
35.2310243603
 20
41.9129469777
 30
0.0
 10
35.2259985333
 20
41.9755789317
 30
0.0
 10
35.200679013
 20
42.0616461878
 30
0.0
 10
35.1579697461
 20
42.1315089268
 30
0.0
 10
35.117820285
 20
42.1651847812
 30
0.0
 10
35.0963831676
 20
42.1775612229
 30
0.0
  0
SPLINE
  5
2AA
100
AcDbEntity
  8
0
100
AcDbSpline
 62
7
  6
BYLAYER
 70
0
 71
3
 72
11
 73
7
 74
0
 42
0.0000001
 43
0.0000001
 44
0.0000000001
 40
0.0
 40
0.0
 40
0.0
 40
0.0
 40
0.2559658765
 40
0.5180122696
 40
0.7706041832
 40
1.0
 40
1.0
 40
1.0
 40
1.0
 10
34.6865837783
 20
39.8546713999
 30
0.0
 10
34.7685637636
 20
39.93834016
 30
0.0
 10
34.9179185467
 20
40.1244169238
 30
0.0
 10
35.089330554
 20
40.4344835362
 30
0.0
 10
35.2009874686
 20
40.7579302901
 30
0.0
 10
35.2310243603
 20
40.9787490448
 30
0.0
 10
35.2310243603
 20
41.0837272499
 30
0.0
  0
SPLINE
  5
2AB
100
AcDbEntity
  8
0
100
AcDbSpline
 62
7
  6
BYLAYER
 70
0
 71
3
 72
11
 73
7
 74
0
 42
0.0000001
 43
0.0000001
 44
0.0000000001
 40
0.0
 40
0.0
 40
0.0
 40
0.0
 40
0.2329016997
 40
0.4785349086
 40
0.735007088
 40
1.0
 40
1.0
 40
1.0
 40
1.0
 10
29.4931500143
 20
44.9442368151
 30
0.0
 10
29.5057891989
 20
45.7876605704
 30
0.0
 10
29.6278221015
 20
47.5200873005
 30
0.0
 10
30.0682154112
 20
50.1489182474
 30
0.0
 10
30.7639537703
 20
52.8419238287
 30
0.0
 10
31.3827754426
 20
54.6286840394
 30
0.0
 10
31.7308427023
 20
55.5230894527
 30
0.0
  0
SPLINE
  5
2AC
100
AcDbEntity
  8
0
100
AcDbSpline
 62
7
  6
BYLAYER
 70
0
 71
3
 72
10
 73
6
 74
0
 42
0.0000001
 43
0.0000001
 44
0.0000000001
 40
0.0
 40
0.0
 40
0.0
 40
0.0
 40
0.4611419328
 40
0.7204025727
 40
1.0
 40
1.0
 40
1.0
 40
1.0
 10
29.6836046589
 20
39.1987692021
 30
0.0
 10
29.6295769039
 20
39.2672123025
 30
0.0
 10
29.5695177041
 20
39.3940890296
 30
0.0
 10
29.530349399
 20
39.5792131512
 30
0.0
 10
29.5228875675
 20
39.6812494625
 30
0.0
 10
29.5220814327
 20
39.7341126799
 30
0.0
  0
SPLINE
  5
2AD
100
AcDbEntity
  8
0
100
AcDbSpline
 62
7
  6
BYLAYER
 70
0
 71
3
 72
10
 73
6
 74
0
 42
0.0000001
 43
0.0000001
 44
0.0000000001
 40
0.0
 40
0.0
 40
0.0
 40
0.0
 40
0.2198354689
 40
0.5854256028
 40
1.0
 40
1.0
 40
1.0
 40
1.0
 10
44.4917820944
 20
86.1965910814
 30
0.0
 10
44.4614239486
 20
86.2015588651
 30
0.0
 10
44.3787392711
 20
86.2044714771
 30
0.0
 10
44.2406928324
 20
86.1728488639
 30
0.0
 10
44.1416541518
 20
86.125208113
 30
0.0
 10
44.0915471366
 20
86.0959731231
 30
0.0
  0
SPLINE
  5
2AE
100
AcDbEntity
  8
0
100
AcDbSpline
 62
7
  6
BYLAYER
 70
0
 71
3
 72
9
 73
5
 74
0
 42
0.0000001
 43
0.0000001
 44
0.0000000001
 40
0.0
 40
0.0
 40
0.0
 40
0.0
 40
0.2489410967
 40
1.0
 40
1.0
 40
1.0
 40
1.0
 10
14.9050445236
 20
55.165102852
 30
0.0
 10
15.1528269825
 20
55.3369938428
 30
0.0
 10
16.1470911858
 20
56.0290411045
 30
0.0
 10
17.137225512
 20
56.7270143754
 30
0.0
 10
17.8789387505
 20
57.2539449311
 30
0.0
  0
SPLINE
  5
2AF
100
AcDbEntity
  8
0
100
AcDbSpline
 62
7
  6
BYLAYER
 70
0
 71
3
 72
9
 73
5
 74
0
 42
0.0000001
 43
0.0000001
 44
0.0000000001
 40
0.0
 40
0.0
 40
0.0
 40
0.0
 40
0.4769534922
 40
1.0
 40
1.0
 40
1.0
 40
1.0
 10
14.3005870942
 20
54.4716737679
 30
0.0
 10
14.3005870942
 20
54.5303876795
 30
0.0
 10
14.315649434
 20
54.6536028047
 30
0.0
 10
14.3526304468
 20
54.7716550159
 30
0.0
 10
14.3765838723
 20
54.8314216846
 30
0.0
  0
SPLINE
  5
2B0
100
AcDbEntity
  8
0
100
AcDbSpline
 62
7
  6
BYLAYER
 70
0
 71
3
 72
13
 73
9
 74
0
 42
0.0000001
 43
0.0000001
 44
0.0000000001
 40
0.0
 40
0.0
 40
0.0
 40
0.0
 40
0.2695237006
 40
0.5288658713
 40
0.652696962
 40
0.7720300133
 40
0.8873149522
 40
1.0
 40
1.0
 40
1.0
 40
1.0
 10
62.4518898357
 20
77.502301331
 30
0.0
 10
62.5093942757
 20
77.5236675298
 30
0.0
 10
62.6260129226
 20
77.5563071161
 30
0.0
 10
62.776016836
 20
77.5654010115
 30
0.0
 10
62.8894087195
 20
77.5476630573
 30
0.0
 10
62.96748802
 20
77.5227394858
 30
0.0
 10
63.0377710252
 20
77.4855872012
 30
0.0
 10
63.0783870999
 20
77.4526975578
 30
0.0
 10
63.0967315907
 20
77.4347728276
 30
0.0
  0
SPLINE
  5
2B1
100
AcDbEntity
  8
0
100
AcDbSpline
 62
7
  6
BYLAYER
 70
0
 71
3
 72
13
 73
9
 74
0
 42
0.0000001
 43
0.0000001
 44
0.0000000001
 40
0.0
 40
0.0
 40
0.0
 40
0.0
 40
0.2902230168
 40
0.5434822484
 40
0.6594863657
 40
0.7717406904
 40
0.8839154964
 40
1.0
 40
1.0
 40
1.0
 40
1.0
 10
65.7699528999
 20
73.580233021
 30
0.0
 10
65.8292977909
 20
73.6140305201
 30
0.0
 10
65.9470891815
 20
73.6669415772
 30
0.0
 10
66.1040953031
 20
73.6889208363
 30
0.0
 10
66.2166952021
 20
73.6701452828
 30
0.0
 10
66.2914429331
 20
73.6393554103
 30
0.0
 10
66.3569146692
 20
73.5919000867
 30
0.0
 10
66.3921693182
 20
73.5506736006
 30
0.0
 10
66.4077088619
 20
73.5282077144
 30
0.0
  0
SPLINE
  5
2B2
100
AcDbEntity
  8
0
100
AcDbSpline
 62
7
  6
BYLAYER
 70
0
 71
3
 72
9
 73
5
 74
0
 42
0.0000001
 43
0.0000001
 44
0.0000000001
 40
0.0
 40
0.0
 40
0.0
 40
0.0
 40
0.4900611119
 40
1.0
 40
1.0
 40
1.0
 40
1.0
 10
61.2675190816
 20
79.5686519943
 30
0.0
 10
60.0277186297
 20
80.5653829441
 30
0.0
 10
57.3220006343
 20
82.3877928197
 30
0.0
 10
54.3694902324
 20
83.767965067
 30
0.0
 10
52.8251719298
 20
84.3638777504
 30
0.0
  0
SPLINE
  5
2B3
100
AcDbEntity
  8
0
100
AcDbSpline
 62
7
  6
BYLAYER
 70
0
 71
3
 72
10
 73
6
 74
0
 42
0.0000001
 43
0.0000001
 44
0.0000000001
 40
0.0
 40
0.0
 40
0.0
 40
0.0
 40
0.5190188175
 40
0.7625745415
 40
1.0
 40
1.0
 40
1.0
 40
1.0
 10
62.0202064534
 20
78.0072181961
 30
0.0
 10
61.8845768852
 20
78.2035107521
 30
0.0
 10
61.7193255509
 20
78.5201464976
 30
0.0
 10
61.6101504259
 20
78.9683588824
 30
0.0
 10
61.5950183841
 20
79.1903548881
 30
0.0
 10
61.5974805668
 20
79.2994711655
 30
0.0
  0
SPLINE
  5
2B4
100
AcDbEntity
  8
0
100
AcDbSpline
 62
7
  6
BYLAYER
 70
0
 71
3
 72
9
 73
5
 74
0
 42
0.0000001
 43
0.0000001
 44
0.0000000001
 40
0.0
 40
0.0
 40
0.0
 40
0.0
 40
0.2581419008
 40
1.0
 40
1.0
 40
1.0
 40
1.0
 10
62.402924708
 20
77.5506498626
 30
0.0
 10
62.3667446019
 20
77.5870188028
 30
0.0
 10
62.2294593838
 20
77.7307050063
 30
0.0
 10
62.1040252029
 20
77.8859299709
 30
0.0
 10
62.0202185422
 20
78.0072209988
 30
0.0
  0
SPLINE
  5
2B5
100
AcDbEntity
  8
0
100
AcDbSpline
 62
7
  6
BYLAYER
 70
0
 71
3
 72
9
 73
5
 74
0
 42
0.0000001
 43
0.0000001
 44
0.0000000001
 40
0.0
 40
0.0
 40
0.0
 40
0.0
 40
0.4960143092
 40
1.0
 40
1.0
 40
1.0
 40
1.0
 10
65.7699075527
 20
73.5802422321
 30
0.0
 10
65.2883268884
 20
74.2816179655
 30
0.0
 10
64.2448051086
 20
75.647024642
 30
0.0
 10
63.0708568817
 20
76.9018824758
 30
0.0
 10
62.4503453548
 20
77.503767831
 30
0.0
  0
SPLINE
  5
2B6
100
AcDbEntity
  8
0
100
AcDbSpline
 62
7
  6
BYLAYER
 70
0
 71
3
 72
11
 73
7
 74
0
 42
0.0000001
 43
0.0000001
 44
0.0000000001
 40
0.0
 40
0.0
 40
0.0
 40
0.0
 40
0.2541578946
 40
0.5049789403
 40
0.7535070981
 40
1.0
 40
1.0
 40
1.0
 40
1.0
 10
34.1115609546
 20
55.4626478927
 30
0.0
 10
32.500453977
 20
56.8219061808
 30
0.0
 10
29.1929349937
 20
59.4004953925
 30
0.0
 10
23.9300900844
 20
62.7872917811
 30
0.0
 10
18.4232695467
 20
65.6250339847
 30
0.0
 10
14.6075129784
 20
67.157813719
 30
0.0
 10
12.6790962291
 20
67.836412597
 30
0.0
  0
SPLINE
  5
2B7
100
AcDbEntity
  8
0
100
AcDbSpline
 62
7
  6
BYLAYER
 70
0
 71
3
 72
11
 73
7
 74
0
 42
0.0000001
 43
0.0000001
 44
0.0000000001
 40
0.0
 40
0.0
 40
0.0
 40
0.0
 40
0.2325988465
 40
0.4784216284
 40
0.7351621575
 40
1.0
 40
1.0
 40
1.0
 40
1.0
 10
31.5895058414
 20
43.7339328299
 30
0.0
 10
31.5895249109
 20
44.6694657078
 30
0.0
 10
31.7069445552
 20
46.5949111041
 30
0.0
 10
32.1948379107
 20
49.5158672044
 30
0.0
 10
32.9900016529
 20
52.5025678218
 30
0.0
 10
33.7068640978
 20
54.4773187662
 30
0.0
 10
34.1115609546
 20
55.4626478927
 30
0.0
  0
SPLINE
  5
2B8
100
AcDbEntity
  8
0
100
AcDbSpline
 62
7
  6
BYLAYER
 70
0
 71
3
 72
9
 73
5
 74
0
 42
0.0000001
 43
0.0000001
 44
0.0000000001
 40
0.0
 40
0.0
 40
0.0
 40
0.0
 40
0.4997721354
 40
1.0
 40
1.0
 40
1.0
 40
1.0
 10
34.1116274594
 20
55.4625936418
 30
0.0
 10
39.3792573559
 20
58.4918578796
 30
0.0
 10
49.9261043906
 20
64.5413556282
 30
0.0
 10
60.4846387175
 20
70.5704327934
 30
0.0
 10
65.7698006719
 20
73.5802170221
 30
0.0
  0
SPLINE
  5
2B9
100
AcDbEntity
  8
0
100
AcDbSpline
 62
7
  6
BYLAYER
 70
0
 71
3
 72
14
 73
10
 74
0
 42
0.0000001
 43
0.0000001
 44
0.0000000001
 40
0.0
 40
0.0
 40
0.0
 40
0.0
 40
0.2988668119
 40
0.4327067592
 40
0.5580286558
 40
0.6762885353
 40
0.7886881164
 40
0.8963129498
 40
1.0
 40
1.0
 40
1.0
 40
1.0
 10
62.2268081155
 20
80.6264372155
 30
0.0
 10
62.5268865194
 20
80.9207753273
 30
0.0
 10
62.932624526
 20
81.3791537438
 30
0.0
 10
63.3717995793
 20
82.0305064873
 30
0.0
 10
63.6306914052
 20
82.4946372495
 30
0.0
 10
63.8385855479
 20
82.9506935671
 30
0.0
 10
64.0002258907
 20
83.3987075433
 30
0.0
 10
64.1201542338
 20
83.8384483648
 30
0.0
 10
64.1739671905
 20
84.1310603411
 30
0.0
 10
64.195898226
 20
84.2752304973
 30
0.0
  0
SPLINE
  5
2BA
100
AcDbEntity
  8
0
100
AcDbSpline
 62
7
  6
BYLAYER
 70
0
 71
3
 72
11
 73
7
 74
0
 42
0.0000001
 43
0.0000001
 44
0.0000000001
 40
0.0
 40
0.0
 40
0.0
 40
0.0
 40
0.3051840124
 40
0.5734718478
 40
0.8007757961
 40
1.0
 40
1.0
 40
1.0
 40
1.0
 10
34.2490143855
 20
41.7282304614
 30
0.0
 10
34.2308066968
 20
41.7093827433
 30
0.0
 10
34.1933534443
 20
41.6768288778
 30
0.0
 10
34.1321615777
 20
41.6439268937
 30
0.0
 10
34.0722893272
 20
41.6323918201
 30
0.0
 10
34.035193133
 20
41.6420412754
 30
0.0
 10
34.0203699287
 20
41.6505813346
 30
0.0
  0
SPLINE
  5
2BB
100
AcDbEntity
  8
0
100
AcDbSpline
 62
7
  6
BYLAYER
 70
0
 71
3
 72
9
 73
5
 74
0
 42
0.0000001
 43
0.0000001
 44
0.0000000001
 40
0.0
 40
0.0
 40
0.0
 40
0.0
 40
0.2443811126
 40
1.0
 40
1.0
 40
1.0
 40
1.0
 10
34.7714068661
 20
42.1453995951
 30
0.0
 10
34.7564068366
 20
42.1367393758
 30
0.0
 10
34.6955190352
 20
42.1004538757
 30
0.0
 10
34.6365897066
 20
42.0609060691
 30
0.0
 10
34.5932093245
 20
42.0295018128
 30
0.0
  0
SPLINE
  5
2BC
100
AcDbEntity
  8
0
100
AcDbSpline
 62
7
  6
BYLAYER
 70
0
 71
3
 72
9
 73
5
 74
0
 42
0.0000001
 43
0.0000001
 44
0.0000000001
 40
0.0
 40
0.0
 40
0.0
 40
0.0
 40
0.2453257272
 40
1.0
 40
1.0
 40
1.0
 40
1.0
 10
34.4564979127
 20
41.9225934712
 30
0.0
 10
34.4387019968
 20
41.9076240133
 30
0.0
 10
34.3670096193
 20
41.8456019872
 30
0.0
 10
34.2986756752
 20
41.7797202527
 30
0.0
 10
34.2490143855
 20
41.7282304614
 30
0.0
  0
SPLINE
  5
2BD
100
AcDbEntity
  8
0
100
AcDbSpline
 62
7
  6
BYLAYER
 70
0
 71
3
 72
11
 73
7
 74
0
 42
0.0000001
 43
0.0000001
 44
0.0000000001
 40
0.0
 40
0.0
 40
0.0
 40
0.0
 40
0.2425148502
 40
0.4872120616
 40
0.7384317399
 40
1.0
 40
1.0
 40
1.0
 40
1.0
 10
61.597488035
 20
79.299255448
 30
0.0
 10
61.6033169678
 20
79.4172527149
 30
0.0
 10
61.6382329409
 20
79.6537983722
 30
0.0
 10
61.7590261419
 20
79.9948879238
 30
0.0
 10
61.9459902749
 20
80.3153242593
 30
0.0
 10
62.108220718
 20
80.5070474913
 30
0.0
 10
62.197852674
 20
80.5976164656
 30
0.0
  0
SPLINE
  5
2BE
100
AcDbEntity
  8
0
100
AcDbSpline
 62
7
  6
BYLAYER
 70
0
 71
3
 72
9
 73
5
 74
0
 42
0.0000001
 43
0.0000001
 44
0.0000000001
 40
0.0
 40
0.0
 40
0.0
 40
0.0
 40
0.4897099784
 40
1.0
 40
1.0
 40
1.0
 40
1.0
 10
55.081264354
 20
84.7062877491
 30
0.0
 10
54.7223882658
 20
84.6123930707
 30
0.0
 10
53.9787957371
 20
84.4604689037
 30
0.0
 10
53.2237184889
 20
84.3830195073
 30
0.0
 10
52.8376129484
 20
84.3645868732
 30
0.0
  0
SPLINE
  5
2BF
100
AcDbEntity
  8
0
100
AcDbSpline
 62
7
  6
BYLAYER
 70
0
 71
3
 72
11
 73
7
 74
0
 42
0.0000001
 43
0.0000001
 44
0.0000000001
 40
0.0
 40
0.0
 40
0.0
 40
0.0
 40
0.2558042194
 40
0.5086084636
 40
0.7575845776
 40
1.0
 40
1.0
 40
1.0
 40
1.0
 10
62.7960335388
 20
85.0441065117
 30
0.0
 10
62.1430284961
 20
85.1178259646
 30
0.0
 10
60.8396987892
 20
85.2239084134
 30
0.0
 10
58.8919089564
 20
85.2498689347
 30
0.0
 10
56.9821533591
 20
85.1149673993
 30
0.0
 10
55.7370691025
 20
84.8811711956
 30
0.0
 10
55.1353714532
 20
84.7205877627
 30
0.0
  0
SPLINE
  5
2C0
100
AcDbEntity
  8
0
100
AcDbSpline
 62
7
  6
BYLAYER
 70
0
 71
3
 72
11
 73
7
 74
0
 42
0.0000001
 43
0.0000001
 44
0.0000000001
 40
0.0
 40
0.0
 40
0.0
 40
0.0
 40
0.2886536226
 40
0.5477297395
 40
0.7812629235
 40
1.0
 40
1.0
 40
1.0
 40
1.0
 10
31.6434106081
 20
38.5093904163
 30
0.0
 10
31.6445342239
 20
38.4357080205
 30
0.0
 10
31.6578348769
 20
38.2955960401
 30
0.0
 10
31.7173162912
 20
38.1033996213
 30
0.0
 10
31.8149546056
 20
37.9474150806
 30
0.0
 10
31.9055792667
 20
37.8719520023
 30
0.0
 10
31.9539292446
 20
37.844012974
 30
0.0
  0
SPLINE
  5
2C1
100
AcDbEntity
  8
0
100
AcDbSpline
 62
7
  6
BYLAYER
 70
0
 71
3
 72
18
 73
14
 74
0
 42
0.0000001
 43
0.0000001
 44
0.0000000001
 40
0.0
 40
0.0
 40
0.0
 40
0.0
 40
0.0346353878
 40
0.0714570329
 40
0.1119245332
 40
0.157094122
 40
0.2636166147
 40
0.3250612847
 40
0.3904054795
 40
0.5285192342
 40
0.6782232413
 40
0.8372984521
 40
1.0
 40
1.0
 40
1.0
 40
1.0
 10
64.2088603134
 20
84.3690632349
 30
0.0
 10
64.2107403718
 20
84.3846224731
 30
0.0
 10
64.2102798412
 20
84.4173738594
 30
0.0
 10
64.1971859841
 20
84.4667179586
 30
0.0
 10
64.1721522698
 20
84.5165241054
 30
0.0
 10
64.1203026821
 20
84.5867279408
 30
0.0
 10
64.0471777189
 20
84.6511357186
 30
0.0
 10
63.9600571505
 20
84.710721058
 30
0.0
 10
63.8573402213
 20
84.7726094877
 30
0.0
 10
63.7155595498
 20
84.8469474531
 30
0.0
 10
63.5259553786
 20
84.9186144283
 30
0.0
 10
63.319545841
 20
84.9736516635
 30
0.0
 10
63.1758321469
 20
84.9984479968
 30
0.0
 10
63.1027900664
 20
85.0076702632
 30
0.0
  0
SPLINE
  5
2C2
100
AcDbEntity
  8
0
100
AcDbSpline
 62
7
  6
BYLAYER
 70
0
 71
3
 72
8
 73
4
 74
0
 42
0.0000001
 43
0.0000001
 44
0.0000000001
 40
0.0
 40
0.0
 40
0.0
 40
0.0
 40
1.0
 40
1.0
 40
1.0
 40
1.0
 10
64.1959039492
 20
84.2752292469
 30
0.0
 10
64.2006503911
 20
84.3064451155
 30
0.0
 10
64.2051086612
 20
84.3377119046
 30
0.0
 10
64.2088639629
 20
84.3690624528
 30
0.0
  0
SPLINE
  5
2C3
100
AcDbEntity
  8
0
100
AcDbSpline
 62
7
  6
BYLAYER
 70
0
 71
3
 72
13
 73
9
 74
0
 42
0.0000001
 43
0.0000001
 44
0.0000000001
 40
0.0
 40
0.0
 40
0.0
 40
0.0
 40
0.2437154999
 40
0.3777104566
 40
0.5141533901
 40
0.6483890428
 40
0.7762372053
 40
1.0
 40
1.0
 40
1.0
 40
1.0
 10
62.2268082555
 20
80.6264373527
 30
0.0
 10
62.3352169343
 20
80.5865038967
 30
0.0
 10
62.4945293057
 20
80.4979210743
 30
0.0
 10
62.678885457
 20
80.3377645326
 30
0.0
 10
62.8054066953
 20
80.1926040518
 30
0.0
 10
62.9068795008
 20
80.0323005737
 30
0.0
 10
63.0002895174
 20
79.8213011423
 30
0.0
 10
63.0315045662
 20
79.653302251
 30
0.0
 10
63.0304617219
 20
79.5472359164
 30
0.0
  0
SPLINE
  5
2C4
100
AcDbEntity
  8
0
100
AcDbSpline
 62
7
  6
BYLAYER
 70
0
 71
3
 72
13
 73
9
 74
0
 42
0.0000001
 43
0.0000001
 44
0.0000000001
 40
0.0
 40
0.0
 40
0.0
 40
0.0
 40
0.2507597828
 40
0.3814244573
 40
0.5123132856
 40
0.6412806628
 40
0.7665895997
 40
1.0
 40
1.0
 40
1.0
 40
1.0
 10
64.1959122104
 20
84.2752835803
 30
0.0
 10
64.3503247691
 20
84.2423790996
 30
0.0
 10
64.5798049705
 20
84.1560531297
 30
0.0
 10
64.8466942562
 20
83.9730285014
 30
0.0
 10
65.0248777978
 20
83.8017279027
 30
0.0
 10
65.1673975749
 20
83.6038197342
 30
0.0
 10
65.3013948619
 20
83.3263000104
 30
0.0
 10
65.3432487207
 20
83.0980279321
 30
0.0
 10
65.3434161154
 20
82.9510717581
 30
0.0
  0
SPLINE
  5
2C5
100
AcDbEntity
  8
0
100
AcDbSpline
 62
7
  6
BYLAYER
 70
0
 71
3
 72
13
 73
9
 74
0
 42
0.0000001
 43
0.0000001
 44
0.0000000001
 40
0.0
 40
0.0
 40
0.0
 40
0.0
 40
0.2506686972
 40
0.3811957252
 40
0.51194998
 40
0.6408402354
 40
0.7661708689
 40
1.0
 40
1.0
 40
1.0
 40
1.0
 10
64.2088588918
 20
84.3690612695
 30
0.0
 10
64.3635547571
 20
84.3365935423
 30
0.0
 10
64.593527161
 20
84.2508626655
 30
0.0
 10
64.8610664364
 20
84.0682948427
 30
0.0
 10
65.0396876377
 20
83.8972095799
 30
0.0
 10
65.1826634494
 20
83.6993103985
 30
0.0
 10
65.3173470286
 20
83.4213310659
 30
0.0
 10
65.3596396124
 20
83.1925115873
 30
0.0
 10
65.3601479667
 20
83.0450648064
 30
0.0
  0
SPLINE
  5
2C6
100
AcDbEntity
  8
0
100
AcDbSpline
 62
7
  6
BYLAYER
 70
0
 71
3
 72
11
 73
7
 74
0
 42
0.0000001
 43
0.0000001
 44
0.0000000001
 40
0.0
 40
0.0
 40
0.0
 40
0.0
 40
0.2756736785
 40
0.5343642497
 40
0.7741128736
 40
1.0
 40
1.0
 40
1.0
 40
1.0
 10
49.9485772673
 20
84.7209509039
 30
0.0
 10
49.9735804705
 20
84.7420179801
 30
0.0
 10
50.0247505644
 20
84.7798235871
 30
0.0
 10
50.1068969098
 20
84.8220163605
 30
0.0
 10
50.1908842225
 20
84.8438309164
 30
0.0
 10
50.2470823281
 20
84.8421713481
 30
0.0
 10
50.2733933398
 20
84.83712523
 30
0.0
  0
SPLINE
  5
2C7
100
AcDbEntity
  8
0
100
AcDbSpline
 62
7
  6
BYLAYER
 70
0
 71
3
 72
11
 73
7
 74
0
 42
0.0000001
 43
0.0000001
 44
0.0000000001
 40
0.0
 40
0.0
 40
0.0
 40
0.0
 40
0.22284593
 40
0.4581532243
 40
0.7155954199
 40
1.0
 40
1.0
 40
1.0
 40
1.0
 10
35.0963831676
 20
42.1775612229
 30
0.0
 10
35.0775000804
 20
42.1884631284
 30
0.0
 10
35.0349897334
 20
42.2050019938
 30
0.0
 10
34.964401958
 20
42.2107323783
 30
0.0
 10
34.8887667027
 20
42.1983092247
 30
0.0
 10
34.8388911723
 20
42.1793853288
 30
0.0
 10
34.813706855
 20
42.1675484696
 30
0.0
  0
SPLINE
  5
2C8
100
AcDbEntity
  8
0
100
AcDbSpline
 62
7
  6
BYLAYER
 70
0
 71
3
 72
10
 73
6
 74
0
 42
0.0000001
 43
0.0000001
 44
0.0000000001
 40
0.0
 40
0.0
 40
0.0
 40
0.0
 40
0.2355070232
 40
0.6066229348
 40
1.0
 40
1.0
 40
1.0
 40
1.0
 10
19.8168336912
 20
60.5428612893
 30
0.0
 10
19.7433923294
 20
60.371275986
 30
0.0
 10
19.5744778342
 20
59.9204397532
 30
0.0
 10
19.3756545847
 20
59.1513453865
 30
0.0
 10
19.2895988503
 20
58.5503456267
 30
0.0
 10
19.2603032825
 20
58.2399697053
 30
0.0
  0
SPLINE
  5
2C9
100
AcDbEntity
  8
0
100
AcDbSpline
 62
7
  6
BYLAYER
 70
0
 71
3
 72
11
 73
7
 74
0
 42
0.0000001
 43
0.0000001
 44
0.0000000001
 40
0.0
 40
0.0
 40
0.0
 40
0.0
 40
0.287418154
 40
0.5486267551
 40
0.7829572973
 40
1.0
 40
1.0
 40
1.0
 40
1.0
 10
55.1353710911
 20
84.7205880498
 30
0.0
 10
55.1149767883
 20
84.7402896914
 30
0.0
 10
55.0736207829
 20
84.775539759
 30
0.0
 10
55.0068344941
 20
84.8153552589
 30
0.0
 10
54.9386721579
 20
84.8360561473
 30
0.0
 10
54.8930567717
 20
84.8342498713
 30
0.0
 10
54.8721977378
 20
84.8294099201
 30
0.0
  0
SPLINE
  5
2CA
100
AcDbEntity
  8
0
100
AcDbSpline
 62
7
  6
BYLAYER
 70
0
 71
3
 72
11
 73
7
 74
0
 42
0.0000001
 43
0.0000001
 44
0.0000000001
 40
0.0
 40
0.0
 40
0.0
 40
0.0
 40
0.2847754755
 40
0.5464285116
 40
0.7831597595
 40
1.0
 40
1.0
 40
1.0
 40
1.0
 10
55.0812639736
 20
84.7062876496
 30
0.0
 10
55.0635731493
 20
84.7238494124
 30
0.0
 10
55.0277280335
 20
84.7557389186
 30
0.0
 10
54.9702324138
 20
84.7936354907
 30
0.0
 10
54.9117486536
 20
84.8174436581
 30
0.0
 10
54.8715766012
 20
84.8219171001
 30
0.0
 10
54.8526234885
 20
84.8208908966
 30
0.0
  0
SPLINE
  5
2CB
100
AcDbEntity
  8
0
100
AcDbSpline
 62
7
  6
BYLAYER
 70
0
 71
3
 72
18
 73
14
 74
0
 42
0.0000001
 43
0.0000001
 44
0.0000000001
 40
0.0
 40
0.0
 40
0.0
 40
0.0
 40
0.2145695911
 40
0.409311181
 40
0.5811980721
 40
0.7272041991
 40
0.8443048987
 40
0.8910856686
 40
0.9296850335
 40
0.9599798413
 40
0.9818515021
 40
0.9951935009
 40
1.0
 40
1.0
 40
1.0
 40
1.0
 10
52.8251668816
 20
84.3639790626
 30
0.0
 10
52.8248153505
 20
84.3755916516
 30
0.0
 10
52.8241596608
 20
84.3977443264
 30
0.0
 10
52.8232844211
 20
84.4292006876
 30
0.0
 10
52.8225747765
 20
84.4569500253
 30
0.0
 10
52.822052964
 20
84.4804922194
 30
0.0
 10
52.8217523168
 20
84.4972801429
 30
0.0
 10
52.8216486604
 20
84.5082251383
 30
0.0
 10
52.8216026755
 20
84.514526444
 30
0.0
 10
52.8216901945
 20
84.5193415405
 30
0.0
 10
52.8216366925
 20
84.5231162609
 30
0.0
 10
52.8219941609
 20
84.5248700161
 30
0.0
 10
52.8218680641
 20
84.5262908471
 30
0.0
 10
52.8221246954
 20
84.5263340878
 30
0.0
  0
SPLINE
  5
2CC
100
AcDbEntity
  8
0
100
AcDbSpline
 62
7
  6
BYLAYER
 70
0
 71
3
 72
11
 73
7
 74
0
 42
0.0000001
 43
0.0000001
 44
0.0000000001
 40
0.0
 40
0.0
 40
0.0
 40
0.0
 40
0.2999942107
 40
0.5657713034
 40
0.7949978013
 40
1.0
 40
1.0
 40
1.0
 40
1.0
 10
50.7375387785
 20
84.5214316275
 30
0.0
 10
50.7553710392
 20
84.5441696054
 30
0.0
 10
50.7915427226
 20
84.5851906169
 30
0.0
 10
50.8512394078
 20
84.6339307765
 30
0.0
 10
50.9134781481
 20
84.6625785621
 30
0.0
 10
50.9567554014
 20
84.6644450493
 30
0.0
 10
50.9761510207
 20
84.6607390566
 30
0.0
  0
SPLINE
  5
2CD
100
AcDbEntity
  8
0
100
AcDbSpline
 62
7
  6
BYLAYER
 70
0
 71
3
 72
11
 73
7
 74
0
 42
0.0000001
 43
0.0000001
 44
0.0000000001
 40
0.0
 40
0.0
 40
0.0
 40
0.0
 40
0.2751097527
 40
0.5340931745
 40
0.7746299599
 40
1.0
 40
1.0
 40
1.0
 40
1.0
 10
50.023237579
 20
84.6979283194
 30
0.0
 10
50.0454872618
 20
84.7173797485
 30
0.0
 10
50.0909528229
 20
84.7526799567
 30
0.0
 10
50.1637306781
 20
84.793798148
 30
0.0
 10
50.2381688045
 20
84.8186502832
 30
0.0
 10
50.2888312144
 20
84.8221551401
 30
0.0
 10
50.3129709928
 20
84.820309891
 30
0.0
  0
SPLINE
  5
2CE
100
AcDbEntity
  8
0
100
AcDbSpline
 62
7
  6
BYLAYER
 70
0
 71
3
 72
8
 73
4
 74
0
 42
0.0000001
 43
0.0000001
 44
0.0000000001
 40
0.0
 40
0.0
 40
0.0
 40
0.0
 40
1.0
 40
1.0
 40
1.0
 40
1.0
 10
50.3129709928
 20
84.820309891
 30
0.0
 10
50.3296689127
 20
84.819033499
 30
0.0
 10
50.346333503
 20
84.8160467286
 30
0.0
 10
50.362401305
 20
84.8113270419
 30
0.0
  0
SPLINE
  5
2CF
100
AcDbEntity
  8
0
100
AcDbSpline
 62
7
  6
BYLAYER
 70
0
 71
3
 72
9
 73
5
 74
0
 42
0.0000001
 43
0.0000001
 44
0.0000000001
 40
0.0
 40
0.0
 40
0.0
 40
0.0
 40
0.2458240822
 40
1.0
 40
1.0
 40
1.0
 40
1.0
 10
49.9431339807
 20
84.7226625301
 30
0.0
 10
49.4730657124
 20
84.8704355116
 30
0.0
 10
47.5492884362
 20
85.4344597472
 30
0.0
 10
45.5838701388
 20
85.8538287805
 30
0.0
 10
44.0916609574
 20
86.0959684562
 30
0.0
  0
SPLINE
  5
2D0
100
AcDbEntity
  8
0
100
AcDbSpline
 62
7
  6
BYLAYER
 70
0
 71
3
 72
15
 73
11
 74
0
 42
0.0000001
 43
0.0000001
 44
0.0000000001
 40
0.0
 40
0.0
 40
0.0
 40
0.0
 40
0.1030660188
 40
0.2079632949
 40
0.3172369924
 40
0.4331457753
 40
0.5576642657
 40
0.6926140541
 40
0.8396628411
 40
1.0
 40
1.0
 40
1.0
 40
1.0
 10
65.3434159951
 20
82.9510718442
 30
0.0
 10
65.3164367053
 20
82.8101297939
 30
0.0
 10
65.2437441694
 20
82.5289152483
 30
0.0
 10
65.0812587144
 20
82.1171638758
 30
0.0
 10
64.866172899
 20
81.7101072459
 30
0.0
 10
64.5991465445
 20
81.3022804478
 30
0.0
 10
64.2803753615
 20
80.8876213263
 30
0.0
 10
63.9100644621
 20
80.4592823983
 30
0.0
 10
63.4889124147
 20
80.0097815449
 30
0.0
 10
63.1885339664
 20
79.7048735777
 30
0.0
 10
63.0304617009
 20
79.547235895
 30
0.0
  0
SPLINE
  5
2D1
100
AcDbEntity
  8
0
100
AcDbSpline
 62
7
  6
BYLAYER
 70
0
 71
3
 72
9
 73
5
 74
0
 42
0.0000001
 43
0.0000001
 44
0.0000000001
 40
0.0
 40
0.0
 40
0.0
 40
0.0
 40
0.5000055948
 40
1.0
 40
1.0
 40
1.0
 40
1.0
 10
63.0289262311
 20
79.5476819999
 30
0.0
 10
63.0371017839
 20
79.2014974985
 30
0.0
 10
63.0547559358
 20
78.509167721
 30
0.0
 10
63.0717164825
 20
77.8168212195
 30
0.0
 10
63.0802822201
 20
77.4706539045
 30
0.0
  0
SPLINE
  5
2D2
100
AcDbEntity
  8
0
100
AcDbSpline
 62
7
  6
BYLAYER
 70
0
 71
3
 72
15
 73
11
 74
0
 42
0.0000001
 43
0.0000001
 44
0.0000000001
 40
0.0
 40
0.0
 40
0.0
 40
0.0
 40
0.1474067317
 40
0.287448677
 40
0.4201067264
 40
0.5458452912
 40
0.6654405003
 40
0.7799848763
 40
0.8909300412
 40
1.0
 40
1.0
 40
1.0
 40
1.0
 10
14.4121115082
 20
54.8239602612
 30
0.0
 10
14.4214152085
 20
55.119279644
 30
0.0
 10
14.4632144038
 20
55.6948035805
 30
0.0
 10
14.6017716778
 20
56.5267058444
 30
0.0
 10
14.8139541969
 20
57.2982971245
 30
0.0
 10
15.0981329074
 20
58.0026408624
 30
0.0
 10
15.4521795751
 20
58.6336124146
 30
0.0
 10
15.8736721373
 20
59.1852357218
 30
0.0
 10
16.3588300151
 20
59.6519812636
 30
0.0
 10
16.7233939437
 20
59.9041761869
 30
0.0
 10
16.9127224694
 20
60.013494901
 30
0.0
  0
SPLINE
  5
2D3
100
AcDbEntity
  8
0
100
AcDbSpline
 62
7
  6
BYLAYER
 70
0
 71
3
 72
11
 73
7
 74
0
 42
0.0000001
 43
0.0000001
 44
0.0000000001
 40
0.0
 40
0.0
 40
0.0
 40
0.0
 40
0.2580655889
 40
0.5077343397
 40
0.7533801925
 40
1.0
 40
1.0
 40
1.0
 40
1.0
 10
63.0067125984
 20
79.5257726014
 30
0.0
 10
62.9378804617
 20
79.4565646079
 30
0.0
 10
62.8135690077
 20
79.3086024707
 30
0.0
 10
62.6732329638
 20
79.0586431527
 30
0.0
 10
62.5852298042
 20
78.7903405396
 30
0.0
 10
62.5625993973
 20
78.6041616804
 30
0.0
 10
62.5600569077
 20
78.5109160592
 30
0.0
  0
SPLINE
  5
2D4
100
AcDbEntity
  8
0
100
AcDbSpline
 62
7
  6
BYLAYER
 70
0
 71
3
 72
10
 73
6
 74
0
 42
0.0000001
 43
0.0000001
 44
0.0000000001
 40
0.0
 40
0.0
 40
0.0
 40
0.0
 40
0.2795974273
 40
0.5388580672
 40
1.0
 40
1.0
 40
1.0
 40
1.0
 10
11.9857602491
 20
49.858483392
 30
0.0
 10
11.9865663839
 20
49.8056201746
 30
0.0
 10
11.9940282154
 20
49.7035838633
 30
0.0
 10
12.0331965205
 20
49.5184597417
 30
0.0
 10
12.0932557203
 20
49.3915830146
 30
0.0
 10
12.1472834752
 20
49.3231399142
 30
0.0
  0
SPLINE
  5
2D5
100
AcDbEntity
  8
0
100
AcDbSpline
 62
7
  6
BYLAYER
 70
0
 71
3
 72
11
 73
7
 74
0
 42
0.0000001
 43
0.0000001
 44
0.0000000001
 40
0.0
 40
0.0
 40
0.0
 40
0.0
 40
0.2649929113
 40
0.5214650903
 40
0.7670982994
 40
1.0
 40
1.0
 40
1.0
 40
1.0
 10
14.1945215186
 20
65.6474601648
 30
0.0
 10
13.8464542711
 20
64.7530547829
 30
0.0
 10
13.2276326182
 20
62.9662946343
 30
0.0
 10
12.531894269
 20
60.273289146
 30
0.0
 10
12.0915009577
 20
57.6444582846
 30
0.0
 10
11.9694680245
 20
55.9120316082
 30
0.0
 10
11.9568288359
 20
55.0686078769
 30
0.0
  0
SPLINE
  5
2D6
100
AcDbEntity
  8
0
100
AcDbSpline
 62
7
  6
BYLAYER
 70
0
 71
3
 72
9
 73
5
 74
0
 42
0.0000001
 43
0.0000001
 44
0.0000000001
 40
0.0
 40
0.0
 40
0.0
 40
0.0
 40
0.2556764564
 40
1.0
 40
1.0
 40
1.0
 40
1.0
 10
50.737063181
 20
84.5215251948
 30
0.0
 10
50.6755637523
 20
84.5336262865
 30
0.0
 10
50.4355936791
 20
84.5837628813
 30
0.0
 10
50.1979444382
 20
84.6452044269
 30
0.0
 10
50.0232564207
 20
84.6979234648
 30
0.0
  0
SPLINE
  5
2D7
100
AcDbEntity
  8
0
100
AcDbSpline
 62
7
  6
BYLAYER
 70
0
 71
3
 72
9
 73
5
 74
0
 42
0.0000001
 43
0.0000001
 44
0.0000000001
 40
0.0
 40
0.0
 40
0.0
 40
0.0
 40
0.5085228902
 40
1.0
 40
1.0
 40
1.0
 40
1.0
 10
52.82527152
 20
84.3640355681
 30
0.0
 10
52.4699690421
 20
84.3506693303
 30
0.0
 10
51.7692924287
 20
84.3639157315
 30
0.0
 10
51.0742389784
 20
84.4551879831
 30
0.0
 10
50.7370685824
 20
84.5215320284
 30
0.0
  0
SPLINE
  5
2D8
100
AcDbEntity
  8
0
100
AcDbSpline
 62
7
  6
BYLAYER
 70
0
 71
3
 72
13
 73
9
 74
0
 42
0.0000001
 43
0.0000001
 44
0.0000000001
 40
0.0
 40
0.0
 40
0.0
 40
0.0
 40
0.2688127539
 40
0.5280914578
 40
0.6520699778
 40
0.771599554
 40
0.8871014681
 40
1.0
 40
1.0
 40
1.0
 40
1.0
 10
62.4028700888
 20
77.5507047679
 30
0.0
 10
62.4618556045
 20
77.5717070777
 30
0.0
 10
62.5815250503
 20
77.6032994561
 30
0.0
 10
62.7350465547
 20
77.6099636113
 30
0.0
 10
62.850808613
 20
77.5897262402
 30
0.0
 10
62.9303611758
 20
77.5627169489
 30
0.0
 10
63.0016552766
 20
77.5232207128
 30
0.0
 10
63.0426635733
 20
77.4887380582
 30
0.0
 10
63.0611367204
 20
77.4700226986
 30
0.0
  0
SPLINE
  5
2D9
100
AcDbEntity
  8
0
100
AcDbSpline
 62
7
  6
BYLAYER
 70
0
 71
3
 72
12
 73
8
 74
0
 42
0.0000001
 43
0.0000001
 44
0.0000000001
 40
0.0
 40
0.0
 40
0.0
 40
0.0
 40
0.2643251944
 40
0.3958709877
 40
0.524954207
 40
0.7704524996
 40
1.0
 40
1.0
 40
1.0
 40
1.0
 10
62.0199540746
 20
78.007734809
 30
0.0
 10
62.0934059839
 20
78.024596163
 30
0.0
 10
62.2064441277
 20
78.0392975105
 30
0.0
 10
62.3563342354
 20
78.0321985223
 30
0.0
 10
62.4984800449
 20
78.0055666375
 30
0.0
 10
62.6602834136
 20
77.9373820657
 30
0.0
 10
62.7597806491
 20
77.8398721748
 30
0.0
 10
62.796964625
 20
77.7860145905
 30
0.0
  0
SPLINE
  5
2DA
100
AcDbEntity
  8
0
100
AcDbSpline
 62
7
  6
BYLAYER
 70
0
 71
3
 72
14
 73
10
 74
0
 42
0.0000001
 43
0.0000001
 44
0.0000000001
 40
0.0
 40
0.0
 40
0.0
 40
0.0
 40
0.2639801766
 40
0.4007466332
 40
0.5350884656
 40
0.6635693696
 40
0.7842760417
 40
0.8961420303
 40
1.0
 40
1.0
 40
1.0
 40
1.0
 10
61.5974956143
 20
79.2994087486
 30
0.0
 10
61.7172945469
 20
79.2945967982
 30
0.0
 10
61.8998252715
 20
79.2612624043
 30
0.0
 10
62.1227252377
 20
79.1624049069
 30
0.0
 10
62.2749170964
 20
79.0615527535
 30
0.0
 10
62.399204898
 20
78.9378807459
 30
0.0
 10
62.4907323159
 20
78.8002801891
 30
0.0
 10
62.5452396802
 20
78.6561909751
 30
0.0
 10
62.5590374517
 20
78.5582526
 30
0.0
 10
62.5602801482
 20
78.5110983591
 30
0.0
  0
SPLINE
  5
2DB
100
AcDbEntity
  8
0
100
AcDbSpline
 62
7
  6
BYLAYER
 70
0
 71
3
 72
13
 73
9
 74
0
 42
0.0000001
 43
0.0000001
 44
0.0000000001
 40
0.0
 40
0.0
 40
0.0
 40
0.0
 40
0.2443218101
 40
0.3784397362
 40
0.5148753442
 40
0.6489898882
 40
0.7766449963
 40
1.0
 40
1.0
 40
1.0
 40
1.0
 10
62.1978525762
 20
80.5976165013
 30
0.0
 10
62.3067473772
 20
80.5584042847
 30
0.0
 10
62.4669566245
 20
80.4709945416
 30
0.0
 10
62.6526981772
 20
80.3121623668
 30
0.0
 10
62.780215696
 20
80.1680465276
 30
0.0
 10
62.8826300413
 20
80.008665247
 30
0.0
 10
62.9770926886
 20
79.7986730643
 30
0.0
 10
63.0089593962
 20
79.6311500779
 30
0.0
 10
63.0082292437
 20
79.5253452661
 30
0.0
  0
SPLINE
  5
2DC
100
AcDbEntity
  8
0
100
AcDbSpline
 62
7
  6
BYLAYER
 70
0
 71
3
 72
11
 73
7
 74
0
 42
0.0000001
 43
0.0000001
 44
0.0000000001
 40
0.0
 40
0.0
 40
0.0
 40
0.0
 40
0.235241385
 40
0.4803723822
 40
0.7353477273
 40
1.0
 40
1.0
 40
1.0
 40
1.0
 10
75.924831685
 20
76.4440789024
 30
0.0
 10
75.1577927044
 20
77.1812924472
 30
0.0
 10
73.5277913726
 20
78.6215745667
 30
0.0
 10
70.8745713658
 20
80.6311291836
 30
0.0
 10
67.9767972813
 20
82.5238598074
 30
0.0
 10
65.9290789856
 20
83.6804393056
 30
0.0
 10
64.8700449943
 20
84.2380991617
 30
0.0
  0
SPLINE
  5
2DD
100
AcDbEntity
  8
0
100
AcDbSpline
 62
7
  6
BYLAYER
 70
0
 71
3
 72
9
 73
5
 74
0
 42
0.0000001
 43
0.0000001
 44
0.0000000001
 40
0.0
 40
0.0
 40
0.0
 40
0.0
 40
0.7500191433
 40
1.0
 40
1.0
 40
1.0
 40
1.0
 10
54.0682333713
 20
88.2735693743
 30
0.0
 10
52.7529486616
 20
87.5198621848
 30
0.0
 10
50.9993732818
 20
86.5147829249
 30
0.0
 10
49.2459931885
 20
85.5093630713
 30
0.0
 10
48.8076942158
 20
85.2580055844
 30
0.0
  0
SPLINE
  5
2DE
100
AcDbEntity
  8
0
100
AcDbSpline
 62
7
  6
BYLAYER
 70
0
 71
3
 72
13
 73
9
 74
0
 42
0.0000001
 43
0.0000001
 44
0.0000000001
 40
0.0
 40
0.0
 40
0.0
 40
0.0
 40
0.1119924818
 40
0.2319343251
 40
0.357982054
 40
0.4880784071
 40
0.7504489591
 40
1.0
 40
1.0
 40
1.0
 40
1.0
 10
69.0659294287
 20
73.7028355944
 30
0.0
 10
68.9794000172
 20
73.6528781136
 30
0.0
 10
68.7922670782
 20
73.5628332431
 30
0.0
 10
68.4889932801
 20
73.4606374081
 30
0.0
 10
68.1605452215
 20
73.3889331163
 30
0.0
 10
67.7002674307
 20
73.336488839
 30
0.0
 10
67.1242587611
 20
73.3542872676
 30
0.0
 10
66.6750497047
 20
73.4570657683
 30
0.0
 10
66.4657027523
 20
73.5328442351
 30
0.0
  0
SPLINE
  5
2DF
100
AcDbEntity
  8
0
100
AcDbSpline
 62
7
  6
BYLAYER
 70
0
 71
3
 72
11
 73
7
 74
0
 42
0.0000001
 43
0.0000001
 44
0.0000000001
 40
0.0
 40
0.0
 40
0.0
 40
0.0
 40
0.2315275325
 40
0.4870534256
 40
0.7494424893
 40
1.0
 40
1.0
 40
1.0
 40
1.0
 10
54.0682333713
 20
88.2735693743
 30
0.0
 10
54.1521654014
 20
88.3216656807
 30
0.0
 10
54.3440066365
 20
88.39661483
 30
0.0
 10
54.6548160962
 20
88.4472303981
 30
0.0
 10
54.977556686
 20
88.4392441029
 30
0.0
 10
55.1887300289
 20
88.3929996261
 30
0.0
 10
55.2876380797
 20
88.358698641
 30
0.0
  0
SPLINE
  5
2E0
100
AcDbEntity
  8
0
100
AcDbSpline
 62
7
  6
BYLAYER
 70
0
 71
3
 72
12
 73
8
 74
0
 42
0.0000001
 43
0.0000001
 44
0.0000000001
 40
0.0
 40
0.0
 40
0.0
 40
0.0
 40
0.1081623742
 40
0.2183733491
 40
0.4513427441
 40
0.7104806646
 40
1.0
 40
1.0
 40
1.0
 40
1.0
 10
71.0951943696
 20
75.3766294963
 30
0.0
 10
71.0952012835
 20
75.3368744536
 30
0.0
 10
71.0882770236
 20
75.2564438006
 30
0.0
 10
71.046474
 20
75.0952258603
 30
0.0
 10
70.9392696972
 20
74.8974753377
 30
0.0
 10
70.7394737417
 20
74.6877106467
 30
0.0
 10
70.5722933697
 20
74.5725300299
 30
0.0
 10
70.4801371031
 20
74.5193239022
 30
0.0
  0
SPLINE
  5
2E1
100
AcDbEntity
  8
0
100
AcDbSpline
 62
7
  6
BYLAYER
 70
0
 71
3
 72
12
 73
8
 74
0
 42
0.0000001
 43
0.0000001
 44
0.0000000001
 40
0.0
 40
0.0
 40
0.0
 40
0.0
 40
0.2509023661
 40
0.4379538054
 40
0.6241767518
 40
0.8118621939
 40
1.0
 40
1.0
 40
1.0
 40
1.0
 10
28.7281023159
 20
43.0909406983
 30
0.0
 10
28.7550334646
 20
43.1123773112
 30
0.0
 10
28.8028444097
 20
43.1487770595
 30
0.0
 10
28.8694370537
 20
43.202622775
 30
0.0
 10
28.9282593532
 20
43.2522562236
 30
0.0
 10
28.9889036917
 20
43.2998921947
 30
0.0
 10
29.0297314518
 20
43.3313803983
 30
0.0
 10
29.0499012096
 20
43.3474851613
 30
0.0
  0
SPLINE
  5
2E2
100
AcDbEntity
  8
0
100
AcDbSpline
 62
7
  6
BYLAYER
 70
0
 71
3
 72
9
 73
5
 74
0
 42
0.0000001
 43
0.0000001
 44
0.0000000001
 40
0.0
 40
0.0
 40
0.0
 40
0.0
 40
0.2417453933
 40
1.0
 40
1.0
 40
1.0
 40
1.0
 10
29.0499012096
 20
43.3474851613
 30
0.0
 10
29.0732962731
 20
43.366165205
 30
0.0
 10
29.1731613605
 20
43.4395343729
 30
0.0
 10
29.2839764304
 20
43.4975872665
 30
0.0
 10
29.3709261389
 20
43.5330474129
 30
0.0
  0
SPLINE
  5
2E3
100
AcDbEntity
  8
0
100
AcDbSpline
 62
7
  6
BYLAYER
 70
0
 71
3
 72
15
 73
11
 74
0
 42
0.0000001
 43
0.0000001
 44
0.0000000001
 40
0.0
 40
0.0
 40
0.0
 40
0.0
 40
0.1454708688
 40
0.2840638372
 40
0.4158546668
 40
0.541355348
 40
0.661354197
 40
0.7768893178
 40
0.8892631237
 40
1.0
 40
1.0
 40
1.0
 40
1.0
 10
28.7281023159
 20
43.0909406983
 30
0.0
 10
28.7078509007
 20
42.848024732
 30
0.0
 10
28.6491191662
 20
42.3749737354
 30
0.0
 10
28.5009215106
 20
41.6930474897
 30
0.0
 10
28.2953372043
 20
41.0610395378
 30
0.0
 10
28.0338765699
 20
40.4838647252
 30
0.0
 10
27.7181195465
 20
39.9659246495
 30
0.0
 10
27.3502255988
 20
39.5112809868
 30
0.0
 10
26.9328513593
 20
39.1240049872
 30
0.0
 10
26.6227508376
 20
38.9122223859
 30
0.0
 10
26.4620476083
 20
38.8194554372
 30
0.0
  0
SPLINE
  5
2E4
100
AcDbEntity
  8
0
100
AcDbSpline
 62
7
  6
BYLAYER
 70
0
 71
3
 72
9
 73
5
 74
0
 42
0.0000001
 43
0.0000001
 44
0.0000000001
 40
0.0
 40
0.0
 40
0.0
 40
0.0
 40
0.4837255327
 40
1.0
 40
1.0
 40
1.0
 40
1.0
 10
26.4539732872
 20
38.8397003722
 30
0.0
 10
26.2705495108
 20
38.7610988561
 30
0.0
 10
25.8747364482
 20
38.6354236175
 30
0.0
 10
25.4631788583
 20
38.5835417656
 30
0.0
 10
25.2504301584
 20
38.5735454668
 30
0.0
  0
SPLINE
  5
2E5
100
AcDbEntity
  8
0
100
AcDbSpline
 62
7
  6
BYLAYER
 70
0
 71
3
 72
10
 73
6
 74
0
 42
0.0000001
 43
0.0000001
 44
0.0000000001
 40
0.0
 40
0.0
 40
0.0
 40
0.0
 40
0.499879846
 40
0.7499110618
 40
1.0
 40
1.0
 40
1.0
 40
1.0
 10
64.9402157805
 20
49.450073042
 30
0.0
 10
60.1474255253
 20
46.6663753351
 30
0.0
 10
52.9552733183
 20
42.493920438
 30
0.0
 10
43.3611948959
 20
36.9358646352
 30
0.0
 10
38.5620495193
 20
34.157814771
 30
0.0
 10
36.1617706458
 20
32.7693715655
 30
0.0
  0
SPLINE
  5
2E6
100
AcDbEntity
  8
0
100
AcDbSpline
 62
7
  6
BYLAYER
 70
0
 71
3
 72
11
 73
7
 74
0
 42
0.0000001
 43
0.0000001
 44
0.0000000001
 40
0.0
 40
0.0
 40
0.0
 40
0.0
 40
0.3001811461
 40
0.565245216
 40
0.7941995819
 40
1.0
 40
1.0
 40
1.0
 40
1.0
 10
34.5027410749
 20
42.054442995
 30
0.0
 10
34.4919301306
 20
42.0456076681
 30
0.0
 10
34.4701007742
 20
42.03063418
 30
0.0
 10
34.4355816371
 20
42.0164773704
 30
0.0
 10
34.4025874763
 20
42.0132465372
 30
0.0
 10
34.3825587898
 20
42.0193359665
 30
0.0
 10
34.3742723393
 20
42.0241278536
 30
0.0
  0
SPLINE
  5
2E7
100
AcDbEntity
  8
0
100
AcDbSpline
 62
7
  6
BYLAYER
 70
0
 71
3
 72
11
 73
7
 74
0
 42
0.0000001
 43
0.0000001
 44
0.0000000001
 40
0.0
 40
0.0
 40
0.0
 40
0.0
 40
0.2492342201
 40
0.43709416
 40
0.6257210634
 40
1.0
 40
1.0
 40
1.0
 40
1.0
 10
35.5645476273
 20
42.5512047724
 30
0.0
 10
35.6203505412
 20
42.55354723
 30
0.0
 10
35.7181949374
 20
42.5581166113
 30
0.0
 10
35.8583001147
 20
42.5638206538
 30
0.0
 10
36.0264333967
 20
42.569911437
 30
0.0
 10
36.1524368042
 20
42.5759222368
 30
0.0
 10
36.236236811
 20
42.5794424225
 30
0.0
  0
SPLINE
  5
2E8
100
AcDbEntity
  8
0
100
AcDbSpline
 62
7
  6
BYLAYER
 70
0
 71
3
 72
9
 73
5
 74
0
 42
0.0000001
 43
0.0000001
 44
0.0000000001
 40
0.0
 40
0.0
 40
0.0
 40
0.0
 40
0.2747418673
 40
1.0
 40
1.0
 40
1.0
 40
1.0
 10
34.9687044092
 20
42.3580862416
 30
0.0
 10
35.0186187667
 20
42.3869540556
 30
0.0
 10
35.2045219215
 20
42.483598042
 30
0.0
 10
35.4126098213
 20
42.544738425
 30
0.0
 10
35.5646883213
 20
42.5511222752
 30
0.0
  0
SPLINE
  5
2E9
100
AcDbEntity
  8
0
100
AcDbSpline
 62
7
  6
BYLAYER
 70
0
 71
3
 72
9
 73
5
 74
0
 42
0.0000001
 43
0.0000001
 44
0.0000000001
 40
0.0
 40
0.0
 40
0.0
 40
0.0
 40
0.2585970492
 40
1.0
 40
1.0
 40
1.0
 40
1.0
 10
34.5027933583
 20
42.0544123334
 30
0.0
 10
34.5263387492
 20
42.0736549841
 30
0.0
 10
34.6187289022
 20
42.146395608
 30
0.0
 10
34.7166112655
 20
42.2122906319
 30
0.0
 10
34.7920803026
 20
42.2559368268
 30
0.0
  0
SPLINE
  5
2EA
100
AcDbEntity
  8
0
100
AcDbSpline
 62
7
  6
BYLAYER
 70
0
 71
3
 72
11
 73
7
 74
0
 42
0.0000001
 43
0.0000001
 44
0.0000000001
 40
0.0
 40
0.0
 40
0.0
 40
0.0
 40
0.2893655157
 40
0.5487138203
 40
0.7820185137
 40
1.0
 40
1.0
 40
1.0
 40
1.0
 10
75.661187147
 20
55.4387152805
 30
0.0
 10
75.7045203525
 20
55.4639218262
 30
0.0
 10
75.7831571234
 20
55.5184291686
 30
0.0
 10
75.8772152604
 20
55.6175817916
 30
0.0
 10
75.9369220883
 20
55.7271399993
 30
0.0
 10
75.9511700043
 20
55.8057540508
 30
0.0
 10
75.9513989308
 20
55.8435176088
 30
0.0
  0
SPLINE
  5
2EB
100
AcDbEntity
  8
0
100
AcDbSpline
 62
7
  6
BYLAYER
 70
0
 71
3
 72
11
 73
7
 74
0
 42
0.0000001
 43
0.0000001
 44
0.0000000001
 40
0.0
 40
0.0
 40
0.0
 40
0.0
 40
0.2740372988
 40
0.528851312
 40
0.7684875269
 40
1.0
 40
1.0
 40
1.0
 40
1.0
 10
75.924831685
 20
76.4440789024
 30
0.0
 10
75.9472494127
 20
76.4225324996
 30
0.0
 10
75.9875209784
 20
76.3776245066
 30
0.0
 10
76.0335900054
 20
76.3029622343
 30
0.0
 10
76.061620253
 20
76.224827791
 30
0.0
 10
76.0677648811
 20
76.1711362542
 30
0.0
 10
76.0676061064
 20
76.1448683423
 30
0.0
  0
SPLINE
  5
2EC
100
AcDbEntity
  8
0
100
AcDbSpline
 62
7
  6
BYLAYER
 70
0
 71
3
 72
9
 73
5
 74
0
 42
0.0000001
 43
0.0000001
 44
0.0000000001
 40
0.0
 40
0.0
 40
0.0
 40
0.0
 40
0.2499621586
 40
1.0
 40
1.0
 40
1.0
 40
1.0
 10
75.661187147
 20
55.4387152805
 30
0.0
 10
74.7768732105
 20
54.9243170237
 30
0.0
 10
71.2389581107
 20
52.8666254065
 30
0.0
 10
67.7002330958
 20
50.8103265008
 30
0.0
 10
65.0457450924
 20
49.2685590517
 30
0.0
  0
SPLINE
  5
2ED
100
AcDbEntity
  8
0
100
AcDbSpline
 62
7
  6
BYLAYER
 70
0
 71
3
 72
25
 73
21
 74
0
 42
0.0000001
 43
0.0000001
 44
0.0000000001
 40
0.0
 40
0.0
 40
0.0
 40
0.0
 40
0.0640354349
 40
0.1314696152
 40
0.201586445
 40
0.2735871846
 40
0.346575677
 40
0.4196245108
 40
0.4918014978
 40
0.5622090674
 40
0.6300218831
 40
0.6945277263
 40
0.7551738526
 40
0.8116215029
 40
0.8638108877
 40
0.9120347403
 40
0.9348945395
 40
0.9570670623
 40
0.9787094254
 40
1.0
 40
1.0
 40
1.0
 40
1.0
 10
13.4061257608
 20
52.3792483638
 30
0.0
 10
13.4371065082
 20
51.9313395413
 30
0.0
 10
13.5530757662
 20
51.0148559594
 30
0.0
 10
13.8675062391
 20
49.634906115
 30
0.0
 10
14.3216123919
 20
48.2356132306
 30
0.0
 10
14.906585851
 20
46.8436518116
 30
0.0
 10
15.6114809722
 20
45.4852628893
 30
0.0
 10
16.4228742585
 20
44.186226526
 30
0.0
 10
17.3254134377
 20
42.971172952
 30
0.0
 10
18.3020027702
 20
41.8631130967
 30
0.0
 10
19.3342207083
 20
40.8829799135
 30
0.0
 10
20.4027505597
 20
40.0492468811
 30
0.0
 10
21.4877851765
 20
39.377624558
 30
0.0
 10
22.5697076023
 20
38.8809521551
 30
0.0
 10
23.6288443021
 20
38.5691999058
 30
0.0
 10
24.4927777975
 20
38.4682744521
 30
0.0
 10
25.1472796514
 20
38.4911883081
 30
0.0
 10
25.6110652949
 20
38.5570910332
 30
0.0
 10
26.0539147108
 20
38.6716545014
 30
0.0
 10
26.3353012797
 20
38.7809251237
 30
0.0
 10
26.4709606179
 20
38.8432162107
 30
0.0
  0
SPLINE
  5
2EE
100
AcDbEntity
  8
0
100
AcDbSpline
 62
7
  6
BYLAYER
 70
0
 71
3
 72
19
 73
15
 74
0
 42
0.0000001
 43
0.0000001
 44
0.0000000001
 40
0.0
 40
0.0
 40
0.0
 40
0.0
 40
0.0582369545
 40
0.1190828818
 40
0.1821537347
 40
0.2470784532
 40
0.3806294679
 40
0.5159376223
 40
0.6489771454
 40
0.7759315848
 40
0.8361288853
 40
0.8936742398
 40
0.9483563371
 40
1.0
 40
1.0
 40
1.0
 40
1.0
 10
13.9797153407
 20
53.2980200799
 30
0.0
 10
13.9963966917
 20
52.94819307
 30
0.0
 10
14.0623317611
 20
52.2341131784
 30
0.0
 10
14.2486509297
 20
51.1536625682
 30
0.0
 10
14.5228959247
 20
50.0506002574
 30
0.0
 10
15.0059974897
 20
48.5527035201
 30
0.0
 10
15.8078571594
 20
46.7062129768
 30
0.0
 10
17.0353425429
 20
44.6174639783
 30
0.0
 10
18.4839993314
 20
42.7250722992
 30
0.0
 10
19.8475030349
 20
41.3556770995
 30
0.0
 10
20.9973215319
 20
40.4352317724
 30
0.0
 10
21.8575103458
 20
39.8538762947
 30
0.0
 10
22.7209276003
 20
39.3760667098
 30
0.0
 10
23.3095065279
 20
39.1225980222
 30
0.0
 10
23.6013358952
 20
39.0163353828
 30
0.0
  0
SPLINE
  5
2EF
100
AcDbEntity
  8
0
100
AcDbSpline
 62
7
  6
BYLAYER
 70
0
 71
3
 72
11
 73
7
 74
0
 42
0.0000001
 43
0.0000001
 44
0.0000000001
 40
0.0
 40
0.0
 40
0.0
 40
0.0
 40
0.2575799803
 40
0.5103578762
 40
0.7579475602
 40
1.0
 40
1.0
 40
1.0
 40
1.0
 10
65.1779567989
 20
69.4694143514
 30
0.0
 10
62.7290333711
 20
67.0956548362
 30
0.0
 10
57.7907956007
 20
62.4801229217
 30
0.0
 10
50.2017602421
 20
55.9094568278
 30
0.0
 10
42.5192497985
 20
49.7724520066
 30
0.0
 10
37.288973181
 20
45.9375263521
 30
0.0
 10
34.6633788576
 20
44.0995710327
 30
0.0
  0
SPLINE
  5
2F0
100
AcDbEntity
  8
0
100
AcDbSpline
 62
7
  6
BYLAYER
 70
0
 71
3
 72
9
 73
5
 74
0
 42
0.0000001
 43
0.0000001
 44
0.0000000001
 40
0.0
 40
0.0
 40
0.0
 40
0.0
 40
0.263785098
 40
1.0
 40
1.0
 40
1.0
 40
1.0
 10
14.6120173872
 20
54.0456127421
 30
0.0
 10
14.5456701519
 20
53.9903232869
 30
0.0
 10
14.3027731145
 20
53.7709381312
 30
0.0
 10
14.0956410785
 20
53.5093550165
 30
0.0
 10
13.9797179289
 20
53.2980196284
 30
0.0
  0
SPLINE
  5
2F1
100
AcDbEntity
  8
0
100
AcDbSpline
 62
7
  6
BYLAYER
 70
0
 71
3
 72
18
 73
14
 74
0
 42
0.0000001
 43
0.0000001
 44
0.0000000001
 40
0.0
 40
0.0
 40
0.0
 40
0.0
 40
0.0514617829
 40
0.1058509934
 40
0.1630156212
 40
0.2227656764
 40
0.3487433493
 40
0.4809327499
 40
0.6158172418
 40
0.7496460516
 40
0.8150419826
 40
0.8788255584
 40
1.0
 40
1.0
 40
1.0
 40
1.0
 10
24.4240407438
 20
39.2835366252
 30
0.0
 10
24.1367683949
 20
39.3881399361
 30
0.0
 10
23.5575189146
 20
39.6362435363
 30
0.0
 10
22.7068553204
 20
40.1016899866
 30
0.0
 10
21.8586280698
 20
40.6661745594
 30
0.0
 10
20.7230257442
 20
41.5584159686
 30
0.0
 10
19.3703185342
 20
42.8857261188
 30
0.0
 10
17.9205509174
 20
44.723271585
 30
0.0
 10
16.6743322
 20
46.7592123797
 30
0.0
 10
15.8410613776
 20
48.5663919119
 30
0.0
 10
15.3210591949
 20
50.040899327
 30
0.0
 10
14.9176718783
 20
51.4730279368
 30
0.0
 10
14.7260076345
 20
52.5602519788
 30
0.0
 10
14.6595430125
 20
53.2770502278
 30
0.0
  0
SPLINE
  5
2F2
100
AcDbEntity
  8
0
100
AcDbSpline
 62
7
  6
BYLAYER
 70
0
 71
3
 72
9
 73
5
 74
0
 42
0.0000001
 43
0.0000001
 44
0.0000000001
 40
0.0
 40
0.0
 40
0.0
 40
0.0
 40
0.4740557182
 40
1.0
 40
1.0
 40
1.0
 40
1.0
 10
34.3443655423
 20
43.5127098415
 30
0.0
 10
34.344772851
 20
43.5663681384
 30
0.0
 10
34.3643848761
 20
43.6794700887
 30
0.0
 10
34.4085894848
 20
43.7845994051
 30
0.0
 10
34.4370166766
 20
43.8369071971
 30
0.0
  0
SPLINE
  5
2F3
100
AcDbEntity
  8
0
100
AcDbSpline
 62
7
  6
BYLAYER
 70
0
 71
3
 72
9
 73
5
 74
0
 42
0.0000001
 43
0.0000001
 44
0.0000000001
 40
0.0
 40
0.0
 40
0.0
 40
0.0
 40
0.2625602013
 40
1.0
 40
1.0
 40
1.0
 40
1.0
 10
34.5069064527
 20
43.9454555721
 30
0.0
 10
34.5185179475
 20
43.9608237852
 30
0.0
 10
34.5647405473
 20
44.0177681125
 30
0.0
 10
34.6189945551
 20
44.0685848884
 30
0.0
 10
34.6633139256
 20
44.099609111
 30
0.0
  0
SPLINE
  5
2F4
100
AcDbEntity
  8
0
100
AcDbSpline
 62
7
  6
BYLAYER
 70
0
 71
3
 72
9
 73
5
 74
0
 42
0.0000001
 43
0.0000001
 44
0.0000000001
 40
0.0
 40
0.0
 40
0.0
 40
0.0
 40
0.2620452977
 40
1.0
 40
1.0
 40
1.0
 40
1.0
 10
23.6013358952
 20
39.0163353828
 30
0.0
 10
23.745466927
 20
38.963853537
 30
0.0
 10
24.3009041174
 20
38.7793309791
 30
0.0
 10
24.8797019252
 20
38.660657194
 30
0.0
 10
25.3100550123
 20
38.6233956153
 30
0.0
  0
SPLINE
  5
2F5
100
AcDbEntity
  8
0
100
AcDbSpline
 62
7
  6
BYLAYER
 70
0
 71
3
 72
10
 73
6
 74
0
 42
0.0000001
 43
0.0000001
 44
0.0000000001
 40
0.0
 40
0.0
 40
0.0
 40
0.0
 40
0.2285043691
 40
0.5976620752
 40
1.0
 40
1.0
 40
1.0
 40
1.0
 10
64.9171038448
 20
75.4084445388
 30
0.0
 10
64.9441379924
 20
75.448512922
 30
0.0
 10
65.0225503552
 20
75.5482366692
 30
0.0
 10
65.1789078707
 20
75.692303059
 30
0.0
 10
65.3152543672
 20
75.7831344644
 30
0.0
 10
65.3889588579
 20
75.8256875179
 30
0.0
  0
SPLINE
  5
2F6
100
AcDbEntity
  8
0
100
AcDbSpline
 62
7
  6
BYLAYER
 70
0
 71
3
 72
11
 73
7
 74
0
 42
0.0000001
 43
0.0000001
 44
0.0000000001
 40
0.0
 40
0.0
 40
0.0
 40
0.0
 40
0.2179812469
 40
0.4512860343
 40
0.7106308375
 40
1.0
 40
1.0
 40
1.0
 40
1.0
 10
76.0676061064
 20
76.1448683423
 30
0.0
 10
76.0673778459
 20
76.1071046086
 30
0.0
 10
76.0531283936
 20
76.0284900169
 30
0.0
 10
75.9934198857
 20
75.9189331532
 30
0.0
 10
75.8993648021
 20
75.8197771875
 30
0.0
 10
75.820727729
 20
75.7652678152
 30
0.0
 10
75.7773915157
 20
75.7400646216
 30
0.0
  0
SPLINE
  5
2F7
100
AcDbEntity
  8
0
100
AcDbSpline
 62
7
  6
BYLAYER
 70
0
 71
3
 72
20
 73
16
 74
0
 42
0.0000001
 43
0.0000001
 44
0.0000000001
 40
0.0
 40
0.0
 40
0.0
 40
0.0
 40
0.0623922376
 40
0.1288118874
 40
0.2703075007
 40
0.4173730608
 40
0.5616271977
 40
0.6302634376
 40
0.6953903404
 40
0.7563729045
 40
0.8128410726
 40
0.8647704896
 40
0.9125694871
 40
0.9571686625
 40
1.0
 40
1.0
 40
1.0
 40
1.0
 10
67.5102762575
 20
76.2339350712
 30
0.0
 10
67.5856915595
 20
76.2774758562
 30
0.0
 10
67.7474221418
 20
76.3571732519
 30
0.0
 10
68.1026433067
 20
76.4859291335
 30
0.0
 10
68.5915756367
 20
76.583696812
 30
0.0
 10
69.1979396714
 20
76.6004317349
 30
0.0
 10
69.6983668926
 20
76.5302573522
 30
0.0
 10
70.0717454067
 20
76.4226595768
 30
0.0
 10
70.3243750496
 20
76.3208998403
 30
0.0
 10
70.5487867567
 20
76.1988199089
 30
0.0
 10
70.7403161809
 20
76.0588590367
 30
0.0
 10
70.894902538
 20
75.9036542322
 30
0.0
 10
71.0089068068
 20
75.7358918968
 30
0.0
 10
71.0792246938
 20
75.5589610751
 30
0.0
 10
71.0951839729
 20
75.4364099579
 30
0.0
 10
71.0951943696
 20
75.3766294963
 30
0.0
  0
SPLINE
  5
2F8
100
AcDbEntity
  8
0
100
AcDbSpline
 62
7
  6
BYLAYER
 70
0
 71
3
 72
23
 73
19
 74
0
 42
0.0000001
 43
0.0000001
 44
0.0000000001
 40
0.0
 40
0.0
 40
0.0
 40
0.0
 40
0.0453600814
 40
0.0939563764
 40
0.1461577821
 40
0.2020628873
 40
0.2615449828
 40
0.3242954751
 40
0.3898648308
 40
0.4576959104
 40
0.5271518338
 40
0.5975417413
 40
0.6681453791
 40
0.7382369184
 40
0.8071056852
 40
0.8740737098
 40
0.9385559745
 40
1.0
 40
1.0
 40
1.0
 40
1.0
 10
25.2504301209
 20
38.5735455685
 30
0.0
 10
24.9532531275
 20
38.5595851982
 30
0.0
 10
24.3340062691
 20
38.5896719737
 30
0.0
 10
23.3934251177
 20
38.7914825538
 30
0.0
 10
22.4257799837
 20
39.1466358222
 30
0.0
 10
21.4455415867
 20
39.6491078872
 30
0.0
 10
20.4669480236
 20
40.2910041087
 30
0.0
 10
19.5045670382
 20
41.0624605696
 30
0.0
 10
18.5728495738
 20
41.9517194068
 30
0.0
 10
17.685924667
 20
42.9452440644
 30
0.0
 10
16.857325362
 20
44.0278889592
 30
0.0
 10
16.0996963968
 20
45.1830836382
 30
0.0
 10
15.4246136903
 20
46.393142603
 30
0.0
 10
14.8424177119
 20
47.6395625132
 30
0.0
 10
14.3620847001
 20
48.9032461699
 30
0.0
 10
13.9907988597
 20
50.165006824
 30
0.0
 10
13.7344742944
 20
51.4053816754
 30
0.0
 10
13.6402202574
 20
52.227392898
 30
0.0
 10
13.6148952242
 20
52.6295914055
 30
0.0
  0
SPLINE
  5
2F9
100
AcDbEntity
  8
0
100
AcDbSpline
 62
7
  6
BYLAYER
 70
0
 71
3
 72
9
 73
5
 74
0
 42
0.0000001
 43
0.0000001
 44
0.0000000001
 40
0.0
 40
0.0
 40
0.0
 40
0.0
 40
0.495646683
 40
1.0
 40
1.0
 40
1.0
 40
1.0
 10
26.4620476083
 20
38.8194554372
 30
0.0
 10
26.2865346301
 20
38.718139468
 30
0.0
 10
25.9149262991
 20
38.5426749904
 30
0.0
 10
25.5199907899
 20
38.4296953284
 30
0.0
 10
25.3180092314
 20
38.3881172909
 30
0.0
  0
SPLINE
  5
2FA
100
AcDbEntity
  8
0
100
AcDbSpline
 62
7
  6
BYLAYER
 70
0
 71
3
 72
23
 73
19
 74
0
 42
0.0000001
 43
0.0000001
 44
0.0000000001
 40
0.0
 40
0.0
 40
0.0
 40
0.0
 40
0.0439234179
 40
0.0907547878
 40
0.1411485595
 40
0.1954172868
 40
0.2535787893
 40
0.3154115608
 40
0.3805055603
 40
0.4483053165
 40
0.5181476285
 40
0.5892948605
 40
0.6609631008
 40
0.7323504332
 40
0.8026678858
 40
0.8711537518
 40
0.9371382154
 40
1.0
 40
1.0
 40
1.0
 40
1.0
 10
25.3180092314
 20
38.3881172909
 30
0.0
 10
25.0301761441
 20
38.3288666594
 30
0.0
 10
24.4209227082
 20
38.2706875909
 30
0.0
 10
23.4761921769
 20
38.3591258187
 30
0.0
 10
22.4918494069
 20
38.6166664546
 30
0.0
 10
21.4838847046
 20
39.0377670582
 30
0.0
 10
20.4679413565
 20
39.6147987798
 30
0.0
 10
19.4602467344
 20
40.3380571335
 30
0.0
 10
18.4770972854
 20
41.1955788261
 30
0.0
 10
17.5345868134
 20
42.1731999068
 30
0.0
 10
16.6482380652
 20
43.2547355033
 30
0.0
 10
15.8327296211
 20
44.4222612663
 30
0.0
 10
15.1015978922
 20
45.6563925672
 30
0.0
 10
14.4669879466
 20
46.9366524184
 30
0.0
 10
13.9394881735
 20
48.2417491091
 30
0.0
 10
13.5276932445
 20
49.5501569003
 30
0.0
 10
13.2386760256
 20
50.8399959153
 30
0.0
 10
13.127951197
 20
51.6965367171
 30
0.0
 10
13.0960596491
 20
52.1159005681
 30
0.0
  0
SPLINE
  5
2FB
100
AcDbEntity
  8
0
100
AcDbSpline
 62
7
  6
BYLAYER
 70
0
 71
3
 72
11
 73
7
 74
0
 42
0.0000001
 43
0.0000001
 44
0.0000000001
 40
0.0
 40
0.0
 40
0.0
 40
0.0
 40
0.2369413179
 40
0.4925114567
 40
0.7520109873
 40
1.0
 40
1.0
 40
1.0
 40
1.0
 10
15.4652861418
 20
55.1833448725
 30
0.0
 10
15.4278750468
 20
55.1571524773
 30
0.0
 10
15.3566905797
 20
55.093097897
 30
0.0
 10
15.2683428041
 20
54.9773275488
 30
0.0
 10
15.1999009878
 20
54.8463830676
 30
0.0
 10
15.1702261819
 20
54.7524348417
 30
0.0
 10
15.1607804595
 20
54.7055793763
 30
0.0
  0
SPLINE
  5
2FC
100
AcDbEntity
  8
0
100
AcDbSpline
 62
7
  6
BYLAYER
 70
0
 71
3
 72
9
 73
5
 74
0
 42
0.0000001
 43
0.0000001
 44
0.0000000001
 40
0.0
 40
0.0
 40
0.0
 40
0.0
 40
0.4811283395
 40
1.0
 40
1.0
 40
1.0
 40
1.0
 10
26.5192312995
 20
38.8639001645
 30
0.0
 10
26.1754721501
 20
38.8712815474
 30
0.0
 10
25.4616068551
 20
38.9567992391
 30
0.0
 10
24.772472281
 20
39.1566636682
 30
0.0
 10
24.4240407438
 20
39.2835366252
 30
0.0
  0
SPLINE
  5
2FD
100
AcDbEntity
  8
0
100
AcDbSpline
 62
7
  6
BYLAYER
 70
0
 71
3
 72
9
 73
5
 74
0
 42
0.0000001
 43
0.0000001
 44
0.0000000001
 40
0.0
 40
0.0
 40
0.0
 40
0.0
 40
0.2401424151
 40
1.0
 40
1.0
 40
1.0
 40
1.0
 10
15.1496033779
 20
54.5945602392
 30
0.0
 10
15.1495198897
 20
54.6035008419
 30
0.0
 10
15.1502721646
 20
54.6407389976
 30
0.0
 10
15.1551896616
 20
54.677846247
 30
0.0
 10
15.1607804595
 20
54.7055793763
 30
0.0
  0
SPLINE
  5
2FE
100
AcDbEntity
  8
0
100
AcDbSpline
 62
7
  6
BYLAYER
 70
0
 71
3
 72
11
 73
7
 74
0
 42
0.0000001
 43
0.0000001
 44
0.0000000001
 40
0.0
 40
0.0
 40
0.0
 40
0.0
 40
0.2497960996
 40
0.4374610931
 40
0.6253823123
 40
1.0
 40
1.0
 40
1.0
 40
1.0
 10
15.1509963499
 20
54.4936331901
 30
0.0
 10
15.1060717279
 20
54.4563838911
 30
0.0
 10
15.0278998066
 20
54.3905454955
 30
0.0
 10
14.9153062878
 20
54.2974344446
 30
0.0
 10
14.7795006612
 20
54.1866366744
 30
0.0
 10
14.6792521524
 20
54.1016418068
 30
0.0
 10
14.6120173872
 20
54.0456127421
 30
0.0
  0
SPLINE
  5
2FF
100
AcDbEntity
  8
0
100
AcDbSpline
 62
7
  6
BYLAYER
 70
0
 71
3
 72
15
 73
11
 74
0
 42
0.0000001
 43
0.0000001
 44
0.0000000001
 40
0.0
 40
0.0
 40
0.0
 40
0.0
 40
0.1189280765
 40
0.2484435974
 40
0.3845044316
 40
0.5222995311
 40
0.6568145739
 40
0.7834104536
 40
0.8984398266
 40
1.0
 40
1.0
 40
1.0
 40
1.0
 10
51.9538623043
 20
85.2152316706
 30
0.0
 10
52.076387147
 20
85.2859709993
 30
0.0
 10
52.3482529341
 20
85.406828678
 30
0.0
 10
52.7922993227
 20
85.5229252918
 30
0.0
 10
53.2706186644
 20
85.5774065408
 30
0.0
 10
53.7577653428
 20
85.5673153915
 30
0.0
 10
54.2280512914
 20
85.4932407115
 30
0.0
 10
54.6568891366
 20
85.358880283
 30
0.0
 10
55.0219028056
 20
85.1712583334
 30
0.0
 10
55.2231066212
 20
85.0051819288
 30
0.0
 10
55.3037677195
 20
84.9152330849
 30
0.0
  0
SPLINE
  5
300
100
AcDbEntity
  8
0
100
AcDbSpline
 62
7
  6
BYLAYER
 70
0
 71
3
 72
12
 73
8
 74
0
 42
0.0000001
 43
0.0000001
 44
0.0000000001
 40
0.0
 40
0.0
 40
0.0
 40
0.0
 40
0.2491031238
 40
0.4370074167
 40
0.6258548734
 40
0.8131742909
 40
1.0
 40
1.0
 40
1.0
 40
1.0
 10
13.4061280752
 20
52.3792470829
 30
0.0
 10
13.3803634205
 20
52.357398849
 30
0.0
 10
13.3360977433
 20
52.3179821087
 30
0.0
 10
13.2710382212
 20
52.2634655477
 30
0.0
 10
13.2113574828
 20
52.2156055446
 30
0.0
 10
13.1534752783
 20
52.1658047006
 30
0.0
 10
13.1153574907
 20
52.1323166009
 30
0.0
 10
13.0960596491
 20
52.1159005681
 30
0.0
  0
SPLINE
  5
301
100
AcDbEntity
  8
0
100
AcDbSpline
 62
7
  6
BYLAYER
 70
0
 71
3
 72
11
 73
7
 74
0
 42
0.0000001
 43
0.0000001
 44
0.0000000001
 40
0.0
 40
0.0
 40
0.0
 40
0.0
 40
0.2278482063
 40
0.4769681813
 40
0.7380220804
 40
1.0
 40
1.0
 40
1.0
 40
1.0
 10
65.3889588579
 20
75.8256875179
 30
0.0
 10
65.5224662811
 20
75.9027676045
 30
0.0
 10
65.8208097132
 20
76.0321651542
 30
0.0
 10
66.3082223123
 20
76.1492656897
 30
0.0
 10
66.8306353319
 20
76.1933815598
 30
0.0
 10
67.185377678
 20
76.1719098155
 30
0.0
 10
67.3609743808
 20
76.147736107
 30
0.0
  0
SPLINE
  5
302
100
AcDbEntity
  8
0
100
AcDbSpline
 62
7
  6
BYLAYER
 70
0
 71
3
 72
9
 73
5
 74
0
 42
0.0000001
 43
0.0000001
 44
0.0000000001
 40
0.0
 40
0.0
 40
0.0
 40
0.0
 40
0.2373841155
 40
1.0
 40
1.0
 40
1.0
 40
1.0
 10
13.6148951674
 20
52.6295914297
 30
0.0
 10
13.6025469074
 20
52.6068491053
 30
0.0
 10
13.5453677743
 20
52.5138603686
 30
0.0
 10
13.4695358553
 20
52.4330164059
 30
0.0
 10
13.4061280752
 20
52.3792470829
 30
0.0
  0
ELLIPSE
  5
303
100
AcDbEntity
  8
0
100
AcDbEllipse
 62
7
  6
BYLAYER
 10
13.1636526395
 20
50.4243529184
 30
0.0
 11
1.0039614304
 21
1.1517532788
 31
0.0
 40
0.1413970111
 41
-3.1139126015
 42
-2.8019568476
  0
ENDSEC
  0
SECTION
  2
OBJECTS
  0
DICTIONARY
  5
C
100
AcDbDictionary
280
0
281
1
  3
ACAD_GROUP
350
D
  3
ACAD_MLINESTYLE
350
17
  3
ACAD_LAYOUT
350
1A
  3
ACAD_PLOTSETTINGS
350
19
  3
ACAD_PLOTSTYLENAME
350
E
  0
DICTIONARY
  5
D
102
{ACAD_REACTORS
330
C
102
}
100
AcDbDictionary
280
0
281
1
  0
ACDBDICTIONARYWDFLT
  5
E
102
{ACAD_REACTORS
330
C
102
}
100
AcDbDictionary
281
1
  3
Normal
350
F
100
AcDbDictionaryWithDefault
340
F
  0
DICTIONARY
  5
17
102
{ACAD_REACTORS
330
C
102
}
100
AcDbDictionary
280
0
281
1
  3
Standard
350
18
  0
DICTIONARY
  5
19
102
{ACAD_REACTORS
330
C
102
}
100
AcDbDictionary
281
1
  0
DICTIONARY
  5
1A
102
{ACAD_REACTORS
330
C
102
}
100
AcDbDictionary
281
1
  3
Model
350
304
  3
Layout1
350
305
  0
ACDBPLACEHOLDER
  5
F
102
{ACAD_REACTORS
330
E
102
}
  0
MLINESTYLE
  5
18
102
{ACAD_REACTORS
330
17
102
}
100
AcDbMlineStyle
  2
STANDARD
 70
0
  3

 62
256
 51
90.0
 52
90.0
 71
2
 49
0.5
 62
256
  6
BYLAYER
 49
-0.5
 62
256
  6
BYLAYER
  0
LAYOUT
  5
304
102
{ACAD_REACTORS
330
1A
102
}
100
AcDbPlotSettings
  1

  2
none_device
  4

  6

 40
0.0
 41
0.0
 42
0.0
 43
0.0
 44
210.0
 45
297.0
 46
0.0
 47
0.0
 48
0.0
 49
0.0
140
0.0
141
0.0
142
1.0
143
1.0
 70
1024
 72
1
 73
0
 74
0
  7

 75
0
147
1.0
148
0.0
149
0.0
100
AcDbLayout
  1
Model
 70
0
 71
0
 10
0.0
 20
0.0
 11
210.0
 21
297.0
 12
0.0
 22
0.0
 32
0.0
 14
0.0
 24
0.0
 34
0.0
 15
0.0
 25
0.0
 35
0.0
146
0.0
 13
0.0
 23
0.0
 33
0.0
 16
1.0
 26
0.0
 36
0.0
 17
0.0
 27
1.0
 37
0.0
 76
0
330
210
345
0
346
0
  0
LAYOUT
  5
305
102
{ACAD_REACTORS
330
1A
102
}
100
AcDbPlotSettings
  1

  2
none_device
  4

  6

 40
0.0
 41
0.0
 42
0.0
 43
0.0
 44
210.0
 45
297.0
 46
0.0
 47
0.0
 48
0.0
 49
0.0
140
0.0
141
0.0
142
1.0
143
1.0
 70
0
 72
1
 73
0
 74
0
  7

 75
0
147
1.0
148
0.0
149
0.0
100
AcDbLayout
  1
Layout1
 70
0
 71
1
 10
0.0
 20
0.0
 11
210.0
 21
297.0
 12
0.0
 22
0.0
 32
0.0
 14
0.0
 24
0.0
 34
0.0
 15
0.0
 25
0.0
 35
0.0
146
0.0
 13
0.0
 23
0.0
 33
0.0
 16
1.0
 26
0.0
 36
0.0
 17
0.0
 27
1.0
 37
0.0
 76
0
330
211
345
0
346
0
  0
ENDSEC
  0
EOF
