999
DXF file: C:\Users\sesa63760\Dev\_Creo\CAD\MCADID0004758_3D-CAD\drw0001_7.dxf
999
Pro/ENGINEER 2019471 by Parametric Technology Corporation
  0
SECTION
  2
HEADER
  9
$ACADVER
  1
AC1024
  9
$DWGCODEPAGE
  3
ANSI_1252
  9
$EXTMAX
 10
34.129699622
 20
48.2691466083
 30
0.0
  9
$EXTMIN
 10
0.0
 20
0.0
 30
0.0
  9
$LIMMIN
 10
0.0
 20
0.0
  9
$LIMMAX
 10
34.129699622
 20
48.2691466083
  9
$VIEWCTR
 10
17.064849811
 20
24.1345733042
  9
$VIEWSIZE
 40
48.2691466083
  9
$CLAYER
  8
0
  9
$LTSCALE
 40
3.1464332604
  9
$CELTYPE
  6
BYLAYER
  9
$DIMSCALE
 40
1.0
  9
$DIMASZ
 40
0.4063059479
  9
$DIMEXO
 40
1.0
  9
$DIMDLI
 40
2.1738993435
  9
$DIMEXE
 40
1.0
  9
$DIMCEN
 40
0.5148708972
  9
$DIMLFAC
 40
1.0
  9
$DIMBLK
  1
_FILLED
  9
$DIMALT
 70
0
  9
$DIMALTF
 40
0.0393700787
  9
$DIMTXT
 40
0.568828327
  9
$DIMTOL
 70
1
  9
$DIMLIM
 70
0
  9
$DIMTFAC
 40
1.0
  9
$DIMTP
 40
0.01
  9
$DIMTM
 40
0.01
  9
$DIMGAP
 40
0.625
  9
$DIMDSEP
 70
46
  9
$AUNITS
 70
0
  9
$PDMODE
 70
3
  9
$PDSIZE
 40
0.3125
  9
$HANDSEED
  5
3D2
  9
$TILEMODE
 70
1
  9
$MEASUREMENT
 70
1
  9
$INSUNITS
 70
4
  0
ENDSEC
  0
SECTION
  2
CLASSES
  0
CLASS
  1
ACDBDICTIONARYWDFLT
  2
AcDbDictionaryWithDefault
  3
AutoCAD 2000
 90
0
 91
1
280
0
281
0
  0
CLASS
  1
ACDBPLACEHOLDER
  2
AcDbPlaceHolder
  3
AutoCAD 2000
 90
0
 91
1
280
0
281
0
  0
CLASS
  1
LAYOUT
  2
AcDbLayout
  3
AutoCAD 2000
 90
0
 91
0
280
0
281
0
  0
ENDSEC
  0
SECTION
  2
TABLES
  0
TABLE
  2
VPORT
  5
8
100
AcDbSymbolTable
 70
2
  0
VPORT
  5
1F4
100
AcDbSymbolTableRecord
100
AcDbViewportTableRecord
  2
*ACTIVE
 70
0
 10
0.0
 20
0.0
 11
1.0
 21
1.0
 12
17.064849811
 22
24.1345733042
 13
0.0
 23
0.0
 14
1.0
 24
1.0
 15
0.0
 25
0.0
 16
0.0
 26
0.0
 36
1.0
 17
0.0
 27
0.0
 37
0.0
 40
48.2691466083
 41
0.7070707071
 42
50.0
 43
0.0
 44
0.0
 50
0.0
 51
0.0
 71
0
 72
100
 73
1
 74
1
 75
0
 76
0
 77
0
 78
0
  0
ENDTAB
  0
TABLE
  2
LTYPE
  5
5
100
AcDbSymbolTable
 70
6
  0
LTYPE
  5
14
100
AcDbSymbolTableRecord
100
AcDbLinetypeTableRecord
  2
BYBLOCK
 70
0
  3

 72
65
 73
0
 40
0.0
  0
LTYPE
  5
15
100
AcDbSymbolTableRecord
100
AcDbLinetypeTableRecord
  2
BYLAYER
 70
0
  3

 72
65
 73
0
 40
0.0
  0
LTYPE
  5
16
100
AcDbSymbolTableRecord
100
AcDbLinetypeTableRecord
  2
CONTINUOUS
 70
64
  3
Solid line
 72
65
 73
0
 40
0.0
  0
LTYPE
  5
1F5
100
AcDbSymbolTableRecord
100
AcDbLinetypeTableRecord
  2
CENTER
 70
64
  3
____ _ ____ _ ____ _ ____ _ ____ _ ____ _ ____
 72
65
 73
4
 40
0.6
 49
0.375
 74
0
 49
-0.075
 74
0
 49
0.075
 74
0
 49
-0.075
 74
0
  0
LTYPE
  5
1F6
100
AcDbSymbolTableRecord
100
AcDbLinetypeTableRecord
  2
HIDDEN
 70
64
  3
- - - - - - - - - - - - - - - - - - - -
 72
65
 73
2
 40
0.2
 49
0.1
 74
0
 49
-0.1
 74
0
  0
LTYPE
  5
1F7
100
AcDbSymbolTableRecord
100
AcDbLinetypeTableRecord
  2
PHANTOM
 70
64
  3
_____ _ _ _____ _ _ _____ _ _ _____
 72
65
 73
6
 40
0.8
 49
0.45
 74
0
 49
-0.05
 74
0
 49
0.1
 74
0
 49
-0.05
 74
0
 49
0.1
 74
0
 49
-0.05
 74
0
  0
LTYPE
  5
1F8
100
AcDbSymbolTableRecord
100
AcDbLinetypeTableRecord
  2
DOT
 70
64
  3
. . . . . . . . . . . . . . . . . . . .
 72
65
 73
2
 40
0.2
 49
0.1
 74
0
 49
-0.1
 74
0
  0
LTYPE
  5
1F9
100
AcDbSymbolTableRecord
100
AcDbLinetypeTableRecord
  2
DASHED
 70
64
  3
- - - - - - - - - - - - - - - - - - - -
 72
65
 73
2
 40
0.2
 49
0.1
 74
0
 49
-0.1
 74
0
  0
ENDTAB
  0
TABLE
  2
LAYER
  5
2
100
AcDbSymbolTable
 70
36
  0
LAYER
  5
10
100
AcDbSymbolTableRecord
100
AcDbLayerTableRecord
  2
0
 70
0
 62
7
  6
CONTINUOUS
370
-3
390
F
  0
LAYER
  5
1FA
100
AcDbSymbolTableRecord
100
AcDbLayerTableRecord
  2
DEFAULT_1
 70
0
 62
7
  6
CENTER
370
-3
390
F
  0
LAYER
  5
1FB
100
AcDbSymbolTableRecord
100
AcDbLayerTableRecord
  2
DEFAULT_2
 70
0
 62
7
  6
HIDDEN
370
-3
390
F
  0
LAYER
  5
1FC
100
AcDbSymbolTableRecord
100
AcDbLayerTableRecord
  2
DEFAULT_3
 70
0
 62
7
  6
PHANTOM
370
-3
390
F
  0
LAYER
  5
1FD
100
AcDbSymbolTableRecord
100
AcDbLayerTableRecord
  2
00_COMPONENTS
 70
0
 62
7
  6
CONTINUOUS
370
-3
390
F
  0
LAYER
  5
1FE
100
AcDbSymbolTableRecord
100
AcDbLayerTableRecord
  2
01_1_DEFAULT_DATUMS
 70
0
 62
7
  6
CONTINUOUS
370
-3
390
F
  0
LAYER
  5
1FF
100
AcDbSymbolTableRecord
100
AcDbLayerTableRecord
  2
01_PLANES
 70
0
 62
7
  6
CONTINUOUS
370
-3
390
F
  0
LAYER
  5
200
100
AcDbSymbolTableRecord
100
AcDbLayerTableRecord
  2
02_COORD_SYS
 70
0
 62
7
  6
CONTINUOUS
370
-3
390
F
  0
LAYER
  5
201
100
AcDbSymbolTableRecord
100
AcDbLayerTableRecord
  2
03_AXES
 70
0
 62
7
  6
CONTINUOUS
370
-3
390
F
  0
LAYER
  5
202
100
AcDbSymbolTableRecord
100
AcDbLayerTableRecord
  2
04_POINTS
 70
0
 62
7
  6
CONTINUOUS
370
-3
390
F
  0
LAYER
  5
203
100
AcDbSymbolTableRecord
100
AcDbLayerTableRecord
  2
05_CURVES
 70
0
 62
7
  6
CONTINUOUS
370
-3
390
F
  0
LAYER
  5
204
100
AcDbSymbolTableRecord
100
AcDbLayerTableRecord
  2
06_SURFS
 70
0
 62
7
  6
CONTINUOUS
370
-3
390
F
  0
LAYER
  5
205
100
AcDbSymbolTableRecord
100
AcDbLayerTableRecord
  2
07_COSMETICS
 70
0
 62
7
  6
CONTINUOUS
370
-3
390
F
  0
LAYER
  5
206
100
AcDbSymbolTableRecord
100
AcDbLayerTableRecord
  2
10_NOTES
 70
0
 62
7
  6
CONTINUOUS
370
-3
390
F
  0
LAYER
  5
207
100
AcDbSymbolTableRecord
100
AcDbLayerTableRecord
  2
11_NOTES_PUB
 70
0
 62
7
  6
CONTINUOUS
370
-3
390
F
  0
LAYER
  5
208
100
AcDbSymbolTableRecord
100
AcDbLayerTableRecord
  2
13_REF_GTOL
 70
0
 62
7
  6
CONTINUOUS
370
-3
390
F
  0
LAYER
  5
209
100
AcDbSymbolTableRecord
100
AcDbLayerTableRecord
  2
16_MISC
 70
0
 62
7
  6
CONTINUOUS
370
-3
390
F
  0
LAYER
  5
20A
100
AcDbSymbolTableRecord
100
AcDbLayerTableRecord
  2
17_NO_PRINT
 70
0
 62
7
  6
CONTINUOUS
370
-3
390
F
  0
LAYER
  5
20B
100
AcDbSymbolTableRecord
100
AcDbLayerTableRecord
  2
18_DATUM_CAMS_JOINTS
 70
0
 62
7
  6
CONTINUOUS
370
-3
390
F
  0
LAYER
  5
20C
100
AcDbSymbolTableRecord
100
AcDbLayerTableRecord
  2
19_DATUM_FUNCTIONAL
 70
0
 62
7
  6
CONTINUOUS
370
-3
390
F
  0
LAYER
  5
20D
100
AcDbSymbolTableRecord
100
AcDbLayerTableRecord
  2
20_DATUM_KINEMATIC_SCHEME
 70
0
 62
7
  6
CONTINUOUS
370
-3
390
F
  0
ENDTAB
  0
TABLE
  2
STYLE
  5
3
100
AcDbSymbolTable
 70
1
  0
STYLE
  5
11
100
AcDbSymbolTableRecord
100
AcDbTextStyleTableRecord
  2
STANDARD
 70
0
 40
0.0
 41
1.0
 50
0.0
 71
0
 42
0.2
  3
ARIAL.TTF
  4

  0
STYLE
  5
20E
100
AcDbSymbolTableRecord
100
AcDbTextStyleTableRecord
  2
TEXTSTYLE_1
 70
0
 40
0.0
 41
0.8
 50
0.0
 71
0
 42
0.2
  3
gdt
  4

  0
ENDTAB
  0
TABLE
  2
VIEW
  5
6
100
AcDbSymbolTable
 70
0
  0
ENDTAB
  0
TABLE
  2
UCS
  5
7
100
AcDbSymbolTable
 70
0
  0
ENDTAB
  0
TABLE
  2
APPID
  5
9
100
AcDbSymbolTable
 70
1
  0
APPID
  5
20F
100
AcDbSymbolTableRecord
100
AcDbRegAppTableRecord
  2
ACAD
 70
0
  0
ENDTAB
  0
TABLE
  2
BLOCK_RECORD
  5
1
100
AcDbSymbolTable
 70
0
  0
BLOCK_RECORD
  5
210
100
AcDbSymbolTableRecord
100
AcDbBlockTableRecord
  2
*Model_Space
  0
BLOCK_RECORD
  5
211
100
AcDbSymbolTableRecord
100
AcDbBlockTableRecord
  2
*Paper_Space
  0
BLOCK_RECORD
  5
212
100
AcDbSymbolTableRecord
100
AcDbBlockTableRecord
  2
_FILLED
  0
ENDTAB
  0
TABLE
  2
DIMSTYLE
  5
A
100
AcDbSymbolTable
 70
1
100
AcDbDimStyleTable
 71
0
  0
DIMSTYLE
105
213
100
AcDbSymbolTableRecord
100
AcDbDimStyleTableRecord
  2
STANDARD
 70
0
  3

  4

 40
1.0
 41
0.4063059479
 42
1.0
 43
0.38
 44
1.0
 45
0.0
 46
0.0
 47
0.01
 48
0.01
140
0.568828327
141
0.09
142
0.0
143
25.4
144
1.0
145
0.0
146
1.0
147
0.625
 71
1
 72
0
 73
0
 74
0
 75
0
 76
0
 77
1
 78
8
 79
2
170
0
171
1
172
0
173
0
174
0
175
0
176
0
177
0
178
0
270
2
179
2
271
2
272
2
273
2
274
2
275
0
280
0
281
0
282
0
283
1
284
8
285
0
286
0
287
3
288
0
340
11
278
46
341
212
342
212
343
212
344
212
  0
ENDTAB
  0
ENDSEC
  0
SECTION
  2
BLOCKS
  0
BLOCK
  5
20
100
AcDbEntity
  8
0
100
AcDbBlockBegin
  2
*Model_Space
 70
0
 10
0.0
 20
0.0
 30
0.0
  3
*Model_Space
  1

  0
ENDBLK
  5
21
100
AcDbEntity
  8
0
100
AcDbBlockEnd
  0
BLOCK
  5
1C
100
AcDbEntity
  8
0
100
AcDbBlockBegin
  2
*Paper_Space
 70
0
 10
0.0
 20
0.0
 30
0.0
  3
*Paper_Space
  1

  0
ENDBLK
  5
1D
100
AcDbEntity
  8
0
100
AcDbBlockEnd
  0
BLOCK
  5
214
100
AcDbEntity
  8
0
100
AcDbBlockBegin
  2
_FILLED
 70
64
 10
0.0
 20
0.0
  3
_FILLED
  1

  0
SOLID
  5
215
100
AcDbEntity
  8
0
  6
BYBLOCK
 62
0
100
AcDbTrace
 10
0.0
 20
0.0
 11
-1.0
 21
0.25
 12
-1.0
 22
-0.25
 13
-1.0
 23
-0.25
  0
ENDBLK
  5
216
100
AcDbEntity
  8
0
  6
BYBLOCK
 62
0
100
AcDbBlockEnd
  0
ENDSEC
  0
SECTION
  2
ENTITIES
  0
LINE
  5
217
100
AcDbEntity
  8
0
100
AcDbLine
 62
7
  6
BYLAYER
 10
5.6363595561
 20
35.2533446308
 11
6.1233213727
 21
35.7403064475
  0
LINE
  5
218
100
AcDbEntity
  8
0
100
AcDbLine
 62
7
  6
BYLAYER
 10
5.963028006
 20
34.9471989249
 11
6.4294670787
 21
35.4136379976
  0
LINE
  5
219
100
AcDbEntity
  8
0
100
AcDbLine
 62
7
  6
BYLAYER
 10
6.0703656376
 20
13.8018880039
 11
6.673083548
 21
13.1991700935
  0
LINE
  5
21A
100
AcDbEntity
  8
0
100
AcDbLine
 62
7
  6
BYLAYER
 10
6.9146758495
 20
34.8259197556
 11
6.9631163047
 21
34.9005115155
  0
LINE
  5
21B
100
AcDbEntity
  8
0
100
AcDbLine
 62
7
  6
BYLAYER
 10
7.5747779997
 20
35.306300366
 11
7.2875085934
 21
34.9871830223
  0
LINE
  5
21C
100
AcDbEntity
  8
0
100
AcDbLine
 62
7
  6
BYLAYER
 10
6.8658244657
 20
34.8747711394
 11
6.7730219838
 21
34.7819686575
  0
LINE
  5
21D
100
AcDbEntity
  8
0
100
AcDbLine
 62
7
  6
BYLAYER
 10
6.5946973461
 20
34.6036440198
 11
6.5018948642
 21
34.5108415379
  0
LINE
  5
21E
100
AcDbEntity
  8
0
100
AcDbLine
 62
7
  6
BYLAYER
 10
5.0324842615
 20
32.7936326161
 11
6.5250428381
 21
34.2861911928
  0
LINE
  5
21F
100
AcDbEntity
  8
0
100
AcDbLine
 62
7
  6
BYLAYER
 10
7.0904748108
 20
34.8516231655
 11
8.5830333874
 21
36.3441817421
  0
LINE
  5
220
100
AcDbEntity
  8
0
100
AcDbLine
 62
7
  6
BYLAYER
 10
8.8473519704
 20
36.5788743367
 11
7.5747779997
 21
35.306300366
  0
LINE
  5
221
100
AcDbEntity
  8
0
100
AcDbLine
 62
7
  6
BYLAYER
 10
6.0703656376
 20
33.8018880039
 11
4.7977916668
 21
32.5293140331
  0
LINE
  5
222
100
AcDbEntity
  8
0
100
AcDbLine
 62
7
  6
BYLAYER
 10
7.2875085934
 20
34.9871830223
 11
7.0675589882
 21
34.7672334171
  0
LINE
  5
223
100
AcDbEntity
  8
0
100
AcDbLine
 62
7
  6
BYLAYER
 10
6.6094325865
 20
34.3091070153
 11
6.3894829813
 21
34.0891574102
  0
LINE
  5
224
100
AcDbEntity
  8
0
100
AcDbLine
 62
7
  6
BYLAYER
 10
6.3894829813
 20
34.0891574102
 11
6.0703656376
 21
33.8018880039
  0
LINE
  5
225
100
AcDbEntity
  8
0
100
AcDbLine
 62
7
  6
BYLAYER
 10
6.5507462479
 20
34.4619901541
 11
6.4761544881
 21
34.4135496989
  0
LINE
  5
226
100
AcDbEntity
  8
0
100
AcDbLine
 62
7
  6
BYLAYER
 10
5.963028006
 20
14.9471989249
 11
6.5018948642
 21
14.5108415379
  0
LINE
  5
227
100
AcDbEntity
  8
0
100
AcDbLine
 62
7
  6
BYLAYER
 10
7.7459666835
 20
13.9946289216
 11
8.2848335417
 21
13.5582715346
  0
LINE
  5
228
100
AcDbEntity
  8
0
100
AcDbLine
 62
7
  6
BYLAYER
 10
6.3894829813
 20
14.0891574102
 11
6.9603529542
 21
13.5182874373
  0
LINE
  5
229
100
AcDbEntity
  8
0
100
AcDbLine
 62
7
  6
BYLAYER
 10
5.6363595561
 20
15.2533446308
 11
6.4761544881
 21
14.4135496989
  0
LINE
  5
22A
100
AcDbEntity
  8
0
100
AcDbLine
 62
7
  6
BYLAYER
 10
7.2847452429
 20
13.604958944
 11
8.1245401749
 21
12.7651640121
  0
LINE
  5
22B
100
AcDbEntity
  8
0
100
AcDbLine
 62
7
  6
BYLAYER
 10
6.5018948642
 20
14.5108415379
 11
6.5507462479
 21
14.4619901541
  0
LINE
  5
22C
100
AcDbEntity
  8
0
100
AcDbLine
 62
7
  6
BYLAYER
 10
7.3331856982
 20
13.6795507039
 11
7.382037082
 21
13.6306993201
  0
LINE
  5
22D
100
AcDbEntity
  8
0
100
AcDbLine
 62
7
  6
BYLAYER
 10
7.7459666835
 20
13.9946289216
 11
7.6971152997
 21
14.0434803054
  0
LINE
  5
22E
100
AcDbEntity
  8
0
100
AcDbLine
 62
7
  6
BYLAYER
 10
6.9146758495
 20
14.8259197556
 11
6.8658244657
 21
14.8747711394
  0
LINE
  5
22F
100
AcDbEntity
  8
0
100
AcDbLine
 62
7
  6
BYLAYER
 10
7.382037082
 20
13.6306993201
 11
7.818394469
 21
13.0918324619
  0
LINE
  5
230
100
AcDbEntity
  8
0
100
AcDbLine
 62
7
  6
BYLAYER
 10
6.4294670787
 20
15.4136379976
 11
6.8658244657
 21
14.8747711394
  0
LINE
  5
231
100
AcDbEntity
  8
0
100
AcDbLine
 62
7
  6
BYLAYER
 10
3.6239307738
 20
10.7527352298
 11
3.6239307738
 21
37.7527352298
  0
LINE
  5
232
100
AcDbEntity
  8
0
100
AcDbLine
 62
7
  6
BYLAYER
 10
3.6739307738
 20
37.0027352292
 11
3.6739307738
 21
11.5027352298
  0
LINE
  5
233
100
AcDbEntity
  8
0
100
AcDbLine
 62
7
  6
BYLAYER
 10
4.1739307738
 20
11.5027378388
 11
4.1739307738
 21
13.8509712998
  0
LINE
  5
234
100
AcDbEntity
  8
0
100
AcDbLine
 62
7
  6
BYLAYER
 10
4.1739307738
 20
14.6602239072
 11
4.1739307738
 21
33.8509712998
  0
LINE
  5
235
100
AcDbEntity
  8
0
100
AcDbLine
 62
7
  6
BYLAYER
 10
4.1739307738
 20
34.6602239072
 11
4.1739307738
 21
37.0027326207
  0
LINE
  5
236
100
AcDbEntity
  8
0
100
AcDbLine
 62
7
  6
BYLAYER
 10
4.3739307738
 20
10.8027352298
 11
4.3739307738
 21
11.3027352298
  0
LINE
  5
237
100
AcDbEntity
  8
0
100
AcDbLine
 62
7
  6
BYLAYER
 10
4.3739307738
 20
37.2027352298
 11
4.3739307738
 21
37.7027352298
  0
LINE
  5
238
100
AcDbEntity
  8
0
100
AcDbLine
 62
7
  6
BYLAYER
 10
6.5375394039
 20
34.0090753003
 11
6.6310716876
 21
34.2527352298
  0
LINE
  5
239
100
AcDbEntity
  8
0
100
AcDbLine
 62
7
  6
BYLAYER
 10
7.3331856982
 20
33.6795507039
 11
7.2847452429
 21
33.604958944
  0
LINE
  5
23A
100
AcDbEntity
  8
0
100
AcDbLine
 62
7
  6
BYLAYER
 10
6.9603529542
 20
33.5182874373
 11
6.673083548
 21
33.1991700935
  0
LINE
  5
23B
100
AcDbEntity
  8
0
100
AcDbLine
 62
7
  6
BYLAYER
 10
7.8583785663
 20
34.4163130494
 11
7.6384289612
 21
34.1963634442
  0
LINE
  5
23C
100
AcDbEntity
  8
0
100
AcDbLine
 62
7
  6
BYLAYER
 10
7.1803025594
 20
33.7382370424
 11
6.9603529542
 21
33.5182874373
  0
LINE
  5
23D
100
AcDbEntity
  8
0
100
AcDbLine
 62
7
  6
BYLAYER
 10
5.4005095772
 20
31.9265961228
 11
6.673083548
 21
33.1991700935
  0
LINE
  5
23E
100
AcDbEntity
  8
0
100
AcDbLine
 62
7
  6
BYLAYER
 10
8.17749591
 20
34.7035824556
 11
9.4500698808
 21
35.9761564264
  0
LINE
  5
23F
100
AcDbEntity
  8
0
100
AcDbLine
 62
7
  6
BYLAYER
 10
9.2153772862
 20
35.7118378434
 11
7.7228187095
 21
34.2192792667
  0
LINE
  5
240
100
AcDbEntity
  8
0
100
AcDbLine
 62
7
  6
BYLAYER
 10
7.1573867368
 20
33.6538472941
 11
5.6648281602
 21
32.1612887174
  0
LINE
  5
241
100
AcDbEntity
  8
0
100
AcDbLine
 62
7
  6
BYLAYER
 10
7.382037082
 20
33.6306993201
 11
7.4748395639
 21
33.723501802
  0
LINE
  5
242
100
AcDbEntity
  8
0
100
AcDbLine
 62
7
  6
BYLAYER
 10
7.6531642016
 20
33.9018264397
 11
7.7459666835
 21
33.9946289216
  0
LINE
  5
243
100
AcDbEntity
  8
0
100
AcDbLine
 62
7
  6
BYLAYER
 10
7.818394469
 20
33.0918324619
 11
8.2848335417
 21
33.5582715346
  0
LINE
  5
244
100
AcDbEntity
  8
0
100
AcDbLine
 62
7
  6
BYLAYER
 10
8.17749591
 20
34.7035824556
 11
7.8583785663
 21
34.4163130494
  0
LINE
  5
245
100
AcDbEntity
  8
0
100
AcDbLine
 62
7
  6
BYLAYER
 10
7.6971152997
 20
34.0434803054
 11
7.7717070596
 21
34.0919207606
  0
LINE
  5
246
100
AcDbEntity
  8
0
100
AcDbLine
 62
7
  6
BYLAYER
 10
7.1239307738
 20
34.745594316
 11
7.3675907033
 21
34.8391265997
  0
LINE
  5
247
100
AcDbEntity
  8
0
100
AcDbLine
 62
7
  6
BYLAYER
 10
30.6239307738
 20
10.7527352298
 11
3.6239307738
 21
10.7527352298
  0
LINE
  5
248
100
AcDbEntity
  8
0
100
AcDbLine
 62
7
  6
BYLAYER
 10
4.3739307744
 20
10.8027352298
 11
29.8739307738
 21
10.8027352298
  0
LINE
  5
249
100
AcDbEntity
  8
0
100
AcDbLine
 62
7
  6
BYLAYER
 10
29.8739281648
 20
11.3027352298
 11
27.6453387518
 21
11.3027352298
  0
LINE
  5
24A
100
AcDbEntity
  8
0
100
AcDbLine
 62
7
  6
BYLAYER
 10
26.6039905539
 20
11.3027352298
 11
7.6453387518
 21
11.3027352298
  0
LINE
  5
24B
100
AcDbEntity
  8
0
100
AcDbLine
 62
7
  6
BYLAYER
 10
6.6039905539
 20
11.3027352298
 11
4.3739333828
 21
11.3027352298
  0
LINE
  5
24C
100
AcDbEntity
  8
0
100
AcDbLine
 62
7
  6
BYLAYER
 10
30.5739307738
 20
11.5027352298
 11
30.0739307738
 21
11.5027352298
  0
LINE
  5
24D
100
AcDbEntity
  8
0
100
AcDbLine
 62
7
  6
BYLAYER
 10
4.1739307738
 20
11.5027352298
 11
3.6739307738
 21
11.5027352298
  0
LINE
  5
24E
100
AcDbEntity
  8
0
100
AcDbLine
 62
7
  6
BYLAYER
 10
7.2847452429
 20
13.604958944
 11
7.1573867368
 21
13.6538472941
  0
LINE
  5
24F
100
AcDbEntity
  8
0
100
AcDbLine
 62
7
  6
BYLAYER
 10
7.3675907033
 20
13.6663438598
 11
7.3331856982
 21
13.6795507039
  0
LINE
  5
250
100
AcDbEntity
  8
0
100
AcDbLine
 62
7
  6
BYLAYER
 10
7.1803025594
 20
13.7382370424
 11
7.1239307738
 21
13.7598761435
  0
LINE
  5
251
100
AcDbEntity
  8
0
100
AcDbLine
 62
7
  6
BYLAYER
 10
8.6115019915
 20
13.2521258287
 11
7.7717070596
 21
14.0919207606
  0
LINE
  5
252
100
AcDbEntity
  8
0
100
AcDbLine
 62
7
  6
BYLAYER
 10
6.9631163047
 20
14.9005115155
 11
6.1233213727
 21
15.7403064475
  0
LINE
  5
253
100
AcDbEntity
  8
0
100
AcDbLine
 62
7
  6
BYLAYER
 10
7.2875085934
 20
14.9871830223
 11
7.8583785663
 21
14.4163130494
  0
LINE
  5
254
100
AcDbEntity
  8
0
100
AcDbLine
 62
7
  6
BYLAYER
 10
7.5747779997
 20
15.306300366
 11
8.17749591
 21
14.7035824556
  0
LINE
  5
255
100
AcDbEntity
  8
0
100
AcDbLine
 62
7
  6
BYLAYER
 10
6.5250428381
 20
14.2861911928
 11
6.4761544881
 21
14.4135496989
  0
LINE
  5
256
100
AcDbEntity
  8
0
100
AcDbLine
 62
7
  6
BYLAYER
 10
6.6094325865
 20
14.3091070153
 11
6.6310716876
 21
14.2527352298
  0
LINE
  5
257
100
AcDbEntity
  8
0
100
AcDbLine
 62
7
  6
BYLAYER
 10
6.5507462479
 20
14.4619901541
 11
6.5375394039
 21
14.4963951592
  0
LINE
  5
258
100
AcDbEntity
  8
0
100
AcDbLine
 62
7
  6
BYLAYER
 10
7.0904748108
 20
34.8516231655
 11
7.0675589882
 21
34.7672334171
  0
LINE
  5
259
100
AcDbEntity
  8
0
100
AcDbLine
 62
7
  6
BYLAYER
 10
7.1573867368
 20
33.6538472941
 11
7.1803025594
 21
33.7382370424
  0
LINE
  5
25A
100
AcDbEntity
  8
0
100
AcDbLine
 62
7
  6
BYLAYER
 10
7.7103221438
 20
34.4963951592
 11
7.6167898601
 21
34.2527352298
  0
LINE
  5
25B
100
AcDbEntity
  8
0
100
AcDbLine
 62
7
  6
BYLAYER
 10
8.6115019915
 20
33.2521258287
 11
8.1245401749
 21
32.7651640121
  0
LINE
  5
25C
100
AcDbEntity
  8
0
100
AcDbLine
 62
7
  6
BYLAYER
 10
7.1239307738
 20
33.7598761435
 11
6.8802708443
 21
33.6663438598
  0
LINE
  5
25D
100
AcDbEntity
  8
0
100
AcDbLine
 62
7
  6
BYLAYER
 10
27.6384289612
 20
14.1963634442
 11
27.7228187095
 21
14.2192792667
  0
LINE
  5
25E
100
AcDbEntity
  8
0
100
AcDbLine
 62
7
  6
BYLAYER
 10
26.6094325865
 20
14.3091070153
 11
26.5250428381
 21
14.2861911928
  0
LINE
  5
25F
100
AcDbEntity
  8
0
100
AcDbLine
 62
7
  6
BYLAYER
 10
6.9146758495
 20
14.8259197556
 11
6.8802708443
 21
14.8391265997
  0
LINE
  5
260
100
AcDbEntity
  8
0
100
AcDbLine
 62
7
  6
BYLAYER
 10
7.0675589882
 20
14.7672334171
 11
7.1239307738
 21
14.745594316
  0
LINE
  5
261
100
AcDbEntity
  8
0
100
AcDbLine
 62
7
  6
BYLAYER
 10
6.9631163047
 20
14.9005115155
 11
7.0904748108
 21
14.8516231655
  0
LINE
  5
262
100
AcDbEntity
  8
0
100
AcDbLine
 62
7
  6
BYLAYER
 10
7.6167898601
 20
14.2527352298
 11
7.6384289612
 21
14.1963634442
  0
LINE
  5
263
100
AcDbEntity
  8
0
100
AcDbLine
 62
7
  6
BYLAYER
 10
7.6971152997
 20
14.0434803054
 11
7.7103221438
 21
14.0090753003
  0
LINE
  5
264
100
AcDbEntity
  8
0
100
AcDbLine
 62
7
  6
BYLAYER
 10
7.7228187095
 20
14.2192792667
 11
7.7717070596
 21
14.0919207606
  0
LINE
  5
265
100
AcDbEntity
  8
0
100
AcDbLine
 62
7
  6
BYLAYER
 10
7.1239307738
 20
33.764249328
 11
7.1239307738
 21
33.7598761435
  0
LINE
  5
266
100
AcDbEntity
  8
0
100
AcDbLine
 62
7
  6
BYLAYER
 10
7.1239307738
 20
13.764249328
 11
7.1239307738
 21
13.7598761435
  0
LINE
  5
267
100
AcDbEntity
  8
0
100
AcDbLine
 62
7
  6
BYLAYER
 10
7.1239307738
 20
14.7412211315
 11
7.1239307738
 21
14.745594316
  0
LINE
  5
268
100
AcDbEntity
  8
0
100
AcDbLine
 62
7
  6
BYLAYER
 10
7.1239307738
 20
34.7412211315
 11
7.1239307738
 21
34.745594316
  0
LINE
  5
269
100
AcDbEntity
  8
0
100
AcDbLine
 62
7
  6
BYLAYER
 10
26.6354448721
 20
14.2527352298
 11
26.6310716876
 21
14.2527352298
  0
LINE
  5
26A
100
AcDbEntity
  8
0
100
AcDbLine
 62
7
  6
BYLAYER
 10
6.6354448721
 20
14.2527352298
 11
6.6310716876
 21
14.2527352298
  0
LINE
  5
26B
100
AcDbEntity
  8
0
100
AcDbLine
 62
7
  6
BYLAYER
 10
7.6124166756
 20
14.2527352298
 11
7.6167898601
 21
14.2527352298
  0
LINE
  5
26C
100
AcDbEntity
  8
0
100
AcDbLine
 62
7
  6
BYLAYER
 10
27.6124166756
 20
14.2527352298
 11
27.6167898601
 21
14.2527352298
  0
LINE
  5
26D
100
AcDbEntity
  8
0
100
AcDbLine
 62
7
  6
BYLAYER
 10
7.0904748108
 20
14.8516231655
 11
7.0675589882
 21
14.7672334171
  0
LINE
  5
26E
100
AcDbEntity
  8
0
100
AcDbLine
 62
7
  6
BYLAYER
 10
7.1573867368
 20
13.6538472941
 11
7.1803025594
 21
13.7382370424
  0
LINE
  5
26F
100
AcDbEntity
  8
0
100
AcDbLine
 62
7
  6
BYLAYER
 10
6.5375394039
 20
14.0090753003
 11
6.6310716876
 21
14.2527352298
  0
LINE
  5
270
100
AcDbEntity
  8
0
100
AcDbLine
 62
7
  6
BYLAYER
 10
27.1239307738
 20
34.745594316
 11
27.3675907033
 21
34.8391265997
  0
LINE
  5
271
100
AcDbEntity
  8
0
100
AcDbLine
 62
7
  6
BYLAYER
 10
7.6384289612
 20
14.1963634442
 11
7.7228187095
 21
14.2192792667
  0
LINE
  5
272
100
AcDbEntity
  8
0
100
AcDbLine
 62
7
  6
BYLAYER
 10
6.6094325865
 20
14.3091070153
 11
6.5250428381
 21
14.2861911928
  0
LINE
  5
273
100
AcDbEntity
  8
0
100
AcDbLine
 62
7
  6
BYLAYER
 10
27.2847452429
 20
13.604958944
 11
27.1573867368
 21
13.6538472941
  0
LINE
  5
274
100
AcDbEntity
  8
0
100
AcDbLine
 62
7
  6
BYLAYER
 10
27.3675907033
 20
13.6663438598
 11
27.3331856982
 21
13.6795507039
  0
LINE
  5
275
100
AcDbEntity
  8
0
100
AcDbLine
 62
7
  6
BYLAYER
 10
27.1803025594
 20
13.7382370424
 11
27.1239307738
 21
13.7598761435
  0
LINE
  5
276
100
AcDbEntity
  8
0
100
AcDbLine
 62
7
  6
BYLAYER
 10
6.5250428381
 20
34.2861911928
 11
6.4761544881
 21
34.4135496989
  0
LINE
  5
277
100
AcDbEntity
  8
0
100
AcDbLine
 62
7
  6
BYLAYER
 10
6.6094325865
 20
34.3091070153
 11
6.6310716876
 21
34.2527352298
  0
LINE
  5
278
100
AcDbEntity
  8
0
100
AcDbLine
 62
7
  6
BYLAYER
 10
6.5507462479
 20
34.4619901541
 11
6.5375394039
 21
34.4963951592
  0
LINE
  5
279
100
AcDbEntity
  8
0
100
AcDbLine
 62
7
  6
BYLAYER
 10
7.7103221438
 20
14.4963951592
 11
7.6167898601
 21
14.2527352298
  0
LINE
  5
27A
100
AcDbEntity
  8
0
100
AcDbLine
 62
7
  6
BYLAYER
 10
27.1239307738
 20
33.7598761435
 11
26.8802708443
 21
33.6663438598
  0
LINE
  5
27B
100
AcDbEntity
  8
0
100
AcDbLine
 62
7
  6
BYLAYER
 10
26.9146758495
 20
14.8259197556
 11
26.8802708443
 21
14.8391265997
  0
LINE
  5
27C
100
AcDbEntity
  8
0
100
AcDbLine
 62
7
  6
BYLAYER
 10
27.0675589882
 20
14.7672334171
 11
27.1239307738
 21
14.745594316
  0
LINE
  5
27D
100
AcDbEntity
  8
0
100
AcDbLine
 62
7
  6
BYLAYER
 10
26.9631163047
 20
14.9005115155
 11
27.0904748108
 21
14.8516231655
  0
LINE
  5
27E
100
AcDbEntity
  8
0
100
AcDbLine
 62
7
  6
BYLAYER
 10
7.6167898601
 20
34.2527352298
 11
7.6384289612
 21
34.1963634442
  0
LINE
  5
27F
100
AcDbEntity
  8
0
100
AcDbLine
 62
7
  6
BYLAYER
 10
7.6971152997
 20
34.0434803054
 11
7.7103221438
 21
34.0090753003
  0
LINE
  5
280
100
AcDbEntity
  8
0
100
AcDbLine
 62
7
  6
BYLAYER
 10
7.7228187095
 20
34.2192792667
 11
7.7717070596
 21
34.0919207606
  0
LINE
  5
281
100
AcDbEntity
  8
0
100
AcDbLine
 62
7
  6
BYLAYER
 10
6.9146758495
 20
14.8259197556
 11
6.9631163047
 21
14.9005115155
  0
LINE
  5
282
100
AcDbEntity
  8
0
100
AcDbLine
 62
7
  6
BYLAYER
 10
7.3331856982
 20
13.6795507039
 11
7.2847452429
 21
13.604958944
  0
LINE
  5
283
100
AcDbEntity
  8
0
100
AcDbLine
 62
7
  6
BYLAYER
 10
26.5507462479
 20
34.4619901541
 11
26.4761544881
 21
34.4135496989
  0
LINE
  5
284
100
AcDbEntity
  8
0
100
AcDbLine
 62
7
  6
BYLAYER
 10
27.6971152997
 20
34.0434803054
 11
27.7717070596
 21
34.0919207606
  0
LINE
  5
285
100
AcDbEntity
  8
0
100
AcDbLine
 62
7
  6
BYLAYER
 10
7.5747779997
 20
15.306300366
 11
7.2875085934
 21
14.9871830223
  0
LINE
  5
286
100
AcDbEntity
  8
0
100
AcDbLine
 62
7
  6
BYLAYER
 10
5.6363595561
 20
15.2533446308
 11
6.1233213727
 21
15.7403064475
  0
LINE
  5
287
100
AcDbEntity
  8
0
100
AcDbLine
 62
7
  6
BYLAYER
 10
25.6363595561
 20
35.2533446308
 11
26.1233213727
 21
35.7403064475
  0
LINE
  5
288
100
AcDbEntity
  8
0
100
AcDbLine
 62
7
  6
BYLAYER
 10
5.963028006
 20
14.9471989249
 11
6.4294670787
 21
15.4136379976
  0
LINE
  5
289
100
AcDbEntity
  8
0
100
AcDbLine
 62
7
  6
BYLAYER
 10
25.963028006
 20
34.9471989249
 11
26.4294670787
 21
35.4136379976
  0
LINE
  5
28A
100
AcDbEntity
  8
0
100
AcDbLine
 62
7
  6
BYLAYER
 10
26.3894829813
 20
34.0891574102
 11
26.0703656376
 21
33.8018880039
  0
LINE
  5
28B
100
AcDbEntity
  8
0
100
AcDbLine
 62
7
  6
BYLAYER
 10
25.963028006
 20
14.9471989249
 11
26.5018948642
 21
14.5108415379
  0
LINE
  5
28C
100
AcDbEntity
  8
0
100
AcDbLine
 62
7
  6
BYLAYER
 10
27.7459666835
 20
13.9946289216
 11
28.2848335417
 21
13.5582715346
  0
LINE
  5
28D
100
AcDbEntity
  8
0
100
AcDbLine
 62
7
  6
BYLAYER
 10
7.382037082
 20
33.6306993201
 11
7.818394469
 21
33.0918324619
  0
LINE
  5
28E
100
AcDbEntity
  8
0
100
AcDbLine
 62
7
  6
BYLAYER
 10
6.4294670787
 20
35.4136379976
 11
6.8658244657
 21
34.8747711394
  0
LINE
  5
28F
100
AcDbEntity
  8
0
100
AcDbLine
 62
7
  6
BYLAYER
 10
6.9603529542
 20
13.5182874373
 11
6.673083548
 21
13.1991700935
  0
LINE
  5
290
100
AcDbEntity
  8
0
100
AcDbLine
 62
7
  6
BYLAYER
 10
26.8658244657
 20
34.8747711394
 11
26.7730219838
 21
34.7819686575
  0
LINE
  5
291
100
AcDbEntity
  8
0
100
AcDbLine
 62
7
  6
BYLAYER
 10
26.5946973461
 20
34.6036440198
 11
26.5018948642
 21
34.5108415379
  0
LINE
  5
292
100
AcDbEntity
  8
0
100
AcDbLine
 62
7
  6
BYLAYER
 10
6.8658244657
 20
14.8747711394
 11
6.7730219838
 21
14.7819686575
  0
LINE
  5
293
100
AcDbEntity
  8
0
100
AcDbLine
 62
7
  6
BYLAYER
 10
6.5946973461
 20
14.6036440198
 11
6.5018948642
 21
14.5108415379
  0
LINE
  5
294
100
AcDbEntity
  8
0
100
AcDbLine
 62
7
  6
BYLAYER
 10
5.0324842615
 20
12.7936326161
 11
6.5250428381
 21
14.2861911928
  0
LINE
  5
295
100
AcDbEntity
  8
0
100
AcDbLine
 62
7
  6
BYLAYER
 10
7.0904748108
 20
14.8516231655
 11
8.5830333874
 21
16.3441817421
  0
LINE
  5
296
100
AcDbEntity
  8
0
100
AcDbLine
 62
7
  6
BYLAYER
 10
25.0324842615
 20
32.7936326161
 11
26.5250428381
 21
34.2861911928
  0
LINE
  5
297
100
AcDbEntity
  8
0
100
AcDbLine
 62
7
  6
BYLAYER
 10
27.0904748108
 20
34.8516231655
 11
28.5830333874
 21
36.3441817421
  0
LINE
  5
298
100
AcDbEntity
  8
0
100
AcDbLine
 62
7
  6
BYLAYER
 10
28.8473519704
 20
36.5788743367
 11
27.5747779997
 21
35.306300366
  0
LINE
  5
299
100
AcDbEntity
  8
0
100
AcDbLine
 62
7
  6
BYLAYER
 10
26.0703656376
 20
33.8018880039
 11
24.7977916668
 21
32.5293140331
  0
LINE
  5
29A
100
AcDbEntity
  8
0
100
AcDbLine
 62
7
  6
BYLAYER
 10
8.8473519704
 20
16.5788743367
 11
7.5747779997
 21
15.306300366
  0
LINE
  5
29B
100
AcDbEntity
  8
0
100
AcDbLine
 62
7
  6
BYLAYER
 10
6.0703656376
 20
13.8018880039
 11
4.7977916668
 21
12.5293140331
  0
LINE
  5
29C
100
AcDbEntity
  8
0
100
AcDbLine
 62
7
  6
BYLAYER
 10
27.2875085934
 20
34.9871830223
 11
27.0675589882
 21
34.7672334171
  0
LINE
  5
29D
100
AcDbEntity
  8
0
100
AcDbLine
 62
7
  6
BYLAYER
 10
26.6094325865
 20
34.3091070153
 11
26.3894829813
 21
34.0891574102
  0
LINE
  5
29E
100
AcDbEntity
  8
0
100
AcDbLine
 62
7
  6
BYLAYER
 10
7.2875085934
 20
14.9871830223
 11
7.0675589882
 21
14.7672334171
  0
LINE
  5
29F
100
AcDbEntity
  8
0
100
AcDbLine
 62
7
  6
BYLAYER
 10
6.6094325865
 20
14.3091070153
 11
6.3894829813
 21
14.0891574102
  0
LINE
  5
2A0
100
AcDbEntity
  8
0
100
AcDbLine
 62
7
  6
BYLAYER
 10
28.17749591
 20
34.7035824556
 11
27.8583785663
 21
34.4163130494
  0
LINE
  5
2A1
100
AcDbEntity
  8
0
100
AcDbLine
 62
7
  6
BYLAYER
 10
6.0703656376
 20
33.8018880039
 11
6.673083548
 21
33.1991700935
  0
LINE
  5
2A2
100
AcDbEntity
  8
0
100
AcDbLine
 62
7
  6
BYLAYER
 10
26.0703656376
 20
13.8018880039
 11
26.673083548
 21
13.1991700935
  0
LINE
  5
2A3
100
AcDbEntity
  8
0
100
AcDbLine
 62
7
  6
BYLAYER
 10
6.3894829813
 20
34.0891574102
 11
6.9603529542
 21
33.5182874373
  0
LINE
  5
2A4
100
AcDbEntity
  8
0
100
AcDbLine
 62
7
  6
BYLAYER
 10
26.3894829813
 20
14.0891574102
 11
26.9603529542
 21
13.5182874373
  0
LINE
  5
2A5
100
AcDbEntity
  8
0
100
AcDbLine
 62
7
  6
BYLAYER
 10
5.6363595561
 20
35.2533446308
 11
6.4761544881
 21
34.4135496989
  0
LINE
  5
2A6
100
AcDbEntity
  8
0
100
AcDbLine
 62
7
  6
BYLAYER
 10
7.2847452429
 20
33.604958944
 11
8.1245401749
 21
32.7651640121
  0
LINE
  5
2A7
100
AcDbEntity
  8
0
100
AcDbLine
 62
7
  6
BYLAYER
 10
25.6363595561
 20
15.2533446308
 11
26.4761544881
 21
14.4135496989
  0
LINE
  5
2A8
100
AcDbEntity
  8
0
100
AcDbLine
 62
7
  6
BYLAYER
 10
27.2847452429
 20
13.604958944
 11
28.1245401749
 21
12.7651640121
  0
LINE
  5
2A9
100
AcDbEntity
  8
0
100
AcDbLine
 62
7
  6
BYLAYER
 10
6.5018948642
 20
34.5108415379
 11
6.5507462479
 21
34.4619901541
  0
LINE
  5
2AA
100
AcDbEntity
  8
0
100
AcDbLine
 62
7
  6
BYLAYER
 10
7.3331856982
 20
33.6795507039
 11
7.382037082
 21
33.6306993201
  0
LINE
  5
2AB
100
AcDbEntity
  8
0
100
AcDbLine
 62
7
  6
BYLAYER
 10
26.5018948642
 20
14.5108415379
 11
26.5507462479
 21
14.4619901541
  0
LINE
  5
2AC
100
AcDbEntity
  8
0
100
AcDbLine
 62
7
  6
BYLAYER
 10
27.3331856982
 20
13.6795507039
 11
27.382037082
 21
13.6306993201
  0
LINE
  5
2AD
100
AcDbEntity
  8
0
100
AcDbLine
 62
7
  6
BYLAYER
 10
27.5747779997
 20
35.306300366
 11
27.2875085934
 21
34.9871830223
  0
LINE
  5
2AE
100
AcDbEntity
  8
0
100
AcDbLine
 62
7
  6
BYLAYER
 10
26.9603529542
 20
33.5182874373
 11
26.673083548
 21
33.1991700935
  0
LINE
  5
2AF
100
AcDbEntity
  8
0
100
AcDbLine
 62
7
  6
BYLAYER
 10
27.8583785663
 20
34.4163130494
 11
27.6384289612
 21
34.1963634442
  0
LINE
  5
2B0
100
AcDbEntity
  8
0
100
AcDbLine
 62
7
  6
BYLAYER
 10
27.1803025594
 20
33.7382370424
 11
26.9603529542
 21
33.5182874373
  0
LINE
  5
2B1
100
AcDbEntity
  8
0
100
AcDbLine
 62
7
  6
BYLAYER
 10
7.8583785663
 20
14.4163130494
 11
7.6384289612
 21
14.1963634442
  0
LINE
  5
2B2
100
AcDbEntity
  8
0
100
AcDbLine
 62
7
  6
BYLAYER
 10
7.1803025594
 20
13.7382370424
 11
6.9603529542
 21
13.5182874373
  0
LINE
  5
2B3
100
AcDbEntity
  8
0
100
AcDbLine
 62
7
  6
BYLAYER
 10
5.4005095772
 20
11.9265961228
 11
6.673083548
 21
13.1991700935
  0
LINE
  5
2B4
100
AcDbEntity
  8
0
100
AcDbLine
 62
7
  6
BYLAYER
 10
8.17749591
 20
14.7035824556
 11
9.4500698808
 21
15.9761564264
  0
LINE
  5
2B5
100
AcDbEntity
  8
0
100
AcDbLine
 62
7
  6
BYLAYER
 10
25.4005095772
 20
31.9265961228
 11
26.673083548
 21
33.1991700935
  0
LINE
  5
2B6
100
AcDbEntity
  8
0
100
AcDbLine
 62
7
  6
BYLAYER
 10
28.17749591
 20
34.7035824556
 11
29.4500698808
 21
35.9761564264
  0
LINE
  5
2B7
100
AcDbEntity
  8
0
100
AcDbLine
 62
7
  6
BYLAYER
 10
29.2153772862
 20
35.7118378434
 11
27.7228187095
 21
34.2192792667
  0
LINE
  5
2B8
100
AcDbEntity
  8
0
100
AcDbLine
 62
7
  6
BYLAYER
 10
27.1573867368
 20
33.6538472941
 11
25.6648281602
 21
32.1612887174
  0
LINE
  5
2B9
100
AcDbEntity
  8
0
100
AcDbLine
 62
7
  6
BYLAYER
 10
9.2153772862
 20
15.7118378434
 11
7.7228187095
 21
14.2192792667
  0
LINE
  5
2BA
100
AcDbEntity
  8
0
100
AcDbLine
 62
7
  6
BYLAYER
 10
7.1573867368
 20
13.6538472941
 11
5.6648281602
 21
12.1612887174
  0
LINE
  5
2BB
100
AcDbEntity
  8
0
100
AcDbLine
 62
7
  6
BYLAYER
 10
7.382037082
 20
13.6306993201
 11
7.4748395639
 21
13.723501802
  0
LINE
  5
2BC
100
AcDbEntity
  8
0
100
AcDbLine
 62
7
  6
BYLAYER
 10
7.6531642016
 20
13.9018264397
 11
7.7459666835
 21
13.9946289216
  0
LINE
  5
2BD
100
AcDbEntity
  8
0
100
AcDbLine
 62
7
  6
BYLAYER
 10
27.382037082
 20
33.6306993201
 11
27.4748395639
 21
33.723501802
  0
LINE
  5
2BE
100
AcDbEntity
  8
0
100
AcDbLine
 62
7
  6
BYLAYER
 10
27.6531642016
 20
33.9018264397
 11
27.7459666835
 21
33.9946289216
  0
LINE
  5
2BF
100
AcDbEntity
  8
0
100
AcDbLine
 62
7
  6
BYLAYER
 10
7.818394469
 20
13.0918324619
 11
8.2848335417
 21
13.5582715346
  0
LINE
  5
2C0
100
AcDbEntity
  8
0
100
AcDbLine
 62
7
  6
BYLAYER
 10
27.818394469
 20
33.0918324619
 11
28.2848335417
 21
33.5582715346
  0
LINE
  5
2C1
100
AcDbEntity
  8
0
100
AcDbLine
 62
7
  6
BYLAYER
 10
6.3894829813
 20
14.0891574102
 11
6.0703656376
 21
13.8018880039
  0
LINE
  5
2C2
100
AcDbEntity
  8
0
100
AcDbLine
 62
7
  6
BYLAYER
 10
8.17749591
 20
14.7035824556
 11
7.8583785663
 21
14.4163130494
  0
LINE
  5
2C3
100
AcDbEntity
  8
0
100
AcDbLine
 62
7
  6
BYLAYER
 10
5.963028006
 20
34.9471989249
 11
6.5018948642
 21
34.5108415379
  0
LINE
  5
2C4
100
AcDbEntity
  8
0
100
AcDbLine
 62
7
  6
BYLAYER
 10
27.7459666835
 20
13.9946289216
 11
27.6971152997
 21
14.0434803054
  0
LINE
  5
2C5
100
AcDbEntity
  8
0
100
AcDbLine
 62
7
  6
BYLAYER
 10
26.9146758495
 20
14.8259197556
 11
26.8658244657
 21
14.8747711394
  0
LINE
  5
2C6
100
AcDbEntity
  8
0
100
AcDbLine
 62
7
  6
BYLAYER
 10
7.7459666835
 20
33.9946289216
 11
7.6971152997
 21
34.0434803054
  0
LINE
  5
2C7
100
AcDbEntity
  8
0
100
AcDbLine
 62
7
  6
BYLAYER
 10
6.9146758495
 20
34.8259197556
 11
6.8658244657
 21
34.8747711394
  0
LINE
  5
2C8
100
AcDbEntity
  8
0
100
AcDbLine
 62
7
  6
BYLAYER
 10
28.6115019915
 20
13.2521258287
 11
27.7717070596
 21
14.0919207606
  0
LINE
  5
2C9
100
AcDbEntity
  8
0
100
AcDbLine
 62
7
  6
BYLAYER
 10
26.9631163047
 20
14.9005115155
 11
26.1233213727
 21
15.7403064475
  0
LINE
  5
2CA
100
AcDbEntity
  8
0
100
AcDbLine
 62
7
  6
BYLAYER
 10
8.6115019915
 20
33.2521258287
 11
7.7717070596
 21
34.0919207606
  0
LINE
  5
2CB
100
AcDbEntity
  8
0
100
AcDbLine
 62
7
  6
BYLAYER
 10
6.9631163047
 20
34.9005115155
 11
6.1233213727
 21
35.7403064475
  0
LINE
  5
2CC
100
AcDbEntity
  8
0
100
AcDbLine
 62
7
  6
BYLAYER
 10
7.2875085934
 20
34.9871830223
 11
7.8583785663
 21
34.4163130494
  0
LINE
  5
2CD
100
AcDbEntity
  8
0
100
AcDbLine
 62
7
  6
BYLAYER
 10
27.2875085934
 20
14.9871830223
 11
27.8583785663
 21
14.4163130494
  0
LINE
  5
2CE
100
AcDbEntity
  8
0
100
AcDbLine
 62
7
  6
BYLAYER
 10
7.5747779997
 20
35.306300366
 11
8.17749591
 21
34.7035824556
  0
LINE
  5
2CF
100
AcDbEntity
  8
0
100
AcDbLine
 62
7
  6
BYLAYER
 10
27.5747779997
 20
15.306300366
 11
28.17749591
 21
14.7035824556
  0
LINE
  5
2D0
100
AcDbEntity
  8
0
100
AcDbLine
 62
7
  6
BYLAYER
 10
27.382037082
 20
13.6306993201
 11
27.818394469
 21
13.0918324619
  0
LINE
  5
2D1
100
AcDbEntity
  8
0
100
AcDbLine
 62
7
  6
BYLAYER
 10
26.9146758495
 20
34.8259197556
 11
26.9631163047
 21
34.9005115155
  0
LINE
  5
2D2
100
AcDbEntity
  8
0
100
AcDbLine
 62
7
  6
BYLAYER
 10
28.6115019915
 20
33.2521258287
 11
28.1245401749
 21
32.7651640121
  0
LINE
  5
2D3
100
AcDbEntity
  8
0
100
AcDbLine
 62
7
  6
BYLAYER
 10
8.6115019915
 20
13.2521258287
 11
8.1245401749
 21
12.7651640121
  0
LINE
  5
2D4
100
AcDbEntity
  8
0
100
AcDbLine
 62
7
  6
BYLAYER
 10
6.5507462479
 20
14.4619901541
 11
6.4761544881
 21
14.4135496989
  0
LINE
  5
2D5
100
AcDbEntity
  8
0
100
AcDbLine
 62
7
  6
BYLAYER
 10
7.7459666835
 20
33.9946289216
 11
8.2848335417
 21
33.5582715346
  0
LINE
  5
2D6
100
AcDbEntity
  8
0
100
AcDbLine
 62
7
  6
BYLAYER
 10
26.4294670787
 20
15.4136379976
 11
26.8658244657
 21
14.8747711394
  0
LINE
  5
2D7
100
AcDbEntity
  8
0
100
AcDbLine
 62
7
  6
BYLAYER
 10
27.3331856982
 20
33.6795507039
 11
27.2847452429
 21
33.604958944
  0
LINE
  5
2D8
100
AcDbEntity
  8
0
100
AcDbLine
 62
7
  6
BYLAYER
 10
7.6971152997
 20
14.0434803054
 11
7.7717070596
 21
14.0919207606
  0
LINE
  5
2D9
100
AcDbEntity
  8
0
100
AcDbLine
 62
7
  6
BYLAYER
 10
7.2847452429
 20
33.604958944
 11
7.1573867368
 21
33.6538472941
  0
LINE
  5
2DA
100
AcDbEntity
  8
0
100
AcDbLine
 62
7
  6
BYLAYER
 10
26.5250428381
 20
14.2861911928
 11
26.4761544881
 21
14.4135496989
  0
LINE
  5
2DB
100
AcDbEntity
  8
0
100
AcDbLine
 62
7
  6
BYLAYER
 10
26.5375394039
 20
34.0090753003
 11
26.6310716876
 21
34.2527352298
  0
LINE
  5
2DC
100
AcDbEntity
  8
0
100
AcDbLine
 62
7
  6
BYLAYER
 10
27.7103221438
 20
34.4963951592
 11
27.6167898601
 21
34.2527352298
  0
LINE
  5
2DD
100
AcDbEntity
  8
0
100
AcDbLine
 62
7
  6
BYLAYER
 10
7.1239307738
 20
14.745594316
 11
7.3675907033
 21
14.8391265997
  0
LINE
  5
2DE
100
AcDbEntity
  8
0
100
AcDbLine
 62
7
  6
BYLAYER
 10
7.1239307738
 20
13.7598761435
 11
6.8802708443
 21
13.6663438598
  0
LINE
  5
2DF
100
AcDbEntity
  8
0
100
AcDbLine
 62
7
  6
BYLAYER
 10
7.3675907033
 20
33.6663438598
 11
7.3331856982
 21
33.6795507039
  0
LINE
  5
2E0
100
AcDbEntity
  8
0
100
AcDbLine
 62
7
  6
BYLAYER
 10
7.1803025594
 20
33.7382370424
 11
7.1239307738
 21
33.7598761435
  0
LINE
  5
2E1
100
AcDbEntity
  8
0
100
AcDbLine
 62
7
  6
BYLAYER
 10
6.9146758495
 20
34.8259197556
 11
6.8802708443
 21
34.8391265997
  0
LINE
  5
2E2
100
AcDbEntity
  8
0
100
AcDbLine
 62
7
  6
BYLAYER
 10
7.0675589882
 20
34.7672334171
 11
7.1239307738
 21
34.745594316
  0
LINE
  5
2E3
100
AcDbEntity
  8
0
100
AcDbLine
 62
7
  6
BYLAYER
 10
6.9631163047
 20
34.9005115155
 11
7.0904748108
 21
34.8516231655
  0
LINE
  5
2E4
100
AcDbEntity
  8
0
100
AcDbLine
 62
7
  6
BYLAYER
 10
26.5507462479
 20
14.4619901541
 11
26.5375394039
 21
14.4963951592
  0
LINE
  5
2E5
100
AcDbEntity
  8
0
100
AcDbLine
 62
7
  6
BYLAYER
 10
26.6094325865
 20
14.3091070153
 11
26.6310716876
 21
14.2527352298
  0
LINE
  5
2E6
100
AcDbEntity
  8
0
100
AcDbLine
 62
7
  6
BYLAYER
 10
27.6167898601
 20
14.2527352298
 11
27.6384289612
 21
14.1963634442
  0
LINE
  5
2E7
100
AcDbEntity
  8
0
100
AcDbLine
 62
7
  6
BYLAYER
 10
27.6971152997
 20
14.0434803054
 11
27.7103221438
 21
14.0090753003
  0
LINE
  5
2E8
100
AcDbEntity
  8
0
100
AcDbLine
 62
7
  6
BYLAYER
 10
27.7228187095
 20
14.2192792667
 11
27.7717070596
 21
14.0919207606
  0
LINE
  5
2E9
100
AcDbEntity
  8
0
100
AcDbLine
 62
7
  6
BYLAYER
 10
27.0904748108
 20
34.8516231655
 11
27.0675589882
 21
34.7672334171
  0
LINE
  5
2EA
100
AcDbEntity
  8
0
100
AcDbLine
 62
7
  6
BYLAYER
 10
27.1573867368
 20
33.6538472941
 11
27.1803025594
 21
33.7382370424
  0
LINE
  5
2EB
100
AcDbEntity
  8
0
100
AcDbLine
 62
7
  6
BYLAYER
 10
27.6384289612
 20
34.1963634442
 11
27.7228187095
 21
34.2192792667
  0
LINE
  5
2EC
100
AcDbEntity
  8
0
100
AcDbLine
 62
7
  6
BYLAYER
 10
26.6094325865
 20
34.3091070153
 11
26.5250428381
 21
34.2861911928
  0
LINE
  5
2ED
100
AcDbEntity
  8
0
100
AcDbLine
 62
7
  6
BYLAYER
 10
27.1239307738
 20
33.764249328
 11
27.1239307738
 21
33.7598761435
  0
LINE
  5
2EE
100
AcDbEntity
  8
0
100
AcDbLine
 62
7
  6
BYLAYER
 10
27.1239307738
 20
13.764249328
 11
27.1239307738
 21
13.7598761435
  0
LINE
  5
2EF
100
AcDbEntity
  8
0
100
AcDbLine
 62
7
  6
BYLAYER
 10
27.1239307738
 20
14.7412211315
 11
27.1239307738
 21
14.745594316
  0
LINE
  5
2F0
100
AcDbEntity
  8
0
100
AcDbLine
 62
7
  6
BYLAYER
 10
27.1239307738
 20
34.7412211315
 11
27.1239307738
 21
34.745594316
  0
LINE
  5
2F1
100
AcDbEntity
  8
0
100
AcDbLine
 62
7
  6
BYLAYER
 10
26.6354448721
 20
34.2527352298
 11
26.6310716876
 21
34.2527352298
  0
LINE
  5
2F2
100
AcDbEntity
  8
0
100
AcDbLine
 62
7
  6
BYLAYER
 10
6.6354448721
 20
34.2527352298
 11
6.6310716876
 21
34.2527352298
  0
LINE
  5
2F3
100
AcDbEntity
  8
0
100
AcDbLine
 62
7
  6
BYLAYER
 10
7.6124166756
 20
34.2527352298
 11
7.6167898601
 21
34.2527352298
  0
LINE
  5
2F4
100
AcDbEntity
  8
0
100
AcDbLine
 62
7
  6
BYLAYER
 10
27.6124166756
 20
34.2527352298
 11
27.6167898601
 21
34.2527352298
  0
LINE
  5
2F5
100
AcDbEntity
  8
0
100
AcDbLine
 62
7
  6
BYLAYER
 10
29.8739307738
 20
37.7027352298
 11
29.8739307738
 21
37.2027352298
  0
LINE
  5
2F6
100
AcDbEntity
  8
0
100
AcDbLine
 62
7
  6
BYLAYER
 10
29.8739307738
 20
11.3027352298
 11
29.8739307738
 21
10.8027352298
  0
LINE
  5
2F7
100
AcDbEntity
  8
0
100
AcDbLine
 62
7
  6
BYLAYER
 10
27.0904748108
 20
14.8516231655
 11
27.0675589882
 21
14.7672334171
  0
LINE
  5
2F8
100
AcDbEntity
  8
0
100
AcDbLine
 62
7
  6
BYLAYER
 10
27.1573867368
 20
13.6538472941
 11
27.1803025594
 21
13.7382370424
  0
LINE
  5
2F9
100
AcDbEntity
  8
0
100
AcDbLine
 62
7
  6
BYLAYER
 10
26.5375394039
 20
14.0090753003
 11
26.6310716876
 21
14.2527352298
  0
LINE
  5
2FA
100
AcDbEntity
  8
0
100
AcDbLine
 62
7
  6
BYLAYER
 10
25.6363595561
 20
15.2533446308
 11
26.1233213727
 21
15.7403064475
  0
LINE
  5
2FB
100
AcDbEntity
  8
0
100
AcDbLine
 62
7
  6
BYLAYER
 10
25.963028006
 20
14.9471989249
 11
26.4294670787
 21
15.4136379976
  0
LINE
  5
2FC
100
AcDbEntity
  8
0
100
AcDbLine
 62
7
  6
BYLAYER
 10
27.1239307738
 20
14.745594316
 11
27.3675907033
 21
14.8391265997
  0
LINE
  5
2FD
100
AcDbEntity
  8
0
100
AcDbLine
 62
7
  6
BYLAYER
 10
7.6384289612
 20
34.1963634442
 11
7.7228187095
 21
34.2192792667
  0
LINE
  5
2FE
100
AcDbEntity
  8
0
100
AcDbLine
 62
7
  6
BYLAYER
 10
6.6094325865
 20
34.3091070153
 11
6.5250428381
 21
34.2861911928
  0
LINE
  5
2FF
100
AcDbEntity
  8
0
100
AcDbLine
 62
7
  6
BYLAYER
 10
3.6739307738
 20
37.0027352298
 11
4.1739307738
 21
37.0027352298
  0
LINE
  5
300
100
AcDbEntity
  8
0
100
AcDbLine
 62
7
  6
BYLAYER
 10
30.0739307738
 20
37.0027352298
 11
30.5739307738
 21
37.0027352298
  0
LINE
  5
301
100
AcDbEntity
  8
0
100
AcDbLine
 62
7
  6
BYLAYER
 10
27.2847452429
 20
33.604958944
 11
27.1573867368
 21
33.6538472941
  0
LINE
  5
302
100
AcDbEntity
  8
0
100
AcDbLine
 62
7
  6
BYLAYER
 10
27.3675907033
 20
33.6663438598
 11
27.3331856982
 21
33.6795507039
  0
LINE
  5
303
100
AcDbEntity
  8
0
100
AcDbLine
 62
7
  6
BYLAYER
 10
27.1803025594
 20
33.7382370424
 11
27.1239307738
 21
33.7598761435
  0
LINE
  5
304
100
AcDbEntity
  8
0
100
AcDbLine
 62
7
  6
BYLAYER
 10
26.5250428381
 20
34.2861911928
 11
26.4761544881
 21
34.4135496989
  0
LINE
  5
305
100
AcDbEntity
  8
0
100
AcDbLine
 62
7
  6
BYLAYER
 10
26.6094325865
 20
34.3091070153
 11
26.6310716876
 21
34.2527352298
  0
LINE
  5
306
100
AcDbEntity
  8
0
100
AcDbLine
 62
7
  6
BYLAYER
 10
26.5507462479
 20
34.4619901541
 11
26.5375394039
 21
34.4963951592
  0
LINE
  5
307
100
AcDbEntity
  8
0
100
AcDbLine
 62
7
  6
BYLAYER
 10
30.0739307738
 20
37.0027326207
 11
30.0739307738
 21
34.6544991597
  0
LINE
  5
308
100
AcDbEntity
  8
0
100
AcDbLine
 62
7
  6
BYLAYER
 10
30.0739307738
 20
33.8452465524
 11
30.0739307738
 21
14.6544991597
  0
LINE
  5
309
100
AcDbEntity
  8
0
100
AcDbLine
 62
7
  6
BYLAYER
 10
30.0739307738
 20
13.8452465524
 11
30.0739307738
 21
11.5027378388
  0
LINE
  5
30A
100
AcDbEntity
  8
0
100
AcDbLine
 62
7
  6
BYLAYER
 10
30.5739307738
 20
11.5027352303
 11
30.5739307738
 21
37.0027352297
  0
LINE
  5
30B
100
AcDbEntity
  8
0
100
AcDbLine
 62
7
  6
BYLAYER
 10
30.6239307738
 20
37.7527352298
 11
30.6239307738
 21
10.7527352298
  0
LINE
  5
30C
100
AcDbEntity
  8
0
100
AcDbLine
 62
7
  6
BYLAYER
 10
27.7103221438
 20
14.4963951592
 11
27.6167898601
 21
14.2527352298
  0
LINE
  5
30D
100
AcDbEntity
  8
0
100
AcDbLine
 62
7
  6
BYLAYER
 10
26.9146758495
 20
14.8259197556
 11
26.9631163047
 21
14.9005115155
  0
LINE
  5
30E
100
AcDbEntity
  8
0
100
AcDbLine
 62
7
  6
BYLAYER
 10
27.5747779997
 20
15.306300366
 11
27.2875085934
 21
14.9871830223
  0
LINE
  5
30F
100
AcDbEntity
  8
0
100
AcDbLine
 62
7
  6
BYLAYER
 10
26.8658244657
 20
14.8747711394
 11
26.7730219838
 21
14.7819686575
  0
LINE
  5
310
100
AcDbEntity
  8
0
100
AcDbLine
 62
7
  6
BYLAYER
 10
26.5946973461
 20
14.6036440198
 11
26.5018948642
 21
14.5108415379
  0
LINE
  5
311
100
AcDbEntity
  8
0
100
AcDbLine
 62
7
  6
BYLAYER
 10
25.0324842615
 20
12.7936326161
 11
26.5250428381
 21
14.2861911928
  0
LINE
  5
312
100
AcDbEntity
  8
0
100
AcDbLine
 62
7
  6
BYLAYER
 10
27.0904748108
 20
14.8516231655
 11
28.5830333874
 21
16.3441817421
  0
LINE
  5
313
100
AcDbEntity
  8
0
100
AcDbLine
 62
7
  6
BYLAYER
 10
28.8473519704
 20
16.5788743367
 11
27.5747779997
 21
15.306300366
  0
LINE
  5
314
100
AcDbEntity
  8
0
100
AcDbLine
 62
7
  6
BYLAYER
 10
26.0703656376
 20
13.8018880039
 11
24.7977916668
 21
12.5293140331
  0
LINE
  5
315
100
AcDbEntity
  8
0
100
AcDbLine
 62
7
  6
BYLAYER
 10
27.2875085934
 20
14.9871830223
 11
27.0675589882
 21
14.7672334171
  0
LINE
  5
316
100
AcDbEntity
  8
0
100
AcDbLine
 62
7
  6
BYLAYER
 10
26.6094325865
 20
14.3091070153
 11
26.3894829813
 21
14.0891574102
  0
LINE
  5
317
100
AcDbEntity
  8
0
100
AcDbLine
 62
7
  6
BYLAYER
 10
26.3894829813
 20
14.0891574102
 11
26.0703656376
 21
13.8018880039
  0
LINE
  5
318
100
AcDbEntity
  8
0
100
AcDbLine
 62
7
  6
BYLAYER
 10
26.5507462479
 20
14.4619901541
 11
26.4761544881
 21
14.4135496989
  0
LINE
  5
319
100
AcDbEntity
  8
0
100
AcDbLine
 62
7
  6
BYLAYER
 10
27.1239307738
 20
13.7598761435
 11
26.8802708443
 21
13.6663438598
  0
LINE
  5
31A
100
AcDbEntity
  8
0
100
AcDbLine
 62
7
  6
BYLAYER
 10
4.3739333828
 20
37.2027352298
 11
6.6025227959
 21
37.2027352298
  0
LINE
  5
31B
100
AcDbEntity
  8
0
100
AcDbLine
 62
7
  6
BYLAYER
 10
7.6438709937
 20
37.2027352298
 11
26.6025227959
 21
37.2027352298
  0
LINE
  5
31C
100
AcDbEntity
  8
0
100
AcDbLine
 62
7
  6
BYLAYER
 10
27.6438709937
 20
37.2027352298
 11
29.8739281648
 21
37.2027352298
  0
LINE
  5
31D
100
AcDbEntity
  8
0
100
AcDbLine
 62
7
  6
BYLAYER
 10
29.8739307732
 20
37.7027352298
 11
4.3739307739
 21
37.7027352298
  0
LINE
  5
31E
100
AcDbEntity
  8
0
100
AcDbLine
 62
7
  6
BYLAYER
 10
3.6239307738
 20
37.7527352298
 11
30.6239307738
 21
37.7527352298
  0
LINE
  5
31F
100
AcDbEntity
  8
0
100
AcDbLine
 62
7
  6
BYLAYER
 10
26.9146758495
 20
34.8259197556
 11
26.8802708443
 21
34.8391265997
  0
LINE
  5
320
100
AcDbEntity
  8
0
100
AcDbLine
 62
7
  6
BYLAYER
 10
27.0675589882
 20
34.7672334171
 11
27.1239307738
 21
34.745594316
  0
LINE
  5
321
100
AcDbEntity
  8
0
100
AcDbLine
 62
7
  6
BYLAYER
 10
26.9631163047
 20
34.9005115155
 11
27.0904748108
 21
34.8516231655
  0
LINE
  5
322
100
AcDbEntity
  8
0
100
AcDbLine
 62
7
  6
BYLAYER
 10
25.963028006
 20
34.9471989249
 11
26.5018948642
 21
34.5108415379
  0
LINE
  5
323
100
AcDbEntity
  8
0
100
AcDbLine
 62
7
  6
BYLAYER
 10
26.0703656376
 20
33.8018880039
 11
26.673083548
 21
33.1991700935
  0
LINE
  5
324
100
AcDbEntity
  8
0
100
AcDbLine
 62
7
  6
BYLAYER
 10
26.3894829813
 20
34.0891574102
 11
26.9603529542
 21
33.5182874373
  0
LINE
  5
325
100
AcDbEntity
  8
0
100
AcDbLine
 62
7
  6
BYLAYER
 10
25.6363595561
 20
35.2533446308
 11
26.4761544881
 21
34.4135496989
  0
LINE
  5
326
100
AcDbEntity
  8
0
100
AcDbLine
 62
7
  6
BYLAYER
 10
27.2847452429
 20
33.604958944
 11
28.1245401749
 21
32.7651640121
  0
LINE
  5
327
100
AcDbEntity
  8
0
100
AcDbLine
 62
7
  6
BYLAYER
 10
26.5018948642
 20
34.5108415379
 11
26.5507462479
 21
34.4619901541
  0
LINE
  5
328
100
AcDbEntity
  8
0
100
AcDbLine
 62
7
  6
BYLAYER
 10
27.3331856982
 20
33.6795507039
 11
27.382037082
 21
33.6306993201
  0
LINE
  5
329
100
AcDbEntity
  8
0
100
AcDbLine
 62
7
  6
BYLAYER
 10
27.382037082
 20
33.6306993201
 11
27.818394469
 21
33.0918324619
  0
LINE
  5
32A
100
AcDbEntity
  8
0
100
AcDbLine
 62
7
  6
BYLAYER
 10
27.6167898601
 20
34.2527352298
 11
27.6384289612
 21
34.1963634442
  0
LINE
  5
32B
100
AcDbEntity
  8
0
100
AcDbLine
 62
7
  6
BYLAYER
 10
27.6971152997
 20
34.0434803054
 11
27.7103221438
 21
34.0090753003
  0
LINE
  5
32C
100
AcDbEntity
  8
0
100
AcDbLine
 62
7
  6
BYLAYER
 10
27.7228187095
 20
34.2192792667
 11
27.7717070596
 21
34.0919207606
  0
LINE
  5
32D
100
AcDbEntity
  8
0
100
AcDbLine
 62
7
  6
BYLAYER
 10
27.3331856982
 20
13.6795507039
 11
27.2847452429
 21
13.604958944
  0
LINE
  5
32E
100
AcDbEntity
  8
0
100
AcDbLine
 62
7
  6
BYLAYER
 10
26.9603529542
 20
13.5182874373
 11
26.673083548
 21
13.1991700935
  0
LINE
  5
32F
100
AcDbEntity
  8
0
100
AcDbLine
 62
7
  6
BYLAYER
 10
27.8583785663
 20
14.4163130494
 11
27.6384289612
 21
14.1963634442
  0
LINE
  5
330
100
AcDbEntity
  8
0
100
AcDbLine
 62
7
  6
BYLAYER
 10
27.1803025594
 20
13.7382370424
 11
26.9603529542
 21
13.5182874373
  0
LINE
  5
331
100
AcDbEntity
  8
0
100
AcDbLine
 62
7
  6
BYLAYER
 10
25.4005095772
 20
11.9265961228
 11
26.673083548
 21
13.1991700935
  0
LINE
  5
332
100
AcDbEntity
  8
0
100
AcDbLine
 62
7
  6
BYLAYER
 10
28.17749591
 20
14.7035824556
 11
29.4500698808
 21
15.9761564264
  0
LINE
  5
333
100
AcDbEntity
  8
0
100
AcDbLine
 62
7
  6
BYLAYER
 10
29.2153772862
 20
15.7118378434
 11
27.7228187095
 21
14.2192792667
  0
LINE
  5
334
100
AcDbEntity
  8
0
100
AcDbLine
 62
7
  6
BYLAYER
 10
27.1573867368
 20
13.6538472941
 11
25.6648281602
 21
12.1612887174
  0
LINE
  5
335
100
AcDbEntity
  8
0
100
AcDbLine
 62
7
  6
BYLAYER
 10
27.382037082
 20
13.6306993201
 11
27.4748395639
 21
13.723501802
  0
LINE
  5
336
100
AcDbEntity
  8
0
100
AcDbLine
 62
7
  6
BYLAYER
 10
27.6531642016
 20
13.9018264397
 11
27.7459666835
 21
13.9946289216
  0
LINE
  5
337
100
AcDbEntity
  8
0
100
AcDbLine
 62
7
  6
BYLAYER
 10
28.17749591
 20
14.7035824556
 11
27.8583785663
 21
14.4163130494
  0
LINE
  5
338
100
AcDbEntity
  8
0
100
AcDbLine
 62
7
  6
BYLAYER
 10
27.6971152997
 20
14.0434803054
 11
27.7717070596
 21
14.0919207606
  0
LINE
  5
339
100
AcDbEntity
  8
0
100
AcDbLine
 62
7
  6
BYLAYER
 10
27.7459666835
 20
33.9946289216
 11
28.2848335417
 21
33.5582715346
  0
LINE
  5
33A
100
AcDbEntity
  8
0
100
AcDbLine
 62
7
  6
BYLAYER
 10
27.7459666835
 20
33.9946289216
 11
27.6971152997
 21
34.0434803054
  0
LINE
  5
33B
100
AcDbEntity
  8
0
100
AcDbLine
 62
7
  6
BYLAYER
 10
26.9146758495
 20
34.8259197556
 11
26.8658244657
 21
34.8747711394
  0
LINE
  5
33C
100
AcDbEntity
  8
0
100
AcDbLine
 62
7
  6
BYLAYER
 10
28.6115019915
 20
33.2521258287
 11
27.7717070596
 21
34.0919207606
  0
LINE
  5
33D
100
AcDbEntity
  8
0
100
AcDbLine
 62
7
  6
BYLAYER
 10
26.9631163047
 20
34.9005115155
 11
26.1233213727
 21
35.7403064475
  0
LINE
  5
33E
100
AcDbEntity
  8
0
100
AcDbLine
 62
7
  6
BYLAYER
 10
27.2875085934
 20
34.9871830223
 11
27.8583785663
 21
34.4163130494
  0
LINE
  5
33F
100
AcDbEntity
  8
0
100
AcDbLine
 62
7
  6
BYLAYER
 10
27.5747779997
 20
35.306300366
 11
28.17749591
 21
34.7035824556
  0
LINE
  5
340
100
AcDbEntity
  8
0
100
AcDbLine
 62
7
  6
BYLAYER
 10
26.4294670787
 20
35.4136379976
 11
26.8658244657
 21
34.8747711394
  0
LINE
  5
341
100
AcDbEntity
  8
0
100
AcDbLine
 62
7
  6
BYLAYER
 10
27.818394469
 20
13.0918324619
 11
28.2848335417
 21
13.5582715346
  0
LINE
  5
342
100
AcDbEntity
  8
0
100
AcDbLine
 62
7
  6
BYLAYER
 10
28.6115019915
 20
13.2521258287
 11
28.1245401749
 21
12.7651640121
  0
ARC
  5
343
100
AcDbEntity
  8
0
100
AcDbCircle
 62
7
  6
BYLAYER
 10
15.9285963377
 20
5.5499700773
 40
30.3542594503
100
AcDbArc
 50
67.8613165602
 51
68.3569826949
  0
ARC
  5
344
100
AcDbEntity
  8
0
100
AcDbCircle
 62
7
  6
BYLAYER
 10
-4.0714036621
 20
-14.4500299222
 40
30.3542594497
100
AcDbArc
 50
67.8613165602
 51
68.3569826949
  0
ARC
  5
345
100
AcDbEntity
  8
0
100
AcDbCircle
 62
7
  6
BYLAYER
 10
15.928596338
 20
-14.4500299221
 40
30.3542594496
100
AcDbArc
 50
67.8613165602
 51
68.3569826949
  0
ARC
  5
346
100
AcDbEntity
  8
0
100
AcDbCircle
 62
7
  6
BYLAYER
 10
-4.0714036618
 20
5.5499700784
 40
30.354259449
100
AcDbArc
 50
67.8613165602
 51
68.3569826949
  0
ARC
  5
347
100
AcDbEntity
  8
0
100
AcDbCircle
 62
7
  6
BYLAYER
 10
16.8824633906
 20
9.1257767854
 40
26.5006280693
100
AcDbArc
 50
111.6069779855
 51
112.1747227594
  0
ARC
  5
348
100
AcDbEntity
  8
0
100
AcDbCircle
 62
7
  6
BYLAYER
 10
1.9969767516
 20
4.4942043899
 40
26.5006233036
100
AcDbArc
 50
21.6069779344
 51
22.1747228104
  0
ARC
  5
349
100
AcDbEntity
  8
0
100
AcDbCircle
 62
7
  6
BYLAYER
 10
-18.0030232482
 20
4.49420439
 40
26.5006233033
100
AcDbArc
 50
21.6069779344
 51
22.1747228104
  0
CIRCLE
  5
34A
100
AcDbEntity
  8
0
100
AcDbCircle
 62
7
  6
BYLAYER
 10
7.1239307738
 20
14.2527352298
 40
3.0
  0
ARC
  5
34B
100
AcDbEntity
  8
0
100
AcDbCircle
 62
7
  6
BYLAYER
 10
7.1239307738
 20
14.2527352298
 40
2.8950136038
100
AcDbArc
 50
216.5345041033
 51
233.4654958967
  0
ARC
  5
34C
100
AcDbEntity
  8
0
100
AcDbCircle
 62
7
  6
BYLAYER
 10
7.1239307738
 20
14.2527352298
 40
2.8950136038
100
AcDbArc
 50
36.5345041033
 51
53.4654958967
  0
ARC
  5
34D
100
AcDbEntity
  8
0
100
AcDbCircle
 62
7
  6
BYLAYER
 10
7.1239307738
 20
14.2527352298
 40
2.8489817302
100
AcDbArc
 50
53.8836441583
 51
216.1163558417
  0
ARC
  5
34E
100
AcDbEntity
  8
0
100
AcDbCircle
 62
7
  6
BYLAYER
 10
7.1239307738
 20
14.2527352298
 40
2.8489817302
100
AcDbArc
 50
233.8836441583
 51
36.1163558417
  0
ARC
  5
34F
100
AcDbEntity
  8
0
100
AcDbCircle
 62
7
  6
BYLAYER
 10
7.1239307738
 20
14.2527352298
 40
2.5501233207
100
AcDbArc
 50
55.0983541384
 51
214.9016458616
  0
ARC
  5
350
100
AcDbEntity
  8
0
100
AcDbCircle
 62
7
  6
BYLAYER
 10
7.1239307738
 20
14.2527352298
 40
2.5501233207
100
AcDbArc
 50
235.0983541384
 51
34.9016458616
  0
ARC
  5
351
100
AcDbEntity
  8
0
100
AcDbCircle
 62
7
  6
BYLAYER
 10
4.3739307738
 20
11.5027352298
 40
0.7
100
AcDbArc
 50
179.9999999986
 51
270.0
  0
ARC
  5
352
100
AcDbEntity
  8
0
100
AcDbCircle
 62
7
  6
BYLAYER
 10
7.1239307738
 20
14.2527352298
 40
0.635
100
AcDbArc
 50
112.564077409
 51
157.435922591
  0
ARC
  5
353
100
AcDbEntity
  8
0
100
AcDbCircle
 62
7
  6
BYLAYER
 10
7.1239307738
 20
14.2527352298
 40
0.635
100
AcDbArc
 50
202.564077409
 51
247.435922591
  0
ARC
  5
354
100
AcDbEntity
  8
0
100
AcDbCircle
 62
7
  6
BYLAYER
 10
7.1239307738
 20
14.2527352298
 40
0.635
100
AcDbArc
 50
22.564077409
 51
67.435922591
  0
ARC
  5
355
100
AcDbEntity
  8
0
100
AcDbCircle
 62
7
  6
BYLAYER
 10
7.1239307738
 20
14.2527352298
 40
0.635
100
AcDbArc
 50
292.564077409
 51
337.435922591
  0
ARC
  5
356
100
AcDbEntity
  8
0
100
AcDbCircle
 62
7
  6
BYLAYER
 10
4.3739307738
 20
11.5027352298
 40
0.1999994766
100
AcDbArc
 50
179.9992525703
 51
270.0007474291
  0
ARC
  5
357
100
AcDbEntity
  8
0
100
AcDbCircle
 62
7
  6
BYLAYER
 10
-1.5787946948
 20
25.4480537204
 40
30.3542166831
100
AcDbArc
 50
337.861316211
 51
338.3569830441
  0
ARC
  5
358
100
AcDbEntity
  8
0
100
AcDbCircle
 62
7
  6
BYLAYER
 10
-21.5787946938
 20
45.44805372
 40
30.354216682
100
AcDbArc
 50
337.861316211
 51
338.3569830441
  0
ARC
  5
359
100
AcDbEntity
  8
0
100
AcDbCircle
 62
7
  6
BYLAYER
 10
-21.5787946936
 20
25.4480537199
 40
30.3542166818
100
AcDbArc
 50
337.861316211
 51
338.3569830441
  0
ARC
  5
35A
100
AcDbEntity
  8
0
100
AcDbCircle
 62
7
  6
BYLAYER
 10
-1.578794693
 20
45.4480537197
 40
30.3542166811
100
AcDbArc
 50
337.861316211
 51
338.3569830441
  0
ARC
  5
35B
100
AcDbEntity
  8
0
100
AcDbCircle
 62
7
  6
BYLAYER
 10
-2.6346018432
 20
59.3796936748
 40
26.50062807
100
AcDbArc
 50
291.6069779855
 51
292.1747227594
  0
ARC
  5
35C
100
AcDbEntity
  8
0
100
AcDbCircle
 62
7
  6
BYLAYER
 10
-18.0030232479
 20
24.4942043901
 40
26.500623303
100
AcDbArc
 50
21.6069779344
 51
22.1747228104
  0
ARC
  5
35D
100
AcDbEntity
  8
0
100
AcDbCircle
 62
7
  6
BYLAYER
 10
1.9969767521
 20
24.4942043901
 40
26.500623303
100
AcDbArc
 50
21.6069779344
 51
22.1747228104
  0
CIRCLE
  5
35E
100
AcDbEntity
  8
0
100
AcDbCircle
 62
7
  6
BYLAYER
 10
7.1239307738
 20
34.2527352298
 40
3.0
  0
ARC
  5
35F
100
AcDbEntity
  8
0
100
AcDbCircle
 62
7
  6
BYLAYER
 10
7.1239307738
 20
34.2527352298
 40
2.8950136038
100
AcDbArc
 50
216.5345041033
 51
233.4654958967
  0
ARC
  5
360
100
AcDbEntity
  8
0
100
AcDbCircle
 62
7
  6
BYLAYER
 10
7.1239307738
 20
34.2527352298
 40
2.8950136038
100
AcDbArc
 50
36.5345041033
 51
53.4654958967
  0
ARC
  5
361
100
AcDbEntity
  8
0
100
AcDbCircle
 62
7
  6
BYLAYER
 10
7.1239307738
 20
34.2527352298
 40
2.8489817302
100
AcDbArc
 50
53.8836441583
 51
216.1163558417
  0
ARC
  5
362
100
AcDbEntity
  8
0
100
AcDbCircle
 62
7
  6
BYLAYER
 10
7.1239307738
 20
34.2527352298
 40
2.8489817302
100
AcDbArc
 50
233.8836441583
 51
36.1163558417
  0
ARC
  5
363
100
AcDbEntity
  8
0
100
AcDbCircle
 62
7
  6
BYLAYER
 10
7.1239307738
 20
34.2527352298
 40
2.5501233207
100
AcDbArc
 50
55.0983541384
 51
214.9016458616
  0
ARC
  5
364
100
AcDbEntity
  8
0
100
AcDbCircle
 62
7
  6
BYLAYER
 10
7.1239307738
 20
34.2527352298
 40
2.5501233207
100
AcDbArc
 50
235.0983541384
 51
34.9016458616
  0
ARC
  5
365
100
AcDbEntity
  8
0
100
AcDbCircle
 62
7
  6
BYLAYER
 10
4.3739307738
 20
37.0027352298
 40
0.7
100
AcDbArc
 50
89.9999999986
 51
180.0
  0
ARC
  5
366
100
AcDbEntity
  8
0
100
AcDbCircle
 62
7
  6
BYLAYER
 10
7.1239307738
 20
34.2527352298
 40
0.635
100
AcDbArc
 50
112.564077409
 51
157.435922591
  0
ARC
  5
367
100
AcDbEntity
  8
0
100
AcDbCircle
 62
7
  6
BYLAYER
 10
7.1239307738
 20
34.2527352298
 40
0.635
100
AcDbArc
 50
202.564077409
 51
247.435922591
  0
ARC
  5
368
100
AcDbEntity
  8
0
100
AcDbCircle
 62
7
  6
BYLAYER
 10
7.1239307738
 20
34.2527352298
 40
0.635
100
AcDbArc
 50
22.564077409
 51
67.435922591
  0
ARC
  5
369
100
AcDbEntity
  8
0
100
AcDbCircle
 62
7
  6
BYLAYER
 10
7.1239307738
 20
34.2527352298
 40
0.635
100
AcDbArc
 50
292.564077409
 51
337.435922591
  0
ARC
  5
36A
100
AcDbEntity
  8
0
100
AcDbCircle
 62
7
  6
BYLAYER
 10
4.3739307738
 20
37.0027352298
 40
0.1999994766
100
AcDbArc
 50
89.9992525703
 51
180.0007474291
  0
ARC
  5
36B
100
AcDbEntity
  8
0
100
AcDbCircle
 62
7
  6
BYLAYER
 10
55.8266562416
 20
3.0574167395
 40
30.3542166821
100
AcDbArc
 50
157.861316211
 51
158.3569830441
  0
ARC
  5
36C
100
AcDbEntity
  8
0
100
AcDbCircle
 62
7
  6
BYLAYER
 10
35.8266562413
 20
23.0574167396
 40
30.3542166818
100
AcDbArc
 50
157.861316211
 51
158.3569830441
  0
ARC
  5
36D
100
AcDbEntity
  8
0
100
AcDbCircle
 62
7
  6
BYLAYER
 10
35.8266562411
 20
3.0574167396
 40
30.3542166817
100
AcDbArc
 50
157.861316211
 51
158.3569830441
  0
ARC
  5
36E
100
AcDbEntity
  8
0
100
AcDbCircle
 62
7
  6
BYLAYER
 10
36.8824633906
 20
-10.8742232147
 40
26.5006280694
100
AcDbArc
 50
111.6069779855
 51
112.1747227594
  0
ARC
  5
36F
100
AcDbEntity
  8
0
100
AcDbCircle
 62
7
  6
BYLAYER
 10
32.2508847959
 20
24.0112660696
 40
26.5006233034
100
AcDbArc
 50
201.6069779344
 51
202.1747228104
  0
ARC
  5
370
100
AcDbEntity
  8
0
100
AcDbCircle
 62
7
  6
BYLAYER
 10
52.2508847955
 20
24.0112660694
 40
26.5006233029
100
AcDbArc
 50
201.6069779344
 51
202.1747228104
  0
CIRCLE
  5
371
100
AcDbEntity
  8
0
100
AcDbCircle
 62
7
  6
BYLAYER
 10
27.1239307738
 20
14.2527352298
 40
3.0
  0
ARC
  5
372
100
AcDbEntity
  8
0
100
AcDbCircle
 62
7
  6
BYLAYER
 10
27.1239307738
 20
14.2527352298
 40
2.8950136038
100
AcDbArc
 50
216.5345041033
 51
233.4654958967
  0
ARC
  5
373
100
AcDbEntity
  8
0
100
AcDbCircle
 62
7
  6
BYLAYER
 10
27.1239307738
 20
14.2527352298
 40
2.8950136038
100
AcDbArc
 50
36.5345041033
 51
53.4654958967
  0
ARC
  5
374
100
AcDbEntity
  8
0
100
AcDbCircle
 62
7
  6
BYLAYER
 10
27.1239307738
 20
14.2527352298
 40
2.8489817302
100
AcDbArc
 50
53.8836441583
 51
216.1163558417
  0
ARC
  5
375
100
AcDbEntity
  8
0
100
AcDbCircle
 62
7
  6
BYLAYER
 10
27.1239307738
 20
14.2527352298
 40
2.8489817302
100
AcDbArc
 50
233.8836441583
 51
36.1163558417
  0
ARC
  5
376
100
AcDbEntity
  8
0
100
AcDbCircle
 62
7
  6
BYLAYER
 10
27.1239307738
 20
14.2527352298
 40
2.5501233207
100
AcDbArc
 50
55.0983541384
 51
214.9016458616
  0
ARC
  5
377
100
AcDbEntity
  8
0
100
AcDbCircle
 62
7
  6
BYLAYER
 10
27.1239307738
 20
14.2527352298
 40
2.5501233207
100
AcDbArc
 50
235.0983541384
 51
34.9016458616
  0
ARC
  5
378
100
AcDbEntity
  8
0
100
AcDbCircle
 62
7
  6
BYLAYER
 10
29.8739307738
 20
11.5027352298
 40
0.7
100
AcDbArc
 50
269.9999999986
 51
360.0
  0
ARC
  5
379
100
AcDbEntity
  8
0
100
AcDbCircle
 62
7
  6
BYLAYER
 10
27.1239307738
 20
14.2527352298
 40
0.635
100
AcDbArc
 50
112.564077409
 51
157.435922591
  0
ARC
  5
37A
100
AcDbEntity
  8
0
100
AcDbCircle
 62
7
  6
BYLAYER
 10
27.1239307738
 20
14.2527352298
 40
0.635
100
AcDbArc
 50
202.564077409
 51
247.435922591
  0
ARC
  5
37B
100
AcDbEntity
  8
0
100
AcDbCircle
 62
7
  6
BYLAYER
 10
27.1239307738
 20
14.2527352298
 40
0.635
100
AcDbArc
 50
22.564077409
 51
67.435922591
  0
ARC
  5
37C
100
AcDbEntity
  8
0
100
AcDbCircle
 62
7
  6
BYLAYER
 10
27.1239307738
 20
14.2527352298
 40
0.635
100
AcDbArc
 50
292.564077409
 51
337.435922591
  0
ARC
  5
37D
100
AcDbEntity
  8
0
100
AcDbCircle
 62
7
  6
BYLAYER
 10
29.8739307738
 20
11.5027352298
 40
0.1999994766
100
AcDbArc
 50
269.9992525702
 51
0.0007474291
  0
ARC
  5
37E
100
AcDbEntity
  8
0
100
AcDbCircle
 62
7
  6
BYLAYER
 10
17.1239307738
 20
24.2527352298
 40
11.3795824355
100
AcDbArc
 50
319.7399879924
 51
40.0089209377
  0
ARC
  5
37F
100
AcDbEntity
  8
0
100
AcDbCircle
 62
7
  6
BYLAYER
 10
17.1239307738
 20
24.2527352298
 40
11.3795824355
100
AcDbArc
 50
228.1352389728
 51
311.7849584607
  0
ARC
  5
380
100
AcDbEntity
  8
0
100
AcDbCircle
 62
7
  6
BYLAYER
 10
17.1239307738
 20
24.2527352298
 40
11.3795824355
100
AcDbArc
 50
139.8306084615
 51
220.0448492112
  0
ARC
  5
381
100
AcDbEntity
  8
0
100
AcDbCircle
 62
7
  6
BYLAYER
 10
17.1239307738
 20
24.2527352298
 40
11.3795824355
100
AcDbArc
 50
48.1127794596
 51
131.8171948846
  0
CIRCLE
  5
382
100
AcDbEntity
  8
0
100
AcDbCircle
 62
7
  6
BYLAYER
 10
17.1239307738
 20
24.2527352298
 40
7.3820191796
  0
CIRCLE
  5
383
100
AcDbEntity
  8
0
100
AcDbCircle
 62
7
  6
BYLAYER
 10
17.1239307738
 20
24.2527352298
 40
7.0337020522
  0
CIRCLE
  5
384
100
AcDbEntity
  8
0
100
AcDbCircle
 62
7
  6
BYLAYER
 10
17.1239307738
 20
24.2527352298
 40
6.0343111933
  0
ARC
  5
385
100
AcDbEntity
  8
0
100
AcDbCircle
 62
7
  6
BYLAYER
 10
17.1239307738
 20
24.2527352298
 40
5.05
100
AcDbArc
 50
183.5801285951
 51
264.3485456359
  0
ARC
  5
386
100
AcDbEntity
  8
0
100
AcDbCircle
 62
7
  6
BYLAYER
 10
17.1239307738
 20
24.2527352298
 40
5.05
100
AcDbArc
 50
95.7244220366
 51
179.9931145883
  0
ARC
  5
387
100
AcDbEntity
  8
0
100
AcDbCircle
 62
7
  6
BYLAYER
 10
17.1239307738
 20
24.2527352298
 40
5.05
100
AcDbArc
 50
85.5820857955
 51
94.406162989
  0
ARC
  5
388
100
AcDbEntity
  8
0
100
AcDbCircle
 62
7
  6
BYLAYER
 10
17.1239307738
 20
24.2527352298
 40
5.05
100
AcDbArc
 50
3.5801285951
 51
84.3485456359
  0
ARC
  5
389
100
AcDbEntity
  8
0
100
AcDbCircle
 62
7
  6
BYLAYER
 10
17.1239307738
 20
24.2527352298
 40
5.05
100
AcDbArc
 50
275.7244220366
 51
359.9931145883
  0
ARC
  5
38A
100
AcDbEntity
  8
0
100
AcDbCircle
 62
7
  6
BYLAYER
 10
17.1239307738
 20
24.2527352298
 40
5.05
100
AcDbArc
 50
265.5820857955
 51
274.406162989
  0
CIRCLE
  5
38B
100
AcDbEntity
  8
0
100
AcDbCircle
 62
7
  6
BYLAYER
 10
17.1239307738
 20
24.2527352298
 40
5.0
  0
ARC
  5
38C
100
AcDbEntity
  8
0
100
AcDbCircle
 62
7
  6
BYLAYER
 10
18.31926521
 20
42.9555003823
 40
30.3542594504
100
AcDbArc
 50
247.8613165602
 51
248.3569826949
  0
CIRCLE
  5
38D
100
AcDbEntity
  8
0
100
AcDbCircle
 62
7
  6
BYLAYER
 10
27.1239307738
 20
34.2527352298
 40
3.0
  0
ARC
  5
38E
100
AcDbEntity
  8
0
100
AcDbCircle
 62
7
  6
BYLAYER
 10
27.1239307738
 20
34.2527352298
 40
2.8950136038
100
AcDbArc
 50
216.5345041033
 51
233.4654958967
  0
ARC
  5
38F
100
AcDbEntity
  8
0
100
AcDbCircle
 62
7
  6
BYLAYER
 10
27.1239307738
 20
34.2527352298
 40
2.8950136038
100
AcDbArc
 50
36.5345041033
 51
53.4654958967
  0
ARC
  5
390
100
AcDbEntity
  8
0
100
AcDbCircle
 62
7
  6
BYLAYER
 10
27.1239307738
 20
34.2527352298
 40
2.8489817302
100
AcDbArc
 50
53.8836441583
 51
216.1163558417
  0
ARC
  5
391
100
AcDbEntity
  8
0
100
AcDbCircle
 62
7
  6
BYLAYER
 10
27.1239307738
 20
34.2527352298
 40
2.8489817302
100
AcDbArc
 50
233.8836441583
 51
36.1163558417
  0
ARC
  5
392
100
AcDbEntity
  8
0
100
AcDbCircle
 62
7
  6
BYLAYER
 10
27.1239307738
 20
34.2527352298
 40
2.5501233207
100
AcDbArc
 50
55.0983541384
 51
214.9016458616
  0
ARC
  5
393
100
AcDbEntity
  8
0
100
AcDbCircle
 62
7
  6
BYLAYER
 10
27.1239307738
 20
34.2527352298
 40
2.5501233207
100
AcDbArc
 50
235.0983541384
 51
34.9016458616
  0
ARC
  5
394
100
AcDbEntity
  8
0
100
AcDbCircle
 62
7
  6
BYLAYER
 10
29.8739307738
 20
37.0027352298
 40
0.7
100
AcDbArc
 50
0.0
 51
90.0
  0
ARC
  5
395
100
AcDbEntity
  8
0
100
AcDbCircle
 62
7
  6
BYLAYER
 10
27.1239307738
 20
34.2527352298
 40
0.635
100
AcDbArc
 50
112.564077409
 51
157.435922591
  0
ARC
  5
396
100
AcDbEntity
  8
0
100
AcDbCircle
 62
7
  6
BYLAYER
 10
27.1239307738
 20
34.2527352298
 40
0.635
100
AcDbArc
 50
202.564077409
 51
247.435922591
  0
ARC
  5
397
100
AcDbEntity
  8
0
100
AcDbCircle
 62
7
  6
BYLAYER
 10
27.1239307738
 20
34.2527352298
 40
0.635
100
AcDbArc
 50
22.564077409
 51
67.435922591
  0
ARC
  5
398
100
AcDbEntity
  8
0
100
AcDbCircle
 62
7
  6
BYLAYER
 10
27.1239307738
 20
34.2527352298
 40
0.635
100
AcDbArc
 50
292.564077409
 51
337.435922591
  0
ARC
  5
399
100
AcDbEntity
  8
0
100
AcDbCircle
 62
7
  6
BYLAYER
 10
29.8739307738
 20
37.0027352298
 40
0.1999994766
100
AcDbArc
 50
359.9992525703
 51
90.0007474291
  0
ARC
  5
39A
100
AcDbEntity
  8
0
100
AcDbCircle
 62
7
  6
BYLAYER
 10
18.3192652099
 20
62.9555003822
 40
30.3542594502
100
AcDbArc
 50
247.8613165602
 51
248.3569826949
  0
ARC
  5
39B
100
AcDbEntity
  8
0
100
AcDbCircle
 62
7
  6
BYLAYER
 10
17.3653981571
 20
59.379693674
 40
26.5006280691
100
AcDbArc
 50
291.6069779855
 51
292.1747227594
  0
ARC
  5
39C
100
AcDbEntity
  8
0
100
AcDbCircle
 62
7
  6
BYLAYER
 10
32.2508847964
 20
44.0112660698
 40
26.500623304
100
AcDbArc
 50
201.6069779344
 51
202.1747228104
  0
ARC
  5
39D
100
AcDbEntity
  8
0
100
AcDbCircle
 62
7
  6
BYLAYER
 10
38.3192652098
 20
42.955500382
 40
30.35425945
100
AcDbArc
 50
247.8613165602
 51
248.3569826949
  0
ARC
  5
39E
100
AcDbEntity
  8
0
100
AcDbCircle
 62
7
  6
BYLAYER
 10
38.3192652095
 20
62.9555003812
 40
30.3542594491
100
AcDbArc
 50
247.8613165602
 51
248.3569826949
  0
ARC
  5
39F
100
AcDbEntity
  8
0
100
AcDbCircle
 62
7
  6
BYLAYER
 10
52.2508847961
 20
44.0112660697
 40
26.5006233036
100
AcDbArc
 50
201.6069779344
 51
202.1747228104
  0
SPLINE
  5
3A0
100
AcDbEntity
  8
0
100
AcDbSpline
 62
7
  6
BYLAYER
 70
0
 71
3
 72
19
 73
15
 74
0
 42
0.0000001
 43
0.0000001
 44
0.0000000001
 40
0.0
 40
0.0
 40
0.0
 40
0.0
 40
0.0054633989
 40
0.0130500986
 40
0.0345483093
 40
0.064346031
 40
0.1021808114
 40
0.1476762977
 40
0.2004362608
 40
0.3257625976
 40
0.4737361442
 40
0.639174376
 40
0.8166376764
 40
1.0
 40
1.0
 40
1.0
 40
1.0
 10
4.8224616317
 20
12.5734685188
 30
0.0
 10
4.8227322195
 20
12.573952342
 30
0.0
 10
4.8234600355
 20
12.5750612334
 30
0.0
 10
4.8255355945
 20
12.5778861244
 30
0.0
 10
4.8293170583
 20
12.582516015
 30
0.0
 10
4.8352191432
 20
12.5893677781
 30
0.0
 10
4.8428640052
 20
12.5979312708
 30
0.0
 10
4.8521747281
 20
12.6081286722
 30
0.0
 10
4.8676122582
 20
12.6247523381
 30
0.0
 10
4.8903628324
 20
12.648773234
 30
0.0
 10
4.921239911
 20
12.6808418279
 30
0.0
 10
4.956014827
 20
12.7164996718
 30
0.0
 10
4.9935009911
 20
12.7545278241
 30
0.0
 10
5.0193285198
 20
12.7804768744
 30
0.0
 10
5.0324842615
 20
12.7936326161
 30
0.0
  0
LINE
  5
3A1
100
AcDbEntity
  8
0
100
AcDbLine
 62
7
  6
BYLAYER
 10
4.7977916668
 20
12.5293140331
 11
4.8224616317
 21
12.5734685188
  0
LINE
  5
3A2
100
AcDbEntity
  8
0
100
AcDbLine
 62
7
  6
BYLAYER
 10
5.4446640629
 20
11.9512660876
 11
5.4005095772
 21
11.9265961228
  0
LINE
  5
3A3
100
AcDbEntity
  8
0
100
AcDbLine
 62
7
  6
BYLAYER
 10
9.4500698808
 20
15.9761564264
 11
9.425399916
 21
15.9320019407
  0
LINE
  5
3A4
100
AcDbEntity
  8
0
100
AcDbLine
 62
7
  6
BYLAYER
 10
8.8031974848
 20
16.5542043719
 11
8.8473519704
 21
16.5788743367
  0
SPLINE
  5
3A5
100
AcDbEntity
  8
0
100
AcDbSpline
 62
7
  6
BYLAYER
 70
0
 71
3
 72
19
 73
15
 74
0
 42
0.0000001
 43
0.0000001
 44
0.0000000001
 40
0.0
 40
0.0
 40
0.0
 40
0.0
 40
0.0054633989
 40
0.0130500986
 40
0.0345483093
 40
0.064346031
 40
0.1021808114
 40
0.1476762977
 40
0.2004362608
 40
0.3257625976
 40
0.4737361442
 40
0.639174376
 40
0.8166376764
 40
1.0
 40
1.0
 40
1.0
 40
1.0
 10
9.425399916
 20
15.9320019407
 30
0.0
 10
9.4251293282
 20
15.9315181175
 30
0.0
 10
9.4244015121
 20
15.9304092261
 30
0.0
 10
9.4223259531
 20
15.9275843351
 30
0.0
 10
9.4185444894
 20
15.9229544445
 30
0.0
 10
9.4126424044
 20
15.9161026814
 30
0.0
 10
9.4049975424
 20
15.9075391887
 30
0.0
 10
9.3956868196
 20
15.8973417873
 30
0.0
 10
9.3802492895
 20
15.8807181214
 30
0.0
 10
9.3574987152
 20
15.8566972255
 30
0.0
 10
9.3266216367
 20
15.8246286316
 30
0.0
 10
9.2918467206
 20
15.7889707877
 30
0.0
 10
9.2543605566
 20
15.7509426354
 30
0.0
 10
9.2285330279
 20
15.7249935851
 30
0.0
 10
9.2153772862
 20
15.7118378434
 30
0.0
  0
SPLINE
  5
3A6
100
AcDbEntity
  8
0
100
AcDbSpline
 62
7
  6
BYLAYER
 70
0
 71
3
 72
19
 73
15
 74
0
 42
0.0000001
 43
0.0000001
 44
0.0000000001
 40
0.0
 40
0.0
 40
0.0
 40
0.0
 40
0.1833619646
 40
0.3608269377
 40
0.5262681272
 40
0.6742438457
 40
0.7995706208
 40
0.8523304657
 40
0.8978246012
 40
0.935657635
 40
0.9654542633
 40
0.9869508074
 40
0.994536859
 40
1.0
 40
1.0
 40
1.0
 40
1.0
 10
5.6648281602
 20
12.1612887174
 30
0.0
 10
5.6516724441
 20
12.1481330013
 30
0.0
 10
5.6257233006
 20
12.1223053769
 30
0.0
 10
5.5876948358
 20
12.0848189117
 30
0.0
 10
5.5520364959
 20
12.0500435151
 30
0.0
 10
5.5199674895
 20
12.0191660496
 30
0.0
 10
5.4959463904
 20
11.9964153217
 30
0.0
 10
5.4793227925
 20
11.9809778717
 30
0.0
 10
5.4691256175
 20
11.9716673844
 30
0.0
 10
5.4605624195
 20
11.9640228311
 30
0.0
 10
5.4537110247
 20
11.9581210192
 30
0.0
 10
5.4490813891
 20
11.9543397893
 30
0.0
 10
5.4462566876
 20
11.9522644119
 30
0.0
 10
5.4451478632
 20
11.9515366627
 30
0.0
 10
5.4446640629
 20
11.9512660876
 30
0.0
  0
SPLINE
  5
3A7
100
AcDbEntity
  8
0
100
AcDbSpline
 62
7
  6
BYLAYER
 70
0
 71
3
 72
19
 73
15
 74
0
 42
0.0000001
 43
0.0000001
 44
0.0000000001
 40
0.0
 40
0.0
 40
0.0
 40
0.0
 40
0.1833619646
 40
0.3608269377
 40
0.5262681272
 40
0.6742438457
 40
0.7995706208
 40
0.8523304657
 40
0.8978246012
 40
0.935657635
 40
0.9654542633
 40
0.9869508074
 40
0.994536859
 40
1.0
 40
1.0
 40
1.0
 40
1.0
 10
8.5830333874
 20
16.3441817421
 30
0.0
 10
8.5961891035
 20
16.3573374582
 30
0.0
 10
8.6221382471
 20
16.3831650826
 30
0.0
 10
8.6601667118
 20
16.4206515478
 30
0.0
 10
8.6958250518
 20
16.4554269445
 30
0.0
 10
8.7278940581
 20
16.4863044099
 30
0.0
 10
8.7519151573
 20
16.5090551378
 30
0.0
 10
8.7685387551
 20
16.5244925878
 30
0.0
 10
8.7787359301
 20
16.5338030751
 30
0.0
 10
8.7872991281
 20
16.5414476284
 30
0.0
 10
8.794150523
 20
16.5473494403
 30
0.0
 10
8.7987801586
 20
16.5511306702
 30
0.0
 10
8.80160486
 20
16.5532060476
 30
0.0
 10
8.8027136844
 20
16.5539337969
 30
0.0
 10
8.8031974848
 20
16.5542043719
 30
0.0
  0
SPLINE
  5
3A8
100
AcDbEntity
  8
0
100
AcDbSpline
 62
7
  6
BYLAYER
 70
0
 71
3
 72
19
 73
15
 74
0
 42
0.0000001
 43
0.0000001
 44
0.0000000001
 40
0.0
 40
0.0
 40
0.0
 40
0.0
 40
0.0054633989
 40
0.0130500986
 40
0.0345483093
 40
0.064346031
 40
0.1021808114
 40
0.1476762977
 40
0.2004362608
 40
0.3257625976
 40
0.4737361442
 40
0.639174376
 40
0.8166376764
 40
1.0
 40
1.0
 40
1.0
 40
1.0
 10
24.8224616317
 20
12.5734685188
 30
0.0
 10
24.8227322195
 20
12.573952342
 30
0.0
 10
24.8234600355
 20
12.5750612334
 30
0.0
 10
24.8255355945
 20
12.5778861244
 30
0.0
 10
24.8293170583
 20
12.582516015
 30
0.0
 10
24.8352191432
 20
12.5893677781
 30
0.0
 10
24.8428640052
 20
12.5979312708
 30
0.0
 10
24.8521747281
 20
12.6081286722
 30
0.0
 10
24.8676122582
 20
12.6247523381
 30
0.0
 10
24.8903628324
 20
12.648773234
 30
0.0
 10
24.921239911
 20
12.6808418279
 30
0.0
 10
24.956014827
 20
12.7164996718
 30
0.0
 10
24.9935009911
 20
12.7545278241
 30
0.0
 10
25.0193285198
 20
12.7804768744
 30
0.0
 10
25.0324842615
 20
12.7936326161
 30
0.0
  0
LINE
  5
3A9
100
AcDbEntity
  8
0
100
AcDbLine
 62
7
  6
BYLAYER
 10
24.7977916668
 20
12.5293140331
 11
24.8224616317
 21
12.5734685188
  0
LINE
  5
3AA
100
AcDbEntity
  8
0
100
AcDbLine
 62
7
  6
BYLAYER
 10
25.4446640629
 20
11.9512660876
 11
25.4005095772
 21
11.9265961228
  0
LINE
  5
3AB
100
AcDbEntity
  8
0
100
AcDbLine
 62
7
  6
BYLAYER
 10
29.4500698808
 20
15.9761564264
 11
29.425399916
 21
15.9320019407
  0
LINE
  5
3AC
100
AcDbEntity
  8
0
100
AcDbLine
 62
7
  6
BYLAYER
 10
28.8031974848
 20
16.5542043719
 11
28.8473519704
 21
16.5788743367
  0
SPLINE
  5
3AD
100
AcDbEntity
  8
0
100
AcDbSpline
 62
7
  6
BYLAYER
 70
0
 71
3
 72
19
 73
15
 74
0
 42
0.0000001
 43
0.0000001
 44
0.0000000001
 40
0.0
 40
0.0
 40
0.0
 40
0.0
 40
0.0054633989
 40
0.0130500986
 40
0.0345483093
 40
0.064346031
 40
0.1021808114
 40
0.1476762977
 40
0.2004362608
 40
0.3257625976
 40
0.4737361442
 40
0.639174376
 40
0.8166376764
 40
1.0
 40
1.0
 40
1.0
 40
1.0
 10
29.425399916
 20
15.9320019407
 30
0.0
 10
29.4251293282
 20
15.9315181175
 30
0.0
 10
29.4244015121
 20
15.9304092261
 30
0.0
 10
29.4223259531
 20
15.9275843351
 30
0.0
 10
29.4185444894
 20
15.9229544445
 30
0.0
 10
29.4126424044
 20
15.9161026814
 30
0.0
 10
29.4049975424
 20
15.9075391887
 30
0.0
 10
29.3956868196
 20
15.8973417873
 30
0.0
 10
29.3802492895
 20
15.8807181214
 30
0.0
 10
29.3574987152
 20
15.8566972255
 30
0.0
 10
29.3266216367
 20
15.8246286316
 30
0.0
 10
29.2918467206
 20
15.7889707877
 30
0.0
 10
29.2543605566
 20
15.7509426354
 30
0.0
 10
29.2285330279
 20
15.7249935851
 30
0.0
 10
29.2153772862
 20
15.7118378434
 30
0.0
  0
SPLINE
  5
3AE
100
AcDbEntity
  8
0
100
AcDbSpline
 62
7
  6
BYLAYER
 70
0
 71
3
 72
19
 73
15
 74
0
 42
0.0000001
 43
0.0000001
 44
0.0000000001
 40
0.0
 40
0.0
 40
0.0
 40
0.0
 40
0.1833619646
 40
0.3608269377
 40
0.5262681272
 40
0.6742438457
 40
0.7995706208
 40
0.8523304657
 40
0.8978246012
 40
0.935657635
 40
0.9654542633
 40
0.9869508074
 40
0.994536859
 40
1.0
 40
1.0
 40
1.0
 40
1.0
 10
25.6648281602
 20
12.1612887174
 30
0.0
 10
25.6516724441
 20
12.1481330013
 30
0.0
 10
25.6257233006
 20
12.1223053769
 30
0.0
 10
25.5876948358
 20
12.0848189117
 30
0.0
 10
25.5520364959
 20
12.0500435151
 30
0.0
 10
25.5199674895
 20
12.0191660496
 30
0.0
 10
25.4959463904
 20
11.9964153217
 30
0.0
 10
25.4793227925
 20
11.9809778717
 30
0.0
 10
25.4691256175
 20
11.9716673844
 30
0.0
 10
25.4605624195
 20
11.9640228311
 30
0.0
 10
25.4537110247
 20
11.9581210192
 30
0.0
 10
25.4490813891
 20
11.9543397893
 30
0.0
 10
25.4462566876
 20
11.9522644119
 30
0.0
 10
25.4451478632
 20
11.9515366627
 30
0.0
 10
25.4446640629
 20
11.9512660876
 30
0.0
  0
SPLINE
  5
3AF
100
AcDbEntity
  8
0
100
AcDbSpline
 62
7
  6
BYLAYER
 70
0
 71
3
 72
19
 73
15
 74
0
 42
0.0000001
 43
0.0000001
 44
0.0000000001
 40
0.0
 40
0.0
 40
0.0
 40
0.0
 40
0.1833619646
 40
0.3608269377
 40
0.5262681272
 40
0.6742438457
 40
0.7995706208
 40
0.8523304657
 40
0.8978246012
 40
0.935657635
 40
0.9654542633
 40
0.9869508074
 40
0.994536859
 40
1.0
 40
1.0
 40
1.0
 40
1.0
 10
28.5830333874
 20
16.3441817421
 30
0.0
 10
28.5961891035
 20
16.3573374582
 30
0.0
 10
28.6221382471
 20
16.3831650826
 30
0.0
 10
28.6601667118
 20
16.4206515478
 30
0.0
 10
28.6958250518
 20
16.4554269445
 30
0.0
 10
28.7278940581
 20
16.4863044099
 30
0.0
 10
28.7519151573
 20
16.5090551378
 30
0.0
 10
28.7685387551
 20
16.5244925878
 30
0.0
 10
28.7787359301
 20
16.5338030751
 30
0.0
 10
28.7872991281
 20
16.5414476284
 30
0.0
 10
28.794150523
 20
16.5473494403
 30
0.0
 10
28.7987801586
 20
16.5511306702
 30
0.0
 10
28.80160486
 20
16.5532060476
 30
0.0
 10
28.8027136844
 20
16.5539337969
 30
0.0
 10
28.8031974848
 20
16.5542043719
 30
0.0
  0
SPLINE
  5
3B0
100
AcDbEntity
  8
0
100
AcDbSpline
 62
7
  6
BYLAYER
 70
0
 71
3
 72
19
 73
15
 74
0
 42
0.0000001
 43
0.0000001
 44
0.0000000001
 40
0.0
 40
0.0
 40
0.0
 40
0.0
 40
0.0054633989
 40
0.0130500986
 40
0.0345483093
 40
0.064346031
 40
0.1021808114
 40
0.1476762977
 40
0.2004362608
 40
0.3257625976
 40
0.4737361442
 40
0.639174376
 40
0.8166376764
 40
1.0
 40
1.0
 40
1.0
 40
1.0
 10
4.8224616317
 20
32.5734685188
 30
0.0
 10
4.8227322195
 20
32.573952342
 30
0.0
 10
4.8234600355
 20
32.5750612334
 30
0.0
 10
4.8255355945
 20
32.5778861244
 30
0.0
 10
4.8293170583
 20
32.582516015
 30
0.0
 10
4.8352191432
 20
32.5893677781
 30
0.0
 10
4.8428640052
 20
32.5979312708
 30
0.0
 10
4.8521747281
 20
32.6081286722
 30
0.0
 10
4.8676122582
 20
32.6247523381
 30
0.0
 10
4.8903628324
 20
32.648773234
 30
0.0
 10
4.921239911
 20
32.6808418279
 30
0.0
 10
4.956014827
 20
32.7164996718
 30
0.0
 10
4.9935009911
 20
32.7545278241
 30
0.0
 10
5.0193285198
 20
32.7804768744
 30
0.0
 10
5.0324842615
 20
32.7936326161
 30
0.0
  0
LINE
  5
3B1
100
AcDbEntity
  8
0
100
AcDbLine
 62
7
  6
BYLAYER
 10
4.7977916668
 20
32.5293140331
 11
4.8224616317
 21
32.5734685188
  0
LINE
  5
3B2
100
AcDbEntity
  8
0
100
AcDbLine
 62
7
  6
BYLAYER
 10
5.4446640629
 20
31.9512660876
 11
5.4005095772
 21
31.9265961228
  0
LINE
  5
3B3
100
AcDbEntity
  8
0
100
AcDbLine
 62
7
  6
BYLAYER
 10
9.4500698808
 20
35.9761564264
 11
9.425399916
 21
35.9320019407
  0
LINE
  5
3B4
100
AcDbEntity
  8
0
100
AcDbLine
 62
7
  6
BYLAYER
 10
8.8031974848
 20
36.5542043719
 11
8.8473519704
 21
36.5788743367
  0
SPLINE
  5
3B5
100
AcDbEntity
  8
0
100
AcDbSpline
 62
7
  6
BYLAYER
 70
0
 71
3
 72
19
 73
15
 74
0
 42
0.0000001
 43
0.0000001
 44
0.0000000001
 40
0.0
 40
0.0
 40
0.0
 40
0.0
 40
0.0054633989
 40
0.0130500986
 40
0.0345483093
 40
0.064346031
 40
0.1021808114
 40
0.1476762977
 40
0.2004362608
 40
0.3257625976
 40
0.4737361442
 40
0.639174376
 40
0.8166376764
 40
1.0
 40
1.0
 40
1.0
 40
1.0
 10
9.425399916
 20
35.9320019407
 30
0.0
 10
9.4251293282
 20
35.9315181175
 30
0.0
 10
9.4244015121
 20
35.9304092261
 30
0.0
 10
9.4223259531
 20
35.9275843351
 30
0.0
 10
9.4185444894
 20
35.9229544445
 30
0.0
 10
9.4126424044
 20
35.9161026814
 30
0.0
 10
9.4049975424
 20
35.9075391887
 30
0.0
 10
9.3956868196
 20
35.8973417873
 30
0.0
 10
9.3802492895
 20
35.8807181214
 30
0.0
 10
9.3574987152
 20
35.8566972255
 30
0.0
 10
9.3266216367
 20
35.8246286316
 30
0.0
 10
9.2918467206
 20
35.7889707877
 30
0.0
 10
9.2543605566
 20
35.7509426354
 30
0.0
 10
9.2285330279
 20
35.7249935851
 30
0.0
 10
9.2153772862
 20
35.7118378434
 30
0.0
  0
SPLINE
  5
3B6
100
AcDbEntity
  8
0
100
AcDbSpline
 62
7
  6
BYLAYER
 70
0
 71
3
 72
19
 73
15
 74
0
 42
0.0000001
 43
0.0000001
 44
0.0000000001
 40
0.0
 40
0.0
 40
0.0
 40
0.0
 40
0.1833619646
 40
0.3608269377
 40
0.5262681272
 40
0.6742438457
 40
0.7995706208
 40
0.8523304657
 40
0.8978246012
 40
0.935657635
 40
0.9654542633
 40
0.9869508074
 40
0.994536859
 40
1.0
 40
1.0
 40
1.0
 40
1.0
 10
5.6648281602
 20
32.1612887174
 30
0.0
 10
5.6516724441
 20
32.1481330013
 30
0.0
 10
5.6257233006
 20
32.1223053769
 30
0.0
 10
5.5876948358
 20
32.0848189117
 30
0.0
 10
5.5520364959
 20
32.0500435151
 30
0.0
 10
5.5199674895
 20
32.0191660496
 30
0.0
 10
5.4959463904
 20
31.9964153217
 30
0.0
 10
5.4793227925
 20
31.9809778717
 30
0.0
 10
5.4691256175
 20
31.9716673844
 30
0.0
 10
5.4605624195
 20
31.9640228311
 30
0.0
 10
5.4537110247
 20
31.9581210192
 30
0.0
 10
5.4490813891
 20
31.9543397893
 30
0.0
 10
5.4462566876
 20
31.9522644119
 30
0.0
 10
5.4451478632
 20
31.9515366627
 30
0.0
 10
5.4446640629
 20
31.9512660876
 30
0.0
  0
SPLINE
  5
3B7
100
AcDbEntity
  8
0
100
AcDbSpline
 62
7
  6
BYLAYER
 70
0
 71
3
 72
19
 73
15
 74
0
 42
0.0000001
 43
0.0000001
 44
0.0000000001
 40
0.0
 40
0.0
 40
0.0
 40
0.0
 40
0.1833619646
 40
0.3608269377
 40
0.5262681272
 40
0.6742438457
 40
0.7995706208
 40
0.8523304657
 40
0.8978246012
 40
0.935657635
 40
0.9654542633
 40
0.9869508074
 40
0.994536859
 40
1.0
 40
1.0
 40
1.0
 40
1.0
 10
8.5830333874
 20
36.3441817421
 30
0.0
 10
8.5961891035
 20
36.3573374582
 30
0.0
 10
8.6221382471
 20
36.3831650826
 30
0.0
 10
8.6601667118
 20
36.4206515478
 30
0.0
 10
8.6958250518
 20
36.4554269445
 30
0.0
 10
8.7278940581
 20
36.4863044099
 30
0.0
 10
8.7519151573
 20
36.5090551378
 30
0.0
 10
8.7685387551
 20
36.5244925878
 30
0.0
 10
8.7787359301
 20
36.5338030751
 30
0.0
 10
8.7872991281
 20
36.5414476284
 30
0.0
 10
8.794150523
 20
36.5473494403
 30
0.0
 10
8.7987801586
 20
36.5511306702
 30
0.0
 10
8.80160486
 20
36.5532060476
 30
0.0
 10
8.8027136844
 20
36.5539337969
 30
0.0
 10
8.8031974848
 20
36.5542043719
 30
0.0
  0
SPLINE
  5
3B8
100
AcDbEntity
  8
0
100
AcDbSpline
 62
7
  6
BYLAYER
 70
0
 71
3
 72
19
 73
15
 74
0
 42
0.0000001
 43
0.0000001
 44
0.0000000001
 40
0.0
 40
0.0
 40
0.0
 40
0.0
 40
0.0054633989
 40
0.0130500986
 40
0.0345483093
 40
0.064346031
 40
0.1021808114
 40
0.1476762977
 40
0.2004362608
 40
0.3257625976
 40
0.4737361442
 40
0.639174376
 40
0.8166376764
 40
1.0
 40
1.0
 40
1.0
 40
1.0
 10
24.8224616317
 20
32.5734685188
 30
0.0
 10
24.8227322195
 20
32.573952342
 30
0.0
 10
24.8234600355
 20
32.5750612334
 30
0.0
 10
24.8255355945
 20
32.5778861244
 30
0.0
 10
24.8293170583
 20
32.582516015
 30
0.0
 10
24.8352191432
 20
32.5893677781
 30
0.0
 10
24.8428640052
 20
32.5979312708
 30
0.0
 10
24.8521747281
 20
32.6081286722
 30
0.0
 10
24.8676122582
 20
32.6247523381
 30
0.0
 10
24.8903628324
 20
32.648773234
 30
0.0
 10
24.921239911
 20
32.6808418279
 30
0.0
 10
24.956014827
 20
32.7164996718
 30
0.0
 10
24.9935009911
 20
32.7545278241
 30
0.0
 10
25.0193285198
 20
32.7804768744
 30
0.0
 10
25.0324842615
 20
32.7936326161
 30
0.0
  0
LINE
  5
3B9
100
AcDbEntity
  8
0
100
AcDbLine
 62
7
  6
BYLAYER
 10
24.7977916668
 20
32.5293140331
 11
24.8224616317
 21
32.5734685188
  0
LINE
  5
3BA
100
AcDbEntity
  8
0
100
AcDbLine
 62
7
  6
BYLAYER
 10
25.4446640629
 20
31.9512660876
 11
25.4005095772
 21
31.9265961228
  0
LINE
  5
3BB
100
AcDbEntity
  8
0
100
AcDbLine
 62
7
  6
BYLAYER
 10
29.4500698808
 20
35.9761564264
 11
29.425399916
 21
35.9320019407
  0
LINE
  5
3BC
100
AcDbEntity
  8
0
100
AcDbLine
 62
7
  6
BYLAYER
 10
28.8031974848
 20
36.5542043719
 11
28.8473519704
 21
36.5788743367
  0
SPLINE
  5
3BD
100
AcDbEntity
  8
0
100
AcDbSpline
 62
7
  6
BYLAYER
 70
0
 71
3
 72
19
 73
15
 74
0
 42
0.0000001
 43
0.0000001
 44
0.0000000001
 40
0.0
 40
0.0
 40
0.0
 40
0.0
 40
0.0054633989
 40
0.0130500986
 40
0.0345483093
 40
0.064346031
 40
0.1021808114
 40
0.1476762977
 40
0.2004362608
 40
0.3257625976
 40
0.4737361442
 40
0.639174376
 40
0.8166376764
 40
1.0
 40
1.0
 40
1.0
 40
1.0
 10
29.425399916
 20
35.9320019407
 30
0.0
 10
29.4251293282
 20
35.9315181175
 30
0.0
 10
29.4244015121
 20
35.9304092261
 30
0.0
 10
29.4223259531
 20
35.9275843351
 30
0.0
 10
29.4185444894
 20
35.9229544445
 30
0.0
 10
29.4126424044
 20
35.9161026814
 30
0.0
 10
29.4049975424
 20
35.9075391887
 30
0.0
 10
29.3956868196
 20
35.8973417873
 30
0.0
 10
29.3802492895
 20
35.8807181214
 30
0.0
 10
29.3574987152
 20
35.8566972255
 30
0.0
 10
29.3266216367
 20
35.8246286316
 30
0.0
 10
29.2918467206
 20
35.7889707877
 30
0.0
 10
29.2543605566
 20
35.7509426354
 30
0.0
 10
29.2285330279
 20
35.7249935851
 30
0.0
 10
29.2153772862
 20
35.7118378434
 30
0.0
  0
SPLINE
  5
3BE
100
AcDbEntity
  8
0
100
AcDbSpline
 62
7
  6
BYLAYER
 70
0
 71
3
 72
19
 73
15
 74
0
 42
0.0000001
 43
0.0000001
 44
0.0000000001
 40
0.0
 40
0.0
 40
0.0
 40
0.0
 40
0.1833619646
 40
0.3608269377
 40
0.5262681272
 40
0.6742438457
 40
0.7995706208
 40
0.8523304657
 40
0.8978246012
 40
0.935657635
 40
0.9654542633
 40
0.9869508074
 40
0.994536859
 40
1.0
 40
1.0
 40
1.0
 40
1.0
 10
25.6648281602
 20
32.1612887174
 30
0.0
 10
25.6516724441
 20
32.1481330013
 30
0.0
 10
25.6257233006
 20
32.1223053769
 30
0.0
 10
25.5876948358
 20
32.0848189117
 30
0.0
 10
25.5520364959
 20
32.0500435151
 30
0.0
 10
25.5199674895
 20
32.0191660496
 30
0.0
 10
25.4959463904
 20
31.9964153217
 30
0.0
 10
25.4793227925
 20
31.9809778717
 30
0.0
 10
25.4691256175
 20
31.9716673844
 30
0.0
 10
25.4605624195
 20
31.9640228311
 30
0.0
 10
25.4537110247
 20
31.9581210192
 30
0.0
 10
25.4490813891
 20
31.9543397893
 30
0.0
 10
25.4462566876
 20
31.9522644119
 30
0.0
 10
25.4451478632
 20
31.9515366627
 30
0.0
 10
25.4446640629
 20
31.9512660876
 30
0.0
  0
SPLINE
  5
3BF
100
AcDbEntity
  8
0
100
AcDbSpline
 62
7
  6
BYLAYER
 70
0
 71
3
 72
19
 73
15
 74
0
 42
0.0000001
 43
0.0000001
 44
0.0000000001
 40
0.0
 40
0.0
 40
0.0
 40
0.0
 40
0.1833619646
 40
0.3608269377
 40
0.5262681272
 40
0.6742438457
 40
0.7995706208
 40
0.8523304657
 40
0.8978246012
 40
0.935657635
 40
0.9654542633
 40
0.9869508074
 40
0.994536859
 40
1.0
 40
1.0
 40
1.0
 40
1.0
 10
28.5830333874
 20
36.3441817421
 30
0.0
 10
28.5961891035
 20
36.3573374582
 30
0.0
 10
28.6221382471
 20
36.3831650826
 30
0.0
 10
28.6601667118
 20
36.4206515478
 30
0.0
 10
28.6958250518
 20
36.4554269445
 30
0.0
 10
28.7278940581
 20
36.4863044099
 30
0.0
 10
28.7519151573
 20
36.5090551378
 30
0.0
 10
28.7685387551
 20
36.5244925878
 30
0.0
 10
28.7787359301
 20
36.5338030751
 30
0.0
 10
28.7872991281
 20
36.5414476284
 30
0.0
 10
28.794150523
 20
36.5473494403
 30
0.0
 10
28.7987801586
 20
36.5511306702
 30
0.0
 10
28.80160486
 20
36.5532060476
 30
0.0
 10
28.8027136844
 20
36.5539337969
 30
0.0
 10
28.8031974848
 20
36.5542043719
 30
0.0
  0
ELLIPSE
  5
3C0
100
AcDbEntity
  8
0
100
AcDbEllipse
 62
7
  6
BYLAYER
 10
6.1047924247
 20
15.7217774994
 30
0.0
 11
0.3535533906
 21
-0.3535533906
 31
0.0
 40
0.0524077793
 41
0.4625122518
 42
1.5707963268
  0
ELLIPSE
  5
3C1
100
AcDbEntity
  8
0
100
AcDbEllipse
 62
7
  6
BYLAYER
 10
5.6548885042
 20
15.2718735789
 30
0.0
 11
0.3535533906
 21
-0.3535533906
 31
0.0
 40
0.0524077793
 41
-1.5707963268
 42
-0.4625122518
  0
ELLIPSE
  5
3C2
100
AcDbEntity
  8
0
100
AcDbEllipse
 62
7
  6
BYLAYER
 10
8.5929730435
 20
13.2335968806
 30
0.0
 11
0.3535533906
 21
-0.3535533906
 31
0.0
 40
0.0524077793
 41
1.5707963268
 42
2.6790804018
  0
ELLIPSE
  5
3C3
100
AcDbEntity
  8
0
100
AcDbEllipse
 62
7
  6
BYLAYER
 10
8.143069123
 20
12.7836929601
 30
0.0
 11
0.3535533906
 21
-0.3535533906
 31
0.0
 40
0.0524077793
 41
-2.6790804018
 42
-1.5707963268
  0
ELLIPSE
  5
3C4
100
AcDbEntity
  8
0
100
AcDbEllipse
 62
7
  6
BYLAYER
 10
26.1047924247
 20
15.7217774994
 30
0.0
 11
0.3535533906
 21
-0.3535533906
 31
0.0
 40
0.0524077793
 41
0.4625122518
 42
1.5707963268
  0
ELLIPSE
  5
3C5
100
AcDbEntity
  8
0
100
AcDbEllipse
 62
7
  6
BYLAYER
 10
25.6548885042
 20
15.2718735789
 30
0.0
 11
0.3535533906
 21
-0.3535533906
 31
0.0
 40
0.0524077793
 41
-1.5707963268
 42
-0.4625122518
  0
ELLIPSE
  5
3C6
100
AcDbEntity
  8
0
100
AcDbEllipse
 62
7
  6
BYLAYER
 10
28.5929730435
 20
13.2335968806
 30
0.0
 11
0.3535533906
 21
-0.3535533906
 31
0.0
 40
0.0524077793
 41
1.5707963268
 42
2.6790804018
  0
ELLIPSE
  5
3C7
100
AcDbEntity
  8
0
100
AcDbEllipse
 62
7
  6
BYLAYER
 10
28.143069123
 20
12.7836929601
 30
0.0
 11
0.3535533906
 21
-0.3535533906
 31
0.0
 40
0.0524077793
 41
-2.6790804018
 42
-1.5707963268
  0
ELLIPSE
  5
3C8
100
AcDbEntity
  8
0
100
AcDbEllipse
 62
7
  6
BYLAYER
 10
6.1047924247
 20
35.7217774994
 30
0.0
 11
0.3535533906
 21
-0.3535533906
 31
0.0
 40
0.0524077793
 41
0.4625122518
 42
1.5707963268
  0
ELLIPSE
  5
3C9
100
AcDbEntity
  8
0
100
AcDbEllipse
 62
7
  6
BYLAYER
 10
5.6548885042
 20
35.2718735789
 30
0.0
 11
0.3535533906
 21
-0.3535533906
 31
0.0
 40
0.0524077793
 41
-1.5707963268
 42
-0.4625122518
  0
ELLIPSE
  5
3CA
100
AcDbEntity
  8
0
100
AcDbEllipse
 62
7
  6
BYLAYER
 10
8.5929730435
 20
33.2335968806
 30
0.0
 11
0.3535533906
 21
-0.3535533906
 31
0.0
 40
0.0524077793
 41
1.5707963268
 42
2.6790804018
  0
ELLIPSE
  5
3CB
100
AcDbEntity
  8
0
100
AcDbEllipse
 62
7
  6
BYLAYER
 10
8.143069123
 20
32.7836929601
 30
0.0
 11
0.3535533906
 21
-0.3535533906
 31
0.0
 40
0.0524077793
 41
-2.6790804018
 42
-1.5707963268
  0
ELLIPSE
  5
3CC
100
AcDbEntity
  8
0
100
AcDbEllipse
 62
7
  6
BYLAYER
 10
26.1047924247
 20
35.7217774994
 30
0.0
 11
0.3535533906
 21
-0.3535533906
 31
0.0
 40
0.0524077793
 41
0.4625122518
 42
1.5707963268
  0
ELLIPSE
  5
3CD
100
AcDbEntity
  8
0
100
AcDbEllipse
 62
7
  6
BYLAYER
 10
25.6548885042
 20
35.2718735789
 30
0.0
 11
0.3535533906
 21
-0.3535533906
 31
0.0
 40
0.0524077793
 41
-1.5707963268
 42
-0.4625122518
  0
ELLIPSE
  5
3CE
100
AcDbEntity
  8
0
100
AcDbEllipse
 62
7
  6
BYLAYER
 10
28.5929730435
 20
33.2335968806
 30
0.0
 11
0.3535533906
 21
-0.3535533906
 31
0.0
 40
0.0524077793
 41
1.5707963268
 42
2.6790804018
  0
ELLIPSE
  5
3CF
100
AcDbEntity
  8
0
100
AcDbEllipse
 62
7
  6
BYLAYER
 10
28.143069123
 20
32.7836929601
 30
0.0
 11
0.3535533906
 21
-0.3535533906
 31
0.0
 40
0.0524077793
 41
-2.6790804018
 42
-1.5707963268
  0
ENDSEC
  0
SECTION
  2
OBJECTS
  0
DICTIONARY
  5
C
100
AcDbDictionary
280
0
281
1
  3
ACAD_GROUP
350
D
  3
ACAD_MLINESTYLE
350
17
  3
ACAD_LAYOUT
350
1A
  3
ACAD_PLOTSETTINGS
350
19
  3
ACAD_PLOTSTYLENAME
350
E
  0
DICTIONARY
  5
D
102
{ACAD_REACTORS
330
C
102
}
100
AcDbDictionary
280
0
281
1
  0
ACDBDICTIONARYWDFLT
  5
E
102
{ACAD_REACTORS
330
C
102
}
100
AcDbDictionary
281
1
  3
Normal
350
F
100
AcDbDictionaryWithDefault
340
F
  0
DICTIONARY
  5
17
102
{ACAD_REACTORS
330
C
102
}
100
AcDbDictionary
280
0
281
1
  3
Standard
350
18
  0
DICTIONARY
  5
19
102
{ACAD_REACTORS
330
C
102
}
100
AcDbDictionary
281
1
  0
DICTIONARY
  5
1A
102
{ACAD_REACTORS
330
C
102
}
100
AcDbDictionary
281
1
  3
Model
350
3D0
  3
Layout1
350
3D1
  0
ACDBPLACEHOLDER
  5
F
102
{ACAD_REACTORS
330
E
102
}
  0
MLINESTYLE
  5
18
102
{ACAD_REACTORS
330
17
102
}
100
AcDbMlineStyle
  2
STANDARD
 70
0
  3

 62
256
 51
90.0
 52
90.0
 71
2
 49
0.5
 62
256
  6
BYLAYER
 49
-0.5
 62
256
  6
BYLAYER
  0
LAYOUT
  5
3D0
102
{ACAD_REACTORS
330
1A
102
}
100
AcDbPlotSettings
  1

  2
none_device
  4

  6

 40
0.0
 41
0.0
 42
0.0
 43
0.0
 44
210.0
 45
297.0
 46
0.0
 47
0.0
 48
0.0
 49
0.0
140
0.0
141
0.0
142
1.0
143
1.0
 70
1024
 72
1
 73
0
 74
0
  7

 75
0
147
1.0
148
0.0
149
0.0
100
AcDbLayout
  1
Model
 70
0
 71
0
 10
0.0
 20
0.0
 11
210.0
 21
297.0
 12
0.0
 22
0.0
 32
0.0
 14
0.0
 24
0.0
 34
0.0
 15
0.0
 25
0.0
 35
0.0
146
0.0
 13
0.0
 23
0.0
 33
0.0
 16
1.0
 26
0.0
 36
0.0
 17
0.0
 27
1.0
 37
0.0
 76
0
330
210
345
0
346
0
  0
LAYOUT
  5
3D1
102
{ACAD_REACTORS
330
1A
102
}
100
AcDbPlotSettings
  1

  2
none_device
  4

  6

 40
0.0
 41
0.0
 42
0.0
 43
0.0
 44
210.0
 45
297.0
 46
0.0
 47
0.0
 48
0.0
 49
0.0
140
0.0
141
0.0
142
1.0
143
1.0
 70
0
 72
1
 73
0
 74
0
  7

 75
0
147
1.0
148
0.0
149
0.0
100
AcDbLayout
  1
Layout1
 70
0
 71
1
 10
0.0
 20
0.0
 11
210.0
 21
297.0
 12
0.0
 22
0.0
 32
0.0
 14
0.0
 24
0.0
 34
0.0
 15
0.0
 25
0.0
 35
0.0
146
0.0
 13
0.0
 23
0.0
 33
0.0
 16
1.0
 26
0.0
 36
0.0
 17
0.0
 27
1.0
 37
0.0
 76
0
330
211
345
0
346
0
  0
ENDSEC
  0
EOF
