999
DXF file: C:\Users\sesa63760\Dev\_Creo\CAD\MCADID0004531_3D-CAD\drw0001_1.dxf
999
Pro/ENGINEER 2019471 by Parametric Technology Corporation
  0
SECTION
  2
HEADER
  9
$ACADVER
  1
AC1024
  9
$DWGCODEPAGE
  3
ANSI_1252
  9
$EXTMAX
 10
113.6326901075
 20
160.7090902948
 30
0.0
  9
$EXTMIN
 10
0.0
 20
0.0
 30
0.0
  9
$LIMMIN
 10
0.0
 20
0.0
  9
$LIMMAX
 10
113.6326901075
 20
160.7090902948
  9
$VIEWCTR
 10
56.8163450537
 20
80.3545451474
  9
$VIEWSIZE
 40
160.7090902948
  9
$CLAYER
  8
0
  9
$LTSCALE
 40
10.4758518118
  9
$CELTYPE
  6
BYLAYER
  9
$DIMSCALE
 40
1.0
  9
$DIMASZ
 40
1.3527701203
  9
$DIMEXO
 40
1.0
  9
$DIMDLI
 40
7.2378612518
  9
$DIMEXE
 40
1.0
  9
$DIMCEN
 40
1.7142302965
  9
$DIMLFAC
 40
1.0
  9
$DIMBLK
  1
_FILLED
  9
$DIMALT
 70
0
  9
$DIMALTF
 40
0.0393700787
  9
$DIMTXT
 40
1.8938781685
  9
$DIMTOL
 70
1
  9
$DIMLIM
 70
0
  9
$DIMTFAC
 40
1.0
  9
$DIMTP
 40
0.01
  9
$DIMTM
 40
0.01
  9
$DIMGAP
 40
0.625
  9
$DIMDSEP
 70
46
  9
$AUNITS
 70
0
  9
$PDMODE
 70
3
  9
$PDSIZE
 40
0.3125
  9
$HANDSEED
  5
2F3
  9
$TILEMODE
 70
1
  9
$MEASUREMENT
 70
1
  9
$INSUNITS
 70
4
  0
ENDSEC
  0
SECTION
  2
CLASSES
  0
CLASS
  1
ACDBDICTIONARYWDFLT
  2
AcDbDictionaryWithDefault
  3
AutoCAD 2000
 90
0
 91
1
280
0
281
0
  0
CLASS
  1
ACDBPLACEHOLDER
  2
AcDbPlaceHolder
  3
AutoCAD 2000
 90
0
 91
1
280
0
281
0
  0
CLASS
  1
LAYOUT
  2
AcDbLayout
  3
AutoCAD 2000
 90
0
 91
0
280
0
281
0
  0
ENDSEC
  0
SECTION
  2
TABLES
  0
TABLE
  2
VPORT
  5
8
100
AcDbSymbolTable
 70
2
  0
VPORT
  5
1F4
100
AcDbSymbolTableRecord
100
AcDbViewportTableRecord
  2
*ACTIVE
 70
0
 10
0.0
 20
0.0
 11
1.0
 21
1.0
 12
56.8163450537
 22
80.3545451474
 13
0.0
 23
0.0
 14
1.0
 24
1.0
 15
0.0
 25
0.0
 16
0.0
 26
0.0
 36
1.0
 17
0.0
 27
0.0
 37
0.0
 40
160.7090902948
 41
0.7070707071
 42
50.0
 43
0.0
 44
0.0
 50
0.0
 51
0.0
 71
0
 72
100
 73
1
 74
1
 75
0
 76
0
 77
0
 78
0
  0
ENDTAB
  0
TABLE
  2
LTYPE
  5
5
100
AcDbSymbolTable
 70
6
  0
LTYPE
  5
14
100
AcDbSymbolTableRecord
100
AcDbLinetypeTableRecord
  2
BYBLOCK
 70
0
  3

 72
65
 73
0
 40
0.0
  0
LTYPE
  5
15
100
AcDbSymbolTableRecord
100
AcDbLinetypeTableRecord
  2
BYLAYER
 70
0
  3

 72
65
 73
0
 40
0.0
  0
LTYPE
  5
16
100
AcDbSymbolTableRecord
100
AcDbLinetypeTableRecord
  2
CONTINUOUS
 70
64
  3
Solid line
 72
65
 73
0
 40
0.0
  0
LTYPE
  5
1F5
100
AcDbSymbolTableRecord
100
AcDbLinetypeTableRecord
  2
CENTER
 70
64
  3
____ _ ____ _ ____ _ ____ _ ____ _ ____ _ ____
 72
65
 73
4
 40
0.6
 49
0.375
 74
0
 49
-0.075
 74
0
 49
0.075
 74
0
 49
-0.075
 74
0
  0
LTYPE
  5
1F6
100
AcDbSymbolTableRecord
100
AcDbLinetypeTableRecord
  2
HIDDEN
 70
64
  3
- - - - - - - - - - - - - - - - - - - -
 72
65
 73
2
 40
0.2
 49
0.1
 74
0
 49
-0.1
 74
0
  0
LTYPE
  5
1F7
100
AcDbSymbolTableRecord
100
AcDbLinetypeTableRecord
  2
PHANTOM
 70
64
  3
_____ _ _ _____ _ _ _____ _ _ _____
 72
65
 73
6
 40
0.8
 49
0.45
 74
0
 49
-0.05
 74
0
 49
0.1
 74
0
 49
-0.05
 74
0
 49
0.1
 74
0
 49
-0.05
 74
0
  0
LTYPE
  5
1F8
100
AcDbSymbolTableRecord
100
AcDbLinetypeTableRecord
  2
DOT
 70
64
  3
. . . . . . . . . . . . . . . . . . . .
 72
65
 73
2
 40
0.2
 49
0.1
 74
0
 49
-0.1
 74
0
  0
LTYPE
  5
1F9
100
AcDbSymbolTableRecord
100
AcDbLinetypeTableRecord
  2
DASHED
 70
64
  3
- - - - - - - - - - - - - - - - - - - -
 72
65
 73
2
 40
0.2
 49
0.1
 74
0
 49
-0.1
 74
0
  0
ENDTAB
  0
TABLE
  2
LAYER
  5
2
100
AcDbSymbolTable
 70
36
  0
LAYER
  5
10
100
AcDbSymbolTableRecord
100
AcDbLayerTableRecord
  2
0
 70
0
 62
7
  6
CONTINUOUS
370
-3
390
F
  0
LAYER
  5
1FA
100
AcDbSymbolTableRecord
100
AcDbLayerTableRecord
  2
DEFAULT_1
 70
0
 62
7
  6
CENTER
370
-3
390
F
  0
LAYER
  5
1FB
100
AcDbSymbolTableRecord
100
AcDbLayerTableRecord
  2
DEFAULT_2
 70
0
 62
7
  6
HIDDEN
370
-3
390
F
  0
LAYER
  5
1FC
100
AcDbSymbolTableRecord
100
AcDbLayerTableRecord
  2
DEFAULT_3
 70
0
 62
7
  6
PHANTOM
370
-3
390
F
  0
LAYER
  5
1FD
100
AcDbSymbolTableRecord
100
AcDbLayerTableRecord
  2
00_COMPONENTS
 70
0
 62
7
  6
CONTINUOUS
370
-3
390
F
  0
LAYER
  5
1FE
100
AcDbSymbolTableRecord
100
AcDbLayerTableRecord
  2
01_1_DEFAULT_DATUMS
 70
0
 62
7
  6
CONTINUOUS
370
-3
390
F
  0
LAYER
  5
1FF
100
AcDbSymbolTableRecord
100
AcDbLayerTableRecord
  2
01_PLANES
 70
0
 62
7
  6
CONTINUOUS
370
-3
390
F
  0
LAYER
  5
200
100
AcDbSymbolTableRecord
100
AcDbLayerTableRecord
  2
02_COORD_SYS
 70
0
 62
7
  6
CONTINUOUS
370
-3
390
F
  0
LAYER
  5
201
100
AcDbSymbolTableRecord
100
AcDbLayerTableRecord
  2
03_AXES
 70
0
 62
7
  6
CONTINUOUS
370
-3
390
F
  0
LAYER
  5
202
100
AcDbSymbolTableRecord
100
AcDbLayerTableRecord
  2
04_POINTS
 70
0
 62
7
  6
CONTINUOUS
370
-3
390
F
  0
LAYER
  5
203
100
AcDbSymbolTableRecord
100
AcDbLayerTableRecord
  2
05_CURVES
 70
0
 62
7
  6
CONTINUOUS
370
-3
390
F
  0
LAYER
  5
204
100
AcDbSymbolTableRecord
100
AcDbLayerTableRecord
  2
06_SURFS
 70
0
 62
7
  6
CONTINUOUS
370
-3
390
F
  0
LAYER
  5
205
100
AcDbSymbolTableRecord
100
AcDbLayerTableRecord
  2
07_COSMETICS
 70
0
 62
7
  6
CONTINUOUS
370
-3
390
F
  0
LAYER
  5
206
100
AcDbSymbolTableRecord
100
AcDbLayerTableRecord
  2
10_NOTES
 70
0
 62
7
  6
CONTINUOUS
370
-3
390
F
  0
LAYER
  5
207
100
AcDbSymbolTableRecord
100
AcDbLayerTableRecord
  2
11_NOTES_PUB
 70
0
 62
7
  6
CONTINUOUS
370
-3
390
F
  0
LAYER
  5
208
100
AcDbSymbolTableRecord
100
AcDbLayerTableRecord
  2
13_REF_GTOL
 70
0
 62
7
  6
CONTINUOUS
370
-3
390
F
  0
LAYER
  5
209
100
AcDbSymbolTableRecord
100
AcDbLayerTableRecord
  2
16_MISC
 70
0
 62
7
  6
CONTINUOUS
370
-3
390
F
  0
LAYER
  5
20A
100
AcDbSymbolTableRecord
100
AcDbLayerTableRecord
  2
17_NO_PRINT
 70
0
 62
7
  6
CONTINUOUS
370
-3
390
F
  0
LAYER
  5
20B
100
AcDbSymbolTableRecord
100
AcDbLayerTableRecord
  2
18_DATUM_CAMS_JOINTS
 70
0
 62
7
  6
CONTINUOUS
370
-3
390
F
  0
LAYER
  5
20C
100
AcDbSymbolTableRecord
100
AcDbLayerTableRecord
  2
19_DATUM_FUNCTIONAL
 70
0
 62
7
  6
CONTINUOUS
370
-3
390
F
  0
LAYER
  5
20D
100
AcDbSymbolTableRecord
100
AcDbLayerTableRecord
  2
20_DATUM_KINEMATIC_SCHEME
 70
0
 62
7
  6
CONTINUOUS
370
-3
390
F
  0
ENDTAB
  0
TABLE
  2
STYLE
  5
3
100
AcDbSymbolTable
 70
1
  0
STYLE
  5
11
100
AcDbSymbolTableRecord
100
AcDbTextStyleTableRecord
  2
STANDARD
 70
0
 40
0.0
 41
1.0
 50
0.0
 71
0
 42
0.2
  3
ARIAL.TTF
  4

  0
STYLE
  5
20E
100
AcDbSymbolTableRecord
100
AcDbTextStyleTableRecord
  2
TEXTSTYLE_1
 70
0
 40
0.0
 41
0.8
 50
0.0
 71
0
 42
0.2
  3
gdt
  4

  0
ENDTAB
  0
TABLE
  2
VIEW
  5
6
100
AcDbSymbolTable
 70
0
  0
ENDTAB
  0
TABLE
  2
UCS
  5
7
100
AcDbSymbolTable
 70
0
  0
ENDTAB
  0
TABLE
  2
APPID
  5
9
100
AcDbSymbolTable
 70
1
  0
APPID
  5
20F
100
AcDbSymbolTableRecord
100
AcDbRegAppTableRecord
  2
ACAD
 70
0
  0
ENDTAB
  0
TABLE
  2
BLOCK_RECORD
  5
1
100
AcDbSymbolTable
 70
0
  0
BLOCK_RECORD
  5
210
100
AcDbSymbolTableRecord
100
AcDbBlockTableRecord
  2
*Model_Space
  0
BLOCK_RECORD
  5
211
100
AcDbSymbolTableRecord
100
AcDbBlockTableRecord
  2
*Paper_Space
  0
BLOCK_RECORD
  5
212
100
AcDbSymbolTableRecord
100
AcDbBlockTableRecord
  2
_FILLED
  0
ENDTAB
  0
TABLE
  2
DIMSTYLE
  5
A
100
AcDbSymbolTable
 70
1
100
AcDbDimStyleTable
 71
0
  0
DIMSTYLE
105
213
100
AcDbSymbolTableRecord
100
AcDbDimStyleTableRecord
  2
STANDARD
 70
0
  3

  4

 40
1.0
 41
1.3527701203
 42
1.0
 43
0.38
 44
1.0
 45
0.0
 46
0.0
 47
0.01
 48
0.01
140
1.8938781685
141
0.09
142
0.0
143
25.4
144
1.0
145
0.0
146
1.0
147
0.625
 71
1
 72
0
 73
0
 74
0
 75
0
 76
0
 77
1
 78
8
 79
2
170
0
171
1
172
0
173
0
174
0
175
0
176
0
177
0
178
0
270
2
179
2
271
2
272
2
273
2
274
2
275
0
280
0
281
0
282
0
283
1
284
8
285
0
286
0
287
3
288
0
340
11
278
46
341
212
342
212
343
212
344
212
  0
ENDTAB
  0
ENDSEC
  0
SECTION
  2
BLOCKS
  0
BLOCK
  5
20
100
AcDbEntity
  8
0
100
AcDbBlockBegin
  2
*Model_Space
 70
0
 10
0.0
 20
0.0
 30
0.0
  3
*Model_Space
  1

  0
ENDBLK
  5
21
100
AcDbEntity
  8
0
100
AcDbBlockEnd
  0
BLOCK
  5
1C
100
AcDbEntity
  8
0
100
AcDbBlockBegin
  2
*Paper_Space
 70
0
 10
0.0
 20
0.0
 30
0.0
  3
*Paper_Space
  1

  0
ENDBLK
  5
1D
100
AcDbEntity
  8
0
100
AcDbBlockEnd
  0
BLOCK
  5
214
100
AcDbEntity
  8
0
100
AcDbBlockBegin
  2
_FILLED
 70
64
 10
0.0
 20
0.0
  3
_FILLED
  1

  0
SOLID
  5
215
100
AcDbEntity
  8
0
  6
BYBLOCK
 62
0
100
AcDbTrace
 10
0.0
 20
0.0
 11
-1.0
 21
0.25
 12
-1.0
 22
-0.25
 13
-1.0
 23
-0.25
  0
ENDBLK
  5
216
100
AcDbEntity
  8
0
  6
BYBLOCK
 62
0
100
AcDbBlockEnd
  0
ENDSEC
  0
SECTION
  2
ENTITIES
  0
LINE
  5
217
100
AcDbEntity
  8
0
100
AcDbLine
 62
7
  6
BYLAYER
 10
50.0075037748
 20
139.6127673127
 11
47.8896012914
 21
138.3900030427
  0
LINE
  5
218
100
AcDbEntity
  8
0
100
AcDbLine
 62
7
  6
BYLAYER
 10
25.6158304192
 20
125.5303121958
 11
23.4937103434
 21
124.3051129122
  0
LINE
  5
219
100
AcDbEntity
  8
0
100
AcDbLine
 62
7
  6
BYLAYER
 10
25.4937502914
 20
124.1072015519
 11
27.615061803
 21
125.3319340135
  0
LINE
  5
21A
100
AcDbEntity
  8
0
100
AcDbLine
 62
7
  6
BYLAYER
 10
49.8895923377
 20
138.1919191113
 11
52.0074459193
 21
139.4147994858
  0
LINE
  5
21B
100
AcDbEntity
  8
0
100
AcDbLine
 62
7
  6
BYLAYER
 10
25.6159062012
 20
125.5301807913
 11
25.9540337243
 21
125.6684842812
  0
LINE
  5
21C
100
AcDbEntity
  8
0
100
AcDbLine
 62
7
  6
BYLAYER
 10
32.8145644777
 20
41.9159671059
 11
51.5020400185
 21
31.1269921511
  0
LINE
  5
21D
100
AcDbEntity
  8
0
100
AcDbLine
 62
7
  6
BYLAYER
 10
50.2570809503
 20
33.8695992274
 11
35.3232653135
 21
42.4914466531
  0
LINE
  5
21E
100
AcDbEntity
  8
0
100
AcDbLine
 62
7
  6
BYLAYER
 10
50.2570809503
 20
33.9225933693
 11
71.4508745525
 21
21.6866277424
  0
LINE
  5
21F
100
AcDbEntity
  8
0
100
AcDbLine
 62
7
  6
BYLAYER
 10
21.4508517033
 20
105.6275038646
 11
22.3835667533
 21
107.8094514266
  0
LINE
  5
220
100
AcDbEntity
  8
0
100
AcDbLine
 62
7
  6
BYLAYER
 10
21.2497545826
 20
104.2738685853
 11
21.2497545826
 21
70.7656010679
  0
LINE
  5
221
100
AcDbEntity
  8
0
100
AcDbLine
 62
7
  6
BYLAYER
 10
22.6651444457
 20
122.4739009938
 11
22.664476739
 21
109.4102942408
  0
LINE
  5
222
100
AcDbEntity
  8
0
100
AcDbLine
 62
7
  6
BYLAYER
 10
44.3594072194
 20
47.0857769469
 11
74.2793134531
 21
29.8119018161
  0
LINE
  5
223
100
AcDbEntity
  8
0
100
AcDbLine
 62
7
  6
BYLAYER
 10
73.9982730542
 20
31.088454951
 11
45.3244314389
 21
47.642930614
  0
LINE
  5
224
100
AcDbEntity
  8
0
100
AcDbLine
 62
7
  6
BYLAYER
 10
45.8150040277
 20
47.9261611396
 11
73.0649841861
 21
32.1937336748
  0
LINE
  5
225
100
AcDbEntity
  8
0
100
AcDbLine
 62
7
  6
BYLAYER
 10
59.7116378726
 20
47.761681629
 11
58.2974301982
 21
47.8880091019
  0
LINE
  5
226
100
AcDbEntity
  8
0
100
AcDbLine
 62
7
  6
BYLAYER
 10
72.8687645183
 20
33.0155655719
 11
46.4286324862
 21
48.2804375805
  0
LINE
  5
227
100
AcDbEntity
  8
0
100
AcDbLine
 62
7
  6
BYLAYER
 10
57.4098964963
 20
46.0687445967
 11
54.2279027331
 21
47.9058279921
  0
LINE
  5
228
100
AcDbEntity
  8
0
100
AcDbLine
 62
7
  6
BYLAYER
 10
59.7116378726
 20
51.5329447516
 11
61.1258455471
 21
51.4066172787
  0
LINE
  5
229
100
AcDbEntity
  8
0
100
AcDbLine
 62
7
  6
BYLAYER
 10
53.4073195228
 20
50.4002957255
 11
49.4751650812
 21
52.6704747925
  0
LINE
  5
22A
100
AcDbEntity
  8
0
100
AcDbLine
 62
7
  6
BYLAYER
 10
58.2974301982
 20
48.5781563394
 11
59.7116378726
 21
47.761681629
  0
LINE
  5
22B
100
AcDbEntity
  8
0
100
AcDbLine
 62
7
  6
BYLAYER
 10
59.3580712342
 20
50.5415876037
 11
61.1258455471
 21
49.5209857174
  0
LINE
  5
22C
100
AcDbEntity
  8
0
100
AcDbLine
 62
7
  6
BYLAYER
 10
49.3928490507
 20
52.7276670191
 11
49.4751650813
 21
52.6704747927
  0
LINE
  5
22D
100
AcDbEntity
  8
0
100
AcDbLine
 62
7
  6
BYLAYER
 10
95.9787421187
 20
35.7120531587
 11
95.8587062845
 21
35.7784118467
  0
LINE
  5
22E
100
AcDbEntity
  8
0
100
AcDbLine
 62
7
  6
BYLAYER
 10
55.8864530039
 20
54.7424697624
 11
51.7677661315
 21
57.1203409423
  0
LINE
  5
22F
100
AcDbEntity
  8
0
100
AcDbLine
 62
7
  6
BYLAYER
 10
61.6598243864
 20
53.4300021611
 11
58.4778306233
 21
55.2670855564
  0
LINE
  5
230
100
AcDbEntity
  8
0
100
AcDbLine
 62
7
  6
BYLAYER
 10
95.8587062845
 20
35.7784118467
 11
74.9896401572
 21
47.8269002198
  0
LINE
  5
231
100
AcDbEntity
  8
0
100
AcDbLine
 62
7
  6
BYLAYER
 10
73.0649841861
 20
32.1937336748
 11
73.9982730542
 21
31.088454951
  0
LINE
  5
232
100
AcDbEntity
  8
0
100
AcDbLine
 62
7
  6
BYLAYER
 10
19.4902778562
 20
69.7497651681
 11
19.2882211674
 21
69.5587608964
  0
LINE
  5
233
100
AcDbEntity
  8
0
100
AcDbLine
 62
7
  6
BYLAYER
 10
68.6094004232
 20
104.0938473201
 11
88.4305274051
 21
115.5365471946
  0
LINE
  5
234
100
AcDbEntity
  8
0
100
AcDbLine
 62
7
  6
BYLAYER
 10
66.5060966861
 20
102.8786925148
 11
64.3847851745
 21
101.6539600532
  0
LINE
  5
235
100
AcDbEntity
  8
0
100
AcDbLine
 62
7
  6
BYLAYER
 10
76.1184444619
 20
32.4620649185
 11
75.1857294118
 21
33.5682170578
  0
LINE
  5
236
100
AcDbEntity
  8
0
100
AcDbLine
 62
7
  6
BYLAYER
 10
47.0611534371
 20
136.5588592763
 11
47.060679691
 21
123.6472068604
  0
LINE
  5
237
100
AcDbEntity
  8
0
100
AcDbLine
 62
7
  6
BYLAYER
 10
48.4779057805
 20
119.6932573195
 11
48.4779057805
 21
113.287037919
  0
LINE
  5
238
100
AcDbEntity
  8
0
100
AcDbLine
 62
7
  6
BYLAYER
 10
19.4902778562
 20
69.7497651681
 11
32.4394436044
 21
77.2259248719
  0
LINE
  5
239
100
AcDbEntity
  8
0
100
AcDbLine
 62
7
  6
BYLAYER
 10
32.4394436044
 20
77.2259248719
 11
32.4246373457
 21
77.2173841274
  0
LINE
  5
23A
100
AcDbEntity
  8
0
100
AcDbLine
 62
7
  6
BYLAYER
 10
74.9896401572
 20
57.6795496308
 11
98.6871451851
 21
43.9980982395
  0
LINE
  5
23B
100
AcDbEntity
  8
0
100
AcDbLine
 62
7
  6
BYLAYER
 10
98.9681114115
 20
45.6542475361
 11
74.9896401572
 21
59.497911184
  0
LINE
  5
23C
100
AcDbEntity
  8
0
100
AcDbLine
 62
7
  6
BYLAYER
 10
50.2570809503
 20
33.8695992274
 11
50.2570809503
 21
33.9225933693
  0
LINE
  5
23D
100
AcDbEntity
  8
0
100
AcDbLine
 62
7
  6
BYLAYER
 10
78.5089365752
 20
98.3784767568
 11
98.3300635571
 21
109.8211766313
  0
LINE
  5
23E
100
AcDbEntity
  8
0
100
AcDbLine
 62
7
  6
BYLAYER
 10
98.6796896267
 20
110.0230335014
 11
100.7980169544
 21
111.2461874239
  0
LINE
  5
23F
100
AcDbEntity
  8
0
100
AcDbLine
 62
7
  6
BYLAYER
 10
74.9896401572
 20
62.2195545679
 11
99.9008264616
 21
47.837399817
  0
LINE
  5
240
100
AcDbEntity
  8
0
100
AcDbLine
 62
7
  6
BYLAYER
 10
100.0969157162
 20
48.8860173329
 11
74.9896401572
 21
63.3813817066
  0
LINE
  5
241
100
AcDbEntity
  8
0
100
AcDbLine
 62
7
  6
BYLAYER
 10
58.2974301982
 20
49.7736406632
 11
58.2974301982
 21
47.8880091019
  0
LINE
  5
242
100
AcDbEntity
  8
0
100
AcDbLine
 62
7
  6
BYLAYER
 10
98.3299741551
 20
107.372172312
 11
78.5302014478
 21
95.9408364454
  0
LINE
  5
243
100
AcDbEntity
  8
0
100
AcDbLine
 62
7
  6
BYLAYER
 10
43.3423683685
 20
80.1480555234
 11
42.7128638792
 21
80.1766815406
  0
LINE
  5
244
100
AcDbEntity
  8
0
100
AcDbLine
 62
7
  6
BYLAYER
 10
44.6065416256
 20
79.9598394781
 11
42.7128328996
 21
80.1766526005
  0
LINE
  5
245
100
AcDbEntity
  8
0
100
AcDbLine
 62
7
  6
BYLAYER
 10
43.3423706883
 20
80.1480482381
 11
44.6065416256
 21
79.9598394781
  0
LINE
  5
246
100
AcDbEntity
  8
0
100
AcDbLine
 62
7
  6
BYLAYER
 10
59.3580712342
 20
51.0931004177
 11
59.3580712342
 21
50.5415876037
  0
LINE
  5
247
100
AcDbEntity
  8
0
100
AcDbLine
 62
7
  6
BYLAYER
 10
61.1258455471
 20
49.5209857174
 11
61.1258455471
 21
51.4066172787
  0
LINE
  5
248
100
AcDbEntity
  8
0
100
AcDbLine
 62
7
  6
BYLAYER
 10
21.2497545826
 20
104.2738685853
 11
72.8687645183
 21
74.4722935053
  0
LINE
  5
249
100
AcDbEntity
  8
0
100
AcDbLine
 62
7
  6
BYLAYER
 10
73.069861639
 20
75.8259287846
 11
21.4508517033
 21
105.6275038646
  0
LINE
  5
24A
100
AcDbEntity
  8
0
100
AcDbLine
 62
7
  6
BYLAYER
 10
66.5060966861
 20
102.2549842444
 11
66.5060966861
 21
102.8786925148
  0
LINE
  5
24B
100
AcDbEntity
  8
0
100
AcDbLine
 62
7
  6
BYLAYER
 10
64.3847851745
 20
101.6539600532
 11
64.3846552754
 21
99.1124993488
  0
LINE
  5
24C
100
AcDbEntity
  8
0
100
AcDbLine
 62
7
  6
BYLAYER
 10
22.3835667533
 20
107.8094514266
 11
74.002576689
 21
78.0078763466
  0
LINE
  5
24D
100
AcDbEntity
  8
0
100
AcDbLine
 62
7
  6
BYLAYER
 10
74.2834866748
 20
79.6087191609
 11
22.664476739
 21
109.4102942408
  0
LINE
  5
24E
100
AcDbEntity
  8
0
100
AcDbLine
 62
7
  6
BYLAYER
 10
72.8687645183
 20
33.0155655719
 11
72.8687645183
 21
74.4722935053
  0
LINE
  5
24F
100
AcDbEntity
  8
0
100
AcDbLine
 62
7
  6
BYLAYER
 10
74.2793134531
 20
23.3196743929
 11
74.2793134531
 21
29.8119018161
  0
LINE
  5
250
100
AcDbEntity
  8
0
100
AcDbLine
 62
7
  6
BYLAYER
 10
74.9896401572
 20
75.396076464
 11
74.9896401572
 21
34.3904115574
  0
LINE
  5
251
100
AcDbEntity
  8
0
100
AcDbLine
 62
7
  6
BYLAYER
 10
76.3994106883
 20
31.1303455383
 11
76.3994106883
 21
24.5437057958
  0
LINE
  5
252
100
AcDbEntity
  8
0
100
AcDbLine
 62
7
  6
BYLAYER
 10
76.4068662466
 20
91.8775815117
 11
76.4068662466
 21
80.986487965
  0
LINE
  5
253
100
AcDbEntity
  8
0
100
AcDbLine
 62
7
  6
BYLAYER
 10
74.2834866748
 20
79.6087191609
 11
74.2841914275
 21
93.3971287855
  0
LINE
  5
254
100
AcDbEntity
  8
0
100
AcDbLine
 62
7
  6
BYLAYER
 10
75.1898243856
 20
76.7493503368
 11
76.1185227098
 21
78.9300329839
  0
LINE
  5
255
100
AcDbEntity
  8
0
100
AcDbLine
 62
7
  6
BYLAYER
 10
74.002576689
 20
78.0078763466
 11
73.069861639
 21
75.8259287846
  0
LINE
  5
256
100
AcDbEntity
  8
0
100
AcDbLine
 62
7
  6
BYLAYER
 10
58.2974301982
 20
49.7736406632
 11
59.7116378726
 21
51.5329447516
  0
LINE
  5
257
100
AcDbEntity
  8
0
100
AcDbLine
 62
7
  6
BYLAYER
 10
58.2974301982
 20
49.2221278492
 11
59.3580712342
 21
50.5415876037
  0
LINE
  5
258
100
AcDbEntity
  8
0
100
AcDbLine
 62
7
  6
BYLAYER
 10
64.3846552754
 20
99.1124993488
 11
74.2841914275
 21
93.3971287855
  0
LINE
  5
259
100
AcDbEntity
  8
0
100
AcDbLine
 62
7
  6
BYLAYER
 10
48.277721552
 20
120.8153797357
 11
47.3490232279
 21
121.9237003291
  0
LINE
  5
25A
100
AcDbEntity
  8
0
100
AcDbLine
 62
7
  6
BYLAYER
 10
61.1258455471
 20
49.5209857174
 11
59.7116378726
 21
47.761681629
  0
LINE
  5
25B
100
AcDbEntity
  8
0
100
AcDbLine
 62
7
  6
BYLAYER
 10
39.8169799298
 20
44.463228585
 11
51.7538242008
 21
51.3549200983
  0
LINE
  5
25C
100
AcDbEntity
  8
0
100
AcDbLine
 62
7
  6
BYLAYER
 10
64.3847851745
 20
101.6539600532
 11
25.4949550233
 21
124.1065060153
  0
LINE
  5
25D
100
AcDbEntity
  8
0
100
AcDbLine
 62
7
  6
BYLAYER
 10
66.5060966861
 20
102.8786925148
 11
27.615061803
 21
125.3319340135
  0
LINE
  5
25E
100
AcDbEntity
  8
0
100
AcDbLine
 62
7
  6
BYLAYER
 10
78.5089365752
 20
98.3784767568
 11
68.6094004232
 21
104.0938473201
  0
LINE
  5
25F
100
AcDbEntity
  8
0
100
AcDbLine
 62
7
  6
BYLAYER
 10
48.4779057805
 20
119.6932573195
 11
72.0535605826
 21
106.0821545975
  0
LINE
  5
260
100
AcDbEntity
  8
0
100
AcDbLine
 62
7
  6
BYLAYER
 10
84.0746726846
 20
99.1419192986
 11
100.0969157162
 21
89.8916822395
  0
LINE
  5
261
100
AcDbEntity
  8
0
100
AcDbLine
 62
7
  6
BYLAYER
 10
99.8967314878
 20
91.0138046557
 11
84.9463818151
 21
99.6451977955
  0
LINE
  5
262
100
AcDbEntity
  8
0
100
AcDbLine
 62
7
  6
BYLAYER
 10
72.9253064619
 20
106.585411878
 11
48.277721552
 21
120.8153797357
  0
LINE
  5
263
100
AcDbEntity
  8
0
100
AcDbLine
 62
7
  6
BYLAYER
 10
47.3490232279
 20
121.9237003291
 11
73.4208295665
 21
106.871476448
  0
LINE
  5
264
100
AcDbEntity
  8
0
100
AcDbLine
 62
7
  6
BYLAYER
 10
85.4418840307
 20
99.9312744255
 11
98.9680331636
 21
92.1221252491
  0
LINE
  5
265
100
AcDbEntity
  8
0
100
AcDbLine
 62
7
  6
BYLAYER
 10
98.6796896267
 20
93.8456317804
 11
86.7903352408
 21
100.7097984474
  0
LINE
  5
266
100
AcDbEntity
  8
0
100
AcDbLine
 62
7
  6
BYLAYER
 10
74.7693376233
 20
107.6499676502
 11
47.060679691
 21
123.6472068604
  0
LINE
  5
267
100
AcDbEntity
  8
0
100
AcDbLine
 62
7
  6
BYLAYER
 10
98.9680331636
 20
92.1221252491
 11
99.8967314878
 21
91.0138046557
  0
LINE
  5
268
100
AcDbEntity
  8
0
100
AcDbLine
 62
7
  6
BYLAYER
 10
98.3300635571
 20
109.8211766313
 11
98.3299741551
 21
107.372172312
  0
LINE
  5
269
100
AcDbEntity
  8
0
100
AcDbLine
 62
7
  6
BYLAYER
 10
98.6796896267
 20
93.8456317804
 11
98.6796896267
 21
110.0230335014
  0
LINE
  5
26A
100
AcDbEntity
  8
0
100
AcDbLine
 62
7
  6
BYLAYER
 10
98.6871451851
 20
37.4114584971
 11
98.6871451851
 21
43.9980982395
  0
LINE
  5
26B
100
AcDbEntity
  8
0
100
AcDbLine
 62
7
  6
BYLAYER
 10
100.0969157162
 20
48.8860173329
 11
100.0969157162
 21
89.8916822395
  0
LINE
  5
26C
100
AcDbEntity
  8
0
100
AcDbLine
 62
7
  6
BYLAYER
 10
100.7980169544
 20
111.2461874239
 11
100.7988516062
 21
94.9172808619
  0
LINE
  5
26D
100
AcDbEntity
  8
0
100
AcDbLine
 62
7
  6
BYLAYER
 10
100.8030248279
 20
45.1252823097
 11
100.8030248279
 21
38.6330548865
  0
LINE
  5
26E
100
AcDbEntity
  8
0
100
AcDbLine
 62
7
  6
BYLAYER
 10
102.2135737627
 20
91.414425891
 11
102.2135737627
 21
49.9576979576
  0
LINE
  5
26F
100
AcDbEntity
  8
0
100
AcDbLine
 62
7
  6
BYLAYER
 10
54.5455817
 20
31.4466823196
 11
54.5112959589
 21
31.4268875559
  0
LINE
  5
270
100
AcDbEntity
  8
0
100
AcDbLine
 62
7
  6
BYLAYER
 10
102.012476642
 20
92.5358556028
 11
101.0797615919
 21
93.6408030232
  0
LINE
  5
271
100
AcDbEntity
  8
0
100
AcDbLine
 62
7
  6
BYLAYER
 10
98.3300635571
 20
109.8211766313
 11
88.4305274051
 21
115.5365471946
  0
LINE
  5
272
100
AcDbEntity
  8
0
100
AcDbLine
 62
7
  6
BYLAYER
 10
98.6796896267
 20
110.0230335014
 11
49.8896931739
 21
138.1918608948
  0
LINE
  5
273
100
AcDbEntity
  8
0
100
AcDbLine
 62
7
  6
BYLAYER
 10
100.7980169544
 20
111.2461874239
 11
52.0074459193
 21
139.4147994858
  0
LINE
  5
274
100
AcDbEntity
  8
0
100
AcDbLine
 62
7
  6
BYLAYER
 10
99.9008264616
 20
47.837399817
 11
98.9681114115
 21
45.6542475361
  0
LINE
  5
275
100
AcDbEntity
  8
0
100
AcDbLine
 62
7
  6
BYLAYER
 10
101.0840652268
 20
46.7263510075
 11
102.0173540948
 21
48.9092924569
  0
LINE
  5
276
100
AcDbEntity
  8
0
100
AcDbLine
 62
7
  6
BYLAYER
 10
100.8030248279
 20
38.6330548865
 11
98.6871451851
 21
37.4114584971
  0
LINE
  5
277
100
AcDbEntity
  8
0
100
AcDbLine
 62
7
  6
BYLAYER
 10
76.3994106883
 20
24.5437057958
 11
74.2793134531
 21
23.3196743929
  0
LINE
  5
278
100
AcDbEntity
  8
0
100
AcDbLine
 62
7
  6
BYLAYER
 10
99.9745769736
 20
36.80191112
 11
97.8586973308
 21
35.5803147306
  0
LINE
  5
279
100
AcDbEntity
  8
0
100
AcDbLine
 62
7
  6
BYLAYER
 10
75.5709628339
 20
22.7125620293
 11
73.4508655987
 21
21.4885306264
  0
ARC
  5
27A
100
AcDbEntity
  8
0
100
AcDbCircle
 62
7
  6
BYLAYER
 10
31.6224829053
 20
69.9599810061
 40
27.8078051721
100
AcDbArc
 50
327.8509774939
 51
333.2422560155
  0
ARC
  5
27B
100
AcDbEntity
  8
0
100
AcDbCircle
 62
7
  6
BYLAYER
 10
29.9640996
 20
66.0020920036
 40
24.4546805525
100
AcDbArc
 50
253.2287815928
 51
255.2092525978
  0
ARC
  5
27C
100
AcDbEntity
  8
0
100
AcDbCircle
 62
7
  6
BYLAYER
 10
28.4857957737
 20
60.3949111538
 40
18.6559285849
100
AcDbArc
 50
255.2024417426
 51
255.7779462426
  0
ARC
  5
27D
100
AcDbEntity
  8
0
100
AcDbCircle
 62
7
  6
BYLAYER
 10
75.9097023738
 20
93.8198820635
 40
12.6324481373
100
AcDbArc
 50
136.0587746135
 51
138.1025062682
  0
ARC
  5
27E
100
AcDbEntity
  8
0
100
AcDbCircle
 62
7
  6
BYLAYER
 10
24.6373248212
 20
51.2616423062
 40
8.8760551762
100
AcDbArc
 50
256.7617198869
 51
264.1653924226
  0
ARC
  5
27F
100
AcDbEntity
  8
0
100
AcDbCircle
 62
7
  6
BYLAYER
 10
22.0267396282
 20
55.7057342543
 40
8.8154548532
100
AcDbArc
 50
154.5449474693
 51
163.2775137759
  0
ARC
  5
280
100
AcDbEntity
  8
0
100
AcDbCircle
 62
7
  6
BYLAYER
 10
24.6095530045
 20
51.0157108536
 40
8.6285749692
100
AcDbArc
 50
264.1828379244
 51
265.468111562
  0
ARC
  5
281
100
AcDbEntity
  8
0
100
AcDbCircle
 62
7
  6
BYLAYER
 10
103.9048869229
 20
93.6313245318
 40
5.2295902689
100
AcDbArc
 50
177.6513761938
 51
179.9791767696
  0
ARC
  5
282
100
AcDbEntity
  8
0
100
AcDbCircle
 62
7
  6
BYLAYER
 10
52.2246279666
 20
123.4341662583
 40
5.1683409418
100
AcDbArc
 50
177.6375810335
 51
179.9929719299
  0
ARC
  5
283
100
AcDbEntity
  8
0
100
AcDbCircle
 62
7
  6
BYLAYER
 10
71.545816667
 20
80.7797870809
 40
4.8654422482
100
AcDbArc
 50
359.9925385059
 51
2.4348564969
  0
ARC
  5
284
100
AcDbEntity
  8
0
100
AcDbCircle
 62
7
  6
BYLAYER
 10
58.5338654137
 20
51.3825449534
 40
4.0794103812
100
AcDbArc
 50
358.5448011758
 51
359.9972617786
  0
ARC
  5
285
100
AcDbEntity
  8
0
100
AcDbCircle
 62
7
  6
BYLAYER
 10
45.0282087953
 20
119.7904767349
 40
3.4510666328
100
AcDbArc
 50
358.3857167076
 51
359.9934526427
  0
ARC
  5
286
100
AcDbEntity
  8
0
100
AcDbCircle
 62
7
  6
BYLAYER
 10
96.6472187308
 20
89.9889016549
 40
3.451066633
100
AcDbArc
 50
358.3857167076
 51
359.9934526427
  0
ARC
  5
287
100
AcDbEntity
  8
0
100
AcDbCircle
 62
7
  6
BYLAYER
 10
98.7784758851
 20
91.5115719641
 40
3.4364712698
100
AcDbArc
 50
358.3800820191
 51
359.9934069305
  0
ARC
  5
288
100
AcDbEntity
  8
0
100
AcDbCircle
 62
7
  6
BYLAYER
 10
78.2730309798
 20
75.4909240354
 40
3.2847604716
100
AcDbArc
 50
179.9930929049
 51
181.6546475875
  0
ARC
  5
289
100
AcDbEntity
  8
0
100
AcDbCircle
 62
7
  6
BYLAYER
 10
24.5186791163
 20
104.3686363331
 40
3.2702979273
100
AcDbArc
 50
179.993043368
 51
181.6605680371
  0
ARC
  5
28A
100
AcDbEntity
  8
0
100
AcDbCircle
 62
7
  6
BYLAYER
 10
76.1376890519
 20
74.5670612531
 40
3.2702979271
100
AcDbArc
 50
179.9930433679
 51
181.6605680371
  0
ARC
  5
28B
100
AcDbEntity
  8
0
100
AcDbCircle
 62
7
  6
BYLAYER
 10
69.2125717748
 20
91.2427563255
 40
3.2493378718
100
AcDbArc
 50
233.9929356348
 51
235.5718255185
  0
ARC
  5
28C
100
AcDbEntity
  8
0
100
AcDbCircle
 62
7
  6
BYLAYER
 10
68.7357824434
 20
92.0557048354
 40
3.2424021851
100
AcDbArc
 50
184.4184423359
 51
186.0240980133
  0
ARC
  5
28D
100
AcDbEntity
  8
0
100
AcDbCircle
 62
7
  6
BYLAYER
 10
93.5994869302
 20
105.3208689151
 40
3.2402421129
100
AcDbArc
 50
234.039928431
 51
235.622030717
  0
ARC
  5
28E
100
AcDbEntity
  8
0
100
AcDbCircle
 62
7
  6
BYLAYER
 10
92.646716803
 20
104.372352691
 40
1.9408670649
100
AcDbArc
 50
246.2672459715
 51
247.1022610872
  0
ARC
  5
28F
100
AcDbEntity
  8
0
100
AcDbCircle
 62
7
  6
BYLAYER
 10
68.2515456922
 20
90.2877248615
 40
1.9406441298
100
AcDbArc
 50
246.2672137818
 51
247.1102374358
  0
ARC
  5
290
100
AcDbEntity
  8
0
100
AcDbCircle
 62
7
  6
BYLAYER
 10
67.4299609446
 20
91.7026259168
 40
1.9355002143
100
AcDbArc
 50
172.8908100508
 51
173.7368655248
  0
ARC
  5
291
100
AcDbEntity
  8
0
100
AcDbCircle
 62
7
  6
BYLAYER
 10
49.2251379497
 20
51.0116869756
 40
1.7241754776
100
AcDbArc
 50
84.4158217483
 51
84.959593118
  0
SPLINE
  5
292
100
AcDbEntity
  8
0
100
AcDbSpline
 62
7
  6
BYLAYER
 70
0
 71
3
 72
24
 73
20
 74
0
 42
0.0000001
 43
0.0000001
 44
0.0000000001
 40
0.0
 40
0.0
 40
0.0
 40
0.0
 40
0.0628522952
 40
0.1290502134
 40
0.1980119878
 40
0.2689728883
 40
0.341042034
 40
0.4132727075
 40
0.4847068983
 40
0.5544311783
 40
0.6216300136
 40
0.6856442026
 40
0.746032981
 40
0.8026385557
 40
0.855638883
 40
0.9055795302
 40
0.9533115144
 40
0.9767101229
 40
1.0
 40
1.0
 40
1.0
 40
1.0
 10
62.6119601355
 20
51.2789471833
 30
0.0
 10
62.6075158106
 20
51.1030258864
 30
0.0
 10
62.5757668647
 20
50.7421516106
 30
0.0
 10
62.4681945662
 20
50.197385084
 30
0.0
 10
62.3019785628
 20
49.643843932
 30
0.0
 10
62.0806773506
 20
49.0922845602
 30
0.0
 10
61.8088119397
 20
48.5535751656
 30
0.0
 10
61.4919151884
 20
48.0385145585
 30
0.0
 10
61.1363237094
 20
47.5574743085
 30
0.0
 10
60.7490386595
 20
47.120132513
 30
0.0
 10
60.3374628394
 20
46.7352459895
 30
0.0
 10
59.9091269036
 20
46.4105067913
 30
0.0
 10
59.4713879494
 20
46.1525313271
 30
0.0
 10
59.0312445111
 20
45.9671130698
 30
0.0
 10
58.5954205946
 20
45.8596208493
 30
0.0
 10
58.1715299018
 20
45.8354995237
 30
0.0
 10
57.8335754577
 20
45.8895820509
 30
0.0
 10
57.5837757422
 20
45.9777515688
 30
0.0
 10
57.4663688781
 20
46.0361409895
 30
0.0
 10
57.4098964963
 20
46.0687445967
 30
0.0
  0
SPLINE
  5
293
100
AcDbEntity
  8
0
100
AcDbSpline
 62
7
  6
BYLAYER
 70
0
 71
3
 72
15
 73
11
 74
0
 42
0.0000001
 43
0.0000001
 44
0.0000000001
 40
0.0
 40
0.0
 40
0.0
 40
0.0
 40
0.1129472996
 40
0.2270742955
 40
0.3438327336
 40
0.4642989409
 40
0.5894878053
 40
0.7202016546
 40
0.8570257782
 40
1.0
 40
1.0
 40
1.0
 40
1.0
 10
61.6598243864
 20
53.4300021611
 30
0.0
 10
61.7369325993
 20
53.3854847207
 30
0.0
 10
61.8846506754
 20
53.2826179478
 30
0.0
 10
62.0791081278
 20
53.092177386
 30
0.0
 10
62.2447928306
 20
52.8688801222
 30
0.0
 10
62.3803219067
 20
52.6163446886
 30
0.0
 10
62.4853206967
 20
52.3380322409
 30
0.0
 10
62.5598367586
 20
52.0368784533
 30
0.0
 10
62.6039956505
 20
51.7157742893
 30
0.0
 10
62.6132757902
 20
51.4950566179
 30
0.0
 10
62.6132757902
 20
51.3823499944
 30
0.0
  0
SPLINE
  5
294
100
AcDbEntity
  8
0
100
AcDbSpline
 62
7
  6
BYLAYER
 70
0
 71
3
 72
15
 73
11
 74
0
 42
0.0000001
 43
0.0000001
 44
0.0000000001
 40
0.0
 40
0.0
 40
0.0
 40
0.0
 40
0.1485636976
 40
0.2895073798
 40
0.4227261637
 40
0.5486370963
 40
0.6679995554
 40
0.7819364481
 40
0.8919850572
 40
1.0
 40
1.0
 40
1.0
 40
1.0
 10
56.3528666782
 20
55.056592047
 30
0.0
 10
56.4487043359
 20
55.1119236142
 30
0.0
 10
56.6400605852
 20
55.2120826106
 30
0.0
 10
56.9319295304
 20
55.3315682461
 30
0.0
 10
57.218622256
 20
55.415145378
 30
0.0
 10
57.497388177
 20
55.4618909469
 30
0.0
 10
57.7656503472
 20
55.471248019
 30
0.0
 10
58.0208291167
 20
55.4427700333
 30
0.0
 10
58.2602083167
 20
55.37659258
 30
0.0
 10
58.4081440423
 20
55.3073033092
 30
0.0
 10
58.4778268258
 20
55.2670789047
 30
0.0
  0
SPLINE
  5
295
100
AcDbEntity
  8
0
100
AcDbSpline
 62
7
  6
BYLAYER
 70
0
 71
3
 72
25
 73
21
 74
0
 42
0.0000001
 43
0.0000001
 44
0.0000000001
 40
0.0
 40
0.0
 40
0.0
 40
0.0
 40
0.0213324064
 40
0.0428933207
 40
0.0648988089
 40
0.0875441196
 40
0.1353196721
 40
0.1872207611
 40
0.2436583509
 40
0.3046060299
 40
0.3696935526
 40
0.4382906293
 40
0.5095769156
 40
0.5826010064
 40
0.6563327468
 40
0.7297088106
 40
0.8016850135
 40
0.871275656
 40
0.9376188323
 40
1.0
 40
1.0
 40
1.0
 40
1.0
 10
54.2279065306
 20
47.9058346438
 30
0.0
 10
54.1756889782
 20
47.9359772392
 30
0.0
 10
54.0744680488
 20
48.0034026149
 30
0.0
 10
53.9355534519
 20
48.1238770095
 30
0.0
 10
53.8099153847
 20
48.2631940115
 30
0.0
 10
53.6584563562
 20
48.4766580335
 30
0.0
 10
53.5068113978
 20
48.7903061536
 30
0.0
 10
53.39122743
 20
49.2182363037
 30
0.0
 10
53.3397148146
 20
49.6955994213
 30
0.0
 10
53.3528752826
 20
50.2124617719
 30
0.0
 10
53.4301215434
 20
50.7581963905
 30
0.0
 10
53.5697346767
 20
51.3213883446
 30
0.0
 10
53.7687197976
 20
51.8901577489
 30
0.0
 10
54.0228377754
 20
52.4524290691
 30
0.0
 10
54.326673286
 20
52.9962169444
 30
0.0
 10
54.6737382805
 20
53.5099312233
 30
0.0
 10
55.0566394836
 20
53.9825948241
 30
0.0
 10
55.4672586388
 20
54.4042108813
 30
0.0
 10
55.89683464
 20
54.7657129233
 30
0.0
 10
56.200176183
 20
54.9684366748
 30
0.0
 10
56.3528666782
 20
55.056592047
 30
0.0
  0
SPLINE
  5
296
100
AcDbEntity
  8
0
100
AcDbSpline
 62
7
  6
BYLAYER
 70
0
 71
3
 72
15
 73
11
 74
0
 42
0.0000001
 43
0.0000001
 44
0.0000000001
 40
0.0
 40
0.0
 40
0.0
 40
0.0
 40
0.1141575032
 40
0.2373239178
 40
0.3669743563
 40
0.4999983967
 40
0.63302266
 40
0.76267375
 40
0.8858411906
 40
1.0
 40
1.0
 40
1.0
 40
1.0
 10
59.5348604414
 20
53.2195086517
 30
0.0
 10
59.3291251805
 20
53.1007280525
 30
0.0
 10
58.9227723818
 20
52.8158829714
 30
0.0
 10
58.3636631816
 20
52.2927724363
 30
0.0
 10
57.8483999685
 20
51.6744406786
 30
0.0
 10
57.3964062452
 20
50.9840449809
 30
0.0
 10
57.0245058989
 20
50.2474060579
 30
0.0
 10
56.7466482727
 20
49.4920043112
 30
0.0
 10
56.5731763476
 20
48.74623983
 30
0.0
 10
56.5296691332
 20
48.251900705
 30
0.0
 10
56.5296691332
 20
48.0143357249
 30
0.0
  0
SPLINE
  5
297
100
AcDbEntity
  8
0
100
AcDbSpline
 62
7
  6
BYLAYER
 70
0
 71
3
 72
15
 73
11
 74
0
 42
0.0000001
 43
0.0000001
 44
0.0000000001
 40
0.0
 40
0.0
 40
0.0
 40
0.0
 40
0.1485730788
 40
0.2895094781
 40
0.4227258942
 40
0.5486397716
 40
0.6680015705
 40
0.7819391103
 40
0.8919871696
 40
1.0
 40
1.0
 40
1.0
 40
1.0
 10
56.5296691332
 20
48.0143357249
 30
0.0
 10
56.5296691332
 20
47.9036606264
 30
0.0
 10
56.5386020091
 20
47.6878510444
 30
0.0
 10
56.581068486
 20
47.3753307819
 30
0.0
 10
56.6520342226
 20
47.0852520832
 30
0.0
 10
56.7509355226
 20
46.8204485171
 30
0.0
 10
56.876974975
 20
46.5834405354
 30
0.0
 10
57.0292258873
 20
46.3766733932
 30
0.0
 10
57.2062485259
 20
46.2024654536
 30
0.0
 10
57.340214876
 20
46.1089743845
 30
0.0
 10
57.4098964963
 20
46.0687445967
 30
0.0
  0
SPLINE
  5
298
100
AcDbEntity
  8
0
100
AcDbSpline
 62
7
  6
BYLAYER
 70
0
 71
3
 72
23
 73
19
 74
0
 42
0.0000001
 43
0.0000001
 44
0.0000000001
 40
0.0
 40
0.0
 40
0.0
 40
0.0
 40
0.0742870986
 40
0.1447561664
 40
0.2113648501
 40
0.2743220751
 40
0.3340032729
 40
0.3909722664
 40
0.4459964509
 40
0.5000029171
 40
0.5540092483
 40
0.6090330408
 40
0.6660014192
 40
0.7256818268
 40
0.7886381393
 40
0.8552458389
 40
0.9257138968
 40
1.0
 40
1.0
 40
1.0
 40
1.0
 10
62.5400532215
 20
51.2802898058
 30
0.0
 10
62.5400532215
 20
51.3844532324
 30
0.0
 10
62.5316455551
 20
51.5875659176
 30
0.0
 10
62.4916783306
 20
51.8816992212
 30
0.0
 10
62.4248878121
 20
52.1547112836
 30
0.0
 10
62.3318076029
 20
52.4039340666
 30
0.0
 10
62.2131820894
 20
52.6269997727
 30
0.0
 10
62.069904412
 20
52.8215947688
 30
0.0
 10
61.9032545927
 20
52.9855814286
 30
0.0
 10
61.7148877894
 20
53.1170625106
 30
0.0
 10
61.5068413525
 20
53.2144573725
 30
0.0
 10
61.2815027989
 20
53.2767918376
 30
0.0
 10
61.041342765
 20
53.3035810335
 30
0.0
 10
60.7888525085
 20
53.2947851877
 30
0.0
 10
60.5264822635
 20
53.2507876061
 30
0.0
 10
60.2566547771
 20
53.1721275091
 30
0.0
 10
59.9819474115
 20
53.0596767813
 30
0.0
 10
59.8018449722
 20
52.9654036411
 30
0.0
 10
59.7116378726
 20
52.9133228588
 30
0.0
  0
SPLINE
  5
299
100
AcDbEntity
  8
0
100
AcDbSpline
 62
7
  6
BYLAYER
 70
0
 71
3
 72
31
 73
27
 74
0
 42
0.0000001
 43
0.0000001
 44
0.0000000001
 40
0.0
 40
0.0
 40
0.0
 40
0.0
 40
0.030992068
 40
0.0603945176
 40
0.088185444
 40
0.1144518485
 40
0.1393521334
 40
0.163120522
 40
0.1860776808
 40
0.2086105017
 40
0.231143281
 40
0.2541007219
 40
0.2778695584
 40
0.3027686198
 40
0.3290368808
 40
0.3568282467
 40
0.3862197586
 40
0.4172201811
 40
0.4837462712
 40
0.5555272352
 40
0.6310840025
 40
0.7086079975
 40
0.7861314437
 40
0.8616893953
 40
0.9334696514
 40
1.0
 40
1.0
 40
1.0
 40
1.0
 10
56.8832225238
 20
48.0143365748
 30
0.0
 10
56.8832225238
 20
47.9101795236
 30
0.0
 10
56.8916343409
 20
47.7070687237
 30
0.0
 10
56.9315936435
 20
47.4129341993
 30
0.0
 10
56.9983864814
 20
47.1399172139
 30
0.0
 10
57.0914689457
 20
46.8906951623
 30
0.0
 10
57.2100886516
 20
46.6676275381
 30
0.0
 10
57.353373266
 20
46.4730382645
 30
0.0
 10
57.5200126594
 20
46.3090392726
 30
0.0
 10
57.7083921249
 20
46.1775713058
 30
0.0
 10
57.9164368605
 20
46.0801676601
 30
0.0
 10
58.1417802645
 20
46.0178256908
 30
0.0
 10
58.3819432168
 20
45.9910623633
 30
0.0
 10
58.6344390623
 20
45.999827091
 30
0.0
 10
58.8968158195
 20
46.0438558331
 30
0.0
 10
59.1666141851
 20
46.1225124257
 30
0.0
 10
59.4413573172
 20
46.2349394519
 30
0.0
 10
59.8196806096
 20
46.433060155
 30
0.0
 10
60.287669422
 20
46.761182384
 30
0.0
 10
60.8139593896
 20
47.2535244085
 30
0.0
 10
61.2988906748
 20
47.8354853462
 30
0.0
 10
61.7242943226
 20
48.4852681103
 30
0.0
 10
62.0743189738
 20
49.1785700412
 30
0.0
 10
62.3358331262
 20
49.8895344813
 30
0.0
 10
62.4991054721
 20
50.5914323892
 30
0.0
 10
62.5400532215
 20
51.0566969524
 30
0.0
 10
62.5400532215
 20
51.2802898058
 30
0.0
  0
SPLINE
  5
29A
100
AcDbEntity
  8
0
100
AcDbSpline
 62
7
  6
BYLAYER
 70
0
 71
3
 72
15
 73
11
 74
0
 42
0.0000001
 43
0.0000001
 44
0.0000000001
 40
0.0
 40
0.0
 40
0.0
 40
0.0
 40
0.1141581814
 40
0.2373247482
 40
0.3669749128
 40
0.4999983967
 40
0.6330221035
 40
0.7626729195
 40
0.8858405125
 40
1.0
 40
1.0
 40
1.0
 40
1.0
 10
59.7116378726
 20
52.9133228588
 30
0.0
 10
59.518003566
 20
52.801528707
 30
0.0
 10
59.1355528658
 20
52.5334378447
 30
0.0
 10
58.6093326816
 20
52.041096845
 30
0.0
 10
58.1243807225
 20
51.4591380867
 30
0.0
 10
57.6989767204
 20
50.8093561153
 30
0.0
 10
57.3489538555
 20
50.1160516077
 30
0.0
 10
57.0874404392
 20
49.405086961
 30
0.0
 10
56.9241711767
 20
48.70319035
 30
0.0
 10
56.8832225238
 20
48.2379284374
 30
0.0
 10
56.8832225238
 20
48.0143365748
 30
0.0
  0
SPLINE
  5
29B
100
AcDbEntity
  8
0
100
AcDbSpline
 62
7
  6
BYLAYER
 70
0
 71
3
 72
15
 73
11
 74
0
 42
0.0000001
 43
0.0000001
 44
0.0000000001
 40
0.0
 40
0.0
 40
0.0
 40
0.0
 40
0.1080135834
 40
0.2180622801
 40
0.3320002473
 40
0.4513622059
 40
0.5772759524
 40
0.7104919664
 40
0.8514277313
 40
1.0
 40
1.0
 40
1.0
 40
1.0
 10
61.6598243864
 20
53.4300021611
 30
0.0
 10
61.590145047
 20
53.470230632
 30
0.0
 10
61.4422000627
 20
53.5394985598
 30
0.0
 10
61.2028277377
 20
53.6056956667
 30
0.0
 10
60.9476457619
 20
53.6341624594
 30
0.0
 10
60.6793814812
 20
53.624811244
 30
0.0
 10
60.4006156349
 20
53.5780620936
 30
0.0
 10
60.1139294364
 20
53.4944845829
 30
0.0
 10
59.8220583972
 20
53.3750072243
 30
0.0
 10
59.6307037032
 20
53.2748434544
 30
0.0
 10
59.5348604414
 20
53.2195086517
 30
0.0
  0
SPLINE
  5
29C
100
AcDbEntity
  8
0
100
AcDbSpline
 62
7
  6
BYLAYER
 70
0
 71
3
 72
9
 73
5
 74
0
 42
0.0000001
 43
0.0000001
 44
0.0000000001
 40
0.0
 40
0.0
 40
0.0
 40
0.0
 40
0.5050116959
 40
1.0
 40
1.0
 40
1.0
 40
1.0
 10
19.2863139553
 20
69.5578880434
 30
0.0
 10
18.0574463269
 20
68.0759899646
 30
0.0
 10
15.9115647447
 20
64.8900041547
 30
0.0
 10
14.4674112392
 20
61.3258038612
 30
0.0
 10
13.960037141
 20
59.5083739685
 30
0.0
  0
SPLINE
  5
29D
100
AcDbEntity
  8
0
100
AcDbSpline
 62
7
  6
BYLAYER
 70
0
 71
3
 72
12
 73
8
 74
0
 42
0.0000001
 43
0.0000001
 44
0.0000000001
 40
0.0
 40
0.0
 40
0.0
 40
0.0
 40
0.2438739553
 40
0.4921490368
 40
0.7447324753
 40
0.8722829306
 40
1.0
 40
1.0
 40
1.0
 40
1.0
 10
31.3126184816
 20
41.5714521343
 30
0.0
 10
30.7057395738
 20
41.55385717
 30
0.0
 10
29.4796509895
 20
41.5546883567
 30
0.0
 10
27.6280110764
 20
41.6680159503
 30
0.0
 10
26.0744649256
 20
41.8639565447
 30
0.0
 10
24.8305826932
 20
42.0917971403
 30
0.0
 10
24.2106066094
 20
42.232644772
 30
0.0
 10
23.9023975833
 20
42.3107707985
 30
0.0
  0
SPLINE
  5
29E
100
AcDbEntity
  8
0
100
AcDbSpline
 62
7
  6
BYLAYER
 70
0
 71
3
 72
11
 73
7
 74
0
 42
0.0000001
 43
0.0000001
 44
0.0000000001
 40
0.0
 40
0.0
 40
0.0
 40
0.0
 40
0.2350312203
 40
0.4805370375
 40
0.7362119333
 40
1.0
 40
1.0
 40
1.0
 40
1.0
 10
42.7128583048
 20
80.176677871
 30
0.0
 10
41.8669619724
 20
80.2054800448
 30
0.0
 10
40.1288440275
 20
80.0880095988
 30
0.0
 10
37.5403276549
 20
79.4761049161
 30
0.0
 10
34.9580266939
 20
78.49989948
 30
0.0
 10
33.2779403064
 20
77.6723756137
 30
0.0
 10
32.4394436044
 20
77.2259248719
 30
0.0
  0
SPLINE
  5
29F
100
AcDbEntity
  8
0
100
AcDbSpline
 62
7
  6
BYLAYER
 70
0
 71
3
 72
16
 73
12
 74
0
 42
0.0000001
 43
0.0000001
 44
0.0000000001
 40
0.0
 40
0.0
 40
0.0
 40
0.0
 40
0.1232765302
 40
0.2488845771
 40
0.3764595659
 40
0.5045414565
 40
0.6314065371
 40
0.7559944783
 40
0.8784541782
 40
0.9392800502
 40
1.0
 40
1.0
 40
1.0
 40
1.0
 10
13.1709343062
 20
55.3538127147
 30
0.0
 10
13.1709343062
 20
54.6577740265
 30
0.0
 10
13.3045347905
 20
53.250091461
 30
0.0
 10
13.8540255052
 20
51.1884318919
 30
0.0
 10
14.7159211878
 20
49.207366341
 30
0.0
 10
15.8553044703
 20
47.3639843821
 30
0.0
 10
17.238750147
 20
45.7169562747
 30
0.0
 10
18.8373216131
 20
44.3241672145
 30
0.0
 10
20.3361340276
 20
43.4215994672
 30
0.0
 10
21.6109813771
 20
42.8939989318
 30
0.0
 10
22.2709014252
 20
42.6996635623
 30
0.0
 10
22.6046968174
 20
42.6214583447
 30
0.0
  0
SPLINE
  5
2A0
100
AcDbEntity
  8
0
100
AcDbSpline
 62
7
  6
BYLAYER
 70
0
 71
3
 72
9
 73
5
 74
0
 42
0.0000001
 43
0.0000001
 44
0.0000000001
 40
0.0
 40
0.0
 40
0.0
 40
0.0
 40
0.4989805266
 40
1.0
 40
1.0
 40
1.0
 40
1.0
 10
13.5840934994
 20
58.2422615284
 30
0.0
 10
13.4435070948
 20
57.7763866418
 30
0.0
 10
13.2358399957
 20
56.8190068535
 30
0.0
 10
13.1709343062
 20
55.8424262324
 30
0.0
 10
13.1709343062
 20
55.3538127147
 30
0.0
  0
SPLINE
  5
2A1
100
AcDbEntity
  8
0
100
AcDbSpline
 62
7
  6
BYLAYER
 70
0
 71
3
 72
11
 73
7
 74
0
 42
0.0000001
 43
0.0000001
 44
0.0000000001
 40
0.0
 40
0.0
 40
0.0
 40
0.0
 40
0.2606908988
 40
0.5152403701
 40
0.7619037587
 40
1.0
 40
1.0
 40
1.0
 40
1.0
 10
39.8169799298
 20
44.463228585
 30
0.0
 10
39.1238592734
 20
44.094182135
 30
0.0
 10
37.7342844285
 20
43.4003950181
 30
0.0
 10
35.6075254919
 20
42.5303841123
 30
0.0
 10
33.4705270127
 20
41.8898902628
 30
0.0
 10
32.0264503039
 20
41.6410544466
 30
0.0
 10
31.3126499815
 20
41.5714377535
 30
0.0
  0
SPLINE
  5
2A2
100
AcDbEntity
  8
0
100
AcDbSpline
 62
7
  6
BYLAYER
 70
0
 71
3
 72
11
 73
7
 74
0
 42
0.0000001
 43
0.0000001
 44
0.0000000001
 40
0.0
 40
0.0
 40
0.0
 40
0.0
 40
0.2996076212
 40
0.56433989
 40
0.7953210326
 40
1.0
 40
1.0
 40
1.0
 40
1.0
 10
49.034167398
 20
53.7706104107
 30
0.0
 10
49.034167398
 20
53.6572184304
 30
0.0
 10
49.0470436223
 20
53.4432169672
 30
0.0
 10
49.1127164022
 20
53.1477907402
 30
0.0
 10
49.2235989534
 20
52.9044131194
 30
0.0
 10
49.332849646
 20
52.7766651784
 30
0.0
 10
49.3928490507
 20
52.7276670191
 30
0.0
  0
SPLINE
  5
2A3
100
AcDbEntity
  8
0
100
AcDbSpline
 62
7
  6
BYLAYER
 70
0
 71
3
 72
13
 73
9
 74
0
 42
0.0000001
 43
0.0000001
 44
0.0000000001
 40
0.0
 40
0.0
 40
0.0
 40
0.0
 40
0.2370084658
 40
0.3668156984
 40
0.5000011073
 40
0.6331863631
 40
0.7629931478
 40
1.0
 40
1.0
 40
1.0
 40
1.0
 10
22.2346848366
 20
48.6510027146
 30
0.0
 10
22.2335677536
 20
49.2432922988
 30
0.0
 10
22.0715994383
 20
50.1621357114
 30
0.0
 10
21.6398068994
 20
51.3355557124
 30
0.0
 10
21.1926037934
 20
52.2216017039
 30
0.0
 10
20.6488636653
 20
53.0519105078
 30
0.0
 10
19.8485467334
 20
54.0125550095
 30
0.0
 10
19.1337895677
 20
54.6122387715
 30
0.0
 10
18.6214103219
 20
54.9093430144
 30
0.0
  0
SPLINE
  5
2A4
100
AcDbEntity
  8
0
100
AcDbSpline
 62
7
  6
BYLAYER
 70
0
 71
3
 72
17
 73
13
 74
0
 42
0.0000001
 43
0.0000001
 44
0.0000000001
 40
0.0
 40
0.0
 40
0.0
 40
0.0
 40
0.1447895783
 40
0.2743156221
 40
0.3908163025
 40
0.4459165121
 40
0.4999980335
 40
0.5540796456
 40
0.6091801195
 40
0.7256817548
 40
0.8552090742
 40
1.0
 40
1.0
 40
1.0
 40
1.0
 10
18.6214103219
 20
54.9093430144
 30
0.0
 10
18.3968677139
 20
55.0384145355
 30
0.0
 10
17.9511217058
 20
55.2512506903
 30
0.0
 10
17.2658156596
 20
55.4166738074
 30
0.0
 10
16.7187578479
 20
55.402228862
 30
0.0
 10
16.328083005
 20
55.2939934238
 30
0.0
 10
16.0622703975
 20
55.1696156483
 30
0.0
 10
15.8216536043
 20
55.0015977795
 30
0.0
 10
15.5325866541
 20
54.717372654
 30
0.0
 10
15.2465555181
 20
54.2508195687
 30
0.0
 10
15.0471719001
 20
53.574606605
 30
0.0
 10
15.0086248735
 20
53.0821561348
 30
0.0
 10
15.0081358071
 20
52.8231583554
 30
0.0
  0
SPLINE
  5
2A5
100
AcDbEntity
  8
0
100
AcDbSpline
 62
7
  6
BYLAYER
 70
0
 71
3
 72
13
 73
9
 74
0
 42
0.0000001
 43
0.0000001
 44
0.0000000001
 40
0.0
 40
0.0
 40
0.0
 40
0.0
 40
0.2370084658
 40
0.3668156984
 40
0.5000011073
 40
0.6331863631
 40
0.7629931478
 40
1.0
 40
1.0
 40
1.0
 40
1.0
 10
15.0081358071
 20
52.8231583554
 30
0.0
 10
15.0092528902
 20
52.2308687712
 30
0.0
 10
15.1712212054
 20
51.3120253586
 30
0.0
 10
15.6030137443
 20
50.1386053576
 30
0.0
 10
16.0502168503
 20
49.2525593662
 30
0.0
 10
16.5939569785
 20
48.4222505622
 30
0.0
 10
17.3942739103
 20
47.4616060606
 30
0.0
 10
18.109031076
 20
46.8619222985
 30
0.0
 10
18.6214103219
 20
46.5648180556
 30
0.0
  0
SPLINE
  5
2A6
100
AcDbEntity
  8
0
100
AcDbSpline
 62
7
  6
BYLAYER
 70
0
 71
3
 72
10
 73
6
 74
0
 42
0.0000001
 43
0.0000001
 44
0.0000000001
 40
0.0
 40
0.0
 40
0.0
 40
0.0
 40
0.4489648173
 40
0.7073397272
 40
1.0
 40
1.0
 40
1.0
 40
1.0
 10
49.3766210252
 20
52.7291950412
 30
0.0
 10
49.2686446026
 20
52.7387141181
 30
0.0
 10
49.0952831387
 20
52.7361744211
 30
0.0
 10
48.860833688
 20
52.6737942348
 30
0.0
 10
48.739958148
 20
52.6161830336
 30
0.0
 10
48.6787664058
 20
52.5808541756
 30
0.0
  0
SPLINE
  5
2A7
100
AcDbEntity
  8
0
100
AcDbSpline
 62
7
  6
BYLAYER
 70
0
 71
3
 72
21
 73
17
 74
0
 42
0.0000001
 43
0.0000001
 44
0.0000000001
 40
0.0
 40
0.0
 40
0.0
 40
0.0
 40
0.1246784896
 40
0.2496115915
 40
0.3748757261
 40
0.5005209281
 40
0.5635011013
 40
0.6265820048
 40
0.6897599584
 40
0.75302446
 40
0.8163445228
 40
0.8796039391
 40
0.911077716
 40
0.9421919866
 40
0.972317816
 40
1.0
 40
1.0
 40
1.0
 40
1.0
 10
39.8317839767
 20
44.4717680596
 30
0.0
 10
40.2663573089
 20
44.7226680052
 30
0.0
 10
41.1195998502
 20
45.2546881931
 30
0.0
 10
42.3452377137
 20
46.1363338363
 30
0.0
 10
43.5151475723
 20
47.0967939608
 30
0.0
 10
44.4413888374
 20
47.9570791676
 30
0.0
 10
45.1535188016
 20
48.6777499614
 30
0.0
 10
45.6740153384
 20
49.233920166
 30
0.0
 10
46.1810832131
 20
49.8038619298
 30
0.0
 10
46.6760066061
 20
50.3856217716
 30
0.0
 10
47.1614277245
 20
50.9757006788
 30
0.0
 10
47.5626358118
 20
51.4693766404
 30
0.0
 10
47.8893347347
 20
51.8564576536
 30
0.0
 10
48.1388760238
 20
52.1341051457
 30
0.0
 10
48.394887868
 20
52.3845829645
 30
0.0
 10
48.5822786801
 20
52.5251472937
 30
0.0
 10
48.6787664058
 20
52.5808541756
 30
0.0
  0
SPLINE
  5
2A8
100
AcDbEntity
  8
0
100
AcDbSpline
 62
7
  6
BYLAYER
 70
0
 71
3
 72
17
 73
13
 74
0
 42
0.0000001
 43
0.0000001
 44
0.0000000001
 40
0.0
 40
0.0
 40
0.0
 40
0.0
 40
0.1447895783
 40
0.2743156221
 40
0.3908163025
 40
0.4459165121
 40
0.4999980335
 40
0.5540796456
 40
0.6091801195
 40
0.7256817548
 40
0.8552090742
 40
1.0
 40
1.0
 40
1.0
 40
1.0
 10
18.6214103219
 20
46.5648180556
 30
0.0
 10
18.8459529298
 20
46.4357465345
 30
0.0
 10
19.2916989379
 20
46.2229103797
 30
0.0
 10
19.9770049841
 20
46.0574872626
 30
0.0
 10
20.5240627958
 20
46.071932208
 30
0.0
 10
20.9147376388
 20
46.1801676462
 30
0.0
 10
21.1805502463
 20
46.3045454217
 30
0.0
 10
21.4211670394
 20
46.4725632905
 30
0.0
 10
21.7102339896
 20
46.756788416
 30
0.0
 10
21.9962651256
 20
47.2233415013
 30
0.0
 10
22.1956487436
 20
47.899554465
 30
0.0
 10
22.2341957702
 20
48.3920049352
 30
0.0
 10
22.2346848366
 20
48.6510027146
 30
0.0
  0
SPLINE
  5
2A9
100
AcDbEntity
  8
0
100
AcDbSpline
 62
7
  6
BYLAYER
 70
0
 71
3
 72
18
 73
14
 74
0
 42
0.0000001
 43
0.0000001
 44
0.0000000001
 40
0.0
 40
0.0
 40
0.0
 40
0.0
 40
0.1516694411
 40
0.2915368703
 40
0.4202119314
 40
0.5395757472
 40
0.5968160022
 40
0.6530273137
 40
0.7087708755
 40
0.7646320687
 40
0.8211892852
 40
0.8789876888
 40
1.0
 40
1.0
 40
1.0
 40
1.0
 10
28.458641267
 20
47.7531663818
 30
0.0
 10
28.458641267
 20
47.3490181249
 30
0.0
 10
28.4118363709
 20
46.5708548773
 30
0.0
 10
28.1818462325
 20
45.4703196481
 30
0.0
 10
27.7976653751
 20
44.5044038491
 30
0.0
 10
27.3455006862
 20
43.8194122592
 30
0.0
 10
26.9165434931
 20
43.3693810694
 30
0.0
 10
26.5671192583
 20
43.0826144841
 30
0.0
 10
26.1876366718
 20
42.8438210598
 30
0.0
 10
25.7802217248
 20
42.6544714616
 30
0.0
 10
25.3472197998
 20
42.5154824977
 30
0.0
 10
24.7302507308
 20
42.3965859511
 30
0.0
 10
24.2489927264
 20
42.3886668855
 30
0.0
 10
23.927543838
 20
42.4141483739
 30
0.0
  0
SPLINE
  5
2AA
100
AcDbEntity
  8
0
100
AcDbSpline
 62
7
  6
BYLAYER
 70
0
 71
3
 72
27
 73
23
 74
0
 42
0.0000001
 43
0.0000001
 44
0.0000000001
 40
0.0
 40
0.0
 40
0.0
 40
0.0
 40
0.0244762614
 40
0.0479840031
 40
0.0707607887
 40
0.0930883173
 40
0.1152790828
 40
0.1376550532
 40
0.1605247522
 40
0.1841646708
 40
0.2345321087
 40
0.2900464153
 40
0.3510802531
 40
0.4173549514
 40
0.4881099747
 40
0.5622444605
 40
0.6384326115
 40
0.7152226587
 40
0.7911269114
 40
0.86471122
 40
0.934683104
 40
1.0
 40
1.0
 40
1.0
 40
1.0
 10
14.0668760946
 20
59.4942722756
 30
0.0
 10
14.1496334245
 20
59.6679663517
 30
0.0
 10
14.3314201786
 20
59.9997035077
 30
0.0
 10
14.6594260261
 20
60.4508605378
 30
0.0
 10
15.0343207445
 20
60.8411085113
 30
0.0
 10
15.453476723
 20
61.1669206881
 30
0.0
 10
15.913458814
 20
61.4257124772
 30
0.0
 10
16.4105717964
 20
61.6151595021
 30
0.0
 10
16.9406749468
 20
61.734098936
 30
0.0
 10
17.7014575601
 20
61.7990022811
 30
0.0
 10
18.7237920343
 20
61.6892714452
 30
0.0
 10
19.9783401914
 20
61.2811252307
 30
0.0
 10
21.2557459186
 20
60.6101544756
 30
0.0
 10
22.5216572366
 20
59.6962451351
 30
0.0
 10
23.7417943943
 20
58.5654317329
 30
0.0
 10
24.8819761809
 20
57.2496984372
 30
0.0
 10
25.9099142065
 20
55.7864562985
 30
0.0
 10
26.7962846612
 20
54.2174391457
 30
0.0
 10
27.5157815188
 20
52.5875047378
 30
0.0
 10
28.0478571255
 20
50.9429639208
 30
0.0
 10
28.377353849
 20
49.3309329871
 30
0.0
 10
28.458641267
 20
48.2666059353
 30
0.0
 10
28.458641267
 20
47.7531663818
 30
0.0
  0
SPLINE
  5
2AB
100
AcDbEntity
  8
0
100
AcDbSpline
 62
7
  6
BYLAYER
 70
0
 71
3
 72
15
 73
11
 74
0
 42
0.0000001
 43
0.0000001
 44
0.0000000001
 40
0.0
 40
0.0
 40
0.0
 40
0.0
 40
0.1134668051
 40
0.2357444463
 40
0.364368401
 40
0.4965958224
 40
0.6292929917
 40
0.7592908145
 40
0.8837441918
 40
1.0
 40
1.0
 40
1.0
 40
1.0
 10
76.3978591642
 20
92.1050979941
 30
0.0
 10
76.3978591642
 20
92.2770032707
 30
0.0
 10
76.4282344966
 20
92.6344764404
 30
0.0
 10
76.5495473888
 20
93.1744066549
 30
0.0
 10
76.7445507672
 20
93.7225296614
 30
0.0
 10
77.0061540131
 20
94.2596262758
 30
0.0
 10
77.325453372
 20
94.7670073789
 30
0.0
 10
77.6912194652
 20
95.2271728233
 30
0.0
 10
78.0907372049
 20
95.6237549341
 30
0.0
 10
78.3820064968
 20
95.8456509578
 30
0.0
 10
78.5302014478
 20
95.9408364454
 30
0.0
  0
SPLINE
  5
2AC
100
AcDbEntity
  8
0
100
AcDbSpline
 62
7
  6
BYLAYER
 70
0
 71
3
 72
9
 73
5
 74
0
 42
0.0000001
 43
0.0000001
 44
0.0000000001
 40
0.0
 40
0.0
 40
0.0
 40
0.0
 40
0.2456311475
 40
1.0
 40
1.0
 40
1.0
 40
1.0
 10
76.4068662466
 20
91.8778053775
 30
0.0
 10
76.4053586637
 20
91.896371848
 30
0.0
 10
76.4000030646
 20
91.9720210344
 30
0.0
 10
76.3978591642
 20
92.0478900048
 30
0.0
 10
76.3978591642
 20
92.1050979941
 30
0.0
  0
SPLINE
  5
2AD
100
AcDbEntity
  8
0
100
AcDbSpline
 62
7
  6
BYLAYER
 70
0
 71
3
 72
9
 73
5
 74
0
 42
0.0000001
 43
0.0000001
 44
0.0000000001
 40
0.0
 40
0.0
 40
0.0
 40
0.0
 40
0.5191415086
 40
1.0
 40
1.0
 40
1.0
 40
1.0
 10
76.1185227098
 20
78.9300329839
 30
0.0
 10
76.2119217941
 20
79.2411315977
 30
0.0
 10
76.3555445677
 20
79.8521036749
 30
0.0
 10
76.411258874
 20
80.4782899187
 30
0.0
 10
76.411258874
 20
80.7791534659
 30
0.0
  0
SPLINE
  5
2AE
100
AcDbEntity
  8
0
100
AcDbSpline
 62
7
  6
BYLAYER
 70
0
 71
3
 72
9
 73
5
 74
0
 42
0.0000001
 43
0.0000001
 44
0.0000000001
 40
0.0
 40
0.0
 40
0.0
 40
0.0
 40
0.4806922967
 40
1.0
 40
1.0
 40
1.0
 40
1.0
 10
74.988270532
 20
75.4913200184
 30
0.0
 10
74.988270532
 20
75.6960109901
 30
0.0
 10
75.0266878747
 20
76.1221847267
 30
0.0
 10
75.1255475786
 20
76.5377636853
 30
0.0
 10
75.1898243856
 20
76.7493503368
 30
0.0
  0
SPLINE
  5
2AF
100
AcDbEntity
  8
0
100
AcDbSpline
 62
7
  6
BYLAYER
 70
0
 71
3
 72
9
 73
5
 74
0
 42
0.0000001
 43
0.0000001
 44
0.0000000001
 40
0.0
 40
0.0
 40
0.0
 40
0.0
 40
0.2329584422
 40
1.0
 40
1.0
 40
1.0
 40
1.0
 10
75.1857294118
 20
33.5682170578
 30
0.0
 10
75.1576864327
 20
33.6278111419
 30
0.0
 10
75.0520817169
 20
33.890587398
 30
0.0
 10
75.0034982142
 20
34.1739953333
 30
0.0
 10
74.9896401572
 20
34.3904115574
 30
0.0
  0
SPLINE
  5
2B0
100
AcDbEntity
  8
0
100
AcDbSpline
 62
7
  6
BYLAYER
 70
0
 71
3
 72
9
 73
5
 74
0
 42
0.0000001
 43
0.0000001
 44
0.0000000001
 40
0.0
 40
0.0
 40
0.0
 40
0.0
 40
0.2714336184
 40
1.0
 40
1.0
 40
1.0
 40
1.0
 10
76.3994106883
 20
31.1303455383
 30
0.0
 10
76.3971393865
 20
31.2539564922
 30
0.0
 10
76.3700455017
 20
31.7081528573
 30
0.0
 10
76.2609193528
 20
32.1623613158
 30
0.0
 10
76.1184444619
 20
32.4620649185
 30
0.0
  0
SPLINE
  5
2B1
100
AcDbEntity
  8
0
100
AcDbSpline
 62
7
  6
BYLAYER
 70
0
 71
3
 72
12
 73
8
 74
0
 42
0.0000001
 43
0.0000001
 44
0.0000000001
 40
0.0
 40
0.0
 40
0.0
 40
0.0
 40
0.1081620542
 40
0.2183702775
 40
0.451351483
 40
0.7104480981
 40
1.0
 40
1.0
 40
1.0
 40
1.0
 10
23.4937252938
 20
124.3050870154
 30
0.0
 10
23.4281405337
 20
124.2672219695
 30
0.0
 10
23.3020165459
 20
124.1792425159
 30
0.0
 10
23.0758749937
 20
123.9566986294
 30
0.0
 10
22.8517631405
 20
123.5915203019
 30
0.0
 10
22.6959320144
 20
123.0621373612
 30
0.0
 10
22.6651548077
 20
122.6766332447
 30
0.0
 10
22.6651444457
 20
122.4739009938
 30
0.0
  0
SPLINE
  5
2B2
100
AcDbEntity
  8
0
100
AcDbSpline
 62
7
  6
BYLAYER
 70
0
 71
3
 72
9
 73
5
 74
0
 42
0.0000001
 43
0.0000001
 44
0.0000000001
 40
0.0
 40
0.0
 40
0.0
 40
0.0
 40
0.5144219292
 40
1.0
 40
1.0
 40
1.0
 40
1.0
 10
66.8136827064
 20
102.5857917225
 30
0.0
 10
67.0931870176
 20
102.8757228069
 30
0.0
 10
67.66437219
 20
103.4133205459
 30
0.0
 10
68.2915318342
 20
103.8853651089
 30
0.0
 10
68.6094004232
 20
104.0938473201
 30
0.0
  0
SPLINE
  5
2B3
100
AcDbEntity
  8
0
100
AcDbSpline
 62
7
  6
BYLAYER
 70
0
 71
3
 72
9
 73
5
 74
0
 42
0.0000001
 43
0.0000001
 44
0.0000000001
 40
0.0
 40
0.0
 40
0.0
 40
0.0
 40
0.2555661403
 40
1.0
 40
1.0
 40
1.0
 40
1.0
 10
67.5131550396
 20
88.5897506746
 30
0.0
 10
67.5117781105
 20
88.572737908
 30
0.0
 10
67.5055613381
 20
88.5062403007
 30
0.0
 10
67.4959645138
 20
88.4400458983
 30
0.0
 10
67.4867116471
 20
88.3911962785
 30
0.0
  0
SPLINE
  5
2B4
100
AcDbEntity
  8
0
100
AcDbSpline
 62
7
  6
BYLAYER
 70
0
 71
3
 72
11
 73
7
 74
0
 42
0.0000001
 43
0.0000001
 44
0.0000000001
 40
0.0
 40
0.0
 40
0.0
 40
0.0
 40
0.2775559931
 40
0.5329954334
 40
0.7712365243
 40
1.0
 40
1.0
 40
1.0
 40
1.0
 10
67.4867116471
 20
88.3911962785
 30
0.0
 10
67.4705982389
 20
88.3061270895
 30
0.0
 10
67.4272195971
 20
88.14465639
 30
0.0
 10
67.3221753191
 20
87.9264122599
 30
0.0
 10
67.1812841885
 20
87.7479850293
 30
0.0
 10
67.0641829531
 20
87.6582254929
 30
0.0
 10
67.0023797896
 20
87.6225491269
 30
0.0
  0
SPLINE
  5
2B5
100
AcDbEntity
  8
0
100
AcDbSpline
 62
7
  6
BYLAYER
 70
0
 71
3
 72
9
 73
5
 74
0
 42
0.0000001
 43
0.0000001
 44
0.0000000001
 40
0.0
 40
0.0
 40
0.0
 40
0.0
 40
0.2441730174
 40
1.0
 40
1.0
 40
1.0
 40
1.0
 10
65.506013043
 20
91.9137788275
 30
0.0
 10
65.5039277635
 20
91.8947838302
 30
0.0
 10
65.4965259696
 20
91.8168680042
 30
0.0
 10
65.4935702329
 20
91.738545219
 30
0.0
 10
65.4935706619
 20
91.6793937796
 30
0.0
  0
SPLINE
  5
2B6
100
AcDbEntity
  8
0
100
AcDbSpline
 62
7
  6
BYLAYER
 70
0
 71
3
 72
11
 73
7
 74
0
 42
0.0000001
 43
0.0000001
 44
0.0000000001
 40
0.0
 40
0.0
 40
0.0
 40
0.0
 40
0.2287426205
 40
0.4669232557
 40
0.7222789245
 40
1.0
 40
1.0
 40
1.0
 40
1.0
 10
64.5023909826
 20
91.9526826062
 30
0.0
 10
64.5641957216
 20
91.9883598816
 30
0.0
 10
64.7004776546
 20
92.0448699824
 30
0.0
 10
64.9254102251
 20
92.0777083068
 30
0.0
 10
65.1669805815
 20
92.0595940402
 30
0.0
 10
65.3285387921
 20
92.01635589
 30
0.0
 10
65.4103198473
 20
91.9877387768
 30
0.0
  0
SPLINE
  5
2B7
100
AcDbEntity
  8
0
100
AcDbSpline
 62
7
  6
BYLAYER
 70
0
 71
3
 72
9
 73
5
 74
0
 42
0.0000001
 43
0.0000001
 44
0.0000000001
 40
0.0
 40
0.0
 40
0.0
 40
0.0
 40
0.2446352499
 40
1.0
 40
1.0
 40
1.0
 40
1.0
 10
65.4103198473
 20
91.9877387768
 30
0.0
 10
65.4257391164
 20
91.9823432122
 30
0.0
 10
65.4884536537
 20
91.9593928661
 30
0.0
 10
65.5498868215
 20
91.9329767561
 30
0.0
 10
65.5954643855
 20
91.9113668717
 30
0.0
  0
SPLINE
  5
2B8
100
AcDbEntity
  8
0
100
AcDbSpline
 62
7
  6
BYLAYER
 70
0
 71
3
 72
9
 73
5
 74
0
 42
0.0000001
 43
0.0000001
 44
0.0000000001
 40
0.0
 40
0.0
 40
0.0
 40
0.0
 40
0.517085194
 40
1.0
 40
1.0
 40
1.0
 40
1.0
 10
22.3835667533
 20
107.8094514266
 30
0.0
 10
22.465789396
 20
108.0778878461
 30
0.0
 10
22.595640366
 20
108.6065546072
 30
0.0
 10
22.6560766899
 20
109.1482346935
 30
0.0
 10
22.664476739
 20
109.4102942408
 30
0.0
  0
SPLINE
  5
2B9
100
AcDbEntity
  8
0
100
AcDbSpline
 62
7
  6
BYLAYER
 70
0
 71
3
 72
9
 73
5
 74
0
 42
0.0000001
 43
0.0000001
 44
0.0000000001
 40
0.0
 40
0.0
 40
0.0
 40
0.0
 40
0.4806340331
 40
1.0
 40
1.0
 40
1.0
 40
1.0
 10
21.2483812131
 20
104.3690334
 30
0.0
 10
21.2483812131
 20
104.5737969025
 30
0.0
 10
21.2869935216
 20
105.0001746617
 30
0.0
 10
21.3862932113
 20
105.4158670771
 30
0.0
 10
21.4508517033
 20
105.6275038646
 30
0.0
  0
SPLINE
  5
2BA
100
AcDbEntity
  8
0
100
AcDbSpline
 62
7
  6
BYLAYER
 70
0
 71
3
 72
11
 73
7
 74
0
 42
0.0000001
 43
0.0000001
 44
0.0000000001
 40
0.0
 40
0.0
 40
0.0
 40
0.0
 40
0.2410234704
 40
0.4999612131
 40
0.7588948877
 40
1.0
 40
1.0
 40
1.0
 40
1.0
 10
65.5112853096
 20
91.7154252975
 30
0.0
 10
65.5421892229
 20
91.4222668481
 30
0.0
 10
65.6858144401
 20
90.8216905438
 30
0.0
 10
66.0764359301
 20
89.9741910024
 30
0.0
 10
66.6152372657
 20
89.2121248951
 30
0.0
 10
67.0637718737
 20
88.7875530025
 30
0.0
 10
67.3023347907
 20
88.6142222722
 30
0.0
  0
SPLINE
  5
2BB
100
AcDbEntity
  8
0
100
AcDbSpline
 62
7
  6
BYLAYER
 70
0
 71
3
 72
9
 73
5
 74
0
 42
0.0000001
 43
0.0000001
 44
0.0000000001
 40
0.0
 40
0.0
 40
0.0
 40
0.0
 40
0.2555163445
 40
1.0
 40
1.0
 40
1.0
 40
1.0
 10
91.9081935903
 20
102.6736332864
 30
0.0
 10
91.9068244102
 20
102.6567716314
 30
0.0
 10
91.9006510394
 20
102.5908513977
 30
0.0
 10
91.8911557285
 20
102.5252299197
 30
0.0
 10
91.8820160839
 20
102.4767941246
 30
0.0
  0
SPLINE
  5
2BC
100
AcDbEntity
  8
0
100
AcDbSpline
 62
7
  6
BYLAYER
 70
0
 71
3
 72
11
 73
7
 74
0
 42
0.0000001
 43
0.0000001
 44
0.0000000001
 40
0.0
 40
0.0
 40
0.0
 40
0.0
 40
0.2775995579
 40
0.5330503933
 40
0.7712732047
 40
1.0
 40
1.0
 40
1.0
 40
1.0
 10
91.8820160839
 20
102.4767941246
 30
0.0
 10
91.8659388144
 20
102.3915921971
 30
0.0
 10
91.8226099402
 20
102.2298693106
 30
0.0
 10
91.7175514971
 20
102.0112750463
 30
0.0
 10
91.5765604018
 20
101.8325713029
 30
0.0
 10
91.459334011
 20
101.742688444
 30
0.0
 10
91.3974621735
 20
101.7069724355
 30
0.0
  0
SPLINE
  5
2BD
100
AcDbEntity
  8
0
100
AcDbSpline
 62
7
  6
BYLAYER
 70
0
 71
3
 72
9
 73
5
 74
0
 42
0.0000001
 43
0.0000001
 44
0.0000000001
 40
0.0
 40
0.0
 40
0.0
 40
0.0
 40
0.2586396213
 40
1.0
 40
1.0
 40
1.0
 40
1.0
 10
91.14349468
 20
103.1917129548
 30
0.0
 10
91.1871212407
 20
103.1449208295
 30
0.0
 10
91.3596967622
 20
102.9677228881
 30
0.0
 10
91.548305976
 20
102.8057973879
 30
0.0
 10
91.6967476803
 20
102.6981313572
 30
0.0
  0
SPLINE
  5
2BE
100
AcDbEntity
  8
0
100
AcDbSpline
 62
7
  6
BYLAYER
 70
0
 71
3
 72
9
 73
5
 74
0
 42
0.0000001
 43
0.0000001
 44
0.0000000001
 40
0.0
 40
0.0
 40
0.0
 40
0.0
 40
0.2298742875
 40
1.0
 40
1.0
 40
1.0
 40
1.0
 10
47.3490232279
 20
121.9237003291
 30
0.0
 10
47.2995537585
 20
122.031353774
 30
0.0
 10
47.1165850552
 20
122.5145471264
 30
0.0
 10
47.0562870636
 20
123.0378824657
 30
0.0
 10
47.0562870636
 20
123.4348002223
 30
0.0
  0
SPLINE
  5
2BF
100
AcDbEntity
  8
0
100
AcDbSpline
 62
7
  6
BYLAYER
 70
0
 71
3
 72
9
 73
5
 74
0
 42
0.0000001
 43
0.0000001
 44
0.0000000001
 40
0.0
 40
0.0
 40
0.0
 40
0.0
 40
0.2722425095
 40
1.0
 40
1.0
 40
1.0
 40
1.0
 10
48.4792754056
 20
119.7900823713
 30
0.0
 10
48.4792754056
 20
119.8853026801
 30
0.0
 10
48.4645946206
 20
120.2343458926
 30
0.0
 10
48.385601401
 20
120.5848285918
 30
0.0
 10
48.277721552
 20
120.8153797357
 30
0.0
  0
SPLINE
  5
2C0
100
AcDbEntity
  8
0
100
AcDbSpline
 62
7
  6
BYLAYER
 70
0
 71
3
 72
15
 73
11
 74
0
 42
0.0000001
 43
0.0000001
 44
0.0000000001
 40
0.0
 40
0.0
 40
0.0
 40
0.0
 40
0.1233168649
 40
0.2515360873
 40
0.3825090878
 40
0.5139312622
 40
0.6434857661
 40
0.7689356794
 40
0.8883284417
 40
1.0
 40
1.0
 40
1.0
 40
1.0
 10
76.4370387205
 20
89.7288187231
 30
0.0
 10
76.8087332304
 20
89.3983939522
 30
0.0
 10
77.5285448286
 20
88.6803026523
 30
0.0
 10
78.5055749796
 20
87.483498405
 30
0.0
 10
79.3815699531
 20
86.1713161554
 30
0.0
 10
80.1334690536
 20
84.7782507911
 30
0.0
 10
80.7415514375
 20
83.3407322422
 30
0.0
 10
81.1901545885
 20
81.89612727
 30
0.0
 10
81.4671947188
 20
80.4823854476
 30
0.0
 10
81.5352854311
 20
79.5498107662
 30
0.0
 10
81.5352854311
 20
79.0994454445
 30
0.0
  0
SPLINE
  5
2C1
100
AcDbEntity
  8
0
100
AcDbSpline
 62
7
  6
BYLAYER
 70
0
 71
3
 72
12
 73
8
 74
0
 42
0.0000001
 43
0.0000001
 44
0.0000000001
 40
0.0
 40
0.0
 40
0.0
 40
0.0
 40
0.2895637391
 40
0.5486490935
 40
0.7816338817
 40
0.8918388695
 40
1.0
 40
1.0
 40
1.0
 40
1.0
 10
76.3994106883
 20
24.5437057958
 30
0.0
 10
76.3994106883
 20
24.3409751707
 30
0.0
 10
76.3686648198
 20
23.9554848991
 30
0.0
 10
76.2128471229
 20
23.4261269184
 30
0.0
 10
75.9887853075
 20
23.0609468376
 30
0.0
 10
75.7626390258
 20
22.8384296096
 30
0.0
 10
75.6365291034
 20
22.7504503438
 30
0.0
 10
75.5709503907
 20
22.7125835234
 30
0.0
  0
SPLINE
  5
2C2
100
AcDbEntity
  8
0
100
AcDbSpline
 62
7
  6
BYLAYER
 70
0
 71
3
 72
12
 73
8
 74
0
 42
0.0000001
 43
0.0000001
 44
0.0000000001
 40
0.0
 40
0.0
 40
0.0
 40
0.0
 40
0.108161406
 40
0.2183691403
 40
0.4513477206
 40
0.7104391456
 40
1.0
 40
1.0
 40
1.0
 40
1.0
 10
51.5020632669
 20
31.1270324237
 30
0.0
 10
51.6006129143
 20
31.0701370257
 30
0.0
 10
51.8098609917
 20
30.9721163357
 30
0.0
 10
52.269356873
 20
30.8450212641
 30
0.0
 10
52.9129501264
 20
30.8278322001
 30
0.0
 10
53.7188840331
 20
31.0227753339
 30
0.0
 10
54.2437991486
 20
31.2721788683
 30
0.0
 10
54.5075088547
 20
31.4247010833
 30
0.0
  0
SPLINE
  5
2C3
100
AcDbEntity
  8
0
100
AcDbSpline
 62
7
  6
BYLAYER
 70
0
 71
3
 72
12
 73
8
 74
0
 42
0.0000001
 43
0.0000001
 44
0.0000000001
 40
0.0
 40
0.0
 40
0.0
 40
0.0
 40
0.1081609568
 40
0.2183677962
 40
0.4513466745
 40
0.7104437682
 40
1.0
 40
1.0
 40
1.0
 40
1.0
 10
47.8896160139
 20
138.3899775426
 30
0.0
 10
47.8240352826
 20
138.3521147226
 30
0.0
 10
47.6979196952
 20
138.2641396918
 30
0.0
 10
47.4717956644
 20
138.041605499
 30
0.0
 10
47.2477080168
 20
137.6764394778
 30
0.0
 10
47.0919094127
 20
137.1470738919
 30
0.0
 10
47.0611534371
 20
136.761584296
 30
0.0
 10
47.0611534371
 20
136.5588592763
 30
0.0
  0
SPLINE
  5
2C4
100
AcDbEntity
  8
0
100
AcDbSpline
 62
7
  6
BYLAYER
 70
0
 71
3
 72
11
 73
7
 74
0
 42
0.0000001
 43
0.0000001
 44
0.0000000001
 40
0.0
 40
0.0
 40
0.0
 40
0.0
 40
0.2872767899
 40
0.5456888357
 40
0.7798586691
 40
1.0
 40
1.0
 40
1.0
 40
1.0
 10
95.9787421187
 20
35.7120531587
 30
0.0
 10
96.144893315
 20
35.6242773672
 30
0.0
 10
96.4747322196
 20
35.4819456684
 30
0.0
 10
96.9785947166
 20
35.3780469737
 30
0.0
 10
97.4500753459
 20
35.402051013
 30
0.0
 10
97.7339834755
 20
35.5083304507
 30
0.0
 10
97.8586848876
 20
35.5803362247
 30
0.0
  0
SPLINE
  5
2C5
100
AcDbEntity
  8
0
100
AcDbSpline
 62
7
  6
BYLAYER
 70
0
 71
3
 72
14
 73
10
 74
0
 42
0.0000001
 43
0.0000001
 44
0.0000000001
 40
0.0
 40
0.0
 40
0.0
 40
0.0
 40
0.2892722052
 40
0.4225556579
 40
0.548500502
 40
0.6678905348
 40
0.7818714435
 40
0.8919542858
 40
1.0
 40
1.0
 40
1.0
 40
1.0
 10
81.5352854311
 20
79.0994454445
 30
0.0
 10
81.5352854311
 20
78.6052584979
 30
0.0
 10
81.4775908671
 20
77.8798211145
 30
0.0
 10
81.254561384
 20
76.9680589207
 30
0.0
 10
81.0277087066
 20
76.3604751121
 30
0.0
 10
80.738434426
 20
75.8168674914
 30
0.0
 10
80.3892743068
 20
75.3424379692
 30
0.0
 10
79.9830972457
 20
74.9428389822
 30
0.0
 10
79.6757946812
 20
74.728329
 30
0.0
 10
79.51593867
 20
74.636041387
 30
0.0
  0
SPLINE
  5
2C6
100
AcDbEntity
  8
0
100
AcDbSpline
 62
7
  6
BYLAYER
 70
0
 71
3
 72
9
 73
5
 74
0
 42
0.0000001
 43
0.0000001
 44
0.0000000001
 40
0.0
 40
0.0
 40
0.0
 40
0.0
 40
0.5194259739
 40
1.0
 40
1.0
 40
1.0
 40
1.0
 10
91.7461781757
 20
103.5406409192
 30
0.0
 10
91.7999092015
 20
103.3652622255
 30
0.0
 10
91.8825792313
 20
103.0207790065
 30
0.0
 10
91.9147607244
 20
102.6673579254
 30
0.0
 10
91.9147587849
 20
102.4976527753
 30
0.0
  0
SPLINE
  5
2C7
100
AcDbEntity
  8
0
100
AcDbSpline
 62
7
  6
BYLAYER
 70
0
 71
3
 72
12
 73
8
 74
0
 42
0.0000001
 43
0.0000001
 44
0.0000000001
 40
0.0
 40
0.0
 40
0.0
 40
0.0
 40
0.1081494562
 40
0.2183476555
 40
0.4513237048
 40
0.7104394239
 40
1.0
 40
1.0
 40
1.0
 40
1.0
 10
50.007518727
 20
139.6127414169
 30
0.0
 10
50.0731304316
 20
139.6506220192
 30
0.0
 10
50.2124489975
 20
139.7158778614
 30
0.0
 10
50.5184054843
 20
139.8004431239
 30
0.0
 10
50.9469554668
 20
139.8118083996
 30
0.0
 10
51.4835735418
 20
139.6817827484
 30
0.0
 10
51.8329805245
 20
139.5155248497
 30
0.0
 10
52.0086506512
 20
139.4141039492
 30
0.0
  0
SPLINE
  5
2C8
100
AcDbEntity
  8
0
100
AcDbSpline
 62
7
  6
BYLAYER
 70
0
 71
3
 72
9
 73
5
 74
0
 42
0.0000001
 43
0.0000001
 44
0.0000000001
 40
0.0
 40
0.0
 40
0.0
 40
0.0
 40
0.2312437064
 40
1.0
 40
1.0
 40
1.0
 40
1.0
 10
101.0797615919
 20
93.6408030232
 30
0.0
 10
101.036438994
 20
93.732216171
 30
0.0
 10
100.8744879155
 20
94.1396026852
 30
0.0
 10
100.8100394262
 20
94.5811686652
 30
0.0
 10
100.7988516062
 20
94.9172808619
 30
0.0
  0
SPLINE
  5
2C9
100
AcDbEntity
  8
0
100
AcDbSpline
 62
7
  6
BYLAYER
 70
0
 71
3
 72
9
 73
5
 74
0
 42
0.0000001
 43
0.0000001
 44
0.0000000001
 40
0.0
 40
0.0
 40
0.0
 40
0.0
 40
0.2723542722
 40
1.0
 40
1.0
 40
1.0
 40
1.0
 10
102.2149471321
 20
91.5111765267
 30
0.0
 10
102.2149471321
 20
91.6064011027
 30
0.0
 10
102.2002106294
 20
91.9553065651
 30
0.0
 10
102.1208654631
 20
92.3056893398
 30
0.0
 10
102.012476642
 20
92.5358556028
 30
0.0
  0
SPLINE
  5
2CA
100
AcDbEntity
  8
0
100
AcDbSpline
 62
7
  6
BYLAYER
 70
0
 71
3
 72
9
 73
5
 74
0
 42
0.0000001
 43
0.0000001
 44
0.0000000001
 40
0.0
 40
0.0
 40
0.0
 40
0.0
 40
0.2610301573
 40
1.0
 40
1.0
 40
1.0
 40
1.0
 10
102.0173540948
 20
48.9092924569
 30
0.0
 10
102.0444757975
 20
48.9981688564
 30
0.0
 10
102.1394098183
 20
49.3412288829
 30
0.0
 10
102.1979027672
 20
49.6951037194
 30
0.0
 10
102.2135737627
 20
49.9576979576
 30
0.0
  0
SPLINE
  5
2CB
100
AcDbEntity
  8
0
100
AcDbSpline
 62
7
  6
BYLAYER
 70
0
 71
3
 72
9
 73
5
 74
0
 42
0.0000001
 43
0.0000001
 44
0.0000000001
 40
0.0
 40
0.0
 40
0.0
 40
0.0
 40
0.4829111515
 40
1.0
 40
1.0
 40
1.0
 40
1.0
 10
100.8030248279
 20
45.1252823097
 30
0.0
 10
100.8114290677
 20
45.3873796137
 30
0.0
 10
100.8718952982
 20
45.9291410341
 30
0.0
 10
101.0018055036
 20
46.4578792381
 30
0.0
 10
101.0840652268
 20
46.7263510075
 30
0.0
  0
SPLINE
  5
2CC
100
AcDbEntity
  8
0
100
AcDbSpline
 62
7
  6
BYLAYER
 70
0
 71
3
 72
12
 73
8
 74
0
 42
0.0000001
 43
0.0000001
 44
0.0000000001
 40
0.0
 40
0.0
 40
0.0
 40
0.0
 40
0.289556229
 40
0.5486533222
 40
0.7816321932
 40
0.8918390364
 40
1.0
 40
1.0
 40
1.0
 40
1.0
 10
100.8030248279
 20
38.6330548865
 30
0.0
 10
100.8030248279
 20
38.4303298685
 30
0.0
 10
100.7722688497
 20
38.044840276
 30
0.0
 10
100.6164702597
 20
37.5154746906
 30
0.0
 10
100.3923825951
 20
37.1503086828
 30
0.0
 10
100.1662585755
 20
36.9277744799
 30
0.0
 10
100.0401430035
 20
36.8397994132
 30
0.0
 10
99.9745622721
 20
36.8019365839
 30
0.0
  0
SPLINE
  5
2CD
100
AcDbEntity
  8
0
100
AcDbSpline
 62
7
  6
BYLAYER
 70
0
 71
3
 72
11
 73
7
 74
0
 42
0.0000001
 43
0.0000001
 44
0.0000000001
 40
0.0
 40
0.0
 40
0.0
 40
0.0
 40
0.2197480891
 40
0.4570974105
 40
0.716684424
 40
1.0
 40
1.0
 40
1.0
 40
1.0
 10
25.9527874535
 20
125.6679185751
 30
0.0
 10
26.0759243864
 20
125.7000858286
 30
0.0
 10
26.3418725944
 20
125.7325140283
 30
0.0
 10
26.7573635985
 20
125.6873572525
 30
0.0
 10
27.1912238436
 20
125.5530900427
 30
0.0
 10
27.4742574836
 20
125.4132255861
 30
0.0
 10
27.6163599365
 20
125.3311845527
 30
0.0
  0
SPLINE
  5
2CE
100
AcDbEntity
  8
0
100
AcDbSpline
 62
7
  6
BYLAYER
 70
0
 71
3
 72
12
 73
8
 74
0
 42
0.0000001
 43
0.0000001
 44
0.0000000001
 40
0.0
 40
0.0
 40
0.0
 40
0.0
 40
0.2895552427
 40
0.5486519846
 40
0.7816312595
 40
0.8918385311
 40
1.0
 40
1.0
 40
1.0
 40
1.0
 10
71.4508745525
 20
21.6866277424
 30
0.0
 10
71.6264352646
 20
21.5852700111
 30
0.0
 10
71.9756483922
 20
21.4191688567
 30
0.0
 10
72.5119777397
 20
21.2894196599
 30
0.0
 10
72.9402532137
 20
21.3009041659
 30
0.0
 10
73.2460281373
 20
21.385464279
 30
0.0
 10
73.3852716143
 20
21.4506940974
 30
0.0
 10
73.4508508972
 20
21.4885560903
 30
0.0
  0
SPLINE
  5
2CF
100
AcDbEntity
  8
0
100
AcDbSpline
 62
7
  6
BYLAYER
 70
0
 71
3
 72
9
 73
5
 74
0
 42
0.0000001
 43
0.0000001
 44
0.0000000001
 40
0.0
 40
0.0
 40
0.0
 40
0.0
 40
0.504915474
 40
1.0
 40
1.0
 40
1.0
 40
1.0
 10
75.013991714
 20
44.189170768
 30
0.0
 10
75.3265410138
 20
44.6294110505
 30
0.0
 10
75.8772875591
 20
45.5515055706
 30
0.0
 10
76.2800355233
 20
46.5477726572
 30
0.0
 10
76.4351542631
 20
47.053930754
 30
0.0
  0
SPLINE
  5
2D0
100
AcDbEntity
  8
0
100
AcDbSpline
 62
7
  6
BYLAYER
 70
0
 71
3
 72
15
 73
11
 74
0
 42
0.0000001
 43
0.0000001
 44
0.0000000001
 40
0.0
 40
0.0
 40
0.0
 40
0.0
 40
0.1141230875
 40
0.2373469588
 40
0.3669741384
 40
0.5000010625
 40
0.6330212426
 40
0.7626666846
 40
0.8858401916
 40
1.0
 40
1.0
 40
1.0
 40
1.0
 10
65.444987953
 20
92.0063529745
 30
0.0
 10
65.5870142276
 20
91.9243559216
 30
0.0
 10
65.8676054744
 20
91.7275897883
 30
0.0
 10
66.2537669495
 20
91.3664404544
 30
0.0
 10
66.6095485081
 20
90.9393603695
 30
0.0
 10
66.9216831766
 20
90.4626695145
 30
0.0
 10
67.1784639093
 20
89.9539825623
 30
0.0
 10
67.3703135719
 20
89.4323456995
 30
0.0
 10
67.4900986189
 20
88.9173638131
 30
0.0
 10
67.5201639443
 20
88.5759938317
 30
0.0
 10
67.5201621753
 20
88.4119441748
 30
0.0
  0
SPLINE
  5
2D1
100
AcDbEntity
  8
0
100
AcDbSpline
 62
7
  6
BYLAYER
 70
0
 71
3
 72
12
 73
8
 74
0
 42
0.0000001
 43
0.0000001
 44
0.0000000001
 40
0.0
 40
0.0
 40
0.0
 40
0.0
 40
0.2883929131
 40
0.5509624217
 40
0.6723346201
 40
0.7872889513
 40
1.0
 40
1.0
 40
1.0
 40
1.0
 10
75.435963093
 20
77.251649774
 30
0.0
 10
75.8449405203
 20
76.9232944637
 30
0.0
 10
76.6687385341
 20
76.3460148459
 30
0.0
 10
77.7757897073
 20
75.8103345163
 30
0.0
 10
78.644847031
 20
75.5432476608
 30
0.0
 10
79.447932732
 20
75.3907017518
 30
0.0
 10
80.0535008853
 20
75.387296588
 30
0.0
 10
80.4360076482
 20
75.4450555982
 30
0.0
  0
SPLINE
  5
2D2
100
AcDbEntity
  8
0
100
AcDbSpline
 62
7
  6
BYLAYER
 70
0
 71
3
 72
9
 73
5
 74
0
 42
0.0000001
 43
0.0000001
 44
0.0000000001
 40
0.0
 40
0.0
 40
0.0
 40
0.0
 40
0.2555791754
 40
1.0
 40
1.0
 40
1.0
 40
1.0
 10
67.2613449747
 20
88.6175528481
 30
0.0
 10
67.2786611282
 20
88.6075555883
 30
0.0
 10
67.3469127984
 20
88.5693142882
 30
0.0
 10
67.4171771363
 20
88.5346341035
 30
0.0
 10
67.4704913927
 20
88.5111962748
 30
0.0
  0
SPLINE
  5
2D3
100
AcDbEntity
  8
0
100
AcDbSpline
 62
7
  6
BYLAYER
 70
0
 71
3
 72
9
 73
5
 74
0
 42
0.0000001
 43
0.0000001
 44
0.0000000001
 40
0.0
 40
0.0
 40
0.0
 40
0.0
 40
0.2555791754
 40
1.0
 40
1.0
 40
1.0
 40
1.0
 10
91.6564273586
 20
102.7019761566
 30
0.0
 10
91.6737435121
 20
102.6919788969
 30
0.0
 10
91.7419951822
 20
102.6537375968
 30
0.0
 10
91.8122595202
 20
102.6190574121
 30
0.0
 10
91.8655737766
 20
102.5956195833
 30
0.0
  0
SPLINE
  5
2D4
100
AcDbEntity
  8
0
100
AcDbSpline
 62
7
  6
BYLAYER
 70
0
 71
3
 72
11
 73
7
 74
0
 42
0.0000001
 43
0.0000001
 44
0.0000000001
 40
0.0
 40
0.0
 40
0.0
 40
0.0
 40
0.2177862782
 40
0.4509165921
 40
0.7103006243
 40
1.0
 40
1.0
 40
1.0
 40
1.0
 10
91.3974621735
 20
101.7069724355
 30
0.0
 10
91.3149931711
 20
101.6593665502
 30
0.0
 10
91.1255171763
 20
101.5906014811
 30
0.0
 10
90.8107973409
 20
101.5826341608
 30
0.0
 10
90.4753853342
 20
101.6636371029
 30
0.0
 10
90.257164297
 20
101.7674512456
 30
0.0
 10
90.14746777
 20
101.8307831323
 30
0.0
  0
SPLINE
  5
2D5
100
AcDbEntity
  8
0
100
AcDbSpline
 62
7
  6
BYLAYER
 70
0
 71
3
 72
9
 73
5
 74
0
 42
0.0000001
 43
0.0000001
 44
0.0000000001
 40
0.0
 40
0.0
 40
0.0
 40
0.0
 40
0.2312377787
 40
1.0
 40
1.0
 40
1.0
 40
1.0
 10
73.9982730542
 20
31.088454951
 30
0.0
 10
74.0416155414
 20
30.9970449955
 30
0.0
 10
74.2036448717
 20
30.589650096
 30
0.0
 10
74.2681205195
 20
30.1480438072
 30
0.0
 10
74.2793134531
 20
29.8119018161
 30
0.0
  0
SPLINE
  5
2D6
100
AcDbEntity
  8
0
100
AcDbSpline
 62
7
  6
BYLAYER
 70
0
 71
3
 72
9
 73
5
 74
0
 42
0.0000001
 43
0.0000001
 44
0.0000000001
 40
0.0
 40
0.0
 40
0.0
 40
0.0
 40
0.4804187068
 40
1.0
 40
1.0
 40
1.0
 40
1.0
 10
89.8408180624
 20
101.3001943512
 30
0.0
 10
89.6938763204
 20
101.3850292863
 30
0.0
 10
89.4038843608
 20
101.5896684419
 30
0.0
 10
89.1467987723
 20
101.8334785631
 30
0.0
 10
89.0217352578
 20
101.9677650471
 30
0.0
  0
SPLINE
  5
2D7
100
AcDbEntity
  8
0
100
AcDbSpline
 62
7
  6
BYLAYER
 70
0
 71
3
 72
9
 73
5
 74
0
 42
0.0000001
 43
0.0000001
 44
0.0000000001
 40
0.0
 40
0.0
 40
0.0
 40
0.0
 40
0.274442325
 40
1.0
 40
1.0
 40
1.0
 40
1.0
 10
67.5201621753
 20
88.4119441748
 30
0.0
 10
67.5201612596
 20
88.3270274397
 30
0.0
 10
67.5061023424
 20
88.0184385192
 30
0.0
 10
67.4295388019
 20
87.707850826
 30
0.0
 10
67.324639999
 20
87.5093666226
 30
0.0
  0
SPLINE
  5
2D8
100
AcDbEntity
  8
0
100
AcDbSpline
 62
7
  6
BYLAYER
 70
0
 71
3
 72
14
 73
10
 74
0
 42
0.0000001
 43
0.0000001
 44
0.0000000001
 40
0.0
 40
0.0
 40
0.0
 40
0.0
 40
0.1195494586
 40
0.233063993
 40
0.3445728289
 40
0.4584719323
 40
0.5786941863
 40
0.708228828
 40
1.0
 40
1.0
 40
1.0
 40
1.0
 10
67.324639999
 20
87.5093666226
 30
0.0
 10
67.2845852728
 20
87.4335770978
 30
0.0
 10
67.1918456132
 20
87.2927668877
 30
0.0
 10
67.0110769251
 20
87.1209853477
 30
0.0
 10
66.797044882
 20
87.0005948861
 30
0.0
 10
66.5557098223
 20
86.9347410409
 30
0.0
 10
66.2931672375
 20
86.9242242858
 30
0.0
 10
65.907767106
 20
86.9851051384
 30
0.0
 10
65.6259292277
 20
87.108899028
 30
0.0
 10
65.4447429811
 20
87.2135045898
 30
0.0
  0
SPLINE
  5
2D9
100
AcDbEntity
  8
0
100
AcDbSpline
 62
7
  6
BYLAYER
 70
0
 71
3
 72
12
 73
8
 74
0
 42
0.0000001
 43
0.0000001
 44
0.0000000001
 40
0.0
 40
0.0
 40
0.0
 40
0.0
 40
0.2895552044
 40
0.5486533444
 40
0.7816325167
 40
0.8918392459
 40
1.0
 40
1.0
 40
1.0
 40
1.0
 10
49.8896931739
 20
138.1918608948
 30
0.0
 10
49.7141232514
 20
138.2932239437
 30
0.0
 10
49.3648935501
 20
138.4593382067
 30
0.0
 10
48.8285391284
 20
138.5891100518
 30
0.0
 10
48.400239721
 20
138.5776347787
 30
0.0
 10
48.0944486413
 20
138.4930736067
 30
0.0
 10
47.9551983164
 20
138.4278412698
 30
0.0
 10
47.8896160139
 20
138.3899775426
 30
0.0
  0
SPLINE
  5
2DA
100
AcDbEntity
  8
0
100
AcDbSpline
 62
7
  6
BYLAYER
 70
0
 71
3
 72
9
 73
5
 74
0
 42
0.0000001
 43
0.0000001
 44
0.0000000001
 40
0.0
 40
0.0
 40
0.0
 40
0.0
 40
0.262567762
 40
1.0
 40
1.0
 40
1.0
 40
1.0
 10
91.0799674042
 20
103.1463626871
 30
0.0
 10
91.1256269726
 20
103.101811803
 30
0.0
 10
91.3040674281
 20
102.9369722491
 30
0.0
 10
91.5012642526
 20
102.7915575911
 30
0.0
 10
91.6564273586
 20
102.7019761566
 30
0.0
  0
SPLINE
  5
2DB
100
AcDbEntity
  8
0
100
AcDbSpline
 62
7
  6
BYLAYER
 70
0
 71
3
 72
9
 73
5
 74
0
 42
0.0000001
 43
0.0000001
 44
0.0000000001
 40
0.0
 40
0.0
 40
0.0
 40
0.0
 40
0.5181369136
 40
1.0
 40
1.0
 40
1.0
 40
1.0
 10
98.9681114115
 20
45.6542475361
 30
0.0
 10
98.8827823729
 20
45.3762244115
 30
0.0
 10
98.7495829637
 20
44.829294279
 30
0.0
 10
98.6920107932
 20
44.268517295
 30
0.0
 10
98.6871451851
 20
43.9980982395
 30
0.0
  0
SPLINE
  5
2DC
100
AcDbEntity
  8
0
100
AcDbSpline
 62
7
  6
BYLAYER
 70
0
 71
3
 72
9
 73
5
 74
0
 42
0.0000001
 43
0.0000001
 44
0.0000000001
 40
0.0
 40
0.0
 40
0.0
 40
0.0
 40
0.2385160205
 40
1.0
 40
1.0
 40
1.0
 40
1.0
 10
100.0969157162
 20
48.8860173329
 30
0.0
 10
100.0918607524
 20
48.8012388719
 30
0.0
 10
100.0584843126
 20
48.4465538317
 30
0.0
 10
99.9799035161
 20
48.0967560944
 30
0.0
 10
99.9008264616
 20
47.837399817
 30
0.0
  0
SPLINE
  5
2DD
100
AcDbEntity
  8
0
100
AcDbSpline
 62
7
  6
BYLAYER
 70
0
 71
3
 72
9
 73
5
 74
0
 42
0.0000001
 43
0.0000001
 44
0.0000000001
 40
0.0
 40
0.0
 40
0.0
 40
0.0
 40
0.2296321713
 40
1.0
 40
1.0
 40
1.0
 40
1.0
 10
99.8967314878
 20
91.0138046557
 30
0.0
 10
99.9307884702
 20
90.9410211254
 30
0.0
 10
100.0568720559
 20
90.6136127861
 30
0.0
 10
100.0982853413
 20
90.2580897137
 30
0.0
 10
100.0982853413
 20
89.9885072914
 30
0.0
  0
SPLINE
  5
2DE
100
AcDbEntity
  8
0
100
AcDbSpline
 62
7
  6
BYLAYER
 70
0
 71
3
 72
9
 73
5
 74
0
 42
0.0000001
 43
0.0000001
 44
0.0000000001
 40
0.0
 40
0.0
 40
0.0
 40
0.0
 40
0.2719268213
 40
1.0
 40
1.0
 40
1.0
 40
1.0
 10
98.6752969994
 20
93.6332251423
 30
0.0
 10
98.6752969994
 20
93.493143631
 30
0.0
 10
98.6966642126
 20
92.9790178512
 30
0.0
 10
98.8114259524
 20
92.4629274858
 30
0.0
 10
98.9680331636
 20
92.1221252491
 30
0.0
  0
SPLINE
  5
2DF
100
AcDbEntity
  8
0
100
AcDbSpline
 62
7
  6
BYLAYER
 70
0
 71
3
 72
12
 73
8
 74
0
 42
0.0000001
 43
0.0000001
 44
0.0000000001
 40
0.0
 40
0.0
 40
0.0
 40
0.0
 40
0.1081611305
 40
0.2183661183
 40
0.4513509065
 40
0.7104362609
 40
1.0
 40
1.0
 40
1.0
 40
1.0
 10
97.8586848876
 20
35.5803362247
 30
0.0
 10
97.9242636003
 20
35.618203045
 30
0.0
 10
98.0503735226
 20
35.7061823108
 30
0.0
 10
98.2765198043
 20
35.9286995388
 30
0.0
 10
98.5005816198
 20
36.2938796197
 30
0.0
 10
98.6563993167
 20
36.8232376003
 30
0.0
 10
98.6871451851
 20
37.2087278719
 30
0.0
 10
98.6871451851
 20
37.4114584971
 30
0.0
  0
SPLINE
  5
2E0
100
AcDbEntity
  8
0
100
AcDbSpline
 62
7
  6
BYLAYER
 70
0
 71
3
 72
11
 73
7
 74
0
 42
0.0000001
 43
0.0000001
 44
0.0000000001
 40
0.0
 40
0.0
 40
0.0
 40
0.0
 40
0.2177862782
 40
0.4509165921
 40
0.7103006243
 40
1.0
 40
1.0
 40
1.0
 40
1.0
 10
67.0023797896
 20
87.6225491269
 30
0.0
 10
66.9199107872
 20
87.5749432417
 30
0.0
 10
66.7304347924
 20
87.5061781725
 30
0.0
 10
66.415714957
 20
87.4982108522
 30
0.0
 10
66.0803029504
 20
87.5792137943
 30
0.0
 10
65.8620819132
 20
87.683027937
 30
0.0
 10
65.7523853861
 20
87.7463598237
 30
0.0
  0
SPLINE
  5
2E1
100
AcDbEntity
  8
0
100
AcDbSpline
 62
7
  6
BYLAYER
 70
0
 71
3
 72
9
 73
5
 74
0
 42
0.0000001
 43
0.0000001
 44
0.0000000001
 40
0.0
 40
0.0
 40
0.0
 40
0.0
 40
0.2685960969
 40
1.0
 40
1.0
 40
1.0
 40
1.0
 10
72.8687645183
 20
33.0155655719
 30
0.0
 10
72.8736184085
 20
32.9398351257
 30
0.0
 10
72.9022736563
 20
32.6589438116
 30
0.0
 10
72.9769035161
 20
32.3806632282
 30
0.0
 10
73.0649841861
 20
32.1937336748
 30
0.0
  0
SPLINE
  5
2E2
100
AcDbEntity
  8
0
100
AcDbSpline
 62
7
  6
BYLAYER
 70
0
 71
3
 72
12
 73
8
 74
0
 42
0.0000001
 43
0.0000001
 44
0.0000000001
 40
0.0
 40
0.0
 40
0.0
 40
0.0
 40
0.1081609636
 40
0.2183678068
 40
0.4513466778
 40
0.710443771
 40
1.0
 40
1.0
 40
1.0
 40
1.0
 10
73.4508508972
 20
21.4885560903
 30
0.0
 10
73.5164316287
 20
21.5264189196
 30
0.0
 10
73.6425472006
 20
21.6143939863
 30
0.0
 10
73.8686712202
 20
21.8369281892
 30
0.0
 10
74.0927588848
 20
22.202094197
 30
0.0
 10
74.2485574748
 20
22.7314597824
 30
0.0
 10
74.2793134531
 20
23.1169493749
 30
0.0
 10
74.2793134531
 20
23.3196743929
 30
0.0
  0
SPLINE
  5
2E3
100
AcDbEntity
  8
0
100
AcDbSpline
 62
7
  6
BYLAYER
 70
0
 71
3
 72
9
 73
5
 74
0
 42
0.0000001
 43
0.0000001
 44
0.0000000001
 40
0.0
 40
0.0
 40
0.0
 40
0.0
 40
0.5193659669
 40
1.0
 40
1.0
 40
1.0
 40
1.0
 10
73.069861639
 20
75.8259287846
 30
0.0
 10
73.0053031471
 20
75.6142919971
 30
0.0
 10
72.9060034573
 20
75.1985995817
 30
0.0
 10
72.8673911488
 20
74.7722218225
 30
0.0
 10
72.8673911488
 20
74.56745832
 30
0.0
  0
SPLINE
  5
2E4
100
AcDbEntity
  8
0
100
AcDbSpline
 62
7
  6
BYLAYER
 70
0
 71
3
 72
9
 73
5
 74
0
 42
0.0000001
 43
0.0000001
 44
0.0000000001
 40
0.0
 40
0.0
 40
0.0
 40
0.0
 40
0.482914806
 40
1.0
 40
1.0
 40
1.0
 40
1.0
 10
74.2834866748
 20
79.6087191609
 30
0.0
 10
74.2750866256
 20
79.3466596135
 30
0.0
 10
74.2146503017
 20
78.8049795272
 30
0.0
 10
74.0847993317
 20
78.2763127662
 30
0.0
 10
74.002576689
 20
78.0078763466
 30
0.0
  0
SPLINE
  5
2E5
100
AcDbEntity
  8
0
100
AcDbSpline
 62
7
  6
BYLAYER
 70
0
 71
3
 72
11
 73
7
 74
0
 42
0.0000001
 43
0.0000001
 44
0.0000000001
 40
0.0
 40
0.0
 40
0.0
 40
0.0
 40
0.2312831148
 40
0.479271074
 40
0.7378677722
 40
1.0
 40
1.0
 40
1.0
 40
1.0
 10
78.5089365752
 20
98.3784767568
 30
0.0
 10
78.0834872287
 20
98.0994349654
 30
0.0
 10
77.2510323846
 20
97.444418542
 30
0.0
 10
76.1244945028
 20
96.2698038147
 30
0.0
 10
75.1127443519
 20
94.9097330849
 30
0.0
 10
74.540907191
 20
93.9134928702
 30
0.0
 10
74.2841914275
 20
93.3971287855
 30
0.0
  0
SPLINE
  5
2E6
100
AcDbEntity
  8
0
100
AcDbSpline
 62
7
  6
BYLAYER
 70
0
 71
3
 72
9
 73
5
 74
0
 42
0.0000001
 43
0.0000001
 44
0.0000000001
 40
0.0
 40
0.0
 40
0.0
 40
0.0
 40
0.5046201296
 40
1.0
 40
1.0
 40
1.0
 40
1.0
 10
64.3846552754
 20
99.1124993488
 30
0.0
 10
64.6692087145
 20
99.6848567845
 30
0.0
 10
65.3087726641
 20
100.7828866684
 30
0.0
 10
66.0870375531
 20
101.7879430776
 30
0.0
 10
66.5060966861
 20
102.2549842444
 30
0.0
  0
SPLINE
  5
2E7
100
AcDbEntity
  8
0
100
AcDbSpline
 62
7
  6
BYLAYER
 70
0
 71
3
 72
13
 73
9
 74
0
 42
0.0000001
 43
0.0000001
 44
0.0000000001
 40
0.0
 40
0.0
 40
0.0
 40
0.0
 40
0.1142593966
 40
0.2375412422
 40
0.5000014664
 40
0.7624450335
 40
0.8857765703
 40
1.0
 40
1.0
 40
1.0
 40
1.0
 10
65.4935706619
 20
91.6793937796
 30
0.0
 10
65.4935716754
 20
91.5396521912
 30
0.0
 10
65.5191636869
 20
91.2488395782
 30
0.0
 10
65.6581954945
 20
90.6518376307
 30
0.0
 10
65.9809800216
 20
89.9195863578
 30
0.0
 10
66.4537368473
 20
89.2738237237
 30
0.0
 10
66.9013132207
 20
88.8550037023
 30
0.0
 10
67.1403626199
 20
88.687400463
 30
0.0
 10
67.2613449747
 20
88.6175528481
 30
0.0
  0
SPLINE
  5
2E8
100
AcDbEntity
  8
0
100
AcDbSpline
 62
7
  6
BYLAYER
 70
0
 71
3
 72
12
 73
8
 74
0
 42
0.0000001
 43
0.0000001
 44
0.0000000001
 40
0.0
 40
0.0
 40
0.0
 40
0.0
 40
0.2894508198
 40
0.5485096908
 40
0.7815326084
 40
0.8917851706
 40
1.0
 40
1.0
 40
1.0
 40
1.0
 10
50.2570809503
 20
33.8695992274
 30
0.0
 10
50.257573349
 20
33.5659434899
 30
0.0
 10
50.3045637782
 20
32.988548449
 30
0.0
 10
50.5391350131
 20
32.1957900325
 30
0.0
 10
50.8755313919
 20
31.6489763372
 30
0.0
 10
51.2146619371
 20
31.3156316652
 30
0.0
 10
51.4037461769
 20
31.18379356
 30
0.0
 10
51.5020632669
 20
31.1270324237
 30
0.0
  0
SPLINE
  5
2E9
100
AcDbEntity
  8
0
100
AcDbSpline
 62
7
  6
BYLAYER
 70
0
 71
3
 72
12
 73
8
 74
0
 42
0.0000001
 43
0.0000001
 44
0.0000000001
 40
0.0
 40
0.0
 40
0.0
 40
0.0
 40
0.289548955
 40
0.5486601175
 40
0.7816401946
 40
0.8918435891
 40
1.0
 40
1.0
 40
1.0
 40
1.0
 10
25.4949550233
 20
124.1065060153
 30
0.0
 10
25.3192836672
 20
124.2079276255
 30
0.0
 10
24.9698683068
 20
124.3741851025
 30
0.0
 10
24.4332286272
 20
124.5041989633
 30
0.0
 10
24.0046557706
 20
124.4928160402
 30
0.0
 10
23.6986763306
 20
124.4082358083
 30
0.0
 10
23.5593443104
 20
124.3429718392
 30
0.0
 10
23.4937252938
 20
124.3050870154
 30
0.0
  0
SPLINE
  5
2EA
100
AcDbEntity
  8
0
100
AcDbSpline
 62
7
  6
BYLAYER
 70
0
 71
3
 72
12
 73
8
 74
0
 42
0.0000001
 43
0.0000001
 44
0.0000000001
 40
0.0
 40
0.0
 40
0.0
 40
0.0
 40
0.1096664692
 40
0.2211453183
 40
0.455398023
 40
0.7134085874
 40
1.0
 40
1.0
 40
1.0
 40
1.0
 10
79.51593867
 20
74.636041387
 30
0.0
 10
79.3665098987
 20
74.5497735981
 30
0.0
 10
79.0506138184
 20
74.3997860285
 30
0.0
 10
78.3609505769
 20
74.1965553403
 30
0.0
 10
77.3987927127
 20
74.1416104718
 30
0.0
 10
76.18752945
 20
74.3831338805
 30
0.0
 10
75.3930444548
 20
74.7187349007
 30
0.0
 10
74.9927110415
 20
74.9262198301
 30
0.0
  0
SPLINE
  5
2EB
100
AcDbEntity
  8
0
100
AcDbSpline
 62
7
  6
BYLAYER
 70
0
 71
3
 72
9
 73
5
 74
0
 42
0.0000001
 43
0.0000001
 44
0.0000000001
 40
0.0
 40
0.0
 40
0.0
 40
0.0
 40
0.2742158995
 40
1.0
 40
1.0
 40
1.0
 40
1.0
 10
65.444987953
 20
92.0063529745
 30
0.0
 10
65.371269546
 20
92.0489133537
 30
0.0
 10
65.0960568838
 20
92.1913729896
 30
0.0
 10
64.7876419642
 20
92.2805399872
 30
0.0
 10
64.5624804103
 20
92.2883848506
 30
0.0
  0
SPLINE
  5
2EC
100
AcDbEntity
  8
0
100
AcDbSpline
 62
7
  6
BYLAYER
 70
0
 71
3
 72
19
 73
15
 74
0
 42
0.0000001
 43
0.0000001
 44
0.0000000001
 40
0.0
 40
0.0
 40
0.0
 40
0.0
 40
0.047151934
 40
0.0918241383
 40
0.1363709566
 40
0.1831932086
 40
0.2341448937
 40
0.2902695643
 40
0.3518371162
 40
0.4185219323
 40
0.5635796183
 40
0.7162748755
 40
0.8652243594
 40
1.0
 40
1.0
 40
1.0
 40
1.0
 10
64.5624804103
 20
92.2883848506
 30
0.0
 10
64.4610954273
 20
92.2919172091
 30
0.0
 10
64.261591628
 20
92.2760162858
 30
0.0
 10
63.9830468085
 20
92.1715552874
 30
0.0
 10
63.7482215941
 20
91.9897201416
 30
0.0
 10
63.5660167665
 20
91.739230786
 30
0.0
 10
63.440245357
 20
91.4300513366
 30
0.0
 10
63.3724995778
 20
91.0716172502
 30
0.0
 10
63.363198728
 20
90.6735500987
 30
0.0
 10
63.4306265001
 20
90.0879216707
 30
0.0
 10
63.6610640165
 20
89.3313688142
 30
0.0
 10
64.1167355913
 20
88.4788113265
 30
0.0
 10
64.711137905
 20
87.7449003447
 30
0.0
 10
65.1936225491
 20
87.3584857589
 30
0.0
 10
65.4447429811
 20
87.2135045898
 30
0.0
  0
SPLINE
  5
2ED
100
AcDbEntity
  8
0
100
AcDbSpline
 62
7
  6
BYLAYER
 70
0
 71
3
 72
17
 73
13
 74
0
 42
0.0000001
 43
0.0000001
 44
0.0000000001
 40
0.0
 40
0.0
 40
0.0
 40
0.0
 40
0.1286880406
 40
0.270270162
 40
0.4174292373
 40
0.5617741605
 40
0.6954450805
 40
0.8127110796
 40
0.8646747341
 40
0.912510617
 40
0.9571387205
 40
1.0
 40
1.0
 40
1.0
 40
1.0
 10
65.7523853861
 20
87.7463598237
 30
0.0
 10
65.5673247858
 20
87.853202194
 30
0.0
 10
65.2081018143
 20
88.1296137317
 30
0.0
 10
64.7483454557
 20
88.6527109193
 30
0.0
 10
64.3698738833
 20
89.2682242132
 30
0.0
 10
64.1040263362
 20
89.9261922287
 30
0.0
 10
63.9720686428
 20
90.5730851038
 30
0.0
 10
63.9838895934
 20
91.0828179348
 30
0.0
 10
64.0782558424
 20
91.4324212318
 30
0.0
 10
64.1833061905
 20
91.649878455
 30
0.0
 10
64.3239477605
 20
91.827633413
 30
0.0
 10
64.4407519494
 20
91.9171009857
 30
0.0
 10
64.5023909826
 20
91.9526826062
 30
0.0
  0
SPLINE
  5
2EE
100
AcDbEntity
  8
0
100
AcDbSpline
 62
7
  6
BYLAYER
 70
0
 71
3
 72
9
 73
5
 74
0
 42
0.0000001
 43
0.0000001
 44
0.0000000001
 40
0.0
 40
0.0
 40
0.0
 40
0.0
 40
0.2744990257
 40
1.0
 40
1.0
 40
1.0
 40
1.0
 10
91.9147587849
 20
102.4976527753
 30
0.0
 10
91.9147578132
 20
102.4126358078
 30
0.0
 10
91.9006598209
 20
102.1037517269
 30
0.0
 10
91.8238519869
 20
101.7928457234
 30
0.0
 10
91.7186119528
 20
101.5943147121
 30
0.0
  0
SPLINE
  5
2EF
100
AcDbEntity
  8
0
100
AcDbSpline
 62
7
  6
BYLAYER
 70
0
 71
3
 72
14
 73
10
 74
0
 42
0.0000001
 43
0.0000001
 44
0.0000000001
 40
0.0
 40
0.0
 40
0.0
 40
0.0
 40
0.1195532805
 40
0.2330940735
 40
0.3446514269
 40
0.4586165348
 40
0.7073304281
 40
0.8480451996
 40
1.0
 40
1.0
 40
1.0
 40
1.0
 10
91.7186119528
 20
101.5943147121
 30
0.0
 10
91.6785394977
 20
101.5187196678
 30
0.0
 10
91.5857852105
 20
101.3782845491
 30
0.0
 10
91.4051219546
 20
101.2070187641
 30
0.0
 10
91.1912582507
 20
101.0870668398
 30
0.0
 10
90.8608459179
 20
100.9970896347
 30
0.0
 10
90.4906002736
 20
101.027797731
 30
0.0
 10
90.1230895127
 20
101.1516854013
 30
0.0
 10
89.9349970003
 20
101.2458213462
 30
0.0
 10
89.8408180624
 20
101.3001943512
 30
0.0
  0
SPLINE
  5
2F0
100
AcDbEntity
  8
0
100
AcDbSpline
 62
7
  6
BYLAYER
 70
0
 71
3
 72
9
 73
5
 74
0
 42
0.0000001
 43
0.0000001
 44
0.0000000001
 40
0.0
 40
0.0
 40
0.0
 40
0.0
 40
0.2368882113
 40
1.0
 40
1.0
 40
1.0
 40
1.0
 10
90.14746777
 20
101.8307831323
 30
0.0
 10
90.0976195872
 20
101.859562343
 30
0.0
 10
89.8917101958
 20
101.9888345621
 30
0.0
 10
89.7037222312
 20
102.1456777565
 30
0.0
 10
89.5710078156
 20
102.2751696627
 30
0.0
  0
ENDSEC
  0
SECTION
  2
OBJECTS
  0
DICTIONARY
  5
C
100
AcDbDictionary
280
0
281
1
  3
ACAD_GROUP
350
D
  3
ACAD_MLINESTYLE
350
17
  3
ACAD_LAYOUT
350
1A
  3
ACAD_PLOTSETTINGS
350
19
  3
ACAD_PLOTSTYLENAME
350
E
  0
DICTIONARY
  5
D
102
{ACAD_REACTORS
330
C
102
}
100
AcDbDictionary
280
0
281
1
  0
ACDBDICTIONARYWDFLT
  5
E
102
{ACAD_REACTORS
330
C
102
}
100
AcDbDictionary
281
1
  3
Normal
350
F
100
AcDbDictionaryWithDefault
340
F
  0
DICTIONARY
  5
17
102
{ACAD_REACTORS
330
C
102
}
100
AcDbDictionary
280
0
281
1
  3
Standard
350
18
  0
DICTIONARY
  5
19
102
{ACAD_REACTORS
330
C
102
}
100
AcDbDictionary
281
1
  0
DICTIONARY
  5
1A
102
{ACAD_REACTORS
330
C
102
}
100
AcDbDictionary
281
1
  3
Model
350
2F1
  3
Layout1
350
2F2
  0
ACDBPLACEHOLDER
  5
F
102
{ACAD_REACTORS
330
E
102
}
  0
MLINESTYLE
  5
18
102
{ACAD_REACTORS
330
17
102
}
100
AcDbMlineStyle
  2
STANDARD
 70
0
  3

 62
256
 51
90.0
 52
90.0
 71
2
 49
0.5
 62
256
  6
BYLAYER
 49
-0.5
 62
256
  6
BYLAYER
  0
LAYOUT
  5
2F1
102
{ACAD_REACTORS
330
1A
102
}
100
AcDbPlotSettings
  1

  2
none_device
  4

  6

 40
0.0
 41
0.0
 42
0.0
 43
0.0
 44
210.0
 45
297.0
 46
0.0
 47
0.0
 48
0.0
 49
0.0
140
0.0
141
0.0
142
1.0
143
1.0
 70
1024
 72
1
 73
0
 74
0
  7

 75
0
147
1.0
148
0.0
149
0.0
100
AcDbLayout
  1
Model
 70
0
 71
0
 10
0.0
 20
0.0
 11
210.0
 21
297.0
 12
0.0
 22
0.0
 32
0.0
 14
0.0
 24
0.0
 34
0.0
 15
0.0
 25
0.0
 35
0.0
146
0.0
 13
0.0
 23
0.0
 33
0.0
 16
1.0
 26
0.0
 36
0.0
 17
0.0
 27
1.0
 37
0.0
 76
0
330
210
345
0
346
0
  0
LAYOUT
  5
2F2
102
{ACAD_REACTORS
330
1A
102
}
100
AcDbPlotSettings
  1

  2
none_device
  4

  6

 40
0.0
 41
0.0
 42
0.0
 43
0.0
 44
210.0
 45
297.0
 46
0.0
 47
0.0
 48
0.0
 49
0.0
140
0.0
141
0.0
142
1.0
143
1.0
 70
0
 72
1
 73
0
 74
0
  7

 75
0
147
1.0
148
0.0
149
0.0
100
AcDbLayout
  1
Layout1
 70
0
 71
1
 10
0.0
 20
0.0
 11
210.0
 21
297.0
 12
0.0
 22
0.0
 32
0.0
 14
0.0
 24
0.0
 34
0.0
 15
0.0
 25
0.0
 35
0.0
146
0.0
 13
0.0
 23
0.0
 33
0.0
 16
1.0
 26
0.0
 36
0.0
 17
0.0
 27
1.0
 37
0.0
 76
0
330
211
345
0
346
0
  0
ENDSEC
  0
EOF
