999
DXF file: C:\Users\sesa63760\Dev\_Creo\CAD\MCADID0004811_3D-CAD\drw0001_1.dxf
999
Pro/ENGINEER 2019471 by Parametric Technology Corporation
  0
SECTION
  2
HEADER
  9
$ACADVER
  1
AC1024
  9
$DWGCODEPAGE
  3
ANSI_1252
  9
$EXTMAX
 10
71.1840817422
 20
100.6746298926
 30
0.0
  9
$EXTMIN
 10
0.0
 20
0.0
 30
0.0
  9
$LIMMIN
 10
0.0
 20
0.0
  9
$LIMMAX
 10
71.1840817422
 20
100.6746298926
  9
$VIEWCTR
 10
35.5920408711
 20
50.3373149463
  9
$VIEWSIZE
 40
100.6746298926
  9
$CLAYER
  8
0
  9
$LTSCALE
 40
6.562494393
  9
$CELTYPE
  6
BYLAYER
  9
$DIMSCALE
 40
1.0
  9
$DIMASZ
 40
0.8474295446
  9
$DIMEXO
 40
1.0
  9
$DIMDLI
 40
4.5340870352
  9
$DIMEXE
 40
1.0
  9
$DIMCEN
 40
1.0738627189
  9
$DIMLFAC
 40
1.0
  9
$DIMBLK
  1
_FILLED
  9
$DIMALT
 70
0
  9
$DIMALTF
 40
0.0393700787
  9
$DIMTXT
 40
1.1864013624
  9
$DIMTOL
 70
1
  9
$DIMLIM
 70
0
  9
$DIMTFAC
 40
1.0
  9
$DIMTP
 40
0.01
  9
$DIMTM
 40
0.01
  9
$DIMGAP
 40
0.625
  9
$DIMDSEP
 70
46
  9
$AUNITS
 70
0
  9
$PDMODE
 70
3
  9
$PDSIZE
 40
0.3125
  9
$HANDSEED
  5
389
  9
$TILEMODE
 70
1
  9
$MEASUREMENT
 70
1
  9
$INSUNITS
 70
4
  0
ENDSEC
  0
SECTION
  2
CLASSES
  0
CLASS
  1
ACDBDICTIONARYWDFLT
  2
AcDbDictionaryWithDefault
  3
AutoCAD 2000
 90
0
 91
1
280
0
281
0
  0
CLASS
  1
ACDBPLACEHOLDER
  2
AcDbPlaceHolder
  3
AutoCAD 2000
 90
0
 91
1
280
0
281
0
  0
CLASS
  1
LAYOUT
  2
AcDbLayout
  3
AutoCAD 2000
 90
0
 91
0
280
0
281
0
  0
ENDSEC
  0
SECTION
  2
TABLES
  0
TABLE
  2
VPORT
  5
8
100
AcDbSymbolTable
 70
2
  0
VPORT
  5
1F4
100
AcDbSymbolTableRecord
100
AcDbViewportTableRecord
  2
*ACTIVE
 70
0
 10
0.0
 20
0.0
 11
1.0
 21
1.0
 12
35.5920408711
 22
50.3373149463
 13
0.0
 23
0.0
 14
1.0
 24
1.0
 15
0.0
 25
0.0
 16
0.0
 26
0.0
 36
1.0
 17
0.0
 27
0.0
 37
0.0
 40
100.6746298926
 41
0.7070707071
 42
50.0
 43
0.0
 44
0.0
 50
0.0
 51
0.0
 71
0
 72
100
 73
1
 74
1
 75
0
 76
0
 77
0
 78
0
  0
ENDTAB
  0
TABLE
  2
LTYPE
  5
5
100
AcDbSymbolTable
 70
6
  0
LTYPE
  5
14
100
AcDbSymbolTableRecord
100
AcDbLinetypeTableRecord
  2
BYBLOCK
 70
0
  3

 72
65
 73
0
 40
0.0
  0
LTYPE
  5
15
100
AcDbSymbolTableRecord
100
AcDbLinetypeTableRecord
  2
BYLAYER
 70
0
  3

 72
65
 73
0
 40
0.0
  0
LTYPE
  5
16
100
AcDbSymbolTableRecord
100
AcDbLinetypeTableRecord
  2
CONTINUOUS
 70
64
  3
Solid line
 72
65
 73
0
 40
0.0
  0
LTYPE
  5
1F5
100
AcDbSymbolTableRecord
100
AcDbLinetypeTableRecord
  2
CENTER
 70
64
  3
____ _ ____ _ ____ _ ____ _ ____ _ ____ _ ____
 72
65
 73
4
 40
0.6
 49
0.375
 74
0
 49
-0.075
 74
0
 49
0.075
 74
0
 49
-0.075
 74
0
  0
LTYPE
  5
1F6
100
AcDbSymbolTableRecord
100
AcDbLinetypeTableRecord
  2
HIDDEN
 70
64
  3
- - - - - - - - - - - - - - - - - - - -
 72
65
 73
2
 40
0.2
 49
0.1
 74
0
 49
-0.1
 74
0
  0
LTYPE
  5
1F7
100
AcDbSymbolTableRecord
100
AcDbLinetypeTableRecord
  2
PHANTOM
 70
64
  3
_____ _ _ _____ _ _ _____ _ _ _____
 72
65
 73
6
 40
0.8
 49
0.45
 74
0
 49
-0.05
 74
0
 49
0.1
 74
0
 49
-0.05
 74
0
 49
0.1
 74
0
 49
-0.05
 74
0
  0
LTYPE
  5
1F8
100
AcDbSymbolTableRecord
100
AcDbLinetypeTableRecord
  2
DOT
 70
64
  3
. . . . . . . . . . . . . . . . . . . .
 72
65
 73
2
 40
0.2
 49
0.1
 74
0
 49
-0.1
 74
0
  0
LTYPE
  5
1F9
100
AcDbSymbolTableRecord
100
AcDbLinetypeTableRecord
  2
DASHED
 70
64
  3
- - - - - - - - - - - - - - - - - - - -
 72
65
 73
2
 40
0.2
 49
0.1
 74
0
 49
-0.1
 74
0
  0
ENDTAB
  0
TABLE
  2
LAYER
  5
2
100
AcDbSymbolTable
 70
36
  0
LAYER
  5
10
100
AcDbSymbolTableRecord
100
AcDbLayerTableRecord
  2
0
 70
0
 62
7
  6
CONTINUOUS
370
-3
390
F
  0
LAYER
  5
1FA
100
AcDbSymbolTableRecord
100
AcDbLayerTableRecord
  2
DEFAULT_1
 70
0
 62
7
  6
CENTER
370
-3
390
F
  0
LAYER
  5
1FB
100
AcDbSymbolTableRecord
100
AcDbLayerTableRecord
  2
DEFAULT_2
 70
0
 62
7
  6
HIDDEN
370
-3
390
F
  0
LAYER
  5
1FC
100
AcDbSymbolTableRecord
100
AcDbLayerTableRecord
  2
DEFAULT_3
 70
0
 62
7
  6
PHANTOM
370
-3
390
F
  0
LAYER
  5
1FD
100
AcDbSymbolTableRecord
100
AcDbLayerTableRecord
  2
00_COMPONENTS
 70
0
 62
7
  6
CONTINUOUS
370
-3
390
F
  0
LAYER
  5
1FE
100
AcDbSymbolTableRecord
100
AcDbLayerTableRecord
  2
01_1_DEFAULT_DATUMS
 70
0
 62
7
  6
CONTINUOUS
370
-3
390
F
  0
LAYER
  5
1FF
100
AcDbSymbolTableRecord
100
AcDbLayerTableRecord
  2
01_PLANES
 70
0
 62
7
  6
CONTINUOUS
370
-3
390
F
  0
LAYER
  5
200
100
AcDbSymbolTableRecord
100
AcDbLayerTableRecord
  2
02_COORD_SYS
 70
0
 62
7
  6
CONTINUOUS
370
-3
390
F
  0
LAYER
  5
201
100
AcDbSymbolTableRecord
100
AcDbLayerTableRecord
  2
03_AXES
 70
0
 62
7
  6
CONTINUOUS
370
-3
390
F
  0
LAYER
  5
202
100
AcDbSymbolTableRecord
100
AcDbLayerTableRecord
  2
04_POINTS
 70
0
 62
7
  6
CONTINUOUS
370
-3
390
F
  0
LAYER
  5
203
100
AcDbSymbolTableRecord
100
AcDbLayerTableRecord
  2
05_CURVES
 70
0
 62
7
  6
CONTINUOUS
370
-3
390
F
  0
LAYER
  5
204
100
AcDbSymbolTableRecord
100
AcDbLayerTableRecord
  2
06_SURFS
 70
0
 62
7
  6
CONTINUOUS
370
-3
390
F
  0
LAYER
  5
205
100
AcDbSymbolTableRecord
100
AcDbLayerTableRecord
  2
07_COSMETICS
 70
0
 62
7
  6
CONTINUOUS
370
-3
390
F
  0
LAYER
  5
206
100
AcDbSymbolTableRecord
100
AcDbLayerTableRecord
  2
10_NOTES
 70
0
 62
7
  6
CONTINUOUS
370
-3
390
F
  0
LAYER
  5
207
100
AcDbSymbolTableRecord
100
AcDbLayerTableRecord
  2
11_NOTES_PUB
 70
0
 62
7
  6
CONTINUOUS
370
-3
390
F
  0
LAYER
  5
208
100
AcDbSymbolTableRecord
100
AcDbLayerTableRecord
  2
13_REF_GTOL
 70
0
 62
7
  6
CONTINUOUS
370
-3
390
F
  0
LAYER
  5
209
100
AcDbSymbolTableRecord
100
AcDbLayerTableRecord
  2
16_MISC
 70
0
 62
7
  6
CONTINUOUS
370
-3
390
F
  0
LAYER
  5
20A
100
AcDbSymbolTableRecord
100
AcDbLayerTableRecord
  2
17_NO_PRINT
 70
0
 62
7
  6
CONTINUOUS
370
-3
390
F
  0
LAYER
  5
20B
100
AcDbSymbolTableRecord
100
AcDbLayerTableRecord
  2
18_DATUM_CAMS_JOINTS
 70
0
 62
7
  6
CONTINUOUS
370
-3
390
F
  0
LAYER
  5
20C
100
AcDbSymbolTableRecord
100
AcDbLayerTableRecord
  2
19_DATUM_FUNCTIONAL
 70
0
 62
7
  6
CONTINUOUS
370
-3
390
F
  0
LAYER
  5
20D
100
AcDbSymbolTableRecord
100
AcDbLayerTableRecord
  2
20_DATUM_KINEMATIC_SCHEME
 70
0
 62
7
  6
CONTINUOUS
370
-3
390
F
  0
ENDTAB
  0
TABLE
  2
STYLE
  5
3
100
AcDbSymbolTable
 70
1
  0
STYLE
  5
11
100
AcDbSymbolTableRecord
100
AcDbTextStyleTableRecord
  2
STANDARD
 70
0
 40
0.0
 41
1.0
 50
0.0
 71
0
 42
0.2
  3
ARIAL.TTF
  4

  0
STYLE
  5
20E
100
AcDbSymbolTableRecord
100
AcDbTextStyleTableRecord
  2
TEXTSTYLE_1
 70
0
 40
0.0
 41
0.8
 50
0.0
 71
0
 42
0.2
  3
gdt
  4

  0
ENDTAB
  0
TABLE
  2
VIEW
  5
6
100
AcDbSymbolTable
 70
0
  0
ENDTAB
  0
TABLE
  2
UCS
  5
7
100
AcDbSymbolTable
 70
0
  0
ENDTAB
  0
TABLE
  2
APPID
  5
9
100
AcDbSymbolTable
 70
1
  0
APPID
  5
20F
100
AcDbSymbolTableRecord
100
AcDbRegAppTableRecord
  2
ACAD
 70
0
  0
ENDTAB
  0
TABLE
  2
BLOCK_RECORD
  5
1
100
AcDbSymbolTable
 70
0
  0
BLOCK_RECORD
  5
210
100
AcDbSymbolTableRecord
100
AcDbBlockTableRecord
  2
*Model_Space
  0
BLOCK_RECORD
  5
211
100
AcDbSymbolTableRecord
100
AcDbBlockTableRecord
  2
*Paper_Space
  0
BLOCK_RECORD
  5
212
100
AcDbSymbolTableRecord
100
AcDbBlockTableRecord
  2
_FILLED
  0
ENDTAB
  0
TABLE
  2
DIMSTYLE
  5
A
100
AcDbSymbolTable
 70
1
100
AcDbDimStyleTable
 71
0
  0
DIMSTYLE
105
213
100
AcDbSymbolTableRecord
100
AcDbDimStyleTableRecord
  2
STANDARD
 70
0
  3

  4

 40
1.0
 41
0.8474295446
 42
1.0
 43
0.38
 44
1.0
 45
0.0
 46
0.0
 47
0.01
 48
0.01
140
1.1864013624
141
0.09
142
0.0
143
25.4
144
1.0
145
0.0
146
1.0
147
0.625
 71
1
 72
0
 73
0
 74
0
 75
0
 76
0
 77
1
 78
8
 79
2
170
0
171
1
172
0
173
0
174
0
175
0
176
0
177
0
178
0
270
2
179
2
271
2
272
2
273
2
274
2
275
0
280
0
281
0
282
0
283
1
284
8
285
0
286
0
287
3
288
0
340
11
278
46
341
212
342
212
343
212
344
212
  0
ENDTAB
  0
ENDSEC
  0
SECTION
  2
BLOCKS
  0
BLOCK
  5
20
100
AcDbEntity
  8
0
100
AcDbBlockBegin
  2
*Model_Space
 70
0
 10
0.0
 20
0.0
 30
0.0
  3
*Model_Space
  1

  0
ENDBLK
  5
21
100
AcDbEntity
  8
0
100
AcDbBlockEnd
  0
BLOCK
  5
1C
100
AcDbEntity
  8
0
100
AcDbBlockBegin
  2
*Paper_Space
 70
0
 10
0.0
 20
0.0
 30
0.0
  3
*Paper_Space
  1

  0
ENDBLK
  5
1D
100
AcDbEntity
  8
0
100
AcDbBlockEnd
  0
BLOCK
  5
214
100
AcDbEntity
  8
0
100
AcDbBlockBegin
  2
_FILLED
 70
64
 10
0.0
 20
0.0
  3
_FILLED
  1

  0
SOLID
  5
215
100
AcDbEntity
  8
0
  6
BYBLOCK
 62
0
100
AcDbTrace
 10
0.0
 20
0.0
 11
-1.0
 21
0.25
 12
-1.0
 22
-0.25
 13
-1.0
 23
-0.25
  0
ENDBLK
  5
216
100
AcDbEntity
  8
0
  6
BYBLOCK
 62
0
100
AcDbBlockEnd
  0
ENDSEC
  0
SECTION
  2
ENTITIES
  0
LINE
  5
217
100
AcDbEntity
  8
0
100
AcDbLine
 62
7
  6
BYLAYER
 10
35.9432871766
 20
8.3685392778
 11
35.5888172699
 21
8.2800599873
  0
LINE
  5
218
100
AcDbEntity
  8
0
100
AcDbLine
 62
7
  6
BYLAYER
 10
37.1922071169
 20
8.3181623654
 11
36.8443909713
 21
8.2377489329
  0
LINE
  5
219
100
AcDbEntity
  8
0
100
AcDbLine
 62
7
  6
BYLAYER
 10
36.8113345289
 20
8.2325164168
 11
36.4436157153
 21
8.1996675626
  0
LINE
  5
21A
100
AcDbEntity
  8
0
100
AcDbLine
 62
7
  6
BYLAYER
 10
36.4088496258
 20
8.1988413938
 11
36.0240267062
 21
8.2138071176
  0
LINE
  5
21B
100
AcDbEntity
  8
0
100
AcDbLine
 62
7
  6
BYLAYER
 10
35.9878155605
 20
8.2173935838
 11
35.5888172699
 21
8.2800599873
  0
LINE
  5
21C
100
AcDbEntity
  8
0
100
AcDbLine
 62
7
  6
BYLAYER
 10
35.8101757796
 20
10.6942159309
 11
36.0327781128
 21
10.7456805277
  0
LINE
  5
21D
100
AcDbEntity
  8
0
100
AcDbLine
 62
7
  6
BYLAYER
 10
35.5536796158
 20
10.6698438539
 11
35.7890196565
 21
10.6908671206
  0
LINE
  5
21E
100
AcDbEntity
  8
0
100
AcDbLine
 62
7
  6
BYLAYER
 10
35.28514265
 20
10.6788931691
 11
35.5314293185
 21
10.6693151059
  0
LINE
  5
21F
100
AcDbEntity
  8
0
100
AcDbLine
 62
7
  6
BYLAYER
 10
35.0066086108
 20
10.7212950057
 11
35.2619675167
 21
10.6811885075
  0
LINE
  5
220
100
AcDbEntity
  8
0
100
AcDbLine
 62
7
  6
BYLAYER
 10
32.369858874
 20
10.4764811066
 11
31.9553264284
 21
10.5454996009
  0
LINE
  5
221
100
AcDbEntity
  8
0
100
AcDbLine
 62
7
  6
BYLAYER
 10
31.9424210238
 20
10.9276978625
 11
31.5342923631
 21
11.0131046744
  0
LINE
  5
222
100
AcDbEntity
  8
0
100
AcDbLine
 62
7
  6
BYLAYER
 10
31.5320406763
 20
11.4113056813
 11
31.13180746
 21
11.511518718
  0
LINE
  5
223
100
AcDbEntity
  8
0
100
AcDbLine
 62
7
  6
BYLAYER
 10
31.1418410737
 20
11.9236240154
 11
30.750934872
 21
12.0369484998
  0
LINE
  5
224
100
AcDbEntity
  8
0
100
AcDbLine
 62
7
  6
BYLAYER
 10
30.7747918705
 20
12.460753813
 11
30.3945732696
 21
12.585395182
  0
LINE
  5
225
100
AcDbEntity
  8
0
100
AcDbLine
 62
7
  6
BYLAYER
 10
38.4445213292
 20
15.7961243878
 11
36.8342592087
 21
15.5315762221
  0
LINE
  5
226
100
AcDbEntity
  8
0
100
AcDbLine
 62
7
  6
BYLAYER
 10
29.4986206597
 20
14.3264123558
 11
31.1387024491
 21
14.5958595617
  0
LINE
  5
227
100
AcDbEntity
  8
0
100
AcDbLine
 62
7
  6
BYLAYER
 10
38.4655806055
 20
15.7457956783
 11
36.8477371455
 21
15.499365848
  0
LINE
  5
228
100
AcDbEntity
  8
0
100
AcDbLine
 62
7
  6
BYLAYER
 10
29.4775613833
 20
14.3767410654
 11
31.1253649074
 21
14.6277344111
  0
LINE
  5
229
100
AcDbEntity
  8
0
100
AcDbLine
 62
7
  6
BYLAYER
 10
38.5348631761
 20
15.5672307178
 11
37.0467348603
 21
15.402232102
  0
LINE
  5
22A
100
AcDbEntity
  8
0
100
AcDbLine
 62
7
  6
BYLAYER
 10
29.5908897563
 20
14.7734590358
 11
31.0320863803
 21
14.8681451864
  0
LINE
  5
22B
100
AcDbEntity
  8
0
100
AcDbLine
 62
7
  6
BYLAYER
 10
38.6778831616
 20
15.198619134
 11
36.9836107814
 21
15.1491728596
  0
LINE
  5
22C
100
AcDbEntity
  8
0
100
AcDbLine
 62
7
  6
BYLAYER
 10
29.2652588273
 20
14.9239176097
 11
30.9909066219
 21
14.9742795558
  0
LINE
  5
22D
100
AcDbEntity
  8
0
100
AcDbLine
 62
7
  6
BYLAYER
 10
38.6959812423
 20
15.1480258965
 11
36.9951935531
 21
15.1167931876
  0
LINE
  5
22E
100
AcDbEntity
  8
0
100
AcDbLine
 62
7
  6
BYLAYER
 10
29.2471607466
 20
14.9745108471
 11
30.9794445042
 21
15.0063219395
  0
LINE
  5
22F
100
AcDbEntity
  8
0
100
AcDbLine
 62
7
  6
BYLAYER
 10
38.7444653043
 20
14.9999745821
 11
37.1834583721
 21
15.020021125
  0
LINE
  5
230
100
AcDbEntity
  8
0
100
AcDbLine
 62
7
  6
BYLAYER
 10
29.3772592692
 20
15.3706636873
 11
30.8935694713
 21
15.2685506176
  0
LINE
  5
231
100
AcDbEntity
  8
0
100
AcDbLine
 62
7
  6
BYLAYER
 10
38.8754271167
 20
14.6000685579
 11
37.1100389127
 21
14.7661004909
  0
LINE
  5
232
100
AcDbEntity
  8
0
100
AcDbLine
 62
7
  6
BYLAYER
 10
29.0677148722
 20
15.5224681858
 11
30.8657954504
 21
15.3533615873
  0
LINE
  5
233
100
AcDbEntity
  8
0
100
AcDbLine
 62
7
  6
BYLAYER
 10
38.8904262643
 20
14.5495958376
 11
37.1196383672
 21
14.7337979499
  0
LINE
  5
234
100
AcDbEntity
  8
0
100
AcDbLine
 62
7
  6
BYLAYER
 10
29.0527157246
 20
15.572940906
 11
30.8562959902
 21
15.3853276435
  0
LINE
  5
235
100
AcDbEntity
  8
0
100
AcDbLine
 62
7
  6
BYLAYER
 10
38.9217248445
 20
14.4322305334
 11
37.2967707271
 21
14.6387206056
  0
LINE
  5
236
100
AcDbEntity
  8
0
100
AcDbLine
 62
7
  6
BYLAYER
 10
29.2002087146
 20
15.9664457489
 11
30.7813157164
 21
15.6664931977
  0
LINE
  5
237
100
AcDbEntity
  8
0
100
AcDbLine
 62
7
  6
BYLAYER
 10
39.0356497656
 20
14.0050279909
 11
37.212581408
 21
14.385274528
  0
LINE
  5
238
100
AcDbEntity
  8
0
100
AcDbLine
 62
7
  6
BYLAYER
 10
28.9074922233
 20
16.1175087528
 11
30.764321106
 21
15.7302206131
  0
LINE
  5
239
100
AcDbEntity
  8
0
100
AcDbLine
 62
7
  6
BYLAYER
 10
30.4336865329
 20
13.018607192
 11
30.0654347797
 21
13.1526847541
  0
LINE
  5
23A
100
AcDbEntity
  8
0
100
AcDbLine
 62
7
  6
BYLAYER
 10
30.1211210784
 20
13.5929385513
 11
29.766024345
 21
13.7344998
  0
LINE
  5
23B
100
AcDbEntity
  8
0
100
AcDbLine
 62
7
  6
BYLAYER
 10
29.8394743189
 20
14.1793768825
 11
29.4986206597
 21
14.3264123558
  0
LINE
  5
23C
100
AcDbEntity
  8
0
100
AcDbLine
 62
7
  6
BYLAYER
 10
29.5908897563
 20
14.7734590358
 11
29.2652588273
 21
14.9239176097
  0
LINE
  5
23D
100
AcDbEntity
  8
0
100
AcDbLine
 62
7
  6
BYLAYER
 10
29.3772592692
 20
15.3706636873
 11
29.0677148722
 21
15.5224681858
  0
LINE
  5
23E
100
AcDbEntity
  8
0
100
AcDbLine
 62
7
  6
BYLAYER
 10
34.7493916921
 20
10.6929919396
 11
33.1937502968
 21
11.5911215996
  0
LINE
  5
23F
100
AcDbEntity
  8
0
100
AcDbLine
 62
7
  6
BYLAYER
 10
38.294402636
 20
16.1303524597
 11
36.8876407403
 21
15.7824446801
  0
LINE
  5
240
100
AcDbEntity
  8
0
100
AcDbLine
 62
7
  6
BYLAYER
 10
29.8394743189
 20
14.1793768825
 11
31.1957532107
 21
14.4688402968
  0
LINE
  5
241
100
AcDbEntity
  8
0
100
AcDbLine
 62
7
  6
BYLAYER
 10
35.268194625
 20
18.1522979767
 11
35.0066086108
 21
18.2061102826
  0
LINE
  5
242
100
AcDbEntity
  8
0
100
AcDbLine
 62
7
  6
BYLAYER
 10
35.5417548491
 20
17.8635192529
 11
35.28514265
 21
17.9268959901
  0
LINE
  5
243
100
AcDbEntity
  8
0
100
AcDbLine
 62
7
  6
BYLAYER
 10
35.8043982715
 20
17.5540102489
 11
35.5536796158
 21
17.6258725411
  0
LINE
  5
244
100
AcDbEntity
  8
0
100
AcDbLine
 62
7
  6
BYLAYER
 10
36.0541260172
 20
17.226126515
 11
35.8101757796
 21
17.3053309058
  0
LINE
  5
245
100
AcDbEntity
  8
0
100
AcDbLine
 62
7
  6
BYLAYER
 10
36.2890375073
 20
16.8823634445
 11
36.0526790509
 21
16.9677105997
  0
LINE
  5
246
100
AcDbEntity
  8
0
100
AcDbLine
 62
7
  6
BYLAYER
 10
29.2002087146
 20
15.9664457489
 11
28.9074922233
 21
16.1175087528
  0
LINE
  5
247
100
AcDbEntity
  8
0
100
AcDbLine
 62
7
  6
BYLAYER
 10
28.3684235379
 20
17.398021222
 11
30.5774443137
 21
16.1226713347
  0
LINE
  5
248
100
AcDbEntity
  8
0
100
AcDbLine
 62
7
  6
BYLAYER
 10
37.3656976751
 20
12.2035600913
 11
39.574718451
 21
10.928210204
  0
LINE
  5
249
100
AcDbEntity
  8
0
100
AcDbLine
 62
7
  6
BYLAYER
 10
32.6406785817
 20
19.5115895359
 11
32.4117126704
 21
19.4532216378
  0
LINE
  5
24A
100
AcDbEntity
  8
0
100
AcDbLine
 62
7
  6
BYLAYER
 10
32.1329662093
 20
19.4283208127
 11
31.9103638761
 21
19.3768562159
  0
LINE
  5
24B
100
AcDbEntity
  8
0
100
AcDbLine
 62
7
  6
BYLAYER
 10
32.9161200736
 20
19.4868359199
 11
32.6811744721
 21
19.4413482362
  0
LINE
  5
24C
100
AcDbEntity
  8
0
100
AcDbLine
 62
7
  6
BYLAYER
 10
32.3894623731
 20
19.4526928897
 11
32.1541223324
 21
19.4316696231
  0
LINE
  5
24D
100
AcDbEntity
  8
0
100
AcDbLine
 62
7
  6
BYLAYER
 10
32.6579993389
 20
19.4436435746
 11
32.4117126704
 21
19.4532216378
  0
LINE
  5
24E
100
AcDbEntity
  8
0
100
AcDbLine
 62
7
  6
BYLAYER
 10
31.5342923631
 20
21.9236953499
 11
31.9191152826
 21
21.9087296261
  0
LINE
  5
24F
100
AcDbEntity
  8
0
100
AcDbLine
 62
7
  6
BYLAYER
 10
32.9365333781
 20
19.4012417379
 11
32.6811744721
 21
19.4413482362
  0
LINE
  5
250
100
AcDbEntity
  8
0
100
AcDbLine
 62
7
  6
BYLAYER
 10
31.9553264284
 20
21.9051431599
 11
32.3543247189
 21
21.8424767564
  0
LINE
  5
251
100
AcDbEntity
  8
0
100
AcDbLine
 62
7
  6
BYLAYER
 10
36.5073449233
 20
16.525337282
 11
36.2793438333
 21
16.615581117
  0
LINE
  5
252
100
AcDbEntity
  8
0
100
AcDbLine
 62
7
  6
BYLAYER
 10
36.7073868142
 20
16.157765212
 11
36.4884450708
 21
16.2516223758
  0
LINE
  5
253
100
AcDbEntity
  8
0
100
AcDbLine
 62
7
  6
BYLAYER
 10
36.8876407403
 20
15.7824446801
 11
36.678391377
 21
15.878604322
  0
LINE
  5
254
100
AcDbEntity
  8
0
100
AcDbLine
 62
7
  6
BYLAYER
 10
37.0467348603
 20
15.402232102
 11
36.8477371455
 21
15.499365848
  0
LINE
  5
255
100
AcDbEntity
  8
0
100
AcDbLine
 62
7
  6
BYLAYER
 10
37.1834583721
 20
15.020021125
 11
36.9951935531
 21
15.1167931876
  0
LINE
  5
256
100
AcDbEntity
  8
0
100
AcDbLine
 62
7
  6
BYLAYER
 10
37.2967707271
 20
14.6387206056
 11
37.1196383672
 21
14.7337979499
  0
LINE
  5
257
100
AcDbEntity
  8
0
100
AcDbLine
 62
7
  6
BYLAYER
 10
29.7826312123
 20
18.2145095297
 11
30.5774443137
 21
17.7556343528
  0
LINE
  5
258
100
AcDbEntity
  8
0
100
AcDbLine
 62
7
  6
BYLAYER
 10
38.7799053496
 20
13.020048399
 11
40.9889261254
 21
11.7446985117
  0
LINE
  5
259
100
AcDbEntity
  8
0
100
AcDbLine
 62
7
  6
BYLAYER
 10
39.574718451
 20
12.7245155217
 11
37.3656976751
 21
13.999865409
  0
LINE
  5
25A
100
AcDbEntity
  8
0
100
AcDbLine
 62
7
  6
BYLAYER
 10
30.5774443137
 20
17.9189766524
 11
28.3684235379
 21
19.1943265397
  0
LINE
  5
25B
100
AcDbEntity
  8
0
100
AcDbLine
 62
7
  6
BYLAYER
 10
32.3543247189
 20
10.1474528862
 11
31.9553264284
 21
10.5454996009
  0
LINE
  5
25C
100
AcDbEntity
  8
0
100
AcDbLine
 62
7
  6
BYLAYER
 10
32.6946161026
 20
12.2012814836
 11
32.94731502
 21
11.9491852309
  0
LINE
  5
25D
100
AcDbEntity
  8
0
100
AcDbLine
 62
7
  6
BYLAYER
 10
31.9191152826
 20
10.5837252183
 11
31.5342923631
 21
11.0131046744
  0
LINE
  5
25E
100
AcDbEntity
  8
0
100
AcDbLine
 62
7
  6
BYLAYER
 10
30.750934872
 20
21.8043743782
 11
31.0987510176
 21
21.8847878107
  0
LINE
  5
25F
100
AcDbEntity
  8
0
100
AcDbLine
 62
7
  6
BYLAYER
 10
31.13180746
 20
21.8900203269
 11
31.4995262736
 21
21.9228691811
  0
LINE
  5
260
100
AcDbEntity
  8
0
100
AcDbLine
 62
7
  6
BYLAYER
 10
33.1937502968
 20
19.429544804
 11
34.7493916921
 21
18.5314151441
  0
LINE
  5
261
100
AcDbEntity
  8
0
100
AcDbLine
 62
7
  6
BYLAYER
 10
34.6079579712
 20
20.2460331118
 11
34.7493916921
 21
20.1643781622
  0
LINE
  5
262
100
AcDbEntity
  8
0
100
AcDbLine
 62
7
  6
BYLAYER
 10
34.7493916921
 20
21.1442228789
 11
33.1937502968
 21
22.0423525388
  0
LINE
  5
263
100
AcDbEntity
  8
0
100
AcDbLine
 62
7
  6
BYLAYER
 10
28.9074922233
 20
19.8523901894
 11
30.7305605809
 21
18.1275863351
  0
LINE
  5
264
100
AcDbEntity
  8
0
100
AcDbLine
 62
7
  6
BYLAYER
 10
37.212581408
 20
11.9949504086
 11
39.0356497656
 21
10.2701465543
  0
LINE
  5
265
100
AcDbEntity
  8
0
100
AcDbLine
 62
7
  6
BYLAYER
 10
29.0527157246
 20
20.2292721745
 11
30.8235036217
 21
18.3687908056
  0
LINE
  5
266
100
AcDbEntity
  8
0
100
AcDbLine
 62
7
  6
BYLAYER
 10
37.1196383672
 20
11.7537459381
 11
38.8904262643
 21
9.8932645691
  0
LINE
  5
267
100
AcDbEntity
  8
0
100
AcDbLine
 62
7
  6
BYLAYER
 10
29.0677148722
 20
20.2624257627
 11
30.8331030762
 21
18.390009102
  0
LINE
  5
268
100
AcDbEntity
  8
0
100
AcDbLine
 62
7
  6
BYLAYER
 10
37.1100389127
 20
11.7325276416
 11
38.8754271167
 21
9.8601109809
  0
LINE
  5
269
100
AcDbEntity
  8
0
100
AcDbLine
 62
7
  6
BYLAYER
 10
32.4279611946
 20
12.4974313635
 11
32.671682377
 21
12.2254910412
  0
LINE
  5
26A
100
AcDbEntity
  8
0
100
AcDbLine
 62
7
  6
BYLAYER
 10
31.4995262736
 20
11.0540743573
 11
31.13180746
 21
11.511518718
  0
LINE
  5
26B
100
AcDbEntity
  8
0
100
AcDbLine
 62
7
  6
BYLAYER
 10
32.1730540893
 20
12.813093591
 11
32.4059426713
 21
12.5233788293
  0
LINE
  5
26C
100
AcDbEntity
  8
0
100
AcDbLine
 62
7
  6
BYLAYER
 10
31.0987510176
 20
11.5549206624
 11
30.750934872
 21
12.0369484998
  0
LINE
  5
26D
100
AcDbEntity
  8
0
100
AcDbLine
 62
7
  6
BYLAYER
 10
30.4040501994
 20
24.4694526215
 11
37.5390917894
 21
20.3501276305
  0
LINE
  5
26E
100
AcDbEntity
  8
0
100
AcDbLine
 62
7
  6
BYLAYER
 10
35.2619675167
 20
17.9513603852
 11
35.0066086108
 21
18.2061102826
  0
LINE
  5
26F
100
AcDbEntity
  8
0
100
AcDbLine
 62
7
  6
BYLAYER
 10
29.2471607466
 20
20.6031815411
 11
30.9479484358
 21
18.6080928002
  0
LINE
  5
270
100
AcDbEntity
  8
0
100
AcDbLine
 62
7
  6
BYLAYER
 10
36.9951935531
 20
11.5144439435
 11
38.6959812423
 21
9.5193552025
  0
LINE
  5
271
100
AcDbEntity
  8
0
100
AcDbLine
 62
7
  6
BYLAYER
 10
29.2652588273
 20
20.6328773878
 11
30.9595312075
 21
18.6270981421
  0
LINE
  5
272
100
AcDbEntity
  8
0
100
AcDbLine
 62
7
  6
BYLAYER
 10
36.9836107814
 20
11.4954386016
 11
38.6778831616
 21
9.4896593558
  0
LINE
  5
273
100
AcDbEntity
  8
0
100
AcDbLine
 62
7
  6
BYLAYER
 10
29.4775613833
 20
20.9349136022
 11
31.0954048433
 21
18.8204013192
  0
LINE
  5
274
100
AcDbEntity
  8
0
100
AcDbLine
 62
7
  6
BYLAYER
 10
36.8477371455
 20
11.3021354244
 11
38.4655806055
 21
9.1876231415
  0
LINE
  5
275
100
AcDbEntity
  8
0
100
AcDbLine
 62
7
  6
BYLAYER
 10
29.4986206597
 20
20.9609257041
 11
31.1088827802
 21
18.8370490645
  0
LINE
  5
276
100
AcDbEntity
  8
0
100
AcDbLine
 62
7
  6
BYLAYER
 10
36.8342592087
 20
11.2854876792
 11
38.4445213292
 21
9.1616110396
  0
LINE
  5
277
100
AcDbEntity
  8
0
100
AcDbLine
 62
7
  6
BYLAYER
 10
31.9318347836
 20
13.1458657862
 11
32.1521183424
 21
12.8405814892
  0
LINE
  5
278
100
AcDbEntity
  8
0
100
AcDbLine
 62
7
  6
BYLAYER
 10
30.7198396562
 20
12.0824523908
 11
30.3945732696
 21
12.585395182
  0
LINE
  5
279
100
AcDbEntity
  8
0
100
AcDbLine
 62
7
  6
BYLAYER
 10
31.706139102
 20
13.4932153516
 11
31.9121411469
 21
13.1746849172
  0
LINE
  5
27A
100
AcDbEntity
  8
0
100
AcDbLine
 62
7
  6
BYLAYER
 10
30.3656759338
 20
12.6326547075
 11
30.0654347797
 21
13.1526847541
  0
LINE
  5
27B
100
AcDbEntity
  8
0
100
AcDbLine
 62
7
  6
BYLAYER
 10
39.2748792132
 20
23.4304527809
 11
32.2037819617
 21
27.5128603261
  0
LINE
  5
27C
100
AcDbEntity
  8
0
100
AcDbLine
 62
7
  6
BYLAYER
 10
35.5888172699
 20
19.9750838574
 11
35.9878155605
 21
19.5770371427
  0
LINE
  5
27D
100
AcDbEntity
  8
0
100
AcDbLine
 62
7
  6
BYLAYER
 10
35.5314293185
 20
17.6520931382
 11
35.28514265
 21
17.9268959901
  0
LINE
  5
27E
100
AcDbEntity
  8
0
100
AcDbLine
 62
7
  6
BYLAYER
 10
36.0240267062
 20
19.5388115254
 11
36.4088496258
 21
19.1094320693
  0
LINE
  5
27F
100
AcDbEntity
  8
0
100
AcDbLine
 62
7
  6
BYLAYER
 10
35.7890196565
 20
17.3331081503
 11
35.5536796158
 21
17.6258725411
  0
LINE
  5
280
100
AcDbEntity
  8
0
100
AcDbLine
 62
7
  6
BYLAYER
 10
29.7421641468
 20
21.2219436764
 11
31.2647506119
 21
19.0041005668
  0
LINE
  5
281
100
AcDbEntity
  8
0
100
AcDbLine
 62
7
  6
BYLAYER
 10
36.678391377
 20
11.1184361769
 11
38.2009778421
 21
8.9005930672
  0
LINE
  5
282
100
AcDbEntity
  8
0
100
AcDbLine
 62
7
  6
BYLAYER
 10
29.766024345
 20
21.2440740657
 11
31.2800211388
 21
19.0182640159
  0
LINE
  5
283
100
AcDbEntity
  8
0
100
AcDbLine
 62
7
  6
BYLAYER
 10
36.6631208501
 20
11.1042727277
 11
38.1771176439
 21
8.8784626779
  0
LINE
  5
284
100
AcDbEntity
  8
0
100
AcDbLine
 62
7
  6
BYLAYER
 10
30.0389552501
 20
21.4620872917
 11
31.4546969181
 21
19.1577924805
  0
LINE
  5
285
100
AcDbEntity
  8
0
100
AcDbLine
 62
7
  6
BYLAYER
 10
36.4884450708
 20
10.9647442631
 11
37.9041867388
 21
8.660449452
  0
LINE
  5
286
100
AcDbEntity
  8
0
100
AcDbLine
 62
7
  6
BYLAYER
 10
30.0654347797
 20
21.4801675427
 11
31.471643817
 21
19.1693638412
  0
LINE
  5
287
100
AcDbEntity
  8
0
100
AcDbLine
 62
7
  6
BYLAYER
 10
36.4714981719
 20
10.9531729024
 11
37.8777072092
 21
8.6423692009
  0
LINE
  5
288
100
AcDbEntity
  8
0
100
AcDbLine
 62
7
  6
BYLAYER
 10
31.4976847251
 20
13.8524987473
 11
31.687837456
 21
13.5231463844
  0
LINE
  5
289
100
AcDbEntity
  8
0
100
AcDbLine
 62
7
  6
BYLAYER
 10
30.0389552501
 20
13.2013402406
 11
29.766024345
 21
13.7344998
  0
LINE
  5
28A
100
AcDbEntity
  8
0
100
AcDbLine
 62
7
  6
BYLAYER
 10
31.3080581165
 20
14.2209816097
 11
31.4809143564
 21
13.8833138887
  0
LINE
  5
28B
100
AcDbEntity
  8
0
100
AcDbLine
 62
7
  6
BYLAYER
 10
29.7421641468
 20
13.7841809498
 11
29.4986206597
 21
14.3264123558
  0
LINE
  5
28C
100
AcDbEntity
  8
0
100
AcDbLine
 62
7
  6
BYLAYER
 10
36.4436157153
 20
19.0684623863
 11
36.8113345289
 21
18.6110180257
  0
LINE
  5
28D
100
AcDbEntity
  8
0
100
AcDbLine
 62
7
  6
BYLAYER
 10
36.0327781128
 20
16.9968330899
 11
35.8101757796
 21
17.3053309058
  0
LINE
  5
28E
100
AcDbEntity
  8
0
100
AcDbLine
 62
7
  6
BYLAYER
 10
36.8443909713
 20
18.5676160812
 11
37.1922071169
 21
18.0855882439
  0
LINE
  5
28F
100
AcDbEntity
  8
0
100
AcDbLine
 62
7
  6
BYLAYER
 10
36.2608495384
 20
16.6458272134
 11
36.0526790509
 21
16.9677105997
  0
LINE
  5
290
100
AcDbEntity
  8
0
100
AcDbLine
 62
7
  6
BYLAYER
 10
30.3656759338
 20
21.65351681
 11
31.6637981556
 21
19.2803073723
  0
LINE
  5
291
100
AcDbEntity
  8
0
100
AcDbLine
 62
7
  6
BYLAYER
 10
36.2793438333
 20
10.8422293714
 11
37.5774660551
 21
8.4690199336
  0
LINE
  5
292
100
AcDbEntity
  8
0
100
AcDbLine
 62
7
  6
BYLAYER
 10
30.3945732696
 20
21.6674093212
 11
31.6822924505
 21
19.2891985795
  0
LINE
  5
293
100
AcDbEntity
  8
0
100
AcDbLine
 62
7
  6
BYLAYER
 10
36.2608495384
 20
10.8333381642
 11
37.5485687193
 21
8.4551274224
  0
LINE
  5
294
100
AcDbEntity
  8
0
100
AcDbLine
 62
7
  6
BYLAYER
 10
30.7198396562
 20
21.7947753373
 11
31.890462938
 21
19.3707128297
  0
LINE
  5
295
100
AcDbEntity
  8
0
100
AcDbLine
 62
7
  6
BYLAYER
 10
36.0526790509
 20
10.7518239139
 11
37.2233023327
 21
8.3277614064
  0
LINE
  5
296
100
AcDbEntity
  8
0
100
AcDbLine
 62
7
  6
BYLAYER
 10
30.750934872
 20
21.8043743782
 11
31.9103638761
 21
19.3768562159
  0
LINE
  5
297
100
AcDbEntity
  8
0
100
AcDbLine
 62
7
  6
BYLAYER
 10
36.0327781128
 20
10.7456805277
 11
37.1922071169
 21
8.3181623654
  0
LINE
  5
298
100
AcDbEntity
  8
0
100
AcDbLine
 62
7
  6
BYLAYER
 10
31.1387024491
 20
14.5958595617
 11
31.2929466576
 21
14.2524463379
  0
LINE
  5
299
100
AcDbEntity
  8
0
100
AcDbLine
 62
7
  6
BYLAYER
 10
29.4775613833
 20
14.3767410654
 11
29.2652588273
 21
14.9239176097
  0
LINE
  5
29A
100
AcDbEntity
  8
0
100
AcDbLine
 62
7
  6
BYLAYER
 10
30.9909066219
 20
14.9742795558
 11
31.1253649074
 21
14.6277344111
  0
LINE
  5
29B
100
AcDbEntity
  8
0
100
AcDbLine
 62
7
  6
BYLAYER
 10
29.2471607466
 20
14.9745108471
 11
29.0677148722
 21
15.5224681858
  0
LINE
  5
29C
100
AcDbEntity
  8
0
100
AcDbLine
 62
7
  6
BYLAYER
 10
37.2233023327
 20
18.0400843528
 11
37.5485687193
 21
17.5371415617
  0
LINE
  5
29D
100
AcDbEntity
  8
0
100
AcDbLine
 62
7
  6
BYLAYER
 10
36.4714981719
 20
16.2827618872
 11
36.2793438333
 21
16.615581117
  0
LINE
  5
29E
100
AcDbEntity
  8
0
100
AcDbLine
 62
7
  6
BYLAYER
 10
37.5774660551
 20
17.4898820362
 11
37.8777072092
 21
16.9698519896
  0
LINE
  5
29F
100
AcDbEntity
  8
0
100
AcDbLine
 62
7
  6
BYLAYER
 10
36.6631208501
 20
15.9104002578
 11
36.4884450708
 21
16.2516223758
  0
LINE
  5
2A0
100
AcDbEntity
  8
0
100
AcDbLine
 62
7
  6
BYLAYER
 10
31.0987510176
 20
21.8847878107
 11
32.1329662093
 21
19.4283208127
  0
LINE
  5
2A1
100
AcDbEntity
  8
0
100
AcDbLine
 62
7
  6
BYLAYER
 10
35.8101757796
 20
10.6942159309
 11
36.8443909713
 21
8.2377489329
  0
LINE
  5
2A2
100
AcDbEntity
  8
0
100
AcDbLine
 62
7
  6
BYLAYER
 10
31.13180746
 20
21.8900203269
 11
32.1541223324
 21
19.4316696231
  0
LINE
  5
2A3
100
AcDbEntity
  8
0
100
AcDbLine
 62
7
  6
BYLAYER
 10
35.7890196565
 20
10.6908671206
 11
36.8113345289
 21
8.2325164168
  0
LINE
  5
2A4
100
AcDbEntity
  8
0
100
AcDbLine
 62
7
  6
BYLAYER
 10
30.8657954504
 20
15.3533615873
 11
30.9794445042
 21
15.0063219395
  0
LINE
  5
2A5
100
AcDbEntity
  8
0
100
AcDbLine
 62
7
  6
BYLAYER
 10
29.0527157246
 20
15.572940906
 11
28.9074922233
 21
16.1175087528
  0
LINE
  5
2A6
100
AcDbEntity
  8
0
100
AcDbLine
 62
7
  6
BYLAYER
 10
30.764321106
 20
15.7302206131
 11
30.8562959902
 21
15.3853276435
  0
LINE
  5
2A7
100
AcDbEntity
  8
0
100
AcDbLine
 62
7
  6
BYLAYER
 10
34.4598725913
 20
63.9250251292
 11
34.6617999591
 21
64.0416072534
  0
LINE
  5
2A8
100
AcDbEntity
  8
0
100
AcDbLine
 62
7
  6
BYLAYER
 10
37.9041867388
 20
16.9211965031
 11
38.1771176439
 21
16.3880369437
  0
LINE
  5
2A9
100
AcDbEntity
  8
0
100
AcDbLine
 62
7
  6
BYLAYER
 10
36.8342592087
 20
15.5315762221
 11
36.678391377
 21
15.878604322
  0
LINE
  5
2AA
100
AcDbEntity
  8
0
100
AcDbLine
 62
7
  6
BYLAYER
 10
38.2009778421
 20
16.3383557939
 11
38.4445213292
 21
15.7961243878
  0
LINE
  5
2AB
100
AcDbEntity
  8
0
100
AcDbLine
 62
7
  6
BYLAYER
 10
36.9836107814
 20
15.1491728596
 11
36.8477371455
 21
15.499365848
  0
LINE
  5
2AC
100
AcDbEntity
  8
0
100
AcDbLine
 62
7
  6
BYLAYER
 10
31.4995262736
 20
21.9228691811
 11
32.3894623731
 21
19.4526928897
  0
LINE
  5
2AD
100
AcDbEntity
  8
0
100
AcDbLine
 62
7
  6
BYLAYER
 10
35.5536796158
 20
10.6698438539
 11
36.4436157153
 21
8.1996675626
  0
LINE
  5
2AE
100
AcDbEntity
  8
0
100
AcDbLine
 62
7
  6
BYLAYER
 10
31.5342923631
 20
21.9236953499
 11
32.4117126704
 21
19.4532216378
  0
LINE
  5
2AF
100
AcDbEntity
  8
0
100
AcDbLine
 62
7
  6
BYLAYER
 10
35.5314293185
 20
10.6693151059
 11
36.4088496258
 21
8.1988413938
  0
LINE
  5
2B0
100
AcDbEntity
  8
0
100
AcDbLine
 62
7
  6
BYLAYER
 10
31.9191152826
 20
21.9087296261
 11
32.6579993389
 21
19.4436435746
  0
LINE
  5
2B1
100
AcDbEntity
  8
0
100
AcDbLine
 62
7
  6
BYLAYER
 10
35.28514265
 20
10.6788931691
 11
36.0240267062
 21
8.2138071176
  0
LINE
  5
2B2
100
AcDbEntity
  8
0
100
AcDbLine
 62
7
  6
BYLAYER
 10
31.9553264284
 20
21.9051431599
 11
32.6811744721
 21
19.4413482362
  0
LINE
  5
2B3
100
AcDbEntity
  8
0
100
AcDbLine
 62
7
  6
BYLAYER
 10
35.2619675167
 20
10.6811885075
 11
35.9878155605
 21
8.2173935838
  0
LINE
  5
2B4
100
AcDbEntity
  8
0
100
AcDbLine
 62
7
  6
BYLAYER
 10
38.4655806055
 20
15.7457956783
 11
38.6778831616
 21
15.198619134
  0
LINE
  5
2B5
100
AcDbEntity
  8
0
100
AcDbLine
 62
7
  6
BYLAYER
 10
37.1100389127
 20
14.7661004909
 11
36.9951935531
 21
15.1167931876
  0
LINE
  5
2B6
100
AcDbEntity
  8
0
100
AcDbLine
 62
7
  6
BYLAYER
 10
38.6959812423
 20
15.1480258965
 11
38.8754271167
 21
14.6000685579
  0
LINE
  5
2B7
100
AcDbEntity
  8
0
100
AcDbLine
 62
7
  6
BYLAYER
 10
32.3543247189
 20
21.8424767564
 11
32.9365333781
 21
19.4012417379
  0
LINE
  5
2B8
100
AcDbEntity
  8
0
100
AcDbLine
 62
7
  6
BYLAYER
 10
35.0066086108
 20
10.7212950057
 11
35.5888172699
 21
8.2800599873
  0
LINE
  5
2B9
100
AcDbEntity
  8
0
100
AcDbLine
 62
7
  6
BYLAYER
 10
30.5774443137
 20
16.1226713347
 11
30.5774443137
 21
17.9189766524
  0
LINE
  5
2BA
100
AcDbEntity
  8
0
100
AcDbLine
 62
7
  6
BYLAYER
 10
43.3827231186
 20
62.5446980701
 11
43.1807957508
 21
62.4281159458
  0
LINE
  5
2BB
100
AcDbEntity
  8
0
100
AcDbLine
 62
7
  6
BYLAYER
 10
40.3186777602
 20
60.7756812172
 11
40.1167503925
 21
60.659099093
  0
LINE
  5
2BC
100
AcDbEntity
  8
0
100
AcDbLine
 62
7
  6
BYLAYER
 10
37.212581408
 20
14.385274528
 11
37.1196383672
 21
14.7337979499
  0
LINE
  5
2BD
100
AcDbEntity
  8
0
100
AcDbLine
 62
7
  6
BYLAYER
 10
38.8904262643
 20
14.5495958376
 11
39.0356497656
 21
14.0050279909
  0
LINE
  5
2BE
100
AcDbEntity
  8
0
100
AcDbLine
 62
7
  6
BYLAYER
 10
33.1937502968
 20
22.0423525388
 11
33.1937502968
 21
19.429544804
  0
LINE
  5
2BF
100
AcDbEntity
  8
0
100
AcDbLine
 62
7
  6
BYLAYER
 10
33.1937502968
 20
11.5911215996
 11
33.1937502968
 21
9.0403565078
  0
LINE
  5
2C0
100
AcDbEntity
  8
0
100
AcDbLine
 62
7
  6
BYLAYER
 10
40.1167503925
 20
57.3930894245
 11
43.3827231186
 21
59.2786884016
  0
LINE
  5
2C1
100
AcDbEntity
  8
0
100
AcDbLine
 62
7
  6
BYLAYER
 10
34.4598725913
 20
63.9250251292
 11
34.4598725913
 21
60.6590154607
  0
LINE
  5
2C2
100
AcDbEntity
  8
0
100
AcDbLine
 62
7
  6
BYLAYER
 10
34.6079579712
 20
21.2258778284
 11
34.6079579712
 21
20.2460331118
  0
LINE
  5
2C3
100
AcDbEntity
  8
0
100
AcDbLine
 62
7
  6
BYLAYER
 10
34.6079579712
 20
10.7746468892
 11
34.6079579712
 21
9.8568448156
  0
LINE
  5
2C4
100
AcDbEntity
  8
0
100
AcDbLine
 62
7
  6
BYLAYER
 10
34.7493916921
 20
21.1442228789
 11
34.7493916921
 21
18.5314151441
  0
LINE
  5
2C5
100
AcDbEntity
  8
0
100
AcDbLine
 62
7
  6
BYLAYER
 10
34.7493916921
 20
8.1422268479
 11
34.7493916921
 21
10.6929919396
  0
LINE
  5
2C6
100
AcDbEntity
  8
0
100
AcDbLine
 62
7
  6
BYLAYER
 10
34.9212978549
 20
59.6648129672
 11
34.9212978549
 21
27.3087552459
  0
LINE
  5
2C7
100
AcDbEntity
  8
0
100
AcDbLine
 62
7
  6
BYLAYER
 10
35.6553251289
 20
61.3492626226
 11
35.6553251289
 21
58.083252954
  0
LINE
  5
2C8
100
AcDbEntity
  8
0
100
AcDbLine
 62
7
  6
BYLAYER
 10
35.2619675167
 20
17.9513603852
 11
35.268194625
 21
18.1522979767
  0
LINE
  5
2C9
100
AcDbEntity
  8
0
100
AcDbLine
 62
7
  6
BYLAYER
 10
36.0835868694
 20
90.431233633
 11
34.939363337
 21
63.6856481608
  0
LINE
  5
2CA
100
AcDbEntity
  8
0
100
AcDbLine
 62
7
  6
BYLAYER
 10
32.3543247189
 20
10.1474528862
 11
32.369858874
 21
10.4764811066
  0
LINE
  5
2CB
100
AcDbEntity
  8
0
100
AcDbLine
 62
7
  6
BYLAYER
 10
31.9191152826
 20
10.5837252183
 11
31.9424210238
 21
10.9276978625
  0
LINE
  5
2CC
100
AcDbEntity
  8
0
100
AcDbLine
 62
7
  6
BYLAYER
 10
31.4995262736
 20
11.0540743573
 11
31.5320406763
 21
11.4113056813
  0
LINE
  5
2CD
100
AcDbEntity
  8
0
100
AcDbLine
 62
7
  6
BYLAYER
 10
31.0987510176
 20
11.5549206624
 11
31.1418410737
 21
11.9236240154
  0
LINE
  5
2CE
100
AcDbEntity
  8
0
100
AcDbLine
 62
7
  6
BYLAYER
 10
30.7198396562
 20
12.0824523908
 11
30.7747918705
 21
12.460753813
  0
LINE
  5
2CF
100
AcDbEntity
  8
0
100
AcDbLine
 62
7
  6
BYLAYER
 10
37.3656976751
 20
13.999865409
 11
37.3656976751
 21
12.2035600913
  0
LINE
  5
2D0
100
AcDbEntity
  8
0
100
AcDbLine
 62
7
  6
BYLAYER
 10
38.7799053496
 20
13.1833906986
 11
38.7799053496
 21
13.020048399
  0
LINE
  5
2D1
100
AcDbEntity
  8
0
100
AcDbLine
 62
7
  6
BYLAYER
 10
35.5314293185
 20
17.6520931382
 11
35.5417548491
 21
17.8635192529
  0
LINE
  5
2D2
100
AcDbEntity
  8
0
100
AcDbLine
 62
7
  6
BYLAYER
 10
35.7890196565
 20
17.3331081503
 11
35.8043982715
 21
17.5540102489
  0
LINE
  5
2D3
100
AcDbEntity
  8
0
100
AcDbLine
 62
7
  6
BYLAYER
 10
36.0327781128
 20
16.9968330899
 11
36.0541260172
 21
17.226126515
  0
LINE
  5
2D4
100
AcDbEntity
  8
0
100
AcDbLine
 62
7
  6
BYLAYER
 10
30.3656759338
 20
12.6326547075
 11
30.4336865329
 21
13.018607192
  0
LINE
  5
2D5
100
AcDbEntity
  8
0
100
AcDbLine
 62
7
  6
BYLAYER
 10
30.0389552501
 20
13.2013402406
 11
30.1211210784
 21
13.5929385513
  0
LINE
  5
2D6
100
AcDbEntity
  8
0
100
AcDbLine
 62
7
  6
BYLAYER
 10
29.7421641468
 20
13.7841809498
 11
29.8394743189
 21
14.1793768825
  0
LINE
  5
2D7
100
AcDbEntity
  8
0
100
AcDbLine
 62
7
  6
BYLAYER
 10
35.6553251289
 20
58.083252954
 11
34.4598725913
 21
60.6590154607
  0
LINE
  5
2D8
100
AcDbEntity
  8
0
100
AcDbLine
 62
7
  6
BYLAYER
 10
40.1167503925
 20
60.659099093
 11
40.1167503925
 21
57.3930894245
  0
LINE
  5
2D9
100
AcDbEntity
  8
0
100
AcDbLine
 62
7
  6
BYLAYER
 10
36.2608495384
 20
16.6458272134
 11
36.2890375073
 21
16.8823634445
  0
LINE
  5
2DA
100
AcDbEntity
  8
0
100
AcDbLine
 62
7
  6
BYLAYER
 10
36.4714981719
 20
16.2827618872
 11
36.5073449233
 21
16.525337282
  0
LINE
  5
2DB
100
AcDbEntity
  8
0
100
AcDbLine
 62
7
  6
BYLAYER
 10
29.4775613833
 20
14.3767410654
 11
29.5908897563
 21
14.7734590358
  0
LINE
  5
2DC
100
AcDbEntity
  8
0
100
AcDbLine
 62
7
  6
BYLAYER
 10
29.2471607466
 20
14.9745108471
 11
29.3772592692
 21
15.3706636873
  0
LINE
  5
2DD
100
AcDbEntity
  8
0
100
AcDbLine
 62
7
  6
BYLAYER
 10
29.0527157246
 20
15.572940906
 11
29.2002087146
 21
15.9664457489
  0
LINE
  5
2DE
100
AcDbEntity
  8
0
100
AcDbLine
 62
7
  6
BYLAYER
 10
28.9074922233
 20
19.8523901894
 11
29.0527157246
 21
20.2292721745
  0
LINE
  5
2DF
100
AcDbEntity
  8
0
100
AcDbLine
 62
7
  6
BYLAYER
 10
34.4598725913
 20
63.9250251292
 11
34.5337845938
 21
63.7657718265
  0
LINE
  5
2E0
100
AcDbEntity
  8
0
100
AcDbLine
 62
7
  6
BYLAYER
 10
35.5814131264
 20
61.5085159252
 11
35.6553251289
 21
61.3492626226
  0
LINE
  5
2E1
100
AcDbEntity
  8
0
100
AcDbLine
 62
7
  6
BYLAYER
 10
41.7590088404
 20
90.431233633
 11
42.9032323729
 21
63.6856481608
  0
LINE
  5
2E2
100
AcDbEntity
  8
0
100
AcDbLine
 62
7
  6
BYLAYER
 10
42.4568464807
 20
25.2675514733
 11
42.4568464807
 21
23.6345466391
  0
LINE
  5
2E3
100
AcDbEntity
  8
0
100
AcDbLine
 62
7
  6
BYLAYER
 10
42.9212978549
 20
59.0122859916
 11
42.9212978549
 21
27.3087552459
  0
LINE
  5
2E4
100
AcDbEntity
  8
0
100
AcDbLine
 62
7
  6
BYLAYER
 10
43.3827231186
 20
62.5446980701
 11
43.3827231186
 21
59.2786884016
  0
LINE
  5
2E5
100
AcDbEntity
  8
0
100
AcDbLine
 62
7
  6
BYLAYER
 10
43.9212978549
 20
27.3087552459
 11
43.9212978549
 21
25.6757504117
  0
LINE
  5
2E6
100
AcDbEntity
  8
0
100
AcDbLine
 62
7
  6
BYLAYER
 10
36.6631208501
 20
15.9104002578
 11
36.7073868142
 21
16.157765212
  0
LINE
  5
2E7
100
AcDbEntity
  8
0
100
AcDbLine
 62
7
  6
BYLAYER
 10
36.8342592087
 20
15.5315762221
 11
36.8876407403
 21
15.7824446801
  0
LINE
  5
2E8
100
AcDbEntity
  8
0
100
AcDbLine
 62
7
  6
BYLAYER
 10
35.5888172699
 20
19.9750838574
 11
35.0066086108
 21
18.2061102826
  0
LINE
  5
2E9
100
AcDbEntity
  8
0
100
AcDbLine
 62
7
  6
BYLAYER
 10
32.3543247189
 20
10.1474528862
 11
32.94731502
 21
11.9491852309
  0
LINE
  5
2EA
100
AcDbEntity
  8
0
100
AcDbLine
 62
7
  6
BYLAYER
 10
30.8235036217
 20
18.3687908056
 11
30.7305605809
 21
18.1275863351
  0
LINE
  5
2EB
100
AcDbEntity
  8
0
100
AcDbLine
 62
7
  6
BYLAYER
 10
29.0677148722
 20
20.2624257627
 11
29.2471607466
 21
20.6031815411
  0
LINE
  5
2EC
100
AcDbEntity
  8
0
100
AcDbLine
 62
7
  6
BYLAYER
 10
40.1167503925
 20
57.3930894245
 11
35.6553251289
 21
58.083252954
  0
LINE
  5
2ED
100
AcDbEntity
  8
0
100
AcDbLine
 62
7
  6
BYLAYER
 10
36.9836107814
 20
15.1491728596
 11
37.0467348603
 21
15.402232102
  0
LINE
  5
2EE
100
AcDbEntity
  8
0
100
AcDbLine
 62
7
  6
BYLAYER
 10
37.1100389127
 20
14.7661004909
 11
37.1834583721
 21
15.020021125
  0
LINE
  5
2EF
100
AcDbEntity
  8
0
100
AcDbLine
 62
7
  6
BYLAYER
 10
32.369858874
 20
10.4764811066
 11
32.9006256289
 21
11.9957632719
  0
LINE
  5
2F0
100
AcDbEntity
  8
0
100
AcDbLine
 62
7
  6
BYLAYER
 10
35.9018276693
 20
19.6628199604
 11
35.268194625
 21
18.1522979767
  0
LINE
  5
2F1
100
AcDbEntity
  8
0
100
AcDbLine
 62
7
  6
BYLAYER
 10
30.9479484358
 20
18.6080928002
 11
30.8331030762
 21
18.390009102
  0
LINE
  5
2F2
100
AcDbEntity
  8
0
100
AcDbLine
 62
7
  6
BYLAYER
 10
29.2652588273
 20
20.6328773878
 11
29.4775613833
 21
20.9349136022
  0
LINE
  5
2F3
100
AcDbEntity
  8
0
100
AcDbLine
 62
7
  6
BYLAYER
 10
35.6553251289
 20
61.3492626226
 11
35.9311644991
 21
61.3065914442
  0
LINE
  5
2F4
100
AcDbEntity
  8
0
100
AcDbLine
 62
7
  6
BYLAYER
 10
39.8409110223
 20
60.7017702714
 11
40.1167503925
 21
60.659099093
  0
LINE
  5
2F5
100
AcDbEntity
  8
0
100
AcDbLine
 62
7
  6
BYLAYER
 10
43.3827231186
 20
62.5446980701
 11
43.3088111161
 21
62.7039513727
  0
LINE
  5
2F6
100
AcDbEntity
  8
0
100
AcDbLine
 62
7
  6
BYLAYER
 10
37.212581408
 20
14.385274528
 11
37.2967707271
 21
14.6387206056
  0
LINE
  5
2F7
100
AcDbEntity
  8
0
100
AcDbLine
 62
7
  6
BYLAYER
 10
37.1196383672
 20
11.7537459381
 11
37.212581408
 21
11.9949504086
  0
LINE
  5
2F8
100
AcDbEntity
  8
0
100
AcDbLine
 62
7
  6
BYLAYER
 10
35.9878155605
 20
19.5770371427
 11
35.2619675167
 21
17.9513603852
  0
LINE
  5
2F9
100
AcDbEntity
  8
0
100
AcDbLine
 62
7
  6
BYLAYER
 10
31.9553264284
 20
10.5454996009
 11
32.6946161026
 21
12.2012814836
  0
LINE
  5
2FA
100
AcDbEntity
  8
0
100
AcDbLine
 62
7
  6
BYLAYER
 10
36.0240267062
 20
19.5388115254
 11
35.28514265
 21
17.9268959901
  0
LINE
  5
2FB
100
AcDbEntity
  8
0
100
AcDbLine
 62
7
  6
BYLAYER
 10
31.9191152826
 20
10.5837252183
 11
32.671682377
 21
12.2254910412
  0
LINE
  5
2FC
100
AcDbEntity
  8
0
100
AcDbLine
 62
7
  6
BYLAYER
 10
31.9424210238
 20
10.9276978625
 11
32.6121237326
 21
12.2919456545
  0
LINE
  5
2FD
100
AcDbEntity
  8
0
100
AcDbLine
 62
7
  6
BYLAYER
 10
31.0954048433
 20
18.8204013192
 11
30.9595312075
 21
18.6270981421
  0
LINE
  5
2FE
100
AcDbEntity
  8
0
100
AcDbLine
 62
7
  6
BYLAYER
 10
39.0356497656
 20
10.2701465543
 11
38.8904262643
 21
9.8932645691
  0
LINE
  5
2FF
100
AcDbEntity
  8
0
100
AcDbLine
 62
7
  6
BYLAYER
 10
36.3048794462
 20
19.225440386
 11
35.5417548491
 21
17.8635192529
  0
LINE
  5
300
100
AcDbEntity
  8
0
100
AcDbLine
 62
7
  6
BYLAYER
 10
36.4088496258
 20
19.1094320693
 11
35.5314293185
 21
17.6520931382
  0
LINE
  5
301
100
AcDbEntity
  8
0
100
AcDbLine
 62
7
  6
BYLAYER
 10
31.5342923631
 20
11.0131046744
 11
32.4279611946
 21
12.4974313635
  0
LINE
  5
302
100
AcDbEntity
  8
0
100
AcDbLine
 62
7
  6
BYLAYER
 10
36.4436157153
 20
19.0684623863
 11
35.5536796158
 21
17.6258725411
  0
LINE
  5
303
100
AcDbEntity
  8
0
100
AcDbLine
 62
7
  6
BYLAYER
 10
31.4995262736
 20
11.0540743573
 11
32.4059426713
 21
12.5233788293
  0
LINE
  5
304
100
AcDbEntity
  8
0
100
AcDbLine
 62
7
  6
BYLAYER
 10
29.4986206597
 20
20.9609257041
 11
29.7421641468
 21
21.2219436764
  0
LINE
  5
305
100
AcDbEntity
  8
0
100
AcDbLine
 62
7
  6
BYLAYER
 10
28.9074922233
 20
19.8523901894
 11
29.1613519404
 21
20.1151333463
  0
LINE
  5
306
100
AcDbEntity
  8
0
100
AcDbLine
 62
7
  6
BYLAYER
 10
29.0677148722
 20
20.2624257627
 11
29.3312969218
 21
20.5044866029
  0
LINE
  5
307
100
AcDbEntity
  8
0
100
AcDbLine
 62
7
  6
BYLAYER
 10
36.9951935531
 20
11.5144439435
 11
37.1100389127
 21
11.7325276416
  0
LINE
  5
308
100
AcDbEntity
  8
0
100
AcDbLine
 62
7
  6
BYLAYER
 10
31.5320406763
 20
11.4113056813
 11
32.3346201352
 21
12.6121044824
  0
LINE
  5
309
100
AcDbEntity
  8
0
100
AcDbLine
 62
7
  6
BYLAYER
 10
36.6913377305
 20
18.7602947467
 11
35.8043982715
 21
17.5540102489
  0
LINE
  5
30A
100
AcDbEntity
  8
0
100
AcDbLine
 62
7
  6
BYLAYER
 10
36.8113345289
 20
18.6110180257
 11
35.7890196565
 21
17.3331081503
  0
LINE
  5
30B
100
AcDbEntity
  8
0
100
AcDbLine
 62
7
  6
BYLAYER
 10
31.13180746
 20
11.511518718
 11
32.1730540893
 21
12.813093591
  0
LINE
  5
30C
100
AcDbEntity
  8
0
100
AcDbLine
 62
7
  6
BYLAYER
 10
31.2647506119
 20
19.0041005668
 11
31.1088827802
 21
18.8370490645
  0
LINE
  5
30D
100
AcDbEntity
  8
0
100
AcDbLine
 62
7
  6
BYLAYER
 10
29.2652588273
 20
20.6328773878
 11
29.5387692228
 21
20.8549153009
  0
LINE
  5
30E
100
AcDbEntity
  8
0
100
AcDbLine
 62
7
  6
BYLAYER
 10
29.766024345
 20
21.2440740657
 11
30.0389552501
 21
21.4620872917
  0
LINE
  5
30F
100
AcDbEntity
  8
0
100
AcDbLine
 62
7
  6
BYLAYER
 10
29.4986206597
 20
20.9609257041
 11
29.7833736458
 21
21.164222516
  0
LINE
  5
310
100
AcDbEntity
  8
0
100
AcDbLine
 62
7
  6
BYLAYER
 10
32.2037819617
 20
27.5128603261
 11
34.9212978549
 21
29.0818094932
  0
LINE
  5
311
100
AcDbEntity
  8
0
100
AcDbLine
 62
7
  6
BYLAYER
 10
38.8754271167
 20
9.8601109809
 11
38.6959812423
 21
9.5193552025
  0
LINE
  5
312
100
AcDbEntity
  8
0
100
AcDbLine
 62
7
  6
BYLAYER
 10
36.8477371455
 20
11.3021354244
 11
36.9836107814
 21
11.4954386016
  0
LINE
  5
313
100
AcDbEntity
  8
0
100
AcDbLine
 62
7
  6
BYLAYER
 10
36.8443909713
 20
18.5676160812
 11
35.8101757796
 21
17.3053309058
  0
LINE
  5
314
100
AcDbEntity
  8
0
100
AcDbLine
 62
7
  6
BYLAYER
 10
31.0987510176
 20
11.5549206624
 11
32.1521183424
 21
12.8405814892
  0
LINE
  5
315
100
AcDbEntity
  8
0
100
AcDbLine
 62
7
  6
BYLAYER
 10
31.1418410737
 20
11.9236240154
 11
32.0706442151
 21
12.9534940089
  0
LINE
  5
316
100
AcDbEntity
  8
0
100
AcDbLine
 62
7
  6
BYLAYER
 10
37.058786658
 20
18.2704916076
 11
36.0541260172
 21
17.226126515
  0
LINE
  5
317
100
AcDbEntity
  8
0
100
AcDbLine
 62
7
  6
BYLAYER
 10
31.4546969181
 20
19.1577924805
 11
31.2800211388
 21
19.0182640159
  0
LINE
  5
318
100
AcDbEntity
  8
0
100
AcDbLine
 62
7
  6
BYLAYER
 10
29.766024345
 20
21.2440740657
 11
30.0604261268
 21
21.4276553212
  0
LINE
  5
319
100
AcDbEntity
  8
0
100
AcDbLine
 62
7
  6
BYLAYER
 10
30.0654347797
 20
21.4801675427
 11
30.3656759338
 21
21.65351681
  0
LINE
  5
31A
100
AcDbEntity
  8
0
100
AcDbLine
 62
7
  6
BYLAYER
 10
30.0654347797
 20
21.4801675427
 11
30.3703993608
 21
21.6447653064
  0
LINE
  5
31B
100
AcDbEntity
  8
0
100
AcDbLine
 62
7
  6
BYLAYER
 10
38.6778831616
 20
9.4896593558
 11
38.4655806055
 21
9.1876231415
  0
LINE
  5
31C
100
AcDbEntity
  8
0
100
AcDbLine
 62
7
  6
BYLAYER
 10
37.1196383672
 20
11.7537459381
 11
37.2765043877
 21
11.9344729167
  0
LINE
  5
31D
100
AcDbEntity
  8
0
100
AcDbLine
 62
7
  6
BYLAYER
 10
37.1922071169
 20
18.0855882439
 11
36.0327781128
 21
16.9968330899
  0
LINE
  5
31E
100
AcDbEntity
  8
0
100
AcDbLine
 62
7
  6
BYLAYER
 10
30.750934872
 20
12.0369484998
 11
31.9318347836
 21
13.1458657862
  0
LINE
  5
31F
100
AcDbEntity
  8
0
100
AcDbLine
 62
7
  6
BYLAYER
 10
37.2233023327
 20
18.0400843528
 11
36.0526790509
 21
16.9677105997
  0
LINE
  5
320
100
AcDbEntity
  8
0
100
AcDbLine
 62
7
  6
BYLAYER
 10
30.7198396562
 20
12.0824523908
 11
31.9121411469
 21
13.1746849172
  0
LINE
  5
321
100
AcDbEntity
  8
0
100
AcDbLine
 62
7
  6
BYLAYER
 10
30.7747918705
 20
12.460753813
 11
31.8226057126
 21
13.3131289837
  0
LINE
  5
322
100
AcDbEntity
  8
0
100
AcDbLine
 62
7
  6
BYLAYER
 10
28.3684235379
 20
17.398021222
 11
29.7826312123
 21
18.2145095297
  0
LINE
  5
323
100
AcDbEntity
  8
0
100
AcDbLine
 62
7
  6
BYLAYER
 10
31.6637981556
 20
19.2803073723
 11
31.471643817
 21
19.1693638412
  0
LINE
  5
324
100
AcDbEntity
  8
0
100
AcDbLine
 62
7
  6
BYLAYER
 10
42.4568464807
 20
25.2675514733
 11
39.2748792132
 21
23.4304527809
  0
LINE
  5
325
100
AcDbEntity
  8
0
100
AcDbLine
 62
7
  6
BYLAYER
 10
34.6079579712
 20
20.2460331118
 11
33.1937502968
 21
19.429544804
  0
LINE
  5
326
100
AcDbEntity
  8
0
100
AcDbLine
 62
7
  6
BYLAYER
 10
38.9213272946
 20
21.9606493811
 11
37.6396889873
 21
21.2206995763
  0
LINE
  5
327
100
AcDbEntity
  8
0
100
AcDbLine
 62
7
  6
BYLAYER
 10
42.4568464807
 20
23.6345466391
 11
39.2748792132
 21
21.7974479466
  0
LINE
  5
328
100
AcDbEntity
  8
0
100
AcDbLine
 62
7
  6
BYLAYER
 10
30.3945732696
 20
21.6674093212
 11
30.7198396562
 21
21.7947753373
  0
LINE
  5
329
100
AcDbEntity
  8
0
100
AcDbLine
 62
7
  6
BYLAYER
 10
36.678391377
 20
11.1184361769
 11
36.8342592087
 21
11.2854876792
  0
LINE
  5
32A
100
AcDbEntity
  8
0
100
AcDbLine
 62
7
  6
BYLAYER
 10
36.9951935531
 20
11.5144439435
 11
37.1602243561
 21
11.6835522626
  0
LINE
  5
32B
100
AcDbEntity
  8
0
100
AcDbLine
 62
7
  6
BYLAYER
 10
37.4049285491
 20
17.7592450162
 11
36.2890375073
 21
16.8823634445
  0
LINE
  5
32C
100
AcDbEntity
  8
0
100
AcDbLine
 62
7
  6
BYLAYER
 10
37.5485687193
 20
17.5371415617
 11
36.2608495384
 21
16.6458272134
  0
LINE
  5
32D
100
AcDbEntity
  8
0
100
AcDbLine
 62
7
  6
BYLAYER
 10
30.3945732696
 20
12.585395182
 11
31.706139102
 21
13.4932153516
  0
LINE
  5
32E
100
AcDbEntity
  8
0
100
AcDbLine
 62
7
  6
BYLAYER
 10
37.5774660551
 20
17.4898820362
 11
36.2793438333
 21
16.615581117
  0
LINE
  5
32F
100
AcDbEntity
  8
0
100
AcDbLine
 62
7
  6
BYLAYER
 10
30.3656759338
 20
12.6326547075
 11
31.687837456
 21
13.5231463844
  0
LINE
  5
330
100
AcDbEntity
  8
0
100
AcDbLine
 62
7
  6
BYLAYER
 10
41.396181893
 20
22.6139029366
 11
41.7497367555
 21
22.8180337679
  0
LINE
  5
331
100
AcDbEntity
  8
0
100
AcDbLine
 62
7
  6
BYLAYER
 10
31.8849176693
 20
19.382726478
 11
31.6822924505
 21
19.2891985795
  0
LINE
  5
332
100
AcDbEntity
  8
0
100
AcDbLine
 62
7
  6
BYLAYER
 10
31.890462938
 20
19.3707128297
 11
31.6822924505
 21
19.2891985795
  0
LINE
  5
333
100
AcDbEntity
  8
0
100
AcDbLine
 62
7
  6
BYLAYER
 10
32.1211520906
 20
19.4587350027
 11
31.9103638761
 21
19.3768562159
  0
LINE
  5
334
100
AcDbEntity
  8
0
100
AcDbLine
 62
7
  6
BYLAYER
 10
32.3737348511
 20
19.5018843147
 11
32.1541223324
 21
19.4316696231
  0
LINE
  5
335
100
AcDbEntity
  8
0
100
AcDbLine
 62
7
  6
BYLAYER
 10
38.4445213292
 20
9.1616110396
 11
38.2009778421
 21
8.9005930672
  0
LINE
  5
336
100
AcDbEntity
  8
0
100
AcDbLine
 62
7
  6
BYLAYER
 10
36.8477371455
 20
11.3021354244
 11
37.0183508044
 21
11.4572199417
  0
LINE
  5
337
100
AcDbEntity
  8
0
100
AcDbLine
 62
7
  6
BYLAYER
 10
36.678391377
 20
11.1184361769
 11
36.8546941743
 21
11.2600464311
  0
LINE
  5
338
100
AcDbEntity
  8
0
100
AcDbLine
 62
7
  6
BYLAYER
 10
36.4884450708
 20
10.9647442631
 11
36.6631208501
 21
11.1042727277
  0
LINE
  5
339
100
AcDbEntity
  8
0
100
AcDbLine
 62
7
  6
BYLAYER
 10
30.4336865329
 20
13.018607192
 11
31.5927623229
 21
13.6878204313
  0
LINE
  5
33A
100
AcDbEntity
  8
0
100
AcDbLine
 62
7
  6
BYLAYER
 10
37.7275883696
 20
17.2298640035
 11
36.5073449233
 21
16.525337282
  0
LINE
  5
33B
100
AcDbEntity
  8
0
100
AcDbLine
 62
7
  6
BYLAYER
 10
38.6856358288
 20
15.9503728857
 11
40.0998435032
 21
16.7668611935
  0
LINE
  5
33C
100
AcDbEntity
  8
0
100
AcDbLine
 62
7
  6
BYLAYER
 10
37.8777072092
 20
16.9698519896
 11
36.4714981719
 21
16.2827618872
  0
LINE
  5
33D
100
AcDbEntity
  8
0
100
AcDbLine
 62
7
  6
BYLAYER
 10
30.0654347797
 20
13.1526847541
 11
31.4976847251
 21
13.8524987473
  0
LINE
  5
33E
100
AcDbEntity
  8
0
100
AcDbLine
 62
7
  6
BYLAYER
 10
37.9041867388
 20
16.9211965031
 11
36.4884450708
 21
16.2516223758
  0
LINE
  5
33F
100
AcDbEntity
  8
0
100
AcDbLine
 62
7
  6
BYLAYER
 10
30.0389552501
 20
13.2013402406
 11
31.4809143564
 21
13.8833138887
  0
LINE
  5
340
100
AcDbEntity
  8
0
100
AcDbLine
 62
7
  6
BYLAYER
 10
38.0247183014
 20
16.6857429373
 11
36.7073868142
 21
16.157765212
  0
LINE
  5
341
100
AcDbEntity
  8
0
100
AcDbLine
 62
7
  6
BYLAYER
 10
38.1771176439
 20
8.8784626779
 11
37.9041867388
 21
8.660449452
  0
LINE
  5
342
100
AcDbEntity
  8
0
100
AcDbLine
 62
7
  6
BYLAYER
 10
36.4884450708
 20
10.9647442631
 11
36.670754648
 21
11.0934604559
  0
LINE
  5
343
100
AcDbEntity
  8
0
100
AcDbLine
 62
7
  6
BYLAYER
 10
38.7799053496
 20
13.020048399
 11
37.3656976751
 21
12.2035600913
  0
LINE
  5
344
100
AcDbEntity
  8
0
100
AcDbLine
 62
7
  6
BYLAYER
 10
36.2793438333
 20
10.8422293714
 11
36.4714981719
 21
10.9531729024
  0
LINE
  5
345
100
AcDbEntity
  8
0
100
AcDbLine
 62
7
  6
BYLAYER
 10
39.574718451
 20
12.7245155217
 11
40.9889261254
 21
13.5410038294
  0
LINE
  5
346
100
AcDbEntity
  8
0
100
AcDbLine
 62
7
  6
BYLAYER
 10
34.6079579712
 20
9.8568448156
 11
33.1937502968
 21
9.0403565078
  0
LINE
  5
347
100
AcDbEntity
  8
0
100
AcDbLine
 62
7
  6
BYLAYER
 10
30.1211210784
 20
13.5929385513
 11
31.3831894969
 21
14.074215476
  0
LINE
  5
348
100
AcDbEntity
  8
0
100
AcDbLine
 62
7
  6
BYLAYER
 10
38.1771176439
 20
16.3880369437
 11
36.6631208501
 21
15.9104002578
  0
LINE
  5
349
100
AcDbEntity
  8
0
100
AcDbLine
 62
7
  6
BYLAYER
 10
29.766024345
 20
13.7344998
 11
31.3080581165
 21
14.2209816097
  0
LINE
  5
34A
100
AcDbEntity
  8
0
100
AcDbLine
 62
7
  6
BYLAYER
 10
38.2009778421
 20
16.3383557939
 11
36.678391377
 21
15.878604322
  0
LINE
  5
34B
100
AcDbEntity
  8
0
100
AcDbLine
 62
7
  6
BYLAYER
 10
29.7421641468
 20
13.7841809498
 11
31.2929466576
 21
14.2524463379
  0
LINE
  5
34C
100
AcDbEntity
  8
0
100
AcDbLine
 62
7
  6
BYLAYER
 10
37.8724930239
 20
8.6508303513
 11
37.5774660551
 21
8.4690199336
  0
LINE
  5
34D
100
AcDbEntity
  8
0
100
AcDbLine
 62
7
  6
BYLAYER
 10
40.9889261254
 20
11.7446985117
 11
39.574718451
 21
10.928210204
  0
LINE
  5
34E
100
AcDbEntity
  8
0
100
AcDbLine
 62
7
  6
BYLAYER
 10
37.8777072092
 20
8.6423692009
 11
37.5774660551
 21
8.4690199336
  0
LINE
  5
34F
100
AcDbEntity
  8
0
100
AcDbLine
 62
7
  6
BYLAYER
 10
37.9715530869
 20
8.1330548027
 11
39.3857607614
 21
8.9495431104
  0
LINE
  5
350
100
AcDbEntity
  8
0
100
AcDbLine
 62
7
  6
BYLAYER
 10
37.5294877817
 20
8.4909322577
 11
37.2233023327
 21
8.3277614064
  0
LINE
  5
351
100
AcDbEntity
  8
0
100
AcDbLine
 62
7
  6
BYLAYER
 10
36.0526790509
 20
10.7518239139
 11
36.2608495384
 21
10.8333381642
  0
LINE
  5
352
100
AcDbEntity
  8
0
100
AcDbLine
 62
7
  6
BYLAYER
 10
37.5071196202
 20
7.9210086386
 11
37.971550901
 21
8.1330585891
  0
LINE
  5
353
100
AcDbEntity
  8
0
100
AcDbLine
 62
7
  6
BYLAYER
 10
37.1628258831
 20
8.3827057835
 11
36.8443909713
 21
8.2377489329
  0
LINE
  5
354
100
AcDbEntity
  8
0
100
AcDbLine
 62
7
  6
BYLAYER
 10
37.5485687193
 20
8.4551274224
 11
37.2233023327
 21
8.3277614064
  0
LINE
  5
355
100
AcDbEntity
  8
0
100
AcDbLine
 62
7
  6
BYLAYER
 10
36.7726596465
 20
8.3255175331
 11
36.4436157153
 21
8.1996675626
  0
LINE
  5
356
100
AcDbEntity
  8
0
100
AcDbLine
 62
7
  6
BYLAYER
 10
36.3654466082
 20
8.3210473799
 11
36.0240267062
 21
8.2138071176
  0
ARC
  5
357
100
AcDbEntity
  8
0
100
AcDbCircle
 62
7
  6
BYLAYER
 10
22.8348144281
 20
57.0370710699
 40
21.1837552518
100
AcDbArc
 50
18.3311368681
 51
18.7306311746
  0
ARC
  5
358
100
AcDbEntity
  8
0
100
AcDbCircle
 62
7
  6
BYLAYER
 10
48.7165733609
 20
21.9627424116
 40
9.7952462899
100
AcDbArc
 50
180.0122428585
 51
183.0406022818
  0
ARC
  5
359
100
AcDbEntity
  8
0
100
AcDbCircle
 62
7
  6
BYLAYER
 10
38.9779807441
 20
67.8609443298
 40
7.210993126
100
AcDbArc
 50
276.8729835487
 51
280.7150110408
  0
ARC
  5
35A
100
AcDbEntity
  8
0
100
AcDbCircle
 62
7
  6
BYLAYER
 10
37.9996750637
 20
65.3088905266
 40
4.5052340562
100
AcDbArc
 50
241.3432494775
 51
242.6686963474
  0
ARC
  5
35B
100
AcDbEntity
  8
0
100
AcDbCircle
 62
7
  6
BYLAYER
 10
37.8431586915
 20
65.0246773026
 40
4.1807755062
100
AcDbArc
 50
237.2491405129
 51
241.3575952081
  0
ARC
  5
35C
100
AcDbEntity
  8
0
100
AcDbCircle
 62
7
  6
BYLAYER
 10
38.0270253736
 20
65.3331467874
 40
3.8453065912
100
AcDbArc
 50
240.0073266425
 51
241.3387881884
  0
ARC
  5
35D
100
AcDbEntity
  8
0
100
AcDbCircle
 62
7
  6
BYLAYER
 10
37.9173684502
 20
65.1435403453
 40
3.6262741614
100
AcDbArc
 50
237.2135086279
 51
240.0103360852
  0
ARC
  5
35E
100
AcDbEntity
  8
0
100
AcDbCircle
 62
7
  6
BYLAYER
 10
38.9212978549
 20
90.3098313294
 40
2.8403067011
100
AcDbArc
 50
2.4497211305
 51
177.5502788695
  0
SPLINE
  5
35F
100
AcDbEntity
  8
0
100
AcDbSpline
 62
7
  6
BYLAYER
 70
0
 71
3
 72
13
 73
9
 74
0
 42
0.0000001
 43
0.0000001
 44
0.0000000001
 40
0.0
 40
0.0
 40
0.0
 40
0.0
 40
0.1095822945
 40
0.2228636419
 40
0.3403535537
 40
0.4624263517
 40
0.7211390492
 40
1.0
 40
1.0
 40
1.0
 40
1.0
 10
42.802560978
 20
23.8925012374
 30
0.0
 10
42.7804254048
 20
23.8412301818
 30
0.0
 10
42.7298221301
 20
23.7392888048
 30
0.0
 10
42.6376319132
 20
23.5920755939
 30
0.0
 10
42.5284603981
 20
23.4488873435
 30
0.0
 10
42.3577056586
 20
23.2605874263
 30
0.0
 10
42.102666843
 20
23.0395815107
 30
0.0
 10
41.8728105879
 20
22.889090054
 30
0.0
 10
41.7497367555
 20
22.8180337679
 30
0.0
  0
SPLINE
  5
360
100
AcDbEntity
  8
0
100
AcDbSpline
 62
7
  6
BYLAYER
 70
0
 71
3
 72
11
 73
7
 74
0
 42
0.0000001
 43
0.0000001
 44
0.0000000001
 40
0.0
 40
0.0
 40
0.0
 40
0.0
 40
0.2318633542
 40
0.4772789724
 40
0.734171413
 40
1.0
 40
1.0
 40
1.0
 40
1.0
 10
41.396181893
 20
22.6139029366
 30
0.0
 10
41.2827097653
 20
22.5483901642
 30
0.0
 10
41.0410003121
 20
22.4273103992
 30
0.0
 10
40.6526121325
 20
22.2797496206
 30
0.0
 10
40.2339299656
 20
22.1631278775
 30
0.0
 10
39.9433186986
 20
22.1080921801
 30
0.0
 10
39.794734648
 20
22.0859833543
 30
0.0
  0
SPLINE
  5
361
100
AcDbEntity
  8
0
100
AcDbSpline
 62
7
  6
BYLAYER
 70
0
 71
3
 72
11
 73
7
 74
0
 42
0.0000001
 43
0.0000001
 44
0.0000000001
 40
0.0
 40
0.0
 40
0.0
 40
0.0
 40
0.2328146594
 40
0.4782952765
 40
0.7347063564
 40
1.0
 40
1.0
 40
1.0
 40
1.0
 10
41.7497367555
 20
22.8180337679
 30
0.0
 10
41.6311304491
 20
22.7495567937
 30
0.0
 10
41.3797034398
 20
22.622035323
 30
0.0
 10
40.9771285381
 20
22.4633197865
 30
0.0
 10
40.5442345146
 20
22.3340058236
 30
0.0
 10
40.2438288447
 20
22.2695355307
 30
0.0
 10
40.0901410683
 20
22.2424255629
 30
0.0
  0
SPLINE
  5
362
100
AcDbEntity
  8
0
100
AcDbSpline
 62
7
  6
BYLAYER
 70
0
 71
3
 72
11
 73
7
 74
0
 42
0.0000001
 43
0.0000001
 44
0.0000000001
 40
0.0
 40
0.0
 40
0.0
 40
0.0
 40
0.2608423851
 40
0.515694452
 40
0.7626428392
 40
1.0
 40
1.0
 40
1.0
 40
1.0
 10
40.0998435032
 20
16.7668611936
 30
0.0
 10
40.215470536
 20
16.4988239762
 30
0.0
 10
40.4267501057
 20
15.9612159969
 30
0.0
 10
40.6838756577
 20
15.1466576081
 30
0.0
 10
40.8752525984
 20
14.3411423819
 30
0.0
 10
40.9592515133
 20
13.804971957
 30
0.0
 10
40.9889261254
 20
13.5410038294
 30
0.0
  0
SPLINE
  5
363
100
AcDbEntity
  8
0
100
AcDbSpline
 62
7
  6
BYLAYER
 70
0
 71
3
 72
11
 73
7
 74
0
 42
0.0000001
 43
0.0000001
 44
0.0000000001
 40
0.0
 40
0.0
 40
0.0
 40
0.0
 40
0.233949418
 40
0.4801008969
 40
0.7363055203
 40
1.0
 40
1.0
 40
1.0
 40
1.0
 10
38.9351168532
 20
21.4431671349
 30
0.0
 10
38.9549174653
 20
21.0660650118
 30
0.0
 10
39.0378509158
 20
20.2940081743
 30
0.0
 10
39.2763227637
 20
19.1281523236
 30
0.0
 10
39.6281784387
 20
17.9413115714
 30
0.0
 10
39.9312499646
 20
17.1576810723
 30
0.0
 10
40.0998435032
 20
16.7668611936
 30
0.0
  0
SPLINE
  5
364
100
AcDbEntity
  8
0
100
AcDbSpline
 62
7
  6
BYLAYER
 70
0
 71
3
 72
16
 73
12
 74
0
 42
0.0000001
 43
0.0000001
 44
0.0000000001
 40
0.0
 40
0.0
 40
0.0
 40
0.0
 40
0.1080063777
 40
0.2180466726
 40
0.3319750902
 40
0.4513286818
 40
0.5134397725
 40
0.5772958854
 40
0.7105050086
 40
0.8514347888
 40
1.0
 40
1.0
 40
1.0
 40
1.0
 10
43.9212956586
 20
25.6757504117
 30
0.0
 10
43.9212956423
 20
25.581093908
 30
0.0
 10
43.9048445202
 20
25.3896161077
 30
0.0
 10
43.8314837567
 20
25.1067906688
 30
0.0
 10
43.7103917571
 20
24.8300693519
 30
0.0
 10
43.5727485856
 20
24.6097740342
 30
0.0
 10
43.4416068943
 20
24.4392624844
 30
0.0
 10
43.2921122907
 20
24.268075588
 30
0.0
 10
43.0776354828
 20
24.062772249
 30
0.0
 10
42.7842269396
 20
23.8356962304
 30
0.0
 10
42.5696050254
 20
23.6996474266
 30
0.0
 10
42.4568464807
 20
23.6345466391
 30
0.0
  0
SPLINE
  5
365
100
AcDbEntity
  8
0
100
AcDbSpline
 62
7
  6
BYLAYER
 70
0
 71
3
 72
14
 73
10
 74
0
 42
0.0000001
 43
0.0000001
 44
0.0000000001
 40
0.0
 40
0.0
 40
0.0
 40
0.0
 40
0.1127826417
 40
0.2269290847
 40
0.3437259831
 40
0.4643077066
 40
0.5896254513
 40
0.7204091851
 40
1.0
 40
1.0
 40
1.0
 40
1.0
 10
43.9212956013
 20
27.3087552458
 30
0.0
 10
43.9212956736
 20
27.3842311363
 30
0.0
 10
43.9108993303
 20
27.5362910883
 30
0.0
 10
43.8644372971
 20
27.7622311484
 30
0.0
 10
43.7873661487
 20
27.9851688922
 30
0.0
 10
43.6803715846
 20
28.203660039
 30
0.0
 10
43.5441242393
 20
28.4163742862
 30
0.0
 10
43.3199192361
 20
28.6967346727
 30
0.0
 10
43.11742593
 20
28.885086465
 30
0.0
 10
42.9711326261
 20
29.0017359948
 30
0.0
  0
SPLINE
  5
366
100
AcDbEntity
  8
0
100
AcDbSpline
 62
7
  6
BYLAYER
 70
0
 71
3
 72
25
 73
21
 74
0
 42
0.0000001
 43
0.0000001
 44
0.0000000001
 40
0.0
 40
0.0
 40
0.0
 40
0.0
 40
0.0213324285
 40
0.0428933858
 40
0.0648991481
 40
0.0875441437
 40
0.1353198008
 40
0.1872212146
 40
0.2436590676
 40
0.3046066468
 40
0.3696936832
 40
0.4382901399
 40
0.5095759841
 40
0.5826000095
 40
0.6563313932
 40
0.7297067832
 40
0.8016837581
 40
0.8712733932
 40
0.937620139
 40
1.0
 40
1.0
 40
1.0
 40
1.0
 10
32.4215830916
 20
17.7459422275
 30
0.0
 10
32.4596693371
 20
17.7679312644
 30
0.0
 10
32.5391709024
 20
17.8072917539
 30
0.0
 10
32.6659398866
 20
17.8510967205
 30
0.0
 10
32.7997651758
 20
17.8796459655
 30
0.0
 10
32.9898436573
 20
17.8974819758
 30
0.0
 10
33.2432768843
 20
17.8788806739
 30
0.0
 10
33.5557479892
 20
17.7958233726
 30
0.0
 10
33.8760764993
 20
17.6542612735
 30
0.0
 10
34.1977681725
 20
17.4574439501
 30
0.0
 10
34.5143256597
 20
17.2096181391
 30
0.0
 10
34.8191665185
 20
16.9160318946
 30
0.0
 10
35.1058789964
 20
16.5829071102
 30
0.0
 10
35.3683780571
 20
16.2173235132
 30
0.0
 10
35.601066585
 20
15.8270742708
 30
0.0
 10
35.7989938166
 20
15.42048464
 30
0.0
 10
35.9579165163
 20
15.0062296973
 30
0.0
 10
36.0744977042
 20
14.5930778549
 30
0.0
 10
36.1461789434
 20
14.1898765371
 30
0.0
 10
36.1636111424
 20
13.9243221321
 30
0.0
 10
36.1636111424
 20
13.7957220328
 30
0.0
  0
SPLINE
  5
367
100
AcDbEntity
  8
0
100
AcDbSpline
 62
7
  6
BYLAYER
 70
0
 71
3
 72
9
 73
5
 74
0
 42
0.0000001
 43
0.0000001
 44
0.0000000001
 40
0.0
 40
0.0
 40
0.0
 40
0.0
 40
0.4791728256
 40
1.0
 40
1.0
 40
1.0
 40
1.0
 10
33.2911225032
 20
17.8331421899
 30
0.0
 10
33.2575128083
 20
17.7267246262
 30
0.0
 10
33.2081310362
 20
17.4978482706
 30
0.0
 10
33.1937385209
 20
17.2646031527
 30
0.0
 10
33.1937385209
 20
17.1433030186
 30
0.0
  0
SPLINE
  5
368
100
AcDbEntity
  8
0
100
AcDbSpline
 62
7
  6
BYLAYER
 70
0
 71
3
 72
15
 73
11
 74
0
 42
0.0000001
 43
0.0000001
 44
0.0000000001
 40
0.0
 40
0.0
 40
0.0
 40
0.0
 40
0.1438083735
 40
0.2811329594
 40
0.4121943624
 40
0.5375378961
 40
0.6579136182
 40
0.7742923552
 40
0.8878620026
 40
1.0
 40
1.0
 40
1.0
 40
1.0
 10
40.9889261254
 20
11.7446985117
 30
0.0
 10
40.9684229004
 20
11.5859882703
 30
0.0
 10
40.9160180369
 20
11.277121826
 30
0.0
 10
40.7993857334
 20
10.8328531806
 30
0.0
 10
40.6471238923
 20
10.4212026343
 30
0.0
 10
40.4601274631
 20
10.0449590047
 30
0.0
 10
40.2394837685
 20
9.7066209834
 30
0.0
 10
39.9864652725
 20
9.4085825309
 30
0.0
 10
39.7027729569
 20
9.1530637749
 30
0.0
 10
39.493830747
 20
9.0119334424
 30
0.0
 10
39.3857585242
 20
8.9495469857
 30
0.0
  0
SPLINE
  5
369
100
AcDbEntity
  8
0
100
AcDbSpline
 62
7
  6
BYLAYER
 70
0
 71
3
 72
20
 73
16
 74
0
 42
0.0000001
 43
0.0000001
 44
0.0000000001
 40
0.0
 40
0.0
 40
0.0
 40
0.0
 40
0.058003424
 40
0.1190833282
 40
0.1828084094
 40
0.2487292302
 40
0.3848294687
 40
0.522630974
 40
0.5906276241
 40
0.6571775017
 40
0.7217162325
 40
0.7837429178
 40
0.8428390988
 40
0.898697474
 40
1.0
 40
1.0
 40
1.0
 40
1.0
 10
33.1937385209
 20
17.1433030186
 30
0.0
 10
33.1937385209
 20
17.0411812126
 30
0.0
 10
33.2047079536
 20
16.8314199647
 30
0.0
 10
33.2506012446
 20
16.512480306
 30
0.0
 10
33.3258165564
 20
16.1848362206
 30
0.0
 10
33.4652356842
 20
15.737820607
 30
0.0
 10
33.7051784957
 20
15.1874850493
 30
0.0
 10
34.0185160141
 20
14.67124225
 30
0.0
 10
34.3083413554
 20
14.2888239628
 30
0.0
 10
34.5396119972
 20
14.0250115021
 30
0.0
 10
34.7825034295
 20
13.7865999908
 30
0.0
 10
35.0336712215
 20
13.5768508459
 30
0.0
 10
35.2898970425
 20
13.3985677138
 30
0.0
 10
35.6222339656
 20
13.21240469
 30
0.0
 10
35.8855436765
 20
13.1156351736
 30
0.0
 10
36.0603009865
 20
13.0799929892
 30
0.0
  0
SPLINE
  5
36A
100
AcDbEntity
  8
0
100
AcDbSpline
 62
7
  6
BYLAYER
 70
0
 71
3
 72
12
 73
8
 74
0
 42
0.0000001
 43
0.0000001
 44
0.0000000001
 40
0.0
 40
0.0
 40
0.0
 40
0.0
 40
0.2761512472
 40
0.5335675667
 40
0.7737666148
 40
0.8884282073
 40
1.0
 40
1.0
 40
1.0
 40
1.0
 10
30.4040501994
 20
24.4694526215
 30
0.0
 10
30.3775246093
 20
24.163769501
 30
0.0
 10
30.2928352451
 20
23.5751565327
 30
0.0
 10
30.0571597675
 20
22.7455309795
 30
0.0
 10
29.7711465056
 20
22.1243747159
 30
0.0
 10
29.4927307363
 20
21.686538787
 30
0.0
 10
29.3383117119
 20
21.4875957246
 30
0.0
 10
29.2575061601
 20
21.393582946
 30
0.0
  0
SPLINE
  5
36B
100
AcDbEntity
  8
0
100
AcDbSpline
 62
7
  6
BYLAYER
 70
0
 71
3
 72
14
 73
10
 74
0
 42
0.0000001
 43
0.0000001
 44
0.0000000001
 40
0.0
 40
0.0
 40
0.0
 40
0.0
 40
0.2774146969
 40
0.4083870186
 40
0.5344519974
 40
0.6560375884
 40
0.7737034603
 40
0.888116984
 40
1.0
 40
1.0
 40
1.0
 40
1.0
 10
34.7493916921
 20
8.1422268479
 30
0.0
 10
34.9906931401
 20
8.0415937928
 30
0.0
 10
35.3564359256
 20
7.9159979584
 30
0.0
 10
35.8493621989
 20
7.8103096878
 30
0.0
 10
36.2038133843
 20
7.7652127194
 30
0.0
 10
36.5483915658
 20
7.7530819578
 30
0.0
 10
36.8816210202
 20
7.7740040464
 30
0.0
 10
37.2018443594
 20
7.828022815
 30
0.0
 10
37.4075093422
 20
7.8864273489
 30
0.0
 10
37.5071196202
 20
7.9210086386
 30
0.0
  0
SPLINE
  5
36C
100
AcDbEntity
  8
0
100
AcDbSpline
 62
7
  6
BYLAYER
 70
0
 71
3
 72
17
 73
13
 74
0
 42
0.0000001
 43
0.0000001
 44
0.0000000001
 40
0.0
 40
0.0
 40
0.0
 40
0.0
 40
0.0578808685
 40
0.1175657521
 40
0.241358892
 40
0.3695515104
 40
0.5000009022
 40
0.630450173
 40
0.7586424349
 40
0.8824350022
 40
0.9421195294
 40
1.0
 40
1.0
 40
1.0
 40
1.0
 10
28.3684235379
 20
17.398021222
 30
0.0
 10
28.3897489714
 20
17.208322542
 30
0.0
 10
28.4451570909
 20
16.8242802468
 30
0.0
 10
28.6040695577
 20
16.0439439322
 30
0.0
 10
28.8921594589
 20
15.0550788365
 30
0.0
 10
29.3639938303
 20
13.8833466508
 30
0.0
 10
29.95425999
 20
12.7418072119
 30
0.0
 10
30.6477335794
 20
11.6598562874
 30
0.0
 10
31.4265691831
 20
10.6653763345
 30
0.0
 10
32.1389079566
 20
9.9214578093
 30
0.0
 10
32.735243107
 20
9.3936743634
 30
0.0
 10
33.040129287
 20
9.1536722066
 30
0.0
 10
33.1937502968
 20
9.0403565078
 30
0.0
  0
SPLINE
  5
36D
100
AcDbEntity
  8
0
100
AcDbSpline
 62
7
  6
BYLAYER
 70
0
 71
3
 72
11
 73
7
 74
0
 42
0.0000001
 43
0.0000001
 44
0.0000000001
 40
0.0
 40
0.0
 40
0.0
 40
0.0
 40
0.228329047
 40
0.4694963213
 40
0.7262062298
 40
1.0
 40
1.0
 40
1.0
 40
1.0
 10
29.2575061601
 20
21.393582946
 30
0.0
 10
29.1382628208
 20
21.2548499332
 30
0.0
 10
28.9190535155
 20
20.9464387241
 30
0.0
 10
28.6628417196
 20
20.4216416057
 30
0.0
 10
28.4738913463
 20
19.8310010054
 30
0.0
 10
28.3965287121
 20
19.411881533
 30
0.0
 10
28.3684235379
 20
19.1943265397
 30
0.0
  0
SPLINE
  5
36E
100
AcDbEntity
  8
0
100
AcDbSpline
 62
7
  6
BYLAYER
 70
0
 71
3
 72
15
 73
11
 74
0
 42
0.0000001
 43
0.0000001
 44
0.0000000001
 40
0.0
 40
0.0
 40
0.0
 40
0.0
 40
0.1485542476
 40
0.2895079336
 40
0.4227312601
 40
0.5486392753
 40
0.6680006006
 40
0.7819389782
 40
0.8919871068
 40
1.0
 40
1.0
 40
1.0
 40
1.0
 10
36.1636111424
 20
13.7957220328
 30
0.0
 10
36.1636111424
 20
13.715004756
 30
0.0
 10
36.1570869714
 20
13.5575926639
 30
0.0
 10
36.1261253584
 20
13.3296324785
 30
0.0
 10
36.0743539095
 20
13.1180376265
 30
0.0
 10
36.002216206
 20
12.9248864973
 30
0.0
 10
35.9102779362
 20
12.7520153295
 30
0.0
 10
35.7992238249
 20
12.6011994956
 30
0.0
 10
35.6701137409
 20
12.4741154054
 30
0.0
 10
35.5723851382
 20
12.4059389703
 30
0.0
 10
35.5215588973
 20
12.3765945162
 30
0.0
  0
SPLINE
  5
36F
100
AcDbEntity
  8
0
100
AcDbSpline
 62
7
  6
BYLAYER
 70
0
 71
3
 72
15
 73
11
 74
0
 42
0.0000001
 43
0.0000001
 44
0.0000000001
 40
0.0
 40
0.0
 40
0.0
 40
0.0
 40
0.1268299197
 40
0.2568090231
 40
0.3880619028
 40
0.5187120042
 40
0.6468802267
 40
0.7708013042
 40
0.8889357745
 40
1.0
 40
1.0
 40
1.0
 40
1.0
 10
30.5685917359
 20
25.3031071215
 30
0.0
 10
30.6022001487
 20
25.4169911185
 30
0.0
 10
30.6813444616
 20
25.6444391244
 30
0.0
 10
30.8306771054
 20
25.9761046261
 30
0.0
 10
31.0094825395
 20
26.2969801247
 30
0.0
 10
31.2138751006
 20
26.6001501083
 30
0.0
 10
31.4395073905
 20
26.8791177058
 30
0.0
 10
31.6815579664
 20
27.1279528684
 30
0.0
 10
31.9348430693
 20
27.3412738016
 30
0.0
 10
32.1137328777
 20
27.4608707735
 30
0.0
 10
32.2037819617
 20
27.5128603261
 30
0.0
  0
SPLINE
  5
370
100
AcDbEntity
  8
0
100
AcDbSpline
 62
7
  6
BYLAYER
 70
0
 71
3
 72
11
 73
7
 74
0
 42
0.0000001
 43
0.0000001
 44
0.0000000001
 40
0.0
 40
0.0
 40
0.0
 40
0.0
 40
0.2616895119
 40
0.5228076691
 40
0.7721068433
 40
1.0
 40
1.0
 40
1.0
 40
1.0
 10
38.9717063265
 20
21.4241906399
 30
0.0
 10
38.9875286795
 20
21.4637678906
 30
0.0
 10
39.0253165846
 20
21.5404917762
 30
0.0
 10
39.0969846805
 20
21.6443775163
 30
0.0
 10
39.1798665627
 20
21.7321593067
 30
0.0
 10
39.242733836
 20
21.7788889152
 30
0.0
 10
39.2748792132
 20
21.7974479466
 30
0.0
  0
SPLINE
  5
371
100
AcDbEntity
  8
0
100
AcDbSpline
 62
7
  6
BYLAYER
 70
0
 71
3
 72
10
 73
6
 74
0
 42
0.0000001
 43
0.0000001
 44
0.0000000001
 40
0.0
 40
0.0
 40
0.0
 40
0.0
 40
0.524785753
 40
0.7695873324
 40
1.0
 40
1.0
 40
1.0
 40
1.0
 10
30.5685917359
 20
25.3031071215
 30
0.0
 10
30.5264611261
 20
25.1603451807
 30
0.0
 10
30.473560243
 20
24.9481299615
 30
0.0
 10
30.4254902873
 20
24.668512138
 30
0.0
 10
30.4097000145
 20
24.5345615635
 30
0.0
 10
30.4040501994
 20
24.4694526215
 30
0.0
  0
SPLINE
  5
372
100
AcDbEntity
  8
0
100
AcDbSpline
 62
7
  6
BYLAYER
 70
0
 71
3
 72
25
 73
21
 74
0
 42
0.0000001
 43
0.0000001
 44
0.0000000001
 40
0.0
 40
0.0
 40
0.0
 40
0.0
 40
0.0213324285
 40
0.0428933858
 40
0.0648991481
 40
0.0875441437
 40
0.1353198008
 40
0.1872212146
 40
0.2436590676
 40
0.3046066468
 40
0.3696936832
 40
0.4382901399
 40
0.5095759841
 40
0.5826000095
 40
0.6563313932
 40
0.7297067832
 40
0.8016837581
 40
0.8712733932
 40
0.937620139
 40
1.0
 40
1.0
 40
1.0
 40
1.0
 10
35.5215588973
 20
12.3765945162
 30
0.0
 10
35.4834726518
 20
12.3546054792
 30
0.0
 10
35.4039710865
 20
12.3152449898
 30
0.0
 10
35.2772021023
 20
12.2714400231
 30
0.0
 10
35.143376813
 20
12.2428907781
 30
0.0
 10
34.9532983316
 20
12.2250547679
 30
0.0
 10
34.6998651046
 20
12.2436560698
 30
0.0
 10
34.3873939997
 20
12.3267133711
 30
0.0
 10
34.0670654895
 20
12.4682754702
 30
0.0
 10
33.7453738163
 20
12.6650927935
 30
0.0
 10
33.4288163292
 20
12.9129186045
 30
0.0
 10
33.1239754704
 20
13.2065048491
 30
0.0
 10
32.8372629925
 20
13.5396296334
 30
0.0
 10
32.5747639318
 20
13.9052132304
 30
0.0
 10
32.3420754039
 20
14.2954624729
 30
0.0
 10
32.1441481722
 20
14.7020521037
 30
0.0
 10
31.9852254726
 20
15.1163070464
 30
0.0
 10
31.8686442847
 20
15.5294588887
 30
0.0
 10
31.7969630455
 20
15.9326602066
 30
0.0
 10
31.7795308465
 20
16.1982146116
 30
0.0
 10
31.7795308465
 20
16.3268147108
 30
0.0
  0
SPLINE
  5
373
100
AcDbEntity
  8
0
100
AcDbSpline
 62
7
  6
BYLAYER
 70
0
 71
3
 72
11
 73
7
 74
0
 42
0.0000001
 43
0.0000001
 44
0.0000000001
 40
0.0
 40
0.0
 40
0.0
 40
0.0
 40
0.2624250334
 40
0.5180320939
 40
0.7645439478
 40
1.0
 40
1.0
 40
1.0
 40
1.0
 10
38.6856358287
 20
15.9503728858
 30
0.0
 10
38.5274465309
 20
16.3170744967
 30
0.0
 10
38.2410494639
 20
17.0524717982
 30
0.0
 10
37.9015118932
 20
18.1665337678
 30
0.0
 10
37.6612392521
 20
19.2642377307
 30
0.0
 10
37.5672661007
 20
19.9929123534
 30
0.0
 10
37.5390917894
 20
20.3501276305
 30
0.0
  0
SPLINE
  5
374
100
AcDbEntity
  8
0
100
AcDbSpline
 62
7
  6
BYLAYER
 70
0
 71
3
 72
15
 73
11
 74
0
 42
0.0000001
 43
0.0000001
 44
0.0000000001
 40
0.0
 40
0.0
 40
0.0
 40
0.0
 40
0.1485542476
 40
0.2895079336
 40
0.4227312601
 40
0.5486392753
 40
0.6680006006
 40
0.7819389782
 40
0.8919871068
 40
1.0
 40
1.0
 40
1.0
 40
1.0
 10
31.7795308465
 20
16.3268147108
 30
0.0
 10
31.7795308465
 20
16.4075319877
 30
0.0
 10
31.7860550174
 20
16.5649440797
 30
0.0
 10
31.8170166305
 20
16.7929042651
 30
0.0
 10
31.8687880794
 20
17.0044991172
 30
0.0
 10
31.9409257829
 20
17.1976502464
 30
0.0
 10
32.0328640527
 20
17.3705214141
 30
0.0
 10
32.143918164
 20
17.5213372481
 30
0.0
 10
32.273028248
 20
17.6484213383
 30
0.0
 10
32.3707568507
 20
17.7165977734
 30
0.0
 10
32.4215830916
 20
17.7459422275
 30
0.0
  0
SPLINE
  5
375
100
AcDbEntity
  8
0
100
AcDbSpline
 62
7
  6
BYLAYER
 70
0
 71
3
 72
11
 73
7
 74
0
 42
0.0000001
 43
0.0000001
 44
0.0000000001
 40
0.0
 40
0.0
 40
0.0
 40
0.0
 40
0.2373571608
 40
0.484305548
 40
0.7391576149
 40
1.0
 40
1.0
 40
1.0
 40
1.0
 10
39.574718451
 20
12.7245155217
 30
0.0
 10
39.5450438389
 20
12.9884836492
 30
0.0
 10
39.461044924
 20
13.5246540742
 30
0.0
 10
39.2696679833
 20
14.3301693003
 30
0.0
 10
39.0125424313
 20
15.1447276891
 30
0.0
 10
38.8012628616
 20
15.6823356684
 30
0.0
 10
38.6856358287
 20
15.9503728858
 30
0.0
  0
SPLINE
  5
376
100
AcDbEntity
  8
0
100
AcDbSpline
 62
7
  6
BYLAYER
 70
0
 71
3
 72
15
 73
11
 74
0
 42
0.0000001
 43
0.0000001
 44
0.0000000001
 40
0.0
 40
0.0
 40
0.0
 40
0.0
 40
0.1110642255
 40
0.2291986958
 40
0.3531197733
 40
0.4812879958
 40
0.6119380972
 40
0.7431909769
 40
0.8731700803
 40
1.0
 40
1.0
 40
1.0
 40
1.0
 10
39.2748792132
 20
23.4304527809
 30
0.0
 10
39.1848301292
 20
23.3784632283
 30
0.0
 10
39.0059403207
 20
23.2588662564
 30
0.0
 10
38.7526552179
 20
23.0455453232
 30
0.0
 10
38.510604642
 20
22.7967101606
 30
0.0
 10
38.2849723521
 20
22.5177425631
 30
0.0
 10
38.080579791
 20
22.2145725795
 30
0.0
 10
37.9017743569
 20
21.8936970809
 30
0.0
 10
37.7524417131
 20
21.5620315792
 30
0.0
 10
37.6732974002
 20
21.3345835733
 30
0.0
 10
37.6396889873
 20
21.2206995763
 30
0.0
  0
SPLINE
  5
377
100
AcDbEntity
  8
0
100
AcDbSpline
 62
7
  6
BYLAYER
 70
0
 71
3
 72
9
 73
5
 74
0
 42
0.0000001
 43
0.0000001
 44
0.0000000001
 40
0.0
 40
0.0
 40
0.0
 40
0.0
 40
0.4865945872
 40
1.0
 40
1.0
 40
1.0
 40
1.0
 10
37.5390917894
 20
20.3501276305
 30
0.0
 10
37.527868509
 20
20.4924248891
 30
0.0
 10
37.5357642113
 20
20.7878125698
 30
0.0
 10
37.5970615909
 20
21.076254246
 30
0.0
 10
37.6396889873
 20
21.2206995763
 30
0.0
  0
SPLINE
  5
378
100
AcDbEntity
  8
0
100
AcDbSpline
 62
7
  6
BYLAYER
 70
0
 71
3
 72
16
 73
12
 74
0
 42
0.0000001
 43
0.0000001
 44
0.0000000001
 40
0.0
 40
0.0
 40
0.0
 40
0.0
 40
0.1485640224
 40
0.2894913749
 40
0.4226998743
 40
0.4865561178
 40
0.5486674638
 40
0.6680215457
 40
0.7819508473
 40
0.891992273
 40
1.0
 40
1.0
 40
1.0
 40
1.0
 10
42.4568464807
 20
25.2675514733
 30
0.0
 10
42.569604125
 20
25.332651741
 30
0.0
 10
42.7842239413
 20
25.4686979906
 30
0.0
 10
43.0776290188
 20
25.6957723539
 30
0.0
 10
43.2921052285
 20
25.9010725993
 30
0.0
 10
43.4415998772
 20
26.0722591797
 30
0.0
 10
43.5727433251
 20
26.2427703508
 30
0.0
 10
43.7103876333
 20
26.4630666667
 30
0.0
 10
43.8314821189
 20
26.7397893102
 30
0.0
 10
43.9048437995
 20
27.0226176215
 30
0.0
 10
43.9212955106
 20
27.214097558
 30
0.0
 10
43.9212956013
 20
27.3087552458
 30
0.0
  0
SPLINE
  5
379
100
AcDbEntity
  8
0
100
AcDbSpline
 62
7
  6
BYLAYER
 70
0
 71
3
 72
15
 73
11
 74
0
 42
0.0000001
 43
0.0000001
 44
0.0000000001
 40
0.0
 40
0.0
 40
0.0
 40
0.0
 40
0.1121379974
 40
0.2257076448
 40
0.3420863818
 40
0.4624621039
 40
0.5878056376
 40
0.7188670406
 40
0.8561916265
 40
1.0
 40
1.0
 40
1.0
 40
1.0
 10
37.9715508497
 20
8.1330586779
 30
0.0
 10
38.0796230726
 20
8.1954451347
 30
0.0
 10
38.2885652824
 20
8.3365754671
 30
0.0
 10
38.5722575981
 20
8.5920942231
 30
0.0
 10
38.8252760941
 20
8.8901326757
 30
0.0
 10
39.0459197887
 20
9.2284706969
 30
0.0
 10
39.2329162179
 20
9.6047143266
 30
0.0
 10
39.385178059
 20
10.0163648729
 30
0.0
 10
39.5018103625
 20
10.4606335182
 30
0.0
 10
39.554215226
 20
10.7694999626
 30
0.0
 10
39.574718451
 20
10.928210204
 30
0.0
  0
SPLINE
  5
37A
100
AcDbEntity
  8
0
100
AcDbSpline
 62
7
  6
BYLAYER
 70
0
 71
3
 72
24
 73
20
 74
0
 42
0.0000001
 43
0.0000001
 44
0.0000000001
 40
0.0
 40
0.0
 40
0.0
 40
0.0
 40
0.0623810538
 40
0.128735554
 40
0.1983285071
 40
0.2703114991
 40
0.3436931283
 40
0.417431135
 40
0.4904621028
 40
0.5617548185
 40
0.6303581638
 40
0.6954512977
 40
0.756403344
 40
0.8128444393
 40
0.8647486639
 40
0.9125271085
 40
0.9571047957
 40
0.9786664988
 40
1.0
 40
1.0
 40
1.0
 40
1.0
 10
41.7497367555
 20
25.6757922278
 30
0.0
 10
41.6060403092
 20
25.5928295411
 30
0.0
 10
41.2980487052
 20
25.4409910586
 30
0.0
 10
40.8012549827
 20
25.26095547
 30
0.0
 10
40.2643591891
 20
25.1246845913
 30
0.0
 10
39.6989220689
 20
25.0350048616
 30
0.0
 10
39.1168767993
 20
24.9938588579
 30
0.0
 10
38.5306623982
 20
25.0021103915
 30
0.0
 10
37.9527761539
 20
25.0595809595
 30
0.0
 10
37.3955368475
 20
25.1650452199
 30
0.0
 10
36.8707827453
 20
25.3162731428
 30
0.0
 10
36.3896097109
 20
25.5101151445
 30
0.0
 10
35.9621323448
 20
25.7426277534
 30
0.0
 10
35.5972970628
 20
26.0092081822
 30
0.0
 10
35.3028674059
 20
26.3049245331
 30
0.0
 10
35.0856230615
 20
26.6242748468
 30
0.0
 10
34.9728000153
 20
26.9088122198
 30
0.0
 10
34.9286491835
 20
27.1377760008
 30
0.0
 10
34.9213143682
 20
27.2520107392
 30
0.0
 10
34.9213090589
 20
27.3087552917
 30
0.0
  0
SPLINE
  5
37B
100
AcDbEntity
  8
0
100
AcDbSpline
 62
7
  6
BYLAYER
 70
0
 71
3
 72
15
 73
11
 74
0
 42
0.0000001
 43
0.0000001
 44
0.0000000001
 40
0.0
 40
0.0
 40
0.0
 40
0.0
 40
0.1080097881
 40
0.2180560298
 40
0.3319966665
 40
0.4513535242
 40
0.5772592029
 40
0.7104909827
 40
0.8514573954
 40
1.0
 40
1.0
 40
1.0
 40
1.0
 10
42.9212866509
 20
27.3087552002
 30
0.0
 10
42.9212937358
 20
27.2330323749
 30
0.0
 10
42.9081321776
 20
27.0798524813
 30
0.0
 10
42.8494545134
 20
26.8535907417
 30
0.0
 10
42.7525446311
 20
26.6322166912
 30
0.0
 10
42.6187185426
 20
26.4179455817
 30
0.0
 10
42.4494137081
 20
26.2127375041
 30
0.0
 10
42.2463704888
 20
26.0183662657
 30
0.0
 10
42.0116053786
 20
25.8367109308
 30
0.0
 10
41.8399241856
 20
25.7278616541
 30
0.0
 10
41.7497367555
 20
25.6757922278
 30
0.0
  0
SPLINE
  5
37C
100
AcDbEntity
  8
0
100
AcDbSpline
 62
7
  6
BYLAYER
 70
0
 71
3
 72
9
 73
5
 74
0
 42
0.0000001
 43
0.0000001
 44
0.0000000001
 40
0.0
 40
0.0
 40
0.0
 40
0.0
 40
0.2437248471
 40
1.0
 40
1.0
 40
1.0
 40
1.0
 10
34.6617999591
 20
64.0416072534
 30
0.0
 10
34.6873748661
 20
64.0563728448
 30
0.0
 10
34.7911544366
 20
64.1189568372
 30
0.0
 10
34.8908206364
 20
64.188167256
 30
0.0
 10
34.9645323401
 20
64.2426063329
 30
0.0
  0
SPLINE
  5
37D
100
AcDbEntity
  8
0
100
AcDbSpline
 62
7
  6
BYLAYER
 70
0
 71
3
 72
11
 73
7
 74
0
 42
0.0000001
 43
0.0000001
 44
0.0000000001
 40
0.0
 40
0.0
 40
0.0
 40
0.0
 40
0.2677314471
 40
0.5287679768
 40
0.7758859735
 40
1.0
 40
1.0
 40
1.0
 40
1.0
 10
42.9435936883
 20
63.6995393237
 30
0.0
 10
42.9734662133
 20
63.6096940187
 30
0.0
 10
43.0322248959
 20
63.4321718607
 30
0.0
 10
43.1215075238
 20
63.1726969249
 30
0.0
 10
43.211456498
 20
62.9298435824
 30
0.0
 10
43.2754454291
 20
62.7758422114
 30
0.0
 10
43.3088111161
 20
62.7039513727
 30
0.0
  0
SPLINE
  5
37E
100
AcDbEntity
  8
0
100
AcDbSpline
 62
7
  6
BYLAYER
 70
0
 71
3
 72
27
 73
23
 74
0
 42
0.0000001
 43
0.0000001
 44
0.0000000001
 40
0.0
 40
0.0
 40
0.0
 40
0.0
 40
0.0612699442
 40
0.1199852168
 40
0.1767688894
 40
0.2321712891
 40
0.2867139333
 40
0.3410443776
 40
0.3684599239
 40
0.3963910431
 40
0.4252972231
 40
0.4557933896
 40
0.4880674468
 40
0.5217810171
 40
0.556290429
 40
0.5912077065
 40
0.6614298625
 40
0.7314864436
 40
0.8008678953
 40
0.8691239849
 40
0.935736668
 40
1.0
 40
1.0
 40
1.0
 40
1.0
 10
43.1807957508
 20
62.4281159458
 30
0.0
 10
43.1214715066
 20
62.3938652819
 30
0.0
 10
43.0022699029
 20
62.3319275976
 30
0.0
 10
42.8204384486
 20
62.2541451018
 30
0.0
 10
42.6404255571
 20
62.1897978521
 30
0.0
 10
42.4620935234
 20
62.1353624675
 30
0.0
 10
42.2848170211
 20
62.0872987892
 30
0.0
 10
42.1373204553
 20
62.0490441074
 30
0.0
 10
42.01929992
 20
62.0157240767
 30
0.0
 10
41.9295669042
 20
61.9869743358
 30
0.0
 10
41.8385052042
 20
61.9514277668
 30
0.0
 10
41.7470928672
 20
61.9046232235
 30
0.0
 10
41.6565391095
 20
61.8457120342
 30
0.0
 10
41.5673683213
 20
61.7772505418
 30
0.0
 10
41.4788483555
 20
61.7033278122
 30
0.0
 10
41.3612110409
 20
61.6006617112
 30
0.0
 10
41.2152777411
 20
61.4700077696
 30
0.0
 10
41.0396302695
 20
61.3147759394
 30
0.0
 10
40.8626966208
 20
61.1643587434
 30
0.0
 10
40.6842230297
 20
61.0218113946
 30
0.0
 10
40.5042976518
 20
60.8905550514
 30
0.0
 10
40.3809003337
 20
60.8116052223
 30
0.0
 10
40.3186777602
 20
60.7756812172
 30
0.0
  0
SPLINE
  5
37F
100
AcDbEntity
  8
0
100
AcDbSpline
 62
7
  6
BYLAYER
 70
0
 71
3
 72
24
 73
20
 74
0
 42
0.0000001
 43
0.0000001
 44
0.0000000001
 40
0.0
 40
0.0
 40
0.0
 40
0.0
 40
0.0668865511
 40
0.1394682781
 40
0.2160702092
 40
0.2954446637
 40
0.3764984493
 40
0.4579652725
 40
0.5374520695
 40
0.5747073236
 40
0.6085076153
 40
0.6379440599
 40
0.6634990628
 40
0.7083805657
 40
0.7506844298
 40
0.7935321156
 40
0.8385715925
 40
0.8870990722
 40
1.0
 40
1.0
 40
1.0
 40
1.0
 10
35.5814131264
 20
61.5085159252
 30
0.0
 10
35.5579005677
 20
61.5591768801
 30
0.0
 10
35.5120071138
 20
61.6662653096
 30
0.0
 10
35.4466588412
 20
61.8344538012
 30
0.0
 10
35.3816697068
 20
62.0139115578
 30
0.0
 10
35.3171581848
 20
62.2010311463
 30
0.0
 10
35.2531412926
 20
62.3926069836
 30
0.0
 10
35.1896353376
 20
62.5844438551
 30
0.0
 10
35.1365216875
 20
62.7412154278
 30
0.0
 10
35.0925928973
 20
62.8590148392
 30
0.0
 10
35.0599133334
 20
62.9363462047
 30
0.0
 10
35.0266324265
 20
63.0026785642
 30
0.0
 10
34.9834839752
 20
63.074130593
 30
0.0
 10
34.9280643747
 20
63.1503476215
 30
0.0
 10
34.8614104851
 20
63.2360380903
 30
0.0
 10
34.7957159017
 20
63.3226705433
 30
0.0
 10
34.7299230493
 20
63.4156971067
 30
0.0
 10
34.6367870585
 20
63.5608334612
 30
0.0
 10
34.5734725377
 20
63.6802588389
 30
0.0
 10
34.5337845938
 20
63.7657718265
 30
0.0
  0
SPLINE
  5
380
100
AcDbEntity
  8
0
100
AcDbSpline
 62
7
  6
BYLAYER
 70
0
 71
3
 72
23
 73
19
 74
0
 42
0.0000001
 43
0.0000001
 44
0.0000000001
 40
0.0
 40
0.0
 40
0.0
 40
0.0
 40
0.0428143068
 40
0.0871164432
 40
0.1344150249
 40
0.1857278537
 40
0.241550586
 40
0.3019242735
 40
0.3665317047
 40
0.4347829969
 40
0.5058857646
 40
0.5789061394
 40
0.6528230453
 40
0.7265770793
 40
0.7991149573
 40
0.8694280722
 40
0.9366516008
 40
1.0
 40
1.0
 40
1.0
 40
1.0
 10
42.9032311563
 20
63.6856481434
 30
0.0
 10
42.9080647786
 20
63.5728263114
 30
0.0
 10
42.8880019271
 20
63.3409549426
 30
0.0
 10
42.7694492971
 20
63.0034202124
 30
0.0
 10
42.5671065398
 20
62.6821308084
 30
0.0
 10
42.2869653338
 20
62.3835835143
 30
0.0
 10
41.9356309267
 20
62.1130521552
 30
0.0
 10
41.5206434911
 20
61.8755497083
 30
0.0
 10
41.0506777341
 20
61.6756945216
 30
0.0
 10
40.5355685175
 20
61.517546653
 30
0.0
 10
39.9861693492
 20
61.4043986979
 30
0.0
 10
39.4141254883
 20
61.338614734
 30
0.0
 10
38.8315936437
 20
61.3215818629
 30
0.0
 10
38.2509636885
 20
61.3536725614
 30
0.0
 10
37.6846278877
 20
61.4342337057
 30
0.0
 10
37.1445094122
 20
61.561499189
 30
0.0
 10
36.6422389741
 20
61.7328530238
 30
0.0
 10
36.3293119588
 20
61.878856804
 30
0.0
 10
36.1827026051
 20
61.959001517
 30
0.0
  0
SPLINE
  5
381
100
AcDbEntity
  8
0
100
AcDbSpline
 62
7
  6
BYLAYER
 70
0
 71
3
 72
14
 73
10
 74
0
 42
0.0000001
 43
0.0000001
 44
0.0000000001
 40
0.0
 40
0.0
 40
0.0
 40
0.0
 40
0.2867375483
 40
0.4191104903
 40
0.5445651458
 40
0.6640001571
 40
0.7786435567
 40
0.8900363046
 40
1.0
 40
1.0
 40
1.0
 40
1.0
 10
35.9537046753
 20
62.0949523323
 30
0.0
 10
35.7951714984
 20
62.197185121
 30
0.0
 10
35.5744477697
 20
62.3662464229
 30
0.0
 10
35.3287476025
 20
62.6278362615
 30
0.0
 10
35.1810599269
 20
62.828143341
 30
0.0
 10
35.0666594265
 20
63.0360171773
 30
0.0
 10
34.9866087877
 20
63.2496654005
 30
0.0
 10
34.9420345482
 20
63.4670901958
 30
0.0
 10
34.9362739838
 20
63.6133715763
 30
0.0
 10
34.9393636448
 20
63.6856481564
 30
0.0
  0
SPLINE
  5
382
100
AcDbEntity
  8
0
100
AcDbSpline
 62
7
  6
BYLAYER
 70
0
 71
3
 72
23
 73
19
 74
0
 42
0.0000001
 43
0.0000001
 44
0.0000000001
 40
0.0
 40
0.0
 40
0.0
 40
0.0
 40
0.0626088504
 40
0.1292577682
 40
0.1991591432
 40
0.2714572243
 40
0.3451319311
 40
0.4191079231
 40
0.4923009727
 40
0.5636570473
 40
0.6322103989
 40
0.6971367587
 40
0.7578116759
 40
0.8138898827
 40
0.8653953133
 40
0.9128138945
 40
0.9571696465
 40
1.0
 40
1.0
 40
1.0
 40
1.0
 10
36.9141295457
 20
89.2319351092
 30
0.0
 10
37.0171946196
 20
89.1724318072
 30
0.0
 10
37.2382827298
 20
89.0636475935
 30
0.0
 10
37.595013486
 20
88.9350311682
 30
0.0
 10
37.9806447916
 20
88.8381877697
 30
0.0
 10
38.3866640423
 20
88.7751612285
 30
0.0
 10
38.8043422525
 20
88.7473327535
 30
0.0
 10
39.224563639
 20
88.7552904398
 30
0.0
 10
39.6381822447
 20
88.79885922
 30
0.0
 10
40.0362006297
 20
88.8771242664
 30
0.0
 10
40.4099943882
 20
88.9883704803
 30
0.0
 10
40.7515100452
 20
89.1302281476
 30
0.0
 10
41.0534179522
 20
89.2997816555
 30
0.0
 10
41.3092627661
 20
89.4936470152
 30
0.0
 10
41.5134759739
 20
89.7081157365
 30
0.0
 10
41.6611465152
 20
89.9393554858
 30
0.0
 10
41.7477541119
 20
90.1826312921
 30
0.0
 10
41.7624837444
 20
90.3498950161
 30
0.0
 10
41.7589981936
 20
90.431233481
 30
0.0
  0
SPLINE
  5
383
100
AcDbEntity
  8
0
100
AcDbSpline
 62
7
  6
BYLAYER
 70
0
 71
3
 72
9
 73
5
 74
0
 42
0.0000001
 43
0.0000001
 44
0.0000000001
 40
0.0
 40
0.0
 40
0.0
 40
0.0
 40
0.2456823418
 40
1.0
 40
1.0
 40
1.0
 40
1.0
 10
34.5337845938
 20
63.7657718265
 30
0.0
 10
34.5422882804
 20
63.7891963588
 30
0.0
 10
34.5790086344
 20
63.8837681863
 30
0.0
 10
34.6240003417
 20
63.97508369
 30
0.0
 10
34.6617999591
 20
64.0416072534
 30
0.0
  0
SPLINE
  5
384
100
AcDbEntity
  8
0
100
AcDbSpline
 62
7
  6
BYLAYER
 70
0
 71
3
 72
9
 73
5
 74
0
 42
0.0000001
 43
0.0000001
 44
0.0000000001
 40
0.0
 40
0.0
 40
0.0
 40
0.0
 40
0.2456823418
 40
1.0
 40
1.0
 40
1.0
 40
1.0
 10
43.3088111161
 20
62.7039513727
 30
0.0
 10
43.3003074295
 20
62.6805268405
 30
0.0
 10
43.2635870755
 20
62.5859550129
 30
0.0
 10
43.2185953682
 20
62.4946395093
 30
0.0
 10
43.1807957508
 20
62.4281159458
 30
0.0
  0
SPLINE
  5
385
100
AcDbEntity
  8
0
100
AcDbSpline
 62
7
  6
BYLAYER
 70
0
 71
3
 72
14
 73
10
 74
0
 42
0.0000001
 43
0.0000001
 44
0.0000000001
 40
0.0
 40
0.0
 40
0.0
 40
0.0
 40
0.1083220005
 40
0.2183002309
 40
0.3319733847
 40
0.4510200321
 40
0.5767336656
 40
0.710002062
 40
1.0
 40
1.0
 40
1.0
 40
1.0
 10
36.0835892572
 20
90.4312335991
 30
0.0
 10
36.0812296906
 20
90.3759534928
 30
0.0
 10
36.0863190048
 20
90.263883734
 30
0.0
 10
36.1235073243
 20
90.0976319752
 30
0.0
 10
36.1897537043
 20
89.9347871845
 30
0.0
 10
36.2839910218
 20
89.7770783959
 30
0.0
 10
36.4052105384
 20
89.6260515031
 30
0.0
 10
36.6065028854
 20
89.4300754326
 30
0.0
 10
36.7858446701
 20
89.3059987411
 30
0.0
 10
36.9141295457
 20
89.2319351092
 30
0.0
  0
SPLINE
  5
386
100
AcDbEntity
  8
0
100
AcDbSpline
 62
7
  6
BYLAYER
 70
0
 71
3
 72
24
 73
20
 74
0
 42
0.0000001
 43
0.0000001
 44
0.0000000001
 40
0.0
 40
0.0
 40
0.0
 40
0.0
 40
0.0632453382
 40
0.1269845143
 40
0.2551309642
 40
0.3193565594
 40
0.3835977327
 40
0.4157000897
 40
0.4477597507
 40
0.4797018254
 40
0.511368448
 40
0.5425647522
 40
0.5732895508
 40
0.6036611383
 40
0.633840089
 40
0.6940045739
 40
0.7542508385
 40
0.8758721407
 40
1.0
 40
1.0
 40
1.0
 40
1.0
 10
39.8409110223
 20
60.7017702714
 30
0.0
 10
39.7573934677
 20
60.7146900822
 30
0.0
 10
39.5907932804
 20
60.7478686402
 30
0.0
 10
39.2611515138
 20
60.8353776191
 30
0.0
 10
38.937041458
 20
60.9463081408
 30
0.0
 10
38.6164167699
 20
61.0677972768
 30
0.0
 10
38.4163455821
 20
61.1453239171
 30
0.0
 10
38.2554644439
 20
61.2049776313
 30
0.0
 10
38.1339830417
 20
61.2466710332
 30
0.0
 10
38.0112352405
 20
61.2826785713
 30
0.0
 10
37.8869759906
 20
61.3082962865
 30
0.0
 10
37.7623988701
 20
61.3213237666
 30
0.0
 10
37.6389933878
 20
61.3234078076
 30
0.0
 10
37.5170732112
 20
61.319308255
 30
0.0
 10
37.3560629705
 20
61.3094178839
 30
0.0
 10
37.1554467046
 20
61.2937616249
 30
0.0
 10
36.8328071552
 20
61.2713081461
 30
0.0
 10
36.4238991342
 20
61.2582653459
 30
0.0
 10
36.0950794302
 20
61.2812345009
 30
0.0
 10
35.9311644991
 20
61.3065914442
 30
0.0
  0
ENDSEC
  0
SECTION
  2
OBJECTS
  0
DICTIONARY
  5
C
100
AcDbDictionary
280
0
281
1
  3
ACAD_GROUP
350
D
  3
ACAD_MLINESTYLE
350
17
  3
ACAD_LAYOUT
350
1A
  3
ACAD_PLOTSETTINGS
350
19
  3
ACAD_PLOTSTYLENAME
350
E
  0
DICTIONARY
  5
D
102
{ACAD_REACTORS
330
C
102
}
100
AcDbDictionary
280
0
281
1
  0
ACDBDICTIONARYWDFLT
  5
E
102
{ACAD_REACTORS
330
C
102
}
100
AcDbDictionary
281
1
  3
Normal
350
F
100
AcDbDictionaryWithDefault
340
F
  0
DICTIONARY
  5
17
102
{ACAD_REACTORS
330
C
102
}
100
AcDbDictionary
280
0
281
1
  3
Standard
350
18
  0
DICTIONARY
  5
19
102
{ACAD_REACTORS
330
C
102
}
100
AcDbDictionary
281
1
  0
DICTIONARY
  5
1A
102
{ACAD_REACTORS
330
C
102
}
100
AcDbDictionary
281
1
  3
Model
350
387
  3
Layout1
350
388
  0
ACDBPLACEHOLDER
  5
F
102
{ACAD_REACTORS
330
E
102
}
  0
MLINESTYLE
  5
18
102
{ACAD_REACTORS
330
17
102
}
100
AcDbMlineStyle
  2
STANDARD
 70
0
  3

 62
256
 51
90.0
 52
90.0
 71
2
 49
0.5
 62
256
  6
BYLAYER
 49
-0.5
 62
256
  6
BYLAYER
  0
LAYOUT
  5
387
102
{ACAD_REACTORS
330
1A
102
}
100
AcDbPlotSettings
  1

  2
none_device
  4

  6

 40
0.0
 41
0.0
 42
0.0
 43
0.0
 44
210.0
 45
297.0
 46
0.0
 47
0.0
 48
0.0
 49
0.0
140
0.0
141
0.0
142
1.0
143
1.0
 70
1024
 72
1
 73
0
 74
0
  7

 75
0
147
1.0
148
0.0
149
0.0
100
AcDbLayout
  1
Model
 70
0
 71
0
 10
0.0
 20
0.0
 11
210.0
 21
297.0
 12
0.0
 22
0.0
 32
0.0
 14
0.0
 24
0.0
 34
0.0
 15
0.0
 25
0.0
 35
0.0
146
0.0
 13
0.0
 23
0.0
 33
0.0
 16
1.0
 26
0.0
 36
0.0
 17
0.0
 27
1.0
 37
0.0
 76
0
330
210
345
0
346
0
  0
LAYOUT
  5
388
102
{ACAD_REACTORS
330
1A
102
}
100
AcDbPlotSettings
  1

  2
none_device
  4

  6

 40
0.0
 41
0.0
 42
0.0
 43
0.0
 44
210.0
 45
297.0
 46
0.0
 47
0.0
 48
0.0
 49
0.0
140
0.0
141
0.0
142
1.0
143
1.0
 70
0
 72
1
 73
0
 74
0
  7

 75
0
147
1.0
148
0.0
149
0.0
100
AcDbLayout
  1
Layout1
 70
0
 71
1
 10
0.0
 20
0.0
 11
210.0
 21
297.0
 12
0.0
 22
0.0
 32
0.0
 14
0.0
 24
0.0
 34
0.0
 15
0.0
 25
0.0
 35
0.0
146
0.0
 13
0.0
 23
0.0
 33
0.0
 16
1.0
 26
0.0
 36
0.0
 17
0.0
 27
1.0
 37
0.0
 76
0
330
211
345
0
346
0
  0
ENDSEC
  0
EOF
