999
DXF file: C:\Users\sesa63760\Dev\_Creo\CAD\MCADID0004829_3D-CAD\drw0001_1.dxf
999
Pro/ENGINEER 2019471 by Parametric Technology Corporation
  0
SECTION
  2
HEADER
  9
$ACADVER
  1
AC1024
  9
$DWGCODEPAGE
  3
ANSI_1252
  9
$EXTMAX
 10
90.6275507981
 20
128.1732504145
 30
0.0
  9
$EXTMIN
 10
0.0
 20
0.0
 30
0.0
  9
$LIMMIN
 10
0.0
 20
0.0
  9
$LIMMAX
 10
90.6275507981
 20
128.1732504145
  9
$VIEWCTR
 10
45.3137753991
 20
64.0866252072
  9
$VIEWSIZE
 40
128.1732504145
  9
$CLAYER
  8
0
  9
$LTSCALE
 40
8.3549970641
  9
$CELTYPE
  6
BYLAYER
  9
$DIMSCALE
 40
1.0
  9
$DIMASZ
 40
1.0788994143
  9
$DIMEXO
 40
1.0
  9
$DIMDLI
 40
5.7725434261
  9
$DIMEXE
 40
1.0
  9
$DIMCEN
 40
1.3671813378
  9
$DIMLFAC
 40
1.0
  9
$DIMBLK
  1
_FILLED
  9
$DIMALT
 70
0
  9
$DIMALTF
 40
0.0393700787
  9
$DIMTXT
 40
1.51045918
  9
$DIMTOL
 70
1
  9
$DIMLIM
 70
0
  9
$DIMTFAC
 40
1.0
  9
$DIMTP
 40
0.01
  9
$DIMTM
 40
0.01
  9
$DIMGAP
 40
0.625
  9
$DIMDSEP
 70
46
  9
$AUNITS
 70
0
  9
$PDMODE
 70
3
  9
$PDSIZE
 40
0.3125
  9
$HANDSEED
  5
2F7
  9
$TILEMODE
 70
1
  9
$MEASUREMENT
 70
1
  9
$INSUNITS
 70
4
  0
ENDSEC
  0
SECTION
  2
CLASSES
  0
CLASS
  1
ACDBDICTIONARYWDFLT
  2
AcDbDictionaryWithDefault
  3
AutoCAD 2000
 90
0
 91
1
280
0
281
0
  0
CLASS
  1
ACDBPLACEHOLDER
  2
AcDbPlaceHolder
  3
AutoCAD 2000
 90
0
 91
1
280
0
281
0
  0
CLASS
  1
LAYOUT
  2
AcDbLayout
  3
AutoCAD 2000
 90
0
 91
0
280
0
281
0
  0
ENDSEC
  0
SECTION
  2
TABLES
  0
TABLE
  2
VPORT
  5
8
100
AcDbSymbolTable
 70
2
  0
VPORT
  5
1F4
100
AcDbSymbolTableRecord
100
AcDbViewportTableRecord
  2
*ACTIVE
 70
0
 10
0.0
 20
0.0
 11
1.0
 21
1.0
 12
45.3137753991
 22
64.0866252072
 13
0.0
 23
0.0
 14
1.0
 24
1.0
 15
0.0
 25
0.0
 16
0.0
 26
0.0
 36
1.0
 17
0.0
 27
0.0
 37
0.0
 40
128.1732504145
 41
0.7070707071
 42
50.0
 43
0.0
 44
0.0
 50
0.0
 51
0.0
 71
0
 72
100
 73
1
 74
1
 75
0
 76
0
 77
0
 78
0
  0
ENDTAB
  0
TABLE
  2
LTYPE
  5
5
100
AcDbSymbolTable
 70
6
  0
LTYPE
  5
14
100
AcDbSymbolTableRecord
100
AcDbLinetypeTableRecord
  2
BYBLOCK
 70
0
  3

 72
65
 73
0
 40
0.0
  0
LTYPE
  5
15
100
AcDbSymbolTableRecord
100
AcDbLinetypeTableRecord
  2
BYLAYER
 70
0
  3

 72
65
 73
0
 40
0.0
  0
LTYPE
  5
16
100
AcDbSymbolTableRecord
100
AcDbLinetypeTableRecord
  2
CONTINUOUS
 70
64
  3
Solid line
 72
65
 73
0
 40
0.0
  0
LTYPE
  5
1F5
100
AcDbSymbolTableRecord
100
AcDbLinetypeTableRecord
  2
CENTER
 70
64
  3
____ _ ____ _ ____ _ ____ _ ____ _ ____ _ ____
 72
65
 73
4
 40
0.6
 49
0.375
 74
0
 49
-0.075
 74
0
 49
0.075
 74
0
 49
-0.075
 74
0
  0
LTYPE
  5
1F6
100
AcDbSymbolTableRecord
100
AcDbLinetypeTableRecord
  2
HIDDEN
 70
64
  3
- - - - - - - - - - - - - - - - - - - -
 72
65
 73
2
 40
0.2
 49
0.1
 74
0
 49
-0.1
 74
0
  0
LTYPE
  5
1F7
100
AcDbSymbolTableRecord
100
AcDbLinetypeTableRecord
  2
PHANTOM
 70
64
  3
_____ _ _ _____ _ _ _____ _ _ _____
 72
65
 73
6
 40
0.8
 49
0.45
 74
0
 49
-0.05
 74
0
 49
0.1
 74
0
 49
-0.05
 74
0
 49
0.1
 74
0
 49
-0.05
 74
0
  0
LTYPE
  5
1F8
100
AcDbSymbolTableRecord
100
AcDbLinetypeTableRecord
  2
DOT
 70
64
  3
. . . . . . . . . . . . . . . . . . . .
 72
65
 73
2
 40
0.2
 49
0.1
 74
0
 49
-0.1
 74
0
  0
LTYPE
  5
1F9
100
AcDbSymbolTableRecord
100
AcDbLinetypeTableRecord
  2
DASHED
 70
64
  3
- - - - - - - - - - - - - - - - - - - -
 72
65
 73
2
 40
0.2
 49
0.1
 74
0
 49
-0.1
 74
0
  0
ENDTAB
  0
TABLE
  2
LAYER
  5
2
100
AcDbSymbolTable
 70
36
  0
LAYER
  5
10
100
AcDbSymbolTableRecord
100
AcDbLayerTableRecord
  2
0
 70
0
 62
7
  6
CONTINUOUS
370
-3
390
F
  0
LAYER
  5
1FA
100
AcDbSymbolTableRecord
100
AcDbLayerTableRecord
  2
DEFAULT_1
 70
0
 62
7
  6
CENTER
370
-3
390
F
  0
LAYER
  5
1FB
100
AcDbSymbolTableRecord
100
AcDbLayerTableRecord
  2
DEFAULT_2
 70
0
 62
7
  6
HIDDEN
370
-3
390
F
  0
LAYER
  5
1FC
100
AcDbSymbolTableRecord
100
AcDbLayerTableRecord
  2
DEFAULT_3
 70
0
 62
7
  6
PHANTOM
370
-3
390
F
  0
LAYER
  5
1FD
100
AcDbSymbolTableRecord
100
AcDbLayerTableRecord
  2
00_COMPONENTS
 70
0
 62
7
  6
CONTINUOUS
370
-3
390
F
  0
LAYER
  5
1FE
100
AcDbSymbolTableRecord
100
AcDbLayerTableRecord
  2
01_1_DEFAULT_DATUMS
 70
0
 62
7
  6
CONTINUOUS
370
-3
390
F
  0
LAYER
  5
1FF
100
AcDbSymbolTableRecord
100
AcDbLayerTableRecord
  2
01_PLANES
 70
0
 62
7
  6
CONTINUOUS
370
-3
390
F
  0
LAYER
  5
200
100
AcDbSymbolTableRecord
100
AcDbLayerTableRecord
  2
02_COORD_SYS
 70
0
 62
7
  6
CONTINUOUS
370
-3
390
F
  0
LAYER
  5
201
100
AcDbSymbolTableRecord
100
AcDbLayerTableRecord
  2
03_AXES
 70
0
 62
7
  6
CONTINUOUS
370
-3
390
F
  0
LAYER
  5
202
100
AcDbSymbolTableRecord
100
AcDbLayerTableRecord
  2
04_POINTS
 70
0
 62
7
  6
CONTINUOUS
370
-3
390
F
  0
LAYER
  5
203
100
AcDbSymbolTableRecord
100
AcDbLayerTableRecord
  2
05_CURVES
 70
0
 62
7
  6
CONTINUOUS
370
-3
390
F
  0
LAYER
  5
204
100
AcDbSymbolTableRecord
100
AcDbLayerTableRecord
  2
06_SURFS
 70
0
 62
7
  6
CONTINUOUS
370
-3
390
F
  0
LAYER
  5
205
100
AcDbSymbolTableRecord
100
AcDbLayerTableRecord
  2
07_COSMETICS
 70
0
 62
7
  6
CONTINUOUS
370
-3
390
F
  0
LAYER
  5
206
100
AcDbSymbolTableRecord
100
AcDbLayerTableRecord
  2
10_NOTES
 70
0
 62
7
  6
CONTINUOUS
370
-3
390
F
  0
LAYER
  5
207
100
AcDbSymbolTableRecord
100
AcDbLayerTableRecord
  2
11_NOTES_PUB
 70
0
 62
7
  6
CONTINUOUS
370
-3
390
F
  0
LAYER
  5
208
100
AcDbSymbolTableRecord
100
AcDbLayerTableRecord
  2
13_REF_GTOL
 70
0
 62
7
  6
CONTINUOUS
370
-3
390
F
  0
LAYER
  5
209
100
AcDbSymbolTableRecord
100
AcDbLayerTableRecord
  2
16_MISC
 70
0
 62
7
  6
CONTINUOUS
370
-3
390
F
  0
LAYER
  5
20A
100
AcDbSymbolTableRecord
100
AcDbLayerTableRecord
  2
17_NO_PRINT
 70
0
 62
7
  6
CONTINUOUS
370
-3
390
F
  0
LAYER
  5
20B
100
AcDbSymbolTableRecord
100
AcDbLayerTableRecord
  2
18_DATUM_CAMS_JOINTS
 70
0
 62
7
  6
CONTINUOUS
370
-3
390
F
  0
LAYER
  5
20C
100
AcDbSymbolTableRecord
100
AcDbLayerTableRecord
  2
19_DATUM_FUNCTIONAL
 70
0
 62
7
  6
CONTINUOUS
370
-3
390
F
  0
LAYER
  5
20D
100
AcDbSymbolTableRecord
100
AcDbLayerTableRecord
  2
20_DATUM_KINEMATIC_SCHEME
 70
0
 62
7
  6
CONTINUOUS
370
-3
390
F
  0
ENDTAB
  0
TABLE
  2
STYLE
  5
3
100
AcDbSymbolTable
 70
1
  0
STYLE
  5
11
100
AcDbSymbolTableRecord
100
AcDbTextStyleTableRecord
  2
STANDARD
 70
0
 40
0.0
 41
1.0
 50
0.0
 71
0
 42
0.2
  3
ARIAL.TTF
  4

  0
STYLE
  5
20E
100
AcDbSymbolTableRecord
100
AcDbTextStyleTableRecord
  2
TEXTSTYLE_1
 70
0
 40
0.0
 41
0.8
 50
0.0
 71
0
 42
0.2
  3
gdt
  4

  0
ENDTAB
  0
TABLE
  2
VIEW
  5
6
100
AcDbSymbolTable
 70
0
  0
ENDTAB
  0
TABLE
  2
UCS
  5
7
100
AcDbSymbolTable
 70
0
  0
ENDTAB
  0
TABLE
  2
APPID
  5
9
100
AcDbSymbolTable
 70
1
  0
APPID
  5
20F
100
AcDbSymbolTableRecord
100
AcDbRegAppTableRecord
  2
ACAD
 70
0
  0
ENDTAB
  0
TABLE
  2
BLOCK_RECORD
  5
1
100
AcDbSymbolTable
 70
0
  0
BLOCK_RECORD
  5
210
100
AcDbSymbolTableRecord
100
AcDbBlockTableRecord
  2
*Model_Space
  0
BLOCK_RECORD
  5
211
100
AcDbSymbolTableRecord
100
AcDbBlockTableRecord
  2
*Paper_Space
  0
BLOCK_RECORD
  5
212
100
AcDbSymbolTableRecord
100
AcDbBlockTableRecord
  2
_FILLED
  0
ENDTAB
  0
TABLE
  2
DIMSTYLE
  5
A
100
AcDbSymbolTable
 70
1
100
AcDbDimStyleTable
 71
0
  0
DIMSTYLE
105
213
100
AcDbSymbolTableRecord
100
AcDbDimStyleTableRecord
  2
STANDARD
 70
0
  3

  4

 40
1.0
 41
1.0788994143
 42
1.0
 43
0.38
 44
1.0
 45
0.0
 46
0.0
 47
0.01
 48
0.01
140
1.51045918
141
0.09
142
0.0
143
25.4
144
1.0
145
0.0
146
1.0
147
0.625
 71
1
 72
0
 73
0
 74
0
 75
0
 76
0
 77
1
 78
8
 79
2
170
0
171
1
172
0
173
0
174
0
175
0
176
0
177
0
178
0
270
2
179
2
271
2
272
2
273
2
274
2
275
0
280
0
281
0
282
0
283
1
284
8
285
0
286
0
287
3
288
0
340
11
278
46
341
212
342
212
343
212
344
212
  0
ENDTAB
  0
ENDSEC
  0
SECTION
  2
BLOCKS
  0
BLOCK
  5
20
100
AcDbEntity
  8
0
100
AcDbBlockBegin
  2
*Model_Space
 70
0
 10
0.0
 20
0.0
 30
0.0
  3
*Model_Space
  1

  0
ENDBLK
  5
21
100
AcDbEntity
  8
0
100
AcDbBlockEnd
  0
BLOCK
  5
1C
100
AcDbEntity
  8
0
100
AcDbBlockBegin
  2
*Paper_Space
 70
0
 10
0.0
 20
0.0
 30
0.0
  3
*Paper_Space
  1

  0
ENDBLK
  5
1D
100
AcDbEntity
  8
0
100
AcDbBlockEnd
  0
BLOCK
  5
214
100
AcDbEntity
  8
0
100
AcDbBlockBegin
  2
_FILLED
 70
64
 10
0.0
 20
0.0
  3
_FILLED
  1

  0
SOLID
  5
215
100
AcDbEntity
  8
0
  6
BYBLOCK
 62
0
100
AcDbTrace
 10
0.0
 20
0.0
 11
-1.0
 21
0.25
 12
-1.0
 22
-0.25
 13
-1.0
 23
-0.25
  0
ENDBLK
  5
216
100
AcDbEntity
  8
0
  6
BYBLOCK
 62
0
100
AcDbBlockEnd
  0
ENDSEC
  0
SECTION
  2
ENTITIES
  0
LINE
  5
217
100
AcDbEntity
  8
0
100
AcDbLine
 62
7
  6
BYLAYER
 10
10.5138385873
 20
54.1223643
 11
10.5138385873
 21
74.5349247282
  0
LWPOLYLINE
  5
218
100
AcDbEntity
  8
0
100
AcDbPolyline
 62
7
  6
BYLAYER
 90
3
 70
0
 10
27.529919803
 20
86.1728507053
 10
20.6932572732
 20
82.2257253145
 10
10.5138385873
 20
74.5349247282
  0
LINE
  5
219
100
AcDbEntity
  8
0
100
AcDbLine
 62
7
  6
BYLAYER
 10
40.5093275459
 20
33.5389264135
 11
17.995212165
 21
46.5371629298
  0
LINE
  5
21A
100
AcDbEntity
  8
0
100
AcDbLine
 62
7
  6
BYLAYER
 10
18.7162754826
 20
71.9348100404
 11
18.7162754826
 21
74.779889917
  0
LINE
  5
21B
100
AcDbEntity
  8
0
100
AcDbLine
 62
7
  6
BYLAYER
 10
18.8655786025
 20
74.6936916706
 11
18.8655786025
 21
71.9348117564
  0
LINE
  5
21C
100
AcDbEntity
  8
0
100
AcDbLine
 62
7
  6
BYLAYER
 10
20.6814216742
 20
68.6648006959
 11
20.6814216742
 21
67.8482982788
  0
LINE
  5
21D
100
AcDbEntity
  8
0
100
AcDbLine
 62
7
  6
BYLAYER
 10
20.9694527968
 20
67.9677799045
 11
20.9694555819
 21
68.62098023
  0
LINE
  5
21E
100
AcDbEntity
  8
0
100
AcDbLine
 62
7
  6
BYLAYER
 10
21.30102865
 20
71.4957649048
 11
21.3899430863
 21
71.6786603146
  0
LINE
  5
21F
100
AcDbEntity
  8
0
100
AcDbLine
 62
7
  6
BYLAYER
 10
31.6663376898
 20
87.0883143121
 11
31.6638705515
 21
87.0864220736
  0
LINE
  5
220
100
AcDbEntity
  8
0
100
AcDbLine
 62
7
  6
BYLAYER
 10
33.7068870177
 20
87.0053028709
 11
33.7775979902
 21
87.0594251254
  0
LINE
  5
221
100
AcDbEntity
  8
0
100
AcDbLine
 62
7
  6
BYLAYER
 10
31.6628029334
 20
87.0899756398
 11
31.6602127692
 21
87.0881357655
  0
LINE
  5
222
100
AcDbEntity
  8
0
100
AcDbLine
 62
7
  6
BYLAYER
 10
21.1557516318
 20
80.6381749986
 11
27.529919803
 21
84.3182807408
  0
LINE
  5
223
100
AcDbEntity
  8
0
100
AcDbLine
 62
7
  6
BYLAYER
 10
22.0749942745
 20
80.1074620177
 11
23.1356500303
 21
80.7198282485
  0
LINE
  5
224
100
AcDbEntity
  8
0
100
AcDbLine
 62
7
  6
BYLAYER
 10
33.636176634
 20
86.5537362081
 11
33.6927449409
 21
86.5863957404
  0
LINE
  5
225
100
AcDbEntity
  8
0
100
AcDbLine
 62
7
  6
BYLAYER
 10
34.1328664895
 20
86.6772008566
 11
33.9873682178
 21
86.5931993422
  0
LINE
  5
226
100
AcDbEntity
  8
0
100
AcDbLine
 62
7
  6
BYLAYER
 10
27.8508861185
 20
82.8706031312
 11
23.6306353914
 21
80.4340547821
  0
LINE
  5
227
100
AcDbEntity
  8
0
100
AcDbLine
 62
7
  6
BYLAYER
 10
34.4988500276
 20
86.1210012802
 11
34.4422817206
 21
86.0883417479
  0
LINE
  5
228
100
AcDbEntity
  8
0
100
AcDbLine
 62
7
  6
BYLAYER
 10
44.8086602569
 20
34.3226877057
 11
43.3377428948
 21
35.1719030289
  0
LINE
  5
229
100
AcDbEntity
  8
0
100
AcDbLine
 62
7
  6
BYLAYER
 10
18.1403062316
 20
49.7193207628
 11
10.5138385873
 21
54.1223643
  0
LINE
  5
22A
100
AcDbEntity
  8
0
100
AcDbLine
 62
7
  6
BYLAYER
 10
33.7120278046
 20
86.0639554327
 11
33.8322930807
 21
86.2521739088
  0
LINE
  5
22B
100
AcDbEntity
  8
0
100
AcDbLine
 62
7
  6
BYLAYER
 10
34.6401232964
 20
86.7185721172
 11
34.5078580296
 21
86.5234254847
  0
LWPOLYLINE
  5
22C
100
AcDbEntity
  8
0
100
AcDbPolyline
 62
7
  6
BYLAYER
 90
3
 70
0
 10
31.9303284687
 20
81.2617261391
 10
28.0680603226
 20
78.3171573573
 10
21.389844821
 20
71.6787913052
  0
LINE
  5
22D
100
AcDbEntity
  8
0
100
AcDbLine
 62
7
  6
BYLAYER
 10
39.5143160031
 20
85.808064019
 11
35.7900215586
 21
83.7519213368
  0
LINE
  5
22E
100
AcDbEntity
  8
0
100
AcDbLine
 62
7
  6
BYLAYER
 10
31.9998034302
 20
81.2967931778
 11
31.9303079738
 21
81.2617647184
  0
LINE
  5
22F
100
AcDbEntity
  8
0
100
AcDbLine
 62
7
  6
BYLAYER
 10
41.5112104371
 20
86.7881737936
 11
41.481600736
 21
86.7736250841
  0
LINE
  5
230
100
AcDbEntity
  8
0
100
AcDbLine
 62
7
  6
BYLAYER
 10
46.6044533587
 20
88.7099120779
 11
37.0238866958
 21
84.1324884921
  0
LINE
  5
231
100
AcDbEntity
  8
0
100
AcDbLine
 62
7
  6
BYLAYER
 10
41.5112104371
 20
86.7881737936
 11
41.4810726301
 21
86.7739991082
  0
LWPOLYLINE
  5
232
100
AcDbEntity
  8
0
100
AcDbPolyline
 62
7
  6
BYLAYER
 90
3
 70
0
 10
56.7147944448
 20
92.0815211925
 10
46.2225478883
 20
88.8130962203
 10
41.51115008
 20
86.7883142365
  0
LINE
  5
233
100
AcDbEntity
  8
0
100
AcDbLine
 62
7
  6
BYLAYER
 10
57.1444359124
 20
91.9892099628
 11
46.6044533587
 21
88.7099120779
  0
LINE
  5
234
100
AcDbEntity
  8
0
100
AcDbLine
 62
7
  6
BYLAYER
 10
25.7873138548
 20
76.0500202873
 11
25.7873138548
 21
78.8623314557
  0
LINE
  5
235
100
AcDbEntity
  8
0
100
AcDbLine
 62
7
  6
BYLAYER
 10
25.9366169747
 20
78.7761332093
 11
25.9366169747
 21
76.1984325034
  0
LINE
  5
236
100
AcDbEntity
  8
0
100
AcDbLine
 62
7
  6
BYLAYER
 10
27.529919803
 20
87.9254151823
 11
27.529919803
 21
83.8429030967
  0
LINE
  5
237
100
AcDbEntity
  8
0
100
AcDbLine
 62
7
  6
BYLAYER
 10
27.5340448103
 20
87.8425348848
 11
27.5340448103
 21
83.7600227991
  0
LINE
  5
238
100
AcDbEntity
  8
0
100
AcDbLine
 62
7
  6
BYLAYER
 10
33.7068937299
 20
86.0540975149
 11
33.7120278046
 21
86.0639554327
  0
LINE
  5
239
100
AcDbEntity
  8
0
100
AcDbLine
 62
7
  6
BYLAYER
 10
34.5106334786
 20
85.9672315839
 11
34.503500874
 21
85.9558995215
  0
LWPOLYLINE
  5
23A
100
AcDbEntity
  8
0
100
AcDbPolyline
 62
7
  6
BYLAYER
 90
3
 70
0
 10
37.0238866958
 20
84.1324884921
 10
28.7301101564
 20
78.3902168582
 10
22.0013752013
 20
71.6994755141
  0
LINE
  5
23B
100
AcDbEntity
  8
0
100
AcDbLine
 62
7
  6
BYLAYER
 10
20.1305072976
 20
72.2487901003
 11
20.8376111348
 21
72.6570342542
  0
LINE
  5
23C
100
AcDbEntity
  8
0
100
AcDbLine
 62
7
  6
BYLAYER
 10
27.5340448103
 20
83.7600227991
 11
27.530304298
 21
83.842902881
  0
LINE
  5
23D
100
AcDbEntity
  8
0
100
AcDbLine
 62
7
  6
BYLAYER
 10
27.530304298
 20
87.9254149666
 11
27.5340448103
 21
87.8425348848
  0
LINE
  5
23E
100
AcDbEntity
  8
0
100
AcDbLine
 62
7
  6
BYLAYER
 10
34.1328664895
 20
86.6772008566
 11
34.3207731277
 21
87.3818312758
  0
LINE
  5
23F
100
AcDbEntity
  8
0
100
AcDbLine
 62
7
  6
BYLAYER
 10
32.9715002046
 20
86.6934276617
 11
32.9715002046
 21
86.143493449
  0
LINE
  5
240
100
AcDbEntity
  8
0
100
AcDbLine
 62
7
  6
BYLAYER
 10
33.0007892321
 20
86.1258407226
 11
33.0007892321
 21
86.6650597524
  0
LINE
  5
241
100
AcDbEntity
  8
0
100
AcDbLine
 62
7
  6
BYLAYER
 10
33.4947552777
 20
86.5537358681
 11
33.4947552777
 21
86.4130603346
  0
LINE
  5
242
100
AcDbEntity
  8
0
100
AcDbLine
 62
7
  6
BYLAYER
 10
33.636176634
 20
86.3695107299
 11
33.636176634
 21
86.5537362081
  0
LINE
  5
243
100
AcDbEntity
  8
0
100
AcDbLine
 62
7
  6
BYLAYER
 10
33.7068870177
 20
86.5205800535
 11
33.7068850807
 21
87.4638372552
  0
LINE
  5
244
100
AcDbEntity
  8
0
100
AcDbLine
 62
7
  6
BYLAYER
 10
33.7068937299
 20
86.0540975149
 11
33.7068958027
 21
85.969915341
  0
LINE
  5
245
100
AcDbEntity
  8
0
100
AcDbLine
 62
7
  6
BYLAYER
 10
33.7775979902
 20
87.0594251254
 11
33.7775979902
 21
86.3695110698
  0
LINE
  5
246
100
AcDbEntity
  8
0
100
AcDbLine
 62
7
  6
BYLAYER
 10
33.9190193464
 20
86.4130613544
 11
33.9190193464
 21
87.2404748278
  0
LINE
  5
247
100
AcDbEntity
  8
0
100
AcDbLine
 62
7
  6
BYLAYER
 10
33.7022021682
 20
87.0088886671
 11
33.6927449409
 21
86.5863957404
  0
LINE
  5
248
100
AcDbEntity
  8
0
100
AcDbLine
 62
7
  6
BYLAYER
 10
34.4129926931
 20
85.8567630291
 11
34.4129915156
 21
86.8079480489
  0
LINE
  5
249
100
AcDbEntity
  8
0
100
AcDbLine
 62
7
  6
BYLAYER
 10
34.4422811318
 20
86.0883417479
 11
34.4422811318
 21
86.6552662557
  0
LINE
  5
24A
100
AcDbEntity
  8
0
100
AcDbLine
 62
7
  6
BYLAYER
 10
34.4422823094
 20
85.8837007295
 11
34.4422823094
 21
86.0066932571
  0
LINE
  5
24B
100
AcDbEntity
  8
0
100
AcDbLine
 62
7
  6
BYLAYER
 10
34.4988500276
 20
86.1210012802
 11
34.5078580296
 21
86.5234254847
  0
LINE
  5
24C
100
AcDbEntity
  8
0
100
AcDbLine
 62
7
  6
BYLAYER
 10
22.377300634
 20
63.3769455834
 11
25.2057159828
 21
65.0099221989
  0
LINE
  5
24D
100
AcDbEntity
  8
0
100
AcDbLine
 62
7
  6
BYLAYER
 10
25.2057686144
 20
65.0098310469
 11
25.4074835138
 21
65.1197669312
  0
LINE
  5
24E
100
AcDbEntity
  8
0
100
AcDbLine
 62
7
  6
BYLAYER
 10
20.6814216742
 20
67.8482982788
 11
25.4074835138
 21
65.1197669312
  0
LINE
  5
24F
100
AcDbEntity
  8
0
100
AcDbLine
 62
7
  6
BYLAYER
 10
38.7538868948
 20
57.4143916653
 11
43.7479956692
 21
54.5311068486
  0
LINE
  5
250
100
AcDbEntity
  8
0
100
AcDbLine
 62
7
  6
BYLAYER
 10
44.9147258325
 20
54.1432828234
 11
38.3959036811
 21
57.9068414042
  0
LINE
  5
251
100
AcDbEntity
  8
0
100
AcDbLine
 62
7
  6
BYLAYER
 10
25.7654667275
 20
65.1988626118
 11
20.9694527968
 21
67.9677799045
  0
LINE
  5
252
100
AcDbEntity
  8
0
100
AcDbLine
 62
7
  6
BYLAYER
 10
32.9926028573
 20
86.7149096018
 11
33.0009189051
 21
86.6650358298
  0
LINE
  5
253
100
AcDbEntity
  8
0
100
AcDbLine
 62
7
  6
BYLAYER
 10
20.6814216742
 20
68.6648006959
 11
10.5138385873
 21
74.5349247282
  0
LINE
  5
254
100
AcDbEntity
  8
0
100
AcDbLine
 62
7
  6
BYLAYER
 10
15.7464393663
 20
73.0652644707
 11
17.1606588166
 21
72.2487829617
  0
LINE
  5
255
100
AcDbEntity
  8
0
100
AcDbLine
 62
7
  6
BYLAYER
 10
44.8086602569
 20
53.5905739719
 11
43.7479956692
 21
54.5311068486
  0
LINE
  5
256
100
AcDbEntity
  8
0
100
AcDbLine
 62
7
  6
BYLAYER
 10
41.3435982735
 20
86.8496386732
 11
41.3435982735
 21
87.8437028409
  0
LINE
  5
257
100
AcDbEntity
  8
0
100
AcDbLine
 62
7
  6
BYLAYER
 10
45.5368448268
 20
89.8441059917
 11
45.5941036492
 21
90.1253206869
  0
LINE
  5
258
100
AcDbEntity
  8
0
100
AcDbLine
 62
7
  6
BYLAYER
 10
22.0013752025
 20
71.6994753843
 11
44.9147258325
 21
58.4707456341
  0
LINE
  5
259
100
AcDbEntity
  8
0
100
AcDbLine
 62
7
  6
BYLAYER
 10
18.8655786025
 20
74.6936916706
 11
18.7162754826
 21
74.779889917
  0
LINE
  5
25A
100
AcDbEntity
  8
0
100
AcDbLine
 62
7
  6
BYLAYER
 10
32.7823517494
 20
86.8598232171
 11
32.8366446693
 21
86.7227155511
  0
LINE
  5
25B
100
AcDbEntity
  8
0
100
AcDbLine
 62
7
  6
BYLAYER
 10
33.7022021682
 20
87.0088886671
 11
33.5902508538
 21
87.3262611983
  0
LINE
  5
25C
100
AcDbEntity
  8
0
100
AcDbLine
 62
7
  6
BYLAYER
 10
44.8086602569
 20
53.5905739719
 11
44.8086602569
 21
34.3226877057
  0
LINE
  5
25D
100
AcDbEntity
  8
0
100
AcDbLine
 62
7
  6
BYLAYER
 10
44.9147258325
 20
58.4707456341
 11
44.9147258325
 21
54.1432828234
  0
LINE
  5
25E
100
AcDbEntity
  8
0
100
AcDbLine
 62
7
  6
BYLAYER
 10
45.5941036492
 20
89.605775785
 11
45.5941036492
 21
90.1253206869
  0
LINE
  5
25F
100
AcDbEntity
  8
0
100
AcDbLine
 62
7
  6
BYLAYER
 10
31.7692259977
 20
56.407497757
 11
28.5015025919
 21
53.9926896387
  0
LINE
  5
260
100
AcDbEntity
  8
0
100
AcDbLine
 62
7
  6
BYLAYER
 10
22.8174777385
 20
77.1477060094
 11
24.2316971888
 21
76.3312245004
  0
LWPOLYLINE
  5
261
100
AcDbEntity
  8
0
100
AcDbPolyline
 62
7
  6
BYLAYER
 90
3
 70
0
 10
29.6459057172
 20
79.5200966965
 10
28.6722639736
 20
80.564875942
 10
27.5340448103
 20
83.7600227991
  0
LINE
  5
262
100
AcDbEntity
  8
0
100
AcDbLine
 62
7
  6
BYLAYER
 10
33.6361827574
 20
86.1898679203
 11
33.7068937299
 21
86.0540975149
  0
LINE
  5
263
100
AcDbEntity
  8
0
100
AcDbLine
 62
7
  6
BYLAYER
 10
34.4422811318
 20
86.6552662557
 11
34.510286726
 21
86.524690381
  0
LINE
  5
264
100
AcDbEntity
  8
0
100
AcDbLine
 62
7
  6
BYLAYER
 10
48.4146366456
 20
89.4959507069
 11
48.4146366456
 21
91.9261443796
  0
LINE
  5
265
100
AcDbEntity
  8
0
100
AcDbLine
 62
7
  6
BYLAYER
 10
21.1557516318
 20
80.6381749986
 11
22.0749942745
 21
80.1074620177
  0
LINE
  5
266
100
AcDbEntity
  8
0
100
AcDbLine
 62
7
  6
BYLAYER
 10
25.9366169747
 20
78.7761332093
 11
25.7873138548
 21
78.8623314557
  0
LINE
  5
267
100
AcDbEntity
  8
0
100
AcDbLine
 62
7
  6
BYLAYER
 10
23.913470728
 20
80.2707634185
 11
23.1356500303
 21
80.7198282485
  0
LINE
  5
268
100
AcDbEntity
  8
0
100
AcDbLine
 62
7
  6
BYLAYER
 10
31.9792134292
 20
81.3155083231
 11
31.9998034302
 21
81.2967931778
  0
LINE
  5
269
100
AcDbEntity
  8
0
100
AcDbLine
 62
7
  6
BYLAYER
 10
49.8288560959
 20
91.1096628705
 11
49.8288560959
 21
89.9364922194
  0
LINE
  5
26A
100
AcDbEntity
  8
0
100
AcDbLine
 62
7
  6
BYLAYER
 10
31.9754908628
 20
81.3137307729
 11
31.9998034302
 21
81.2967931778
  0
LINE
  5
26B
100
AcDbEntity
  8
0
100
AcDbLine
 62
7
  6
BYLAYER
 10
43.9954856337
 20
54.6739943933
 11
43.7479956692
 21
54.5311068486
  0
LINE
  5
26C
100
AcDbEntity
  8
0
100
AcDbLine
 62
7
  6
BYLAYER
 10
80.0577865421
 20
74.4330172708
 11
44.9147258325
 21
54.1432828234
  0
LINE
  5
26D
100
AcDbEntity
  8
0
100
AcDbLine
 62
7
  6
BYLAYER
 10
80.1638521176
 20
74.0027816655
 11
44.8086602569
 21
53.5905739719
  0
LINE
  5
26E
100
AcDbEntity
  8
0
100
AcDbLine
 62
7
  6
BYLAYER
 10
38.5188856393
 20
49.5175318924
 11
41.3473009881
 21
51.1505085079
  0
LINE
  5
26F
100
AcDbEntity
  8
0
100
AcDbLine
 62
7
  6
BYLAYER
 10
33.7022021682
 20
87.0088886671
 11
33.7068870177
 21
87.0053028709
  0
LINE
  5
270
100
AcDbEntity
  8
0
100
AcDbLine
 62
7
  6
BYLAYER
 10
33.4264041085
 20
86.5931975413
 11
33.4947552777
 21
86.5537358681
  0
LINE
  5
271
100
AcDbEntity
  8
0
100
AcDbLine
 62
7
  6
BYLAYER
 10
34.4422823094
 20
86.0066932571
 11
34.5106334786
 21
85.9672315839
  0
LINE
  5
272
100
AcDbEntity
  8
0
100
AcDbLine
 62
7
  6
BYLAYER
 10
32.2729658052
 20
87.4060870627
 11
33.6927449409
 21
86.5863957404
  0
LINE
  5
273
100
AcDbEntity
  8
0
100
AcDbLine
 62
7
  6
BYLAYER
 10
34.4988500276
 20
86.1210012802
 11
35.9186291633
 21
85.3013099579
  0
LINE
  5
274
100
AcDbEntity
  8
0
100
AcDbLine
 62
7
  6
BYLAYER
 10
34.4129915156
 20
86.5154742561
 11
34.1328664895
 21
86.6772008566
  0
LINE
  5
275
100
AcDbEntity
  8
0
100
AcDbLine
 62
7
  6
BYLAYER
 10
34.426164583
 20
86.9288331584
 11
34.4382676068
 21
86.9254249995
  0
LINE
  5
276
100
AcDbEntity
  8
0
100
AcDbLine
 62
7
  6
BYLAYER
 10
34.426164583
 20
86.9288331584
 11
34.4381938573
 21
86.925123787
  0
LINE
  5
277
100
AcDbEntity
  8
0
100
AcDbLine
 62
7
  6
BYLAYER
 10
41.5112104371
 20
86.7881737936
 11
41.4907274164
 21
86.7979798235
  0
LINE
  5
278
100
AcDbEntity
  8
0
100
AcDbLine
 62
7
  6
BYLAYER
 10
42.4630466282
 20
87.1974036532
 11
41.3435982735
 21
87.8437028409
  0
LINE
  5
279
100
AcDbEntity
  8
0
100
AcDbLine
 62
7
  6
BYLAYER
 10
41.5112104371
 20
86.7881737936
 11
41.4885705843
 21
86.7964760301
  0
LINE
  5
27A
100
AcDbEntity
  8
0
100
AcDbLine
 62
7
  6
BYLAYER
 10
45.4448005293
 20
90.2115189333
 11
45.5941036492
 21
90.1253206869
  0
LINE
  5
27B
100
AcDbEntity
  8
0
100
AcDbLine
 62
7
  6
BYLAYER
 10
40.5093275459
 20
33.5389264135
 11
43.3377428948
 21
35.1719030289
  0
LINE
  5
27C
100
AcDbEntity
  8
0
100
AcDbLine
 62
7
  6
BYLAYER
 10
80.1638521176
 20
56.4333401883
 11
81.5213501043
 21
57.217087338
  0
LINE
  5
27D
100
AcDbEntity
  8
0
100
AcDbLine
 62
7
  6
BYLAYER
 10
80.1638521176
 20
54.7348953993
 11
44.8086602569
 21
34.3226877057
  0
LINE
  5
27E
100
AcDbEntity
  8
0
100
AcDbLine
 62
7
  6
BYLAYER
 10
32.3912486869
 20
87.5321273813
 11
32.4508159799
 21
87.5435514509
  0
LINE
  5
27F
100
AcDbEntity
  8
0
100
AcDbLine
 62
7
  6
BYLAYER
 10
49.8288560959
 20
91.1096628705
 11
48.4146366456
 21
91.9261443796
  0
LINE
  5
280
100
AcDbEntity
  8
0
100
AcDbLine
 62
7
  6
BYLAYER
 10
45.869030448
 20
94.9471324218
 11
52.8940508823
 21
90.8913267376
  0
LINE
  5
281
100
AcDbEntity
  8
0
100
AcDbLine
 62
7
  6
BYLAYER
 10
57.1444359117
 20
91.9892098323
 11
80.0577865421
 21
78.7604800816
  0
LINE
  5
282
100
AcDbEntity
  8
0
100
AcDbLine
 62
7
  6
BYLAYER
 10
79.82816677
 20
74.3004470249
 11
80.1638521176
 21
74.0027816655
  0
LINE
  5
283
100
AcDbEntity
  8
0
100
AcDbLine
 62
7
  6
BYLAYER
 10
80.0577865421
 20
78.7604800816
 11
80.0577865421
 21
74.4330172708
  0
LINE
  5
284
100
AcDbEntity
  8
0
100
AcDbLine
 62
7
  6
BYLAYER
 10
80.1638521176
 20
74.0027816655
 11
80.1638521176
 21
54.7348953993
  0
ARC
  5
285
100
AcDbEntity
  8
0
100
AcDbCircle
 62
7
  6
BYLAYER
 10
226.5397184361
 20
-212.4352233959
 40
326.1559166938
100
AcDbArc
 50
123.6501266619
 51
123.8393053193
  0
ARC
  5
286
100
AcDbEntity
  8
0
100
AcDbCircle
 62
7
  6
BYLAYER
 10
69.6852612673
 20
26.8511667787
 40
66.228559482
100
AcDbArc
 50
115.2052009175
 51
117.1009833351
  0
ARC
  5
287
100
AcDbEntity
  8
0
100
AcDbCircle
 62
7
  6
BYLAYER
 10
55.699549442
 20
37.2767466092
 40
47.0263693352
100
AcDbArc
 50
137.6494724824
 51
137.9189656843
  0
ARC
  5
288
100
AcDbEntity
  8
0
100
AcDbCircle
 62
7
  6
BYLAYER
 10
55.5316205904
 20
36.6120833267
 40
46.7999731734
100
AcDbArc
 50
137.7863091919
 51
138.1301439055
  0
ARC
  5
289
100
AcDbEntity
  8
0
100
AcDbCircle
 62
7
  6
BYLAYER
 10
55.4846286902
 20
37.4708795945
 40
46.7367514091
100
AcDbArc
 50
137.9190260729
 51
138.1303036953
  0
ARC
  5
28A
100
AcDbEntity
  8
0
100
AcDbCircle
 62
7
  6
BYLAYER
 10
5.100485396
 20
98.8476933885
 40
31.3713863862
100
AcDbArc
 50
335.7641047508
 51
336.3281995054
  0
ARC
  5
28B
100
AcDbEntity
  8
0
100
AcDbCircle
 62
7
  6
BYLAYER
 10
60.8968971533
 20
98.2146414978
 40
29.8199512425
100
AcDbArc
 50
203.3339383599
 51
204.2439099337
  0
ARC
  5
28C
100
AcDbEntity
  8
0
100
AcDbCircle
 62
7
  6
BYLAYER
 10
8.9681430282
 20
95.9828477001
 40
26.7231554976
100
AcDbArc
 50
339.0159285062
 51
339.4290124763
  0
ARC
  5
28D
100
AcDbEntity
  8
0
100
AcDbCircle
 62
7
  6
BYLAYER
 10
57.3561691593
 20
95.570059134
 40
25.5581239421
100
AcDbArc
 50
200.5627615382
 51
200.9946844592
  0
ARC
  5
28E
100
AcDbEntity
  8
0
100
AcDbCircle
 62
7
  6
BYLAYER
 10
28.6693350365
 20
79.0287770722
 40
8.3144794426
100
AcDbArc
 50
57.8563060468
 51
59.9882951834
  0
ARC
  5
28F
100
AcDbEntity
  8
0
100
AcDbCircle
 62
7
  6
BYLAYER
 10
32.487613707
 20
78.5104304029
 40
8.2200056549
100
AcDbArc
 50
86.4778639716
 51
87.5675141575
  0
ARC
  5
290
100
AcDbEntity
  8
0
100
AcDbCircle
 62
7
  6
BYLAYER
 10
34.9126186126
 20
78.9807994433
 40
7.7425693184
100
AcDbArc
 50
89.2731031219
 51
92.0169088385
  0
ARC
  5
291
100
AcDbEntity
  8
0
100
AcDbCircle
 62
7
  6
BYLAYER
 10
32.5053508422
 20
79.0307674949
 40
7.6993858591
100
AcDbArc
 50
87.535045961
 51
90.5194247218
  0
ARC
  5
292
100
AcDbEntity
  8
0
100
AcDbCircle
 62
7
  6
BYLAYER
 10
29.1367311646
 20
79.8384312281
 40
7.379600345
100
AcDbArc
 50
59.9864229416
 51
62.2766126907
  0
ARC
  5
293
100
AcDbEntity
  8
0
100
AcDbCircle
 62
7
  6
BYLAYER
 10
34.2685065242
 20
82.3671796146
 40
4.7320716979
100
AcDbArc
 50
108.3040804875
 51
112.7895362309
  0
ARC
  5
294
100
AcDbEntity
  8
0
100
AcDbCircle
 62
7
  6
BYLAYER
 10
33.1500651856
 20
82.3760929203
 40
4.728201333
100
AcDbArc
 50
66.8244919994
 51
74.1898417427
  0
ARC
  5
295
100
AcDbEntity
  8
0
100
AcDbCircle
 62
7
  6
BYLAYER
 10
33.7067536068
 20
83.6182185289
 40
4.1303256047
100
AcDbArc
 50
87.6734892068
 51
95.1191541579
  0
ARC
  5
296
100
AcDbEntity
  8
0
100
AcDbCircle
 62
7
  6
BYLAYER
 10
33.7079994387
 20
83.6270451595
 40
4.1214557715
100
AcDbArc
 50
85.754067195
 51
87.6858131199
  0
ARC
  5
297
100
AcDbEntity
  8
0
100
AcDbCircle
 62
7
  6
BYLAYER
 10
33.7203319415
 20
83.7764043574
 40
3.971593622
100
AcDbArc
 50
79.1949445861
 51
85.771962334
  0
ARC
  5
298
100
AcDbEntity
  8
0
100
AcDbCircle
 62
7
  6
BYLAYER
 10
32.6800204452
 20
83.9476142516
 40
3.8069836693
100
AcDbArc
 50
55.3589970037
 51
59.961363424
  0
ARC
  5
299
100
AcDbEntity
  8
0
100
AcDbCircle
 62
7
  6
BYLAYER
 10
32.8224237318
 20
84.1939182473
 40
3.5224764569
100
AcDbArc
 50
59.9610545813
 51
64.8260298371
  0
ARC
  5
29A
100
AcDbEntity
  8
0
100
AcDbCircle
 62
7
  6
BYLAYER
 10
33.8891008116
 20
84.5099355683
 40
3.218089696
100
AcDbArc
 50
71.134540621
 51
73.0987750713
  0
ARC
  5
29B
100
AcDbEntity
  8
0
100
AcDbCircle
 62
7
  6
BYLAYER
 10
34.316018141
 20
85.4577415848
 40
2.1762700812
100
AcDbArc
 50
57.8427647649
 51
60.0169273189
  0
ARC
  5
29C
100
AcDbEntity
  8
0
100
AcDbCircle
 62
7
  6
BYLAYER
 10
33.7967488151
 20
86.5286995817
 40
0.3233767649
100
AcDbArc
 50
200.9528228822
 51
204.4541220832
  0
SPLINE
  5
29D
100
AcDbEntity
  8
0
100
AcDbSpline
 62
7
  6
BYLAYER
 70
0
 71
3
 72
9
 73
5
 74
0
 42
0.0000001
 43
0.0000001
 44
0.0000000001
 40
0.0
 40
0.0
 40
0.0
 40
0.0
 40
0.2327344032
 40
1.0
 40
1.0
 40
1.0
 40
1.0
 10
34.5035105535
 20
85.9558974158
 30
0.0
 10
34.4948497537
 20
85.9426271576
 30
0.0
 10
34.4542107947
 20
85.887839422
 30
0.0
 10
34.4016827398
 20
85.8425729514
 30
0.0
 10
34.358624876
 20
85.8129890882
 30
0.0
  0
SPLINE
  5
29E
100
AcDbEntity
  8
0
100
AcDbSpline
 62
7
  6
BYLAYER
 70
0
 71
3
 72
11
 73
7
 74
0
 42
0.0000001
 43
0.0000001
 44
0.0000000001
 40
0.0
 40
0.0
 40
0.0
 40
0.0
 40
0.2423162789
 40
0.4939131619
 40
0.7485466085
 40
1.0
 40
1.0
 40
1.0
 40
1.0
 10
35.1408149424
 20
84.8522413887
 30
0.0
 10
35.1328784071
 20
84.8817392144
 30
0.0
 10
35.1127567706
 20
84.9408514369
 30
0.0
 10
35.0723577506
 20
85.0263258248
 30
0.0
 10
35.0224893138
 20
85.1079899977
 30
0.0
 10
34.9836064307
 20
85.1587524916
 30
0.0
 10
34.9629647677
 20
85.1828092807
 30
0.0
  0
SPLINE
  5
29F
100
AcDbEntity
  8
0
100
AcDbSpline
 62
7
  6
BYLAYER
 70
0
 71
3
 72
9
 73
5
 74
0
 42
0.0000001
 43
0.0000001
 44
0.0000000001
 40
0.0
 40
0.0
 40
0.0
 40
0.0
 40
0.2457358966
 40
1.0
 40
1.0
 40
1.0
 40
1.0
 10
33.4947614012
 20
86.3913295033
 30
0.0
 10
33.4607333594
 20
86.3663555144
 30
0.0
 10
33.3233988106
 20
86.2631794479
 30
0.0
 10
33.1905889569
 20
86.1540060566
 30
0.0
 10
33.0930076199
 20
86.0687834128
 30
0.0
  0
SPLINE
  5
2A0
100
AcDbEntity
  8
0
100
AcDbSpline
 62
7
  6
BYLAYER
 70
0
 71
3
 72
9
 73
5
 74
0
 42
0.0000001
 43
0.0000001
 44
0.0000000001
 40
0.0
 40
0.0
 40
0.0
 40
0.0
 40
0.2573909029
 40
1.0
 40
1.0
 40
1.0
 40
1.0
 10
33.5158623392
 20
86.40327305
 30
0.0
 10
33.5139484806
 20
86.4024514496
 30
0.0
 10
33.5065990869
 20
86.3990649715
 30
0.0
 10
33.499605766
 20
86.3948848979
 30
0.0
 10
33.4947614012
 20
86.3913295033
 30
0.0
  0
SPLINE
  5
2A1
100
AcDbEntity
  8
0
100
AcDbSpline
 62
7
  6
BYLAYER
 70
0
 71
3
 72
9
 73
5
 74
0
 42
0.0000001
 43
0.0000001
 44
0.0000000001
 40
0.0
 40
0.0
 40
0.0
 40
0.0
 40
0.5130627253
 40
1.0
 40
1.0
 40
1.0
 40
1.0
 10
34.9629647677
 20
85.1828092807
 30
0.0
 10
34.7893914622
 20
85.3850999787
 30
0.0
 10
34.4315992077
 20
85.7631647143
 30
0.0
 10
34.0349128816
 20
86.1007046893
 30
0.0
 10
33.8322930807
 20
86.2521739088
 30
0.0
  0
SPLINE
  5
2A2
100
AcDbEntity
  8
0
100
AcDbSpline
 62
7
  6
BYLAYER
 70
0
 71
3
 72
11
 73
7
 74
0
 42
0.0000001
 43
0.0000001
 44
0.0000000001
 40
0.0
 40
0.0
 40
0.0
 40
0.0
 40
0.2694079679
 40
0.5253772167
 40
0.7685324113
 40
1.0
 40
1.0
 40
1.0
 40
1.0
 10
32.7823517494
 20
86.8598232171
 30
0.0
 10
32.6866944006
 20
86.898915011
 30
0.0
 10
32.4969038681
 20
86.9675580023
 30
0.0
 10
32.2111378312
 20
87.0417835292
 30
0.0
 10
31.9335875826
 20
87.0840517343
 30
0.0
 10
31.7511388625
 20
87.0907811844
 30
0.0
 10
31.6623879959
 20
87.0883550592
 30
0.0
  0
SPLINE
  5
2A3
100
AcDbEntity
  8
0
100
AcDbSpline
 62
7
  6
BYLAYER
 70
0
 71
3
 72
11
 73
7
 74
0
 42
0.0000001
 43
0.0000001
 44
0.0000000001
 40
0.0
 40
0.0
 40
0.0
 40
0.0
 40
0.2605184587
 40
0.5107554385
 40
0.7553387138
 40
1.0
 40
1.0
 40
1.0
 40
1.0
 10
31.6623879959
 20
87.0883550592
 30
0.0
 10
31.6516805476
 20
87.0880623566
 30
0.0
 10
31.6306842566
 20
87.085917339
 30
0.0
 10
31.6006104681
 20
87.0775508769
 30
0.0
 10
31.5731478159
 20
87.064106293
 30
0.0
 10
31.5569589238
 20
87.0519329317
 30
0.0
 10
31.5495086567
 20
87.0451737611
 30
0.0
  0
SPLINE
  5
2A4
100
AcDbEntity
  8
0
100
AcDbSpline
 62
7
  6
BYLAYER
 70
0
 71
3
 72
11
 73
7
 74
0
 42
0.0000001
 43
0.0000001
 44
0.0000000001
 40
0.0
 40
0.0
 40
0.0
 40
0.0
 40
0.2696571143
 40
0.5216517113
 40
0.7623073612
 40
1.0
 40
1.0
 40
1.0
 40
1.0
 10
32.2729658052
 20
87.4060870627
 30
0.0
 10
32.278477625
 20
87.4211391283
 30
0.0
 10
32.2916406318
 20
87.4494515931
 30
0.0
 10
32.318851597
 20
87.4861203919
 30
0.0
 10
32.3522341023
 20
87.5144845427
 30
0.0
 10
32.3779593647
 20
87.5273281153
 30
0.0
 10
32.3912488368
 20
87.5321270679
 30
0.0
  0
SPLINE
  5
2A5
100
AcDbEntity
  8
0
100
AcDbSpline
 62
7
  6
BYLAYER
 70
0
 71
3
 72
12
 73
8
 74
0
 42
0.0000001
 43
0.0000001
 44
0.0000000001
 40
0.0
 40
0.0
 40
0.0
 40
0.0
 40
0.2569110042
 40
0.5076020579
 40
0.7544945885
 40
0.8772055124
 40
1.0
 40
1.0
 40
1.0
 40
1.0
 10
31.5495429215
 20
87.0452063329
 30
0.0
 10
31.4824045782
 20
86.9843433175
 30
0.0
 10
31.3579761559
 20
86.8544565892
 30
0.0
 10
31.2069934758
 20
86.6337760051
 30
0.0
 10
31.1180939819
 20
86.4321818378
 30
0.0
 10
31.0727599433
 20
86.2642651492
 30
0.0
 10
31.0589435311
 20
86.1785801386
 30
0.0
 10
31.054320194
 20
86.1355147224
 30
0.0
  0
SPLINE
  5
2A6
100
AcDbEntity
  8
0
100
AcDbSpline
 62
7
  6
BYLAYER
 70
0
 71
3
 72
9
 73
5
 74
0
 42
0.0000001
 43
0.0000001
 44
0.0000000001
 40
0.0
 40
0.0
 40
0.0
 40
0.0
 40
0.5183680826
 40
1.0
 40
1.0
 40
1.0
 40
1.0
 10
32.2729658052
 20
87.4060870627
 30
0.0
 10
32.1615322936
 20
87.3643767163
 30
0.0
 10
31.9506829827
 20
87.2722241595
 30
0.0
 10
31.7529788197
 20
87.1539286383
 30
0.0
 10
31.6628029334
 20
87.0899756398
 30
0.0
  0
SPLINE
  5
2A7
100
AcDbEntity
  8
0
100
AcDbSpline
 62
7
  6
BYLAYER
 70
0
 71
3
 72
15
 73
11
 74
0
 42
0.0000001
 43
0.0000001
 44
0.0000000001
 40
0.0
 40
0.0
 40
0.0
 40
0.0
 40
0.1157802676
 40
0.2368755978
 40
0.3624317408
 40
0.4910539105
 40
0.6209751928
 40
0.7502876435
 40
0.8771491198
 40
1.0
 40
1.0
 40
1.0
 40
1.0
 10
35.4839214851
 20
87.3196569211
 30
0.0
 10
35.3773711065
 20
87.3811724192
 30
0.0
 10
35.150054599
 20
87.491316515
 30
0.0
 10
34.784705398
 20
87.6156692699
 30
0.0
 10
34.394603474
 20
87.7020067515
 30
0.0
 10
33.9885034991
 20
87.7491904752
 30
0.0
 10
33.5757679867
 20
87.7565040328
 30
0.0
 10
33.1661139949
 20
87.7238233365
 30
0.0
 10
32.7691821405
 20
87.6516923693
 30
0.0
 10
32.5140111339
 20
87.5764854977
 30
0.0
 10
32.3912340864
 20
87.5321209099
 30
0.0
  0
SPLINE
  5
2A8
100
AcDbEntity
  8
0
100
AcDbSpline
 62
7
  6
BYLAYER
 70
0
 71
3
 72
14
 73
10
 74
0
 42
0.0000001
 43
0.0000001
 44
0.0000000001
 40
0.0
 40
0.0
 40
0.0
 40
0.0
 40
0.1200281247
 40
0.240305837
 40
0.361586655
 40
0.4842019106
 40
0.6087931226
 40
0.7360045517
 40
1.0
 40
1.0
 40
1.0
 40
1.0
 10
36.3594605537
 20
86.1355147224
 30
0.0
 10
36.3529353785
 20
86.1962953611
 30
0.0
 10
36.3307343439
 20
86.3171922807
 30
0.0
 10
36.2713246201
 20
86.4921177803
 30
0.0
 10
36.1879734001
 20
86.6584307519
 30
0.0
 10
36.0827499053
 20
86.8143959683
 30
0.0
 10
35.9579404282
 20
86.9591233838
 30
0.0
 10
35.7656863423
 20
87.138687942
 30
0.0
 10
35.6003609362
 20
87.2524320935
 30
0.0
 10
35.4839214851
 20
87.3196569211
 30
0.0
  0
SPLINE
  5
2A9
100
AcDbEntity
  8
0
100
AcDbSpline
 62
7
  6
BYLAYER
 70
0
 71
3
 72
9
 73
5
 74
0
 42
0.0000001
 43
0.0000001
 44
0.0000000001
 40
0.0
 40
0.0
 40
0.0
 40
0.0
 40
0.2662544151
 40
1.0
 40
1.0
 40
1.0
 40
1.0
 10
34.442280543
 20
86.9383766695
 30
0.0
 10
34.4407453293
 20
86.9377306978
 30
0.0
 10
34.4350581616
 20
86.935130254
 30
0.0
 10
34.4296852845
 20
86.9317781433
 30
0.0
 10
34.426164583
 20
86.9288331584
 30
0.0
  0
SPLINE
  5
2AA
100
AcDbEntity
  8
0
100
AcDbSpline
 62
7
  6
BYLAYER
 70
0
 71
3
 72
9
 73
5
 74
0
 42
0.0000001
 43
0.0000001
 44
0.0000000001
 40
0.0
 40
0.0
 40
0.0
 40
0.0
 40
0.2438648026
 40
1.0
 40
1.0
 40
1.0
 40
1.0
 10
34.8440343243
 20
87.0797331174
 30
0.0
 10
34.810695591
 20
87.0703534709
 30
0.0
 10
34.6746317374
 20
87.0296127671
 30
0.0
 10
34.5412598148
 20
86.9800241649
 30
0.0
 10
34.442280543
 20
86.9383766695
 30
0.0
  0
SPLINE
  5
2AB
100
AcDbEntity
  8
0
100
AcDbSpline
 62
7
  6
BYLAYER
 70
0
 71
3
 72
11
 73
7
 74
0
 42
0.0000001
 43
0.0000001
 44
0.0000000001
 40
0.0
 40
0.0
 40
0.0
 40
0.0
 40
0.2895416688
 40
0.549118971
 40
0.7822562702
 40
1.0
 40
1.0
 40
1.0
 40
1.0
 10
34.4422817206
 20
86.0883417479
 30
0.0
 10
34.437896416
 20
86.0858099062
 30
0.0
 10
34.4299385381
 20
86.0803226775
 30
0.0
 10
34.4204193428
 20
86.0703291044
 30
0.0
 10
34.4143966776
 20
86.0592651579
 30
0.0
 10
34.4129982873
 20
86.0513257263
 30
0.0
 10
34.4129982884
 20
86.0475176725
 30
0.0
  0
SPLINE
  5
2AC
100
AcDbEntity
  8
0
100
AcDbSpline
 62
7
  6
BYLAYER
 70
0
 71
3
 72
11
 73
7
 74
0
 42
0.0000001
 43
0.0000001
 44
0.0000000001
 40
0.0
 40
0.0
 40
0.0
 40
0.0
 40
0.2372531816
 40
0.5000006935
 40
0.7627478297
 40
1.0
 40
1.0
 40
1.0
 40
1.0
 10
33.4947552777
 20
86.5537358681
 30
0.0
 10
33.5047947598
 20
86.5479397016
 30
0.0
 10
33.528139951
 20
86.5394803916
 30
0.0
 10
33.5654660875
 20
86.5354361376
 30
0.0
 10
33.6027921548
 20
86.53948057
 30
0.0
 10
33.6261372365
 20
86.5479399939
 30
0.0
 10
33.636176634
 20
86.5537362081
 30
0.0
  0
SPLINE
  5
2AD
100
AcDbEntity
  8
0
100
AcDbSpline
 62
7
  6
BYLAYER
 70
0
 71
3
 72
9
 73
5
 74
0
 42
0.0000001
 43
0.0000001
 44
0.0000000001
 40
0.0
 40
0.0
 40
0.0
 40
0.0
 40
0.4792538609
 40
1.0
 40
1.0
 40
1.0
 40
1.0
 10
33.1049444446
 20
86.4766900079
 30
0.0
 10
33.1524014763
 20
86.5040891744
 30
0.0
 10
33.2572916261
 20
86.5512998499
 30
0.0
 10
33.3680341808
 20
86.5814372543
 30
0.0
 10
33.4264041085
 20
86.5931975413
 30
0.0
  0
SPLINE
  5
2AE
100
AcDbEntity
  8
0
100
AcDbSpline
 62
7
  6
BYLAYER
 70
0
 71
3
 72
9
 73
5
 74
0
 42
0.0000001
 43
0.0000001
 44
0.0000000001
 40
0.0
 40
0.0
 40
0.0
 40
0.0
 40
0.24014978
 40
1.0
 40
1.0
 40
1.0
 40
1.0
 10
32.9990883152
 20
86.4022227003
 30
0.0
 10
33.0069346424
 20
86.4090019705
 30
0.0
 10
33.0403591598
 20
86.4363575894
 30
0.0
 10
33.0765306991
 20
86.4602854222
 30
0.0
 10
33.1049444446
 20
86.4766900079
 30
0.0
  0
SPLINE
  5
2AF
100
AcDbEntity
  8
0
100
AcDbSpline
 62
7
  6
BYLAYER
 70
0
 71
3
 72
16
 73
12
 74
0
 42
0.0000001
 43
0.0000001
 44
0.0000000001
 40
0.0
 40
0.0
 40
0.0
 40
0.0
 40
0.1088535871
 40
0.2187142577
 40
0.3318915088
 40
0.4503645766
 40
0.5121189921
 40
0.5757160214
 40
0.7087854566
 40
0.8502124496
 40
1.0
 40
1.0
 40
1.0
 40
1.0
 10
31.054322922
 20
86.1355146248
 30
0.0
 10
31.0485447493
 20
86.0816745245
 30
0.0
 10
31.0468131815
 20
85.9721620612
 30
0.0
 10
31.0747084123
 20
85.8085537449
 30
0.0
 10
31.132537128
 20
85.6479399398
 30
0.0
 10
31.2039444935
 20
85.5199352082
 30
0.0
 10
31.274213044
 20
85.4209775699
 30
0.0
 10
31.3557549909
 20
85.3214770679
 30
0.0
 10
31.4750502087
 20
85.2022556622
 30
0.0
 10
31.6407818363
 20
85.0709560818
 30
0.0
 10
31.7631189168
 20
84.9928751721
 30
0.0
 10
31.827648474
 20
84.9556198577
 30
0.0
  0
SPLINE
  5
2B0
100
AcDbEntity
  8
0
100
AcDbSpline
 62
7
  6
BYLAYER
 70
0
 71
3
 72
11
 73
7
 74
0
 42
0.0000001
 43
0.0000001
 44
0.0000000001
 40
0.0
 40
0.0
 40
0.0
 40
0.0
 40
0.250173085
 40
0.5041560506
 40
0.7560808859
 40
1.0
 40
1.0
 40
1.0
 40
1.0
 10
35.7513927517
 20
85.6380056724
 30
0.0
 10
35.7714844821
 20
85.6136036764
 30
0.0
 10
35.8091014241
 20
85.5619961876
 30
0.0
 10
35.8565228649
 20
85.4788480999
 30
0.0
 10
35.8940299577
 20
85.3916353106
 30
0.0
 10
35.911875095
 20
85.3313796782
 30
0.0
 10
35.9186291633
 20
85.3013099579
 30
0.0
  0
SPLINE
  5
2B1
100
AcDbEntity
  8
0
100
AcDbSpline
 62
7
  6
BYLAYER
 70
0
 71
3
 72
9
 73
5
 74
0
 42
0.0000001
 43
0.0000001
 44
0.0000000001
 40
0.0
 40
0.0
 40
0.0
 40
0.0
 40
0.2495452978
 40
1.0
 40
1.0
 40
1.0
 40
1.0
 10
33.7068870177
 20
86.5205800535
 30
0.0
 10
33.7011778336
 20
86.5079341872
 30
0.0
 10
33.6781497312
 20
86.457326639
 30
0.0
 10
33.6544648722
 20
86.4070151803
 30
0.0
 10
33.636176634
 20
86.3695107299
 30
0.0
  0
SPLINE
  5
2B2
100
AcDbEntity
  8
0
100
AcDbSpline
 62
7
  6
BYLAYER
 70
0
 71
3
 72
9
 73
5
 74
0
 42
0.0000001
 43
0.0000001
 44
0.0000000001
 40
0.0
 40
0.0
 40
0.0
 40
0.0
 40
0.2504709449
 40
1.0
 40
1.0
 40
1.0
 40
1.0
 10
33.7775979902
 20
86.3695110698
 30
0.0
 10
33.7714940582
 20
86.3820285233
 30
0.0
 10
33.7473564225
 20
86.4321173998
 30
0.0
 10
33.724035201
 20
86.4825971554
 30
0.0
 10
33.7068870177
 20
86.5205800535
 30
0.0
  0
SPLINE
  5
2B3
100
AcDbEntity
  8
0
100
AcDbSpline
 62
7
  6
BYLAYER
 70
0
 71
3
 72
14
 73
10
 74
0
 42
0.0000001
 43
0.0000001
 44
0.0000000001
 40
0.0
 40
0.0
 40
0.0
 40
0.0
 40
0.123035203
 40
0.2470627805
 40
0.3721457941
 40
0.4978361247
 40
0.6236529137
 40
0.7493539285
 40
1.0
 40
1.0
 40
1.0
 40
1.0
 10
33.5618011935
 20
86.3233853701
 30
0.0
 10
33.5654865379
 20
86.3218759941
 30
0.0
 10
33.5732844442
 20
86.3196773615
 30
0.0
 10
33.5855150301
 20
86.3198596836
 30
0.0
 10
33.597193225
 20
86.3237198609
 30
0.0
 10
33.6075191212
 20
86.3303769963
 30
0.0
 10
33.6164047851
 20
86.3388265335
 30
0.0
 10
33.6265507965
 20
86.3515685
 30
0.0
 10
33.6326207312
 20
86.3622184921
 30
0.0
 10
33.636176634
 20
86.3695107299
 30
0.0
  0
SPLINE
  5
2B4
100
AcDbEntity
  8
0
100
AcDbSpline
 62
7
  6
BYLAYER
 70
0
 71
3
 72
9
 73
5
 74
0
 42
0.0000001
 43
0.0000001
 44
0.0000000001
 40
0.0
 40
0.0
 40
0.0
 40
0.0
 40
0.2562793269
 40
1.0
 40
1.0
 40
1.0
 40
1.0
 10
33.9190193464
 20
87.2404748278
 30
0.0
 10
33.9525663063
 20
87.2545903778
 30
0.0
 10
34.0842462296
 20
87.3077832695
 30
0.0
 10
34.2191003659
 20
87.3532262727
 30
0.0
 10
34.3207731277
 20
87.3818312758
 30
0.0
  0
SPLINE
  5
2B5
100
AcDbEntity
  8
0
100
AcDbSpline
 62
7
  6
BYLAYER
 70
0
 71
3
 72
9
 73
5
 74
0
 42
0.0000001
 43
0.0000001
 44
0.0000000001
 40
0.0
 40
0.0
 40
0.0
 40
0.0
 40
0.2680600244
 40
1.0
 40
1.0
 40
1.0
 40
1.0
 10
33.8879356223
 20
87.2318271291
 30
0.0
 10
33.8907818345
 20
87.2323064129
 30
0.0
 10
33.9013507165
 20
87.2343485444
 30
0.0
 10
33.9117551837
 20
87.237418287
 30
0.0
 10
33.9190193464
 20
87.2404748278
 30
0.0
  0
SPLINE
  5
2B6
100
AcDbEntity
  8
0
100
AcDbSpline
 62
7
  6
BYLAYER
 70
0
 71
3
 72
11
 73
7
 74
0
 42
0.0000001
 43
0.0000001
 44
0.0000000001
 40
0.0
 40
0.0
 40
0.0
 40
0.0
 40
0.2336963775
 40
0.4775210488
 40
0.7327005301
 40
1.0
 40
1.0
 40
1.0
 40
1.0
 10
32.4508159799
 20
87.5435514509
 30
0.0
 10
32.5417282061
 20
87.5474062787
 30
0.0
 10
32.7281527063
 20
87.5434231045
 30
0.0
 10
33.0113163766
 20
87.5044123112
 30
0.0
 10
33.3014487607
 20
87.432674531
 30
0.0
 10
33.4936496163
 20
87.3649962928
 30
0.0
 10
33.5902508538
 20
87.3262611983
 30
0.0
  0
SPLINE
  5
2B7
100
AcDbEntity
  8
0
100
AcDbSpline
 62
7
  6
BYLAYER
 70
0
 71
3
 72
22
 73
18
 74
0
 42
0.0000001
 43
0.0000001
 44
0.0000000001
 40
0.0
 40
0.0
 40
0.0
 40
0.0
 40
0.0677208927
 40
0.1324204719
 40
0.194317843
 40
0.2538192647
 40
0.311443156
 40
0.36779549
 40
0.4235601991
 40
0.4794605317
 40
0.5362102666
 40
0.594470181
 40
0.6548139403
 40
0.7177092056
 40
0.7834986417
 40
0.8524200738
 40
1.0
 40
1.0
 40
1.0
 40
1.0
 10
35.7513927517
 20
85.6380056724
 30
0.0
 10
35.7844474215
 20
85.6690687248
 30
0.0
 10
35.8464450898
 20
85.7327137101
 30
0.0
 10
35.9277527406
 20
85.8346360589
 30
0.0
 10
35.9945804986
 20
85.9401783755
 30
0.0
 10
36.0464431567
 20
86.048627899
 30
0.0
 10
36.0829452128
 20
86.1592946252
 30
0.0
 10
36.1037852344
 20
86.2714270539
 30
0.0
 10
36.1087686682
 20
86.3842277965
 30
0.0
 10
36.0978477048
 20
86.4968730473
 30
0.0
 10
36.0711377816
 20
86.6085512927
 30
0.0
 10
36.0288539816
 20
86.7184751013
 30
0.0
 10
35.9713628556
 20
86.8259203629
 30
0.0
 10
35.8990775148
 20
86.9301777684
 30
0.0
 10
35.812532381
 20
87.0306247922
 30
0.0
 10
35.6758160311
 20
87.1615492674
 30
0.0
 10
35.5580064082
 20
87.2475308565
 30
0.0
 10
35.4743260115
 20
87.3001515129
 30
0.0
  0
SPLINE
  5
2B8
100
AcDbEntity
  8
0
100
AcDbSpline
 62
7
  6
BYLAYER
 70
0
 71
3
 72
9
 73
5
 74
0
 42
0.0000001
 43
0.0000001
 44
0.0000000001
 40
0.0
 40
0.0
 40
0.0
 40
0.0
 40
0.4870156902
 40
1.0
 40
1.0
 40
1.0
 40
1.0
 10
34.6401232964
 20
86.7185721172
 30
0.0
 10
34.8409759889
 20
86.5662973985
 30
0.0
 10
35.2327116057
 20
86.225798914
 30
0.0
 10
35.582638885
 20
85.842962194
 30
0.0
 10
35.7513927517
 20
85.6380056724
 30
0.0
  0
SPLINE
  5
2B9
100
AcDbEntity
  8
0
100
AcDbSpline
 62
7
  6
BYLAYER
 70
0
 71
3
 72
27
 73
23
 74
0
 42
0.0000001
 43
0.0000001
 44
0.0000000001
 40
0.0
 40
0.0
 40
0.0
 40
0.0
 40
0.0629439675
 40
0.1299625117
 40
0.2003042095
 40
0.2730352674
 40
0.3471037451
 40
0.42139448
 40
0.4947821629
 40
0.5661834446
 40
0.6346112511
 40
0.6992341164
 40
0.7594445321
 40
0.8149408841
 40
0.8409601633
 40
0.8658804622
 40
0.8897945901
 40
0.9128328686
 40
0.935161172
 40
0.9569789874
 40
0.9785116228
 40
1.0
 40
1.0
 40
1.0
 40
1.0
 10
31.827648474
 20
84.9556198577
 30
0.0
 10
31.9257252619
 20
84.8989964788
 30
0.0
 10
32.1362493931
 20
84.7956554194
 30
0.0
 10
32.4761887504
 20
84.6741162905
 30
0.0
 10
32.8437285119
 20
84.5832711254
 30
0.0
 10
33.2306002863
 20
84.5251692625
 30
0.0
 10
33.628164843
 20
84.5010928222
 30
0.0
 10
34.0274956411
 20
84.511585513
 30
0.0
 10
34.4196300777
 20
84.5564103838
 30
0.0
 10
34.7957806989
 20
84.6345671884
 30
0.0
 10
35.1475415594
 20
84.7443176861
 30
0.0
 10
35.4671225383
 20
84.8832838611
 30
0.0
 10
35.7474055542
 20
85.0484534472
 30
0.0
 10
35.9473596053
 20
85.2085755838
 30
0.0
 10
36.080204266
 20
85.3468262692
 30
0.0
 10
36.164231249
 20
85.4523504945
 30
0.0
 10
36.2342562361
 20
85.5613470434
 30
0.0
 10
36.2898641073
 20
85.6732072086
 30
0.0
 10
36.3306665209
 20
85.787304725
 30
0.0
 10
36.3563980379
 20
85.9029696476
 30
0.0
 10
36.3668454099
 20
86.019477229
 30
0.0
 10
36.363588098
 20
86.0970739102
 30
0.0
 10
36.3594594438
 20
86.1355146826
 30
0.0
  0
SPLINE
  5
2BA
100
AcDbEntity
  8
0
100
AcDbSpline
 62
7
  6
BYLAYER
 70
0
 71
3
 72
10
 73
6
 74
0
 42
0.0000001
 43
0.0000001
 44
0.0000000001
 40
0.0
 40
0.0
 40
0.0
 40
0.0
 40
0.2275239636
 40
0.4653547989
 40
1.0
 40
1.0
 40
1.0
 40
1.0
 10
34.4129982884
 20
86.0475176725
 30
0.0
 10
34.4129982894
 20
86.0445181777
 30
0.0
 10
34.4138416403
 20
86.0383525132
 30
0.0
 10
34.418989565
 20
86.0260911986
 30
0.0
 10
34.4261620113
 20
86.0183745492
 30
0.0
 10
34.4316450676
 20
86.0139456505
 30
0.0
  0
SPLINE
  5
2BB
100
AcDbEntity
  8
0
100
AcDbSpline
 62
7
  6
BYLAYER
 70
0
 71
3
 72
9
 73
5
 74
0
 42
0.0000001
 43
0.0000001
 44
0.0000000001
 40
0.0
 40
0.0
 40
0.0
 40
0.0
 40
0.2422259069
 40
1.0
 40
1.0
 40
1.0
 40
1.0
 10
34.4316450676
 20
86.0139456505
 30
0.0
 10
34.4324541834
 20
86.0132920931
 30
0.0
 10
34.4358520612
 20
86.0106655473
 30
0.0
 10
34.4394644011
 20
86.0083201404
 30
0.0
 10
34.4422823094
 20
86.0066932571
 30
0.0
  0
SPLINE
  5
2BC
100
AcDbEntity
  8
0
100
AcDbSpline
 62
7
  6
BYLAYER
 70
0
 71
3
 72
15
 73
11
 74
0
 42
0.0000001
 43
0.0000001
 44
0.0000000001
 40
0.0
 40
0.0
 40
0.0
 40
0.0
 40
0.1118765105
 40
0.2315850181
 40
0.3574391543
 40
0.4873366331
 40
0.6189415538
 40
0.7498208605
 40
0.8775742219
 40
1.0
 40
1.0
 40
1.0
 40
1.0
 10
32.010184426
 20
85.3835925774
 30
0.0
 10
32.1083929033
 20
85.3268931694
 30
0.0
 10
32.3206110942
 20
85.2246178264
 30
0.0
 10
32.6645271836
 20
85.1083245469
 30
0.0
 10
33.0368902916
 20
85.0263118979
 30
0.0
 10
33.4275160377
 20
84.980848142
 30
0.0
 10
33.8257767285
 20
84.9731492249
 30
0.0
 10
34.2208019553
 20
85.0034524569
 30
0.0
 10
34.6017471416
 20
85.0708929021
 30
0.0
 10
34.846010337
 20
85.1413253589
 30
0.0
 10
34.9629647677
 20
85.1828092807
 30
0.0
  0
SPLINE
  5
2BD
100
AcDbEntity
  8
0
100
AcDbSpline
 62
7
  6
BYLAYER
 70
0
 71
3
 72
19
 73
15
 74
0
 42
0.0000001
 43
0.0000001
 44
0.0000000001
 40
0.0
 40
0.0
 40
0.0
 40
0.0
 40
0.126828345
 40
0.1904547041
 40
0.2541053822
 40
0.3175738411
 40
0.380537859
 40
0.4429066418
 40
0.5048882426
 40
0.5666920672
 40
0.6284489237
 40
0.7519603463
 40
0.8758069197
 40
1.0
 40
1.0
 40
1.0
 40
1.0
 10
33.7775979902
 20
86.3695110698
 30
0.0
 10
33.7815198227
 20
86.3614684907
 30
0.0
 10
33.788297507
 20
86.3497405819
 30
0.0
 10
33.7999237232
 20
86.3360250619
 30
0.0
 10
33.8102743168
 20
86.3272909685
 30
0.0
 10
33.8224119189
 20
86.3211915643
 30
0.0
 10
33.8358381035
 20
86.3191595893
 30
0.0
 10
33.849036853
 20
86.321652488
 30
0.0
 10
33.8609180761
 20
86.3275111595
 30
0.0
 10
33.8713691331
 20
86.3354878108
 30
0.0
 10
33.8836457301
 20
86.3479175731
 30
0.0
 10
33.8964784225
 20
86.365690299
 30
0.0
 10
33.9089973066
 20
86.3887651872
 30
0.0
 10
33.9158789891
 20
86.4048815375
 30
0.0
 10
33.9190193464
 20
86.4130613544
 30
0.0
  0
SPLINE
  5
2BE
100
AcDbEntity
  8
0
100
AcDbSpline
 62
7
  6
BYLAYER
 70
0
 71
3
 72
9
 73
5
 74
0
 42
0.0000001
 43
0.0000001
 44
0.0000000001
 40
0.0
 40
0.0
 40
0.0
 40
0.0
 40
0.2622206438
 40
1.0
 40
1.0
 40
1.0
 40
1.0
 10
33.8879356223
 20
87.2318271291
 30
0.0
 10
33.8741943852
 20
87.2536037112
 30
0.0
 10
33.8199044005
 20
87.335420719
 30
0.0
 10
33.7576180587
 20
87.4121172289
 30
0.0
 10
33.7068850807
 20
87.4638372552
 30
0.0
  0
SPLINE
  5
2BF
100
AcDbEntity
  8
0
100
AcDbSpline
 62
7
  6
BYLAYER
 70
0
 71
3
 72
9
 73
5
 74
0
 42
0.0000001
 43
0.0000001
 44
0.0000000001
 40
0.0
 40
0.0
 40
0.0
 40
0.0
 40
0.2429227582
 40
1.0
 40
1.0
 40
1.0
 40
1.0
 10
33.7068850807
 20
87.4638372552
 30
0.0
 10
33.6966533198
 20
87.4534061342
 30
0.0
 10
33.6553510598
 20
87.4096677538
 30
0.0
 10
33.6173013051
 20
87.3628935145
 30
0.0
 10
33.5902508538
 20
87.3262611983
 30
0.0
  0
SPLINE
  5
2C0
100
AcDbEntity
  8
0
100
AcDbSpline
 62
7
  6
BYLAYER
 70
0
 71
3
 72
11
 73
7
 74
0
 42
0.0000001
 43
0.0000001
 44
0.0000000001
 40
0.0
 40
0.0
 40
0.0
 40
0.0
 40
0.2752013166
 40
0.5356361888
 40
0.7778832978
 40
1.0
 40
1.0
 40
1.0
 40
1.0
 10
33.9873682178
 20
86.5931993422
 30
0.0
 10
34.0309297093
 20
86.5844230021
 30
0.0
 10
34.1149352114
 20
86.5630534728
 30
0.0
 10
34.2326990797
 20
86.5185262612
 30
0.0
 10
34.3363154729
 20
86.4633960485
 30
0.0
 10
34.3968466339
 20
86.418451806
 30
0.0
 10
34.4235003452
 20
86.3944540432
 30
0.0
  0
SPLINE
  5
2C1
100
AcDbEntity
  8
0
100
AcDbSpline
 62
7
  6
BYLAYER
 70
0
 71
3
 72
11
 73
7
 74
0
 42
0.0000001
 43
0.0000001
 44
0.0000000001
 40
0.0
 40
0.0
 40
0.0
 40
0.0
 40
0.2691141318
 40
0.5260450129
 40
0.7698266792
 40
1.0
 40
1.0
 40
1.0
 40
1.0
 10
35.1408149424
 20
84.8522413887
 30
0.0
 10
35.2166652142
 20
84.8806326784
 30
0.0
 10
35.3629565076
 20
84.9416373659
 30
0.0
 10
35.5690202375
 20
85.0481439
 30
0.0
 10
35.7547352434
 20
85.1665917552
 30
0.0
 10
35.866897819
 20
85.2552418861
 30
0.0
 10
35.9186291633
 20
85.3013099579
 30
0.0
  0
SPLINE
  5
2C2
100
AcDbEntity
  8
0
100
AcDbSpline
 62
7
  6
BYLAYER
 70
0
 71
3
 72
9
 73
5
 74
0
 42
0.0000001
 43
0.0000001
 44
0.0000000001
 40
0.0
 40
0.0
 40
0.0
 40
0.0
 40
0.2681783293
 40
1.0
 40
1.0
 40
1.0
 40
1.0
 10
32.9715002046
 20
86.6934276617
 30
0.0
 10
32.9736764226
 20
86.6950248398
 30
0.0
 10
32.9815667484
 20
86.7012646949
 30
0.0
 10
32.988563236
 20
86.7087496704
 30
0.0
 10
32.9926028573
 20
86.7149096018
 30
0.0
  0
SPLINE
  5
2C3
100
AcDbEntity
  8
0
100
AcDbSpline
 62
7
  6
BYLAYER
 70
0
 71
3
 72
9
 73
5
 74
0
 42
0.0000001
 43
0.0000001
 44
0.0000000001
 40
0.0
 40
0.0
 40
0.0
 40
0.0
 40
0.2542242456
 40
1.0
 40
1.0
 40
1.0
 40
1.0
 10
32.5697464233
 20
86.3708815712
 30
0.0
 10
32.6026360303
 20
86.3996057037
 30
0.0
 10
32.7331428906
 20
86.5112844198
 30
0.0
 10
32.8682300071
 20
86.6176352085
 30
0.0
 10
32.9715002046
 20
86.6934276617
 30
0.0
  0
SPLINE
  5
2C4
100
AcDbEntity
  8
0
100
AcDbSpline
 62
7
  6
BYLAYER
 70
0
 71
3
 72
22
 73
18
 74
0
 42
0.0000001
 43
0.0000001
 44
0.0000000001
 40
0.0
 40
0.0
 40
0.0
 40
0.0
 40
0.149627409
 40
0.2194481517
 40
0.2859829649
 40
0.3494432191
 40
0.4101459854
 40
0.4685420268
 40
0.5252048819
 40
0.5808124056
 40
0.6361096393
 40
0.6918642712
 40
0.7488117725
 40
0.8076063512
 40
0.8688079096
 40
0.9328579014
 40
1.0
 40
1.0
 40
1.0
 40
1.0
 10
32.010184426
 20
85.3835925774
 30
0.0
 10
31.9198268721
 20
85.4357593553
 30
0.0
 10
31.7921280829
 20
85.5216266142
 30
0.0
 10
31.6425432533
 20
85.6538372348
 30
0.0
 10
31.5472103717
 20
85.7557774615
 30
0.0
 10
31.4668619583
 20
85.8620626273
 30
0.0
 10
31.402098633
 20
85.9720112593
 30
0.0
 10
31.3534264638
 20
86.0848670929
 30
0.0
 10
31.3212841191
 20
86.1998440951
 30
0.0
 10
31.3059417117
 20
86.316083839
 30
0.0
 10
31.3075816206
 20
86.4326945221
 30
0.0
 10
31.3261647374
 20
86.5487617675
 30
0.0
 10
31.3615228432
 20
86.6633911309
 30
0.0
 10
31.4133164058
 20
86.7757476917
 30
0.0
 10
31.4811261142
 20
86.8850603655
 30
0.0
 10
31.5644132443
 20
86.9905507245
 30
0.0
 10
31.6282706329
 20
87.0562933431
 30
0.0
 10
31.6623879959
 20
87.0883550592
 30
0.0
  0
SPLINE
  5
2C5
100
AcDbEntity
  8
0
100
AcDbSpline
 62
7
  6
BYLAYER
 70
0
 71
3
 72
9
 73
5
 74
0
 42
0.0000001
 43
0.0000001
 44
0.0000000001
 40
0.0
 40
0.0
 40
0.0
 40
0.0
 40
0.4883850032
 40
1.0
 40
1.0
 40
1.0
 40
1.0
 10
32.4508159799
 20
87.5435514509
 30
0.0
 10
32.5902783181
 20
87.5930189631
 30
0.0
 10
32.8833082486
 20
87.6739076273
 30
0.0
 10
33.1838229844
 20
87.7182067167
 30
0.0
 10
33.3382159226
 20
87.7320694712
 30
0.0
  0
SPLINE
  5
2C6
100
AcDbEntity
  8
0
100
AcDbSpline
 62
7
  6
BYLAYER
 70
0
 71
3
 72
9
 73
5
 74
0
 42
0.0000001
 43
0.0000001
 44
0.0000000001
 40
0.0
 40
0.0
 40
0.0
 40
0.0
 40
0.2540212675
 40
1.0
 40
1.0
 40
1.0
 40
1.0
 10
34.4648785936
 20
87.6775844585
 30
0.0
 10
34.4956968255
 20
87.6716608997
 30
0.0
 10
34.6167177655
 20
87.6468157997
 30
0.0
 10
34.7364949658
 20
87.6158264972
 30
0.0
 10
34.8246723737
 20
87.5890275032
 30
0.0
  0
SPLINE
  5
2C7
100
AcDbEntity
  8
0
100
AcDbSpline
 62
7
  6
BYLAYER
 70
0
 71
3
 72
9
 73
5
 74
0
 42
0.0000001
 43
0.0000001
 44
0.0000000001
 40
0.0
 40
0.0
 40
0.0
 40
0.0
 40
0.513521919
 40
1.0
 40
1.0
 40
1.0
 40
1.0
 10
34.929660506
 20
87.5551509653
 30
0.0
 10
35.0138758352
 20
87.5263543331
 30
0.0
 10
35.1755820781
 20
87.4632631903
 30
0.0
 10
35.3305765942
 20
87.3849251597
 30
0.0
 10
35.4035963216
 20
87.3427681541
 30
0.0
  0
SPLINE
  5
2C8
100
AcDbEntity
  8
0
100
AcDbSpline
 62
7
  6
BYLAYER
 70
0
 71
3
 72
9
 73
5
 74
0
 42
0.0000001
 43
0.0000001
 44
0.0000000001
 40
0.0
 40
0.0
 40
0.0
 40
0.0
 40
0.5171054508
 40
1.0
 40
1.0
 40
1.0
 40
1.0
 10
20.9694555819
 20
68.62098023
 30
0.0
 10
20.9694555819
 20
69.1207270031
 30
0.0
 10
21.0195515732
 20
70.0881142104
 30
0.0
 10
21.1873079959
 20
71.0431482414
 30
0.0
 10
21.30102865
 20
71.4957649048
 30
0.0
  0
SPLINE
  5
2C9
100
AcDbEntity
  8
0
100
AcDbSpline
 62
7
  6
BYLAYER
 70
0
 71
3
 72
16
 73
12
 74
0
 42
0.0000001
 43
0.0000001
 44
0.0000000001
 40
0.0
 40
0.0
 40
0.0
 40
0.0
 40
0.1541664429
 40
0.305360384
 40
0.4495089119
 40
0.5833653287
 40
0.7046680664
 40
0.8128394349
 40
0.9096305047
 40
0.9552787397
 40
1.0
 40
1.0
 40
1.0
 40
1.0
 10
30.173453959
 20
89.3663893711
 30
0.0
 10
30.0043714506
 20
89.3720032633
 30
0.0
 10
29.6684857168
 20
89.3635035511
 30
0.0
 10
29.1791086261
 20
89.2930603989
 30
0.0
 10
28.7237091095
 20
89.1675447465
 30
0.0
 10
28.3203628997
 20
88.9920149304
 30
0.0
 10
27.9847168665
 20
88.7725251531
 30
0.0
 10
27.7299248239
 20
88.5165575791
 30
0.0
 10
27.5923284623
 20
88.273083214
 30
0.0
 10
27.5388479051
 20
88.0738697166
 30
0.0
 10
27.5299657368
 20
87.9744902172
 30
0.0
 10
27.5299446643
 20
87.9254150181
 30
0.0
  0
SPLINE
  5
2CA
100
AcDbEntity
  8
0
100
AcDbSpline
 62
7
  6
BYLAYER
 70
0
 71
3
 72
11
 73
7
 74
0
 42
0.0000001
 43
0.0000001
 44
0.0000000001
 40
0.0
 40
0.0
 40
0.0
 40
0.0
 40
0.2334927305
 40
0.4803840918
 40
0.7372216324
 40
1.0
 40
1.0
 40
1.0
 40
1.0
 10
41.4907274164
 20
86.7979798235
 30
0.0
 10
40.6705700107
 20
87.190075188
 30
0.0
 10
38.9300329473
 20
87.8884635709
 30
0.0
 10
36.1606209252
 20
88.6607755234
 30
0.0
 10
33.216125999
 20
89.1733787367
 30
0.0
 10
31.1959728762
 20
89.3324396088
 30
0.0
 10
30.173453959
 20
89.3663893711
 30
0.0
  0
SPLINE
  5
2CB
100
AcDbEntity
  8
0
100
AcDbSpline
 62
7
  6
BYLAYER
 70
0
 71
3
 72
11
 73
7
 74
0
 42
0.0000001
 43
0.0000001
 44
0.0000000001
 40
0.0
 40
0.0
 40
0.0
 40
0.0
 40
0.28235855
 40
0.5422740082
 40
0.7801170938
 40
1.0
 40
1.0
 40
1.0
 40
1.0
 10
57.1444359117
 20
91.9892098323
 30
0.0
 10
57.1078196927
 20
92.0103497748
 30
0.0
 10
57.0348619868
 20
92.0466700638
 30
0.0
 10
56.9231293271
 20
92.0825487664
 30
0.0
 10
56.8158322299
 20
92.096151833
 30
0.0
 10
56.7468143454
 20
92.0892060623
 30
0.0
 10
56.7148027284
 20
92.0815029029
 30
0.0
  0
SPLINE
  5
2CC
100
AcDbEntity
  8
0
100
AcDbSpline
 62
7
  6
BYLAYER
 70
0
 71
3
 72
15
 73
11
 74
0
 42
0.0000001
 43
0.0000001
 44
0.0000000001
 40
0.0
 40
0.0
 40
0.0
 40
0.0
 40
0.1104794494
 40
0.2232851975
 40
0.3395326637
 40
0.4602365444
 40
0.5861704504
 40
0.7178982673
 40
0.8558102062
 40
1.0
 40
1.0
 40
1.0
 40
1.0
 10
27.5340448103
 20
87.8425348848
 30
0.0
 10
27.5637715647
 20
87.5441441379
 30
0.0
 10
27.6655487026
 20
86.9444893181
 30
0.0
 10
27.9393701521
 20
86.0619734728
 30
0.0
 10
28.3334381586
 20
85.1956753957
 30
0.0
 10
28.8446726791
 20
84.351352655
 30
0.0
 10
29.4694105876
 20
83.5339499232
 30
0.0
 10
30.2036779175
 20
82.7483845595
 30
0.0
 10
31.0426113922
 20
81.9994840848
 30
0.0
 10
31.6545778661
 20
81.5377442979
 30
0.0
 10
31.9754908628
 20
81.3137307729
 30
0.0
  0
SPLINE
  5
2CD
100
AcDbEntity
  8
0
100
AcDbSpline
 62
7
  6
BYLAYER
 70
0
 71
3
 72
9
 73
5
 74
0
 42
0.0000001
 43
0.0000001
 44
0.0000000001
 40
0.0
 40
0.0
 40
0.0
 40
0.0
 40
0.5057433049
 40
1.0
 40
1.0
 40
1.0
 40
1.0
 10
35.789991085
 20
83.7519382052
 30
0.0
 10
35.1355996517
 20
83.3626175765
 30
0.0
 10
33.8551064818
 20
82.5699728684
 30
0.0
 10
32.6068055651
 20
81.7272685389
 30
0.0
 10
31.9998034302
 20
81.2967931778
 30
0.0
  0
SPLINE
  5
2CE
100
AcDbEntity
  8
0
100
AcDbSpline
 62
7
  6
BYLAYER
 70
0
 71
3
 72
9
 73
5
 74
0
 42
0.0000001
 43
0.0000001
 44
0.0000000001
 40
0.0
 40
0.0
 40
0.0
 40
0.0
 40
0.4901873507
 40
1.0
 40
1.0
 40
1.0
 40
1.0
 10
80.0577865421
 20
78.7604800816
 30
0.0
 10
74.244811765
 20
75.9454808558
 30
0.0
 10
62.5990288367
 20
69.7554560013
 30
0.0
 10
51.4019109236
 20
62.791136223
 30
0.0
 10
45.8101889683
 20
59.0689555272
 30
0.0
  0
SPLINE
  5
2CF
100
AcDbEntity
  8
0
100
AcDbSpline
 62
7
  6
BYLAYER
 70
0
 71
3
 72
13
 73
9
 74
0
 42
0.0000001
 43
0.0000001
 44
0.0000000001
 40
0.0
 40
0.0
 40
0.0
 40
0.0
 40
0.112682044
 40
0.2231273925
 40
0.3350155794
 40
0.4515717205
 40
0.7070342157
 40
1.0
 40
1.0
 40
1.0
 40
1.0
 10
21.3898428829
 20
71.6787933731
 30
0.0
 10
21.4058668066
 20
71.6980085555
 30
0.0
 10
21.4416897841
 20
71.7329045984
 30
0.0
 10
21.5057809603
 20
71.7718628898
 30
0.0
 10
21.5777310279
 20
71.795856241
 30
0.0
 10
21.6851301641
 20
71.8082759413
 30
0.0
 10
21.833464551
 20
71.7833920423
 30
0.0
 10
21.9450401685
 20
71.7319997523
 30
0.0
 10
22.0013752025
 20
71.6994753843
 30
0.0
  0
SPLINE
  5
2D0
100
AcDbEntity
  8
0
100
AcDbSpline
 62
7
  6
BYLAYER
 70
0
 71
3
 72
9
 73
5
 74
0
 42
0.0000001
 43
0.0000001
 44
0.0000000001
 40
0.0
 40
0.0
 40
0.0
 40
0.0
 40
0.4906739276
 40
1.0
 40
1.0
 40
1.0
 40
1.0
 10
28.470263577
 20
81.2164049948
 30
0.0
 10
27.7445327017
 20
80.983590366
 30
0.0
 10
26.237851794
 20
80.5925395865
 30
0.0
 10
24.7001278553
 20
80.3547923889
 30
0.0
 10
23.913470728
 20
80.2707634185
 30
0.0
  0
SPLINE
  5
2D1
100
AcDbEntity
  8
0
100
AcDbSpline
 62
7
  6
BYLAYER
 70
0
 71
3
 72
9
 73
5
 74
0
 42
0.0000001
 43
0.0000001
 44
0.0000000001
 40
0.0
 40
0.0
 40
0.0
 40
0.0
 40
0.5070391685
 40
1.0
 40
1.0
 40
1.0
 40
1.0
 10
45.869030448
 20
94.9471324218
 30
0.0
 10
43.5827810106
 20
94.0708565986
 30
0.0
 10
39.1138389785
 20
92.2358450612
 30
0.0
 10
34.7428783823
 20
90.1774987219
 30
0.0
 10
32.6176331581
 20
89.1051882143
 30
0.0
  0
SPLINE
  5
2D2
100
AcDbEntity
  8
0
100
AcDbSpline
 62
7
  6
BYLAYER
 70
0
 71
3
 72
11
 73
7
 74
0
 42
0.0000001
 43
0.0000001
 44
0.0000000001
 40
0.0
 40
0.0
 40
0.0
 40
0.0
 40
0.2897036169
 40
0.5490920547
 40
0.7822205729
 40
1.0
 40
1.0
 40
1.0
 40
1.0
 10
22.8174777385
 20
77.1477060094
 30
0.0
 10
22.7253312533
 20
77.2009056039
 30
0.0
 10
22.5581532987
 20
77.3160506369
 30
0.0
 10
22.3583482829
 20
77.526027089
 30
0.0
 10
22.2319606503
 20
77.7583186092
 30
0.0
 10
22.2024090027
 20
77.9250337237
 30
0.0
 10
22.2024029549
 20
78.0050187366
 30
0.0
  0
SPLINE
  5
2D3
100
AcDbEntity
  8
0
100
AcDbSpline
 62
7
  6
BYLAYER
 70
0
 71
3
 72
11
 73
7
 74
0
 42
0.0000001
 43
0.0000001
 44
0.0000000001
 40
0.0
 40
0.0
 40
0.0
 40
0.0
 40
0.2658818085
 40
0.5252903868
 40
0.7718822994
 40
1.0
 40
1.0
 40
1.0
 40
1.0
 10
25.7556733854
 20
75.9763359632
 30
0.0
 10
25.6155299184
 20
75.9748228297
 30
0.0
 10
25.338217556
 20
75.9878207558
 30
0.0
 10
24.935830166
 20
76.0543654009
 30
0.0
 10
24.5640493458
 20
76.1654649609
 30
0.0
 10
24.3358333631
 20
76.2711028122
 30
0.0
 10
24.2316971888
 20
76.3312245004
 30
0.0
  0
SPLINE
  5
2D4
100
AcDbEntity
  8
0
100
AcDbSpline
 62
7
  6
BYLAYER
 70
0
 71
3
 72
11
 73
7
 74
0
 42
0.0000001
 43
0.0000001
 44
0.0000000001
 40
0.0
 40
0.0
 40
0.0
 40
0.0
 40
0.2897036169
 40
0.5490920547
 40
0.7822205729
 40
1.0
 40
1.0
 40
1.0
 40
1.0
 10
15.7464393663
 20
73.0652644707
 30
0.0
 10
15.6542928811
 20
73.1184640652
 30
0.0
 10
15.4871149265
 20
73.2336090982
 30
0.0
 10
15.2873099107
 20
73.4435855503
 30
0.0
 10
15.1609222782
 20
73.6758770705
 30
0.0
 10
15.1313706305
 20
73.842592185
 30
0.0
 10
15.1313645827
 20
73.9225771979
 30
0.0
  0
SPLINE
  5
2D5
100
AcDbEntity
  8
0
100
AcDbSpline
 62
7
  6
BYLAYER
 70
0
 71
3
 72
15
 73
11
 74
0
 42
0.0000001
 43
0.0000001
 44
0.0000000001
 40
0.0
 40
0.0
 40
0.0
 40
0.0
 40
0.1141231812
 40
0.2373468278
 40
0.366971913
 40
0.4999994099
 40
0.6330269884
 40
0.76265231
 40
0.885876356
 40
1.0
 40
1.0
 40
1.0
 40
1.0
 10
20.1305072976
 20
72.2487901003
 30
0.0
 10
20.0288810004
 20
72.1901164805
 30
0.0
 10
19.8065589608
 20
72.0866395665
 30
0.0
 10
19.4446036507
 20
71.9765557658
 30
0.0
 10
19.0526634411
 20
71.9088776046
 30
0.0
 10
18.6455857659
 20
71.8859885418
 30
0.0
 10
18.2385077379
 20
71.908875626
 30
0.0
 10
17.8465664562
 20
71.9765518981
 30
0.0
 10
17.4846094632
 20
72.0866340213
 30
0.0
 10
17.262285949
 20
72.1901098368
 30
0.0
 10
17.1606588166
 20
72.2487829617
 30
0.0
  0
SPLINE
  5
2D6
100
AcDbEntity
  8
0
100
AcDbSpline
 62
7
  6
BYLAYER
 70
0
 71
3
 72
11
 73
7
 74
0
 42
0.0000001
 43
0.0000001
 44
0.0000000001
 40
0.0
 40
0.0
 40
0.0
 40
0.0
 40
0.2897036169
 40
0.5490920547
 40
0.7822205729
 40
1.0
 40
1.0
 40
1.0
 40
1.0
 10
45.4448005293
 20
90.2115189333
 30
0.0
 10
45.3526540441
 20
90.2647185278
 30
0.0
 10
45.1854760895
 20
90.3798635608
 30
0.0
 10
44.9856710737
 20
90.5898400129
 30
0.0
 10
44.8592834411
 20
90.8221315331
 30
0.0
 10
44.8297317935
 20
90.9888466476
 30
0.0
 10
44.8297257457
 20
91.0688316605
 30
0.0
  0
SPLINE
  5
2D7
100
AcDbEntity
  8
0
100
AcDbSpline
 62
7
  6
BYLAYER
 70
0
 71
3
 72
11
 73
7
 74
0
 42
0.0000001
 43
0.0000001
 44
0.0000000001
 40
0.0
 40
0.0
 40
0.0
 40
0.0
 40
0.2897114911
 40
0.5490754158
 40
0.7821845482
 40
1.0
 40
1.0
 40
1.0
 40
1.0
 10
46.1519161424
 20
88.9867932704
 30
0.0
 10
46.0597671263
 20
89.0399943261
 30
0.0
 10
45.8925810787
 20
89.1551215196
 30
0.0
 10
45.6928191554
 20
89.3651202012
 30
0.0
 10
45.566397065
 20
89.5973766512
 30
0.0
 10
45.5368140265
 20
89.7641077313
 30
0.0
 10
45.5368472477
 20
89.8441059913
 30
0.0
  0
SPLINE
  5
2D8
100
AcDbEntity
  8
0
100
AcDbSpline
 62
7
  6
BYLAYER
 70
0
 71
3
 72
9
 73
5
 74
0
 42
0.0000001
 43
0.0000001
 44
0.0000000001
 40
0.0
 40
0.0
 40
0.0
 40
0.0
 40
0.2574049965
 40
1.0
 40
1.0
 40
1.0
 40
1.0
 10
46.4193040764
 20
88.8562969918
 30
0.0
 10
46.395681918
 20
88.8660049433
 30
0.0
 10
46.3045008868
 20
88.9051240219
 30
0.0
 10
46.2157241834
 20
88.9499545142
 30
0.0
 10
46.1519161424
 20
88.9867932704
 30
0.0
  0
SPLINE
  5
2D9
100
AcDbEntity
  8
0
100
AcDbSpline
 62
7
  6
BYLAYER
 70
0
 71
3
 72
9
 73
5
 74
0
 42
0.0000001
 43
0.0000001
 44
0.0000000001
 40
0.0
 40
0.0
 40
0.0
 40
0.0
 40
0.5134071391
 40
1.0
 40
1.0
 40
1.0
 40
1.0
 10
80.216625919
 20
70.0260848906
 30
0.0
 10
80.6390662237
 20
67.8609531893
 30
0.0
 10
81.284142478
 20
63.6065107148
 30
0.0
 10
81.5213501043
 20
59.3078324337
 30
0.0
 10
81.5213501043
 20
57.217087338
 30
0.0
  0
SPLINE
  5
2DA
100
AcDbEntity
  8
0
100
AcDbSpline
 62
7
  6
BYLAYER
 70
0
 71
3
 72
11
 73
7
 74
0
 42
0.0000001
 43
0.0000001
 44
0.0000000001
 40
0.0
 40
0.0
 40
0.0
 40
0.0
 40
0.2349672995
 40
0.4764039721
 40
0.7300436523
 40
1.0
 40
1.0
 40
1.0
 40
1.0
 10
22.3773029527
 20
63.3769415627
 30
0.0
 10
22.102700935
 20
63.218398386
 30
0.0
 10
21.5781852794
 20
62.8373725565
 30
0.0
 10
20.9104159537
 20
62.1048385105
 30
0.0
 10
20.3661528204
 20
61.2213445483
 30
0.0
 10
20.0988725119
 20
60.5637172069
 30
0.0
 10
19.9856540716
 20
60.2174560623
 30
0.0
  0
SPLINE
  5
2DB
100
AcDbEntity
  8
0
100
AcDbSpline
 62
7
  6
BYLAYER
 70
0
 71
3
 72
18
 73
14
 74
0
 42
0.0000001
 43
0.0000001
 44
0.0000000001
 40
0.0
 40
0.0
 40
0.0
 40
0.0
 40
0.0572239035
 40
0.1173571098
 40
0.2446918263
 40
0.3786097074
 40
0.5148603462
 40
0.648962472
 40
0.7138938467
 40
0.7767358662
 40
0.8370704832
 40
0.8945567868
 40
1.0
 40
1.0
 40
1.0
 40
1.0
 10
27.7319456748
 20
57.6539480382
 30
0.0
 10
27.7319456748
 20
57.3843591758
 30
0.0
 10
27.7593385359
 20
56.8312126513
 30
0.0
 10
27.9156702704
 20
55.687982715
 30
0.0
 10
28.300756329
 20
54.2173295291
 30
0.0
 10
29.0195788293
 20
52.4825172803
 30
0.0
 10
29.9700680939
 20
50.8262630507
 30
0.0
 10
30.9277028897
 20
49.5637118721
 30
0.0
 10
31.7719108758
 20
48.6627902384
 30
0.0
 10
32.4240182424
 20
48.0615079521
 30
0.0
 10
33.0940173502
 20
47.5347306668
 30
0.0
 10
33.9739650144
 20
46.9576824703
 30
0.0
 10
34.6745546892
 20
46.6255303005
 30
0.0
 10
35.1467693309
 20
46.4713231994
 30
0.0
  0
SPLINE
  5
2DC
100
AcDbEntity
  8
0
100
AcDbSpline
 62
7
  6
BYLAYER
 70
0
 71
3
 72
9
 73
5
 74
0
 42
0.0000001
 43
0.0000001
 44
0.0000000001
 40
0.0
 40
0.0
 40
0.0
 40
0.0
 40
0.2391707585
 40
1.0
 40
1.0
 40
1.0
 40
1.0
 10
27.8744651076
 20
59.0874482649
 30
0.0
 10
27.8504292991
 20
58.9750194053
 30
0.0
 10
27.7641472048
 20
58.5019313811
 30
0.0
 10
27.7319456748
 20
58.0196787846
 30
0.0
 10
27.7319456748
 20
57.6539480382
 30
0.0
  0
SPLINE
  5
2DD
100
AcDbEntity
  8
0
100
AcDbSpline
 62
7
  6
BYLAYER
 70
0
 71
3
 72
24
 73
20
 74
0
 42
0.0000001
 43
0.0000001
 44
0.0000000001
 40
0.0
 40
0.0
 40
0.0
 40
0.0
 40
0.0213341705
 40
0.0428965603
 40
0.0874755667
 40
0.1352552113
 40
0.187160304
 40
0.2436018071
 40
0.3045537398
 40
0.3696461368
 40
0.4382481228
 40
0.5095390846
 40
0.5825683978
 40
0.6563052307
 40
0.7296861342
 40
0.8016689137
 40
0.8712620987
 40
0.9376179694
 40
1.0
 40
1.0
 40
1.0
 40
1.0
 10
24.9273014606
 20
58.9601879173
 30
0.0
 10
25.0335808414
 20
59.0215346067
 30
0.0
 10
25.2554546707
 20
59.1313189901
 30
0.0
 10
25.7320065082
 20
59.2962058601
 30
0.0
 10
26.3868902294
 20
59.392575139
 30
0.0
 10
27.2198786864
 20
59.3310241523
 30
0.0
 10
28.0920582548
 20
59.099368768
 30
0.0
 10
28.9857923952
 20
58.7043564908
 30
0.0
 10
29.8834488153
 20
58.1551963817
 30
0.0
 10
30.7667348269
 20
57.4636695316
 30
0.0
 10
31.617331329
 20
56.644456264
 30
0.0
 10
32.4173453338
 20
55.7149278442
 30
0.0
 10
33.149803342
 20
54.694838003
 30
0.0
 10
33.7990960464
 20
53.6059298022
 30
0.0
 10
34.3513743786
 20
52.4714105629
 30
0.0
 10
34.7948034851
 20
51.3155091737
 30
0.0
 10
35.120120903
 20
50.1626709219
 30
0.0
 10
35.320111854
 20
49.0376065668
 30
0.0
 10
35.368768978
 20
48.2966169579
 30
0.0
 10
35.368768978
 20
47.9377959848
 30
0.0
  0
SPLINE
  5
2DE
100
AcDbEntity
  8
0
100
AcDbSpline
 62
7
  6
BYLAYER
 70
0
 71
3
 72
11
 73
7
 74
0
 42
0.0000001
 43
0.0000001
 44
0.0000000001
 40
0.0
 40
0.0
 40
0.0
 40
0.0
 40
0.23398633
 40
0.4785714485
 40
0.7339402523
 40
1.0
 40
1.0
 40
1.0
 40
1.0
 10
19.9856540716
 20
60.2174560623
 30
0.0
 10
19.6492599384
 20
59.1886464683
 30
0.0
 10
19.0615627638
 20
57.0505713791
 30
0.0
 10
18.4437423198
 20
53.7084599957
 30
0.0
 10
18.0738663439
 20
50.1809944157
 30
0.0
 10
17.995212165
 20
47.7679424464
 30
0.0
 10
17.995212165
 20
46.5371629298
 30
0.0
  0
SPLINE
  5
2DF
100
AcDbEntity
  8
0
100
AcDbSpline
 62
7
  6
BYLAYER
 70
0
 71
3
 72
15
 73
11
 74
0
 42
0.0000001
 43
0.0000001
 44
0.0000000001
 40
0.0
 40
0.0
 40
0.0
 40
0.0
 40
0.1485416591
 40
0.2895055231
 40
0.4227357724
 40
0.5486414199
 40
0.6679989406
 40
0.7819402232
 40
0.8919879822
 40
1.0
 40
1.0
 40
1.0
 40
1.0
 10
35.368768978
 20
47.9377959848
 30
0.0
 10
35.368768978
 20
47.7125880193
 30
0.0
 10
35.3505485233
 20
47.2733630138
 30
0.0
 10
35.2641812866
 20
46.6372700419
 30
0.0
 10
35.1197024715
 20
46.0468358153
 30
0.0
 10
34.9184432972
 20
45.5078673449
 30
0.0
 10
34.6618528936
 20
45.0255389833
 30
0.0
 10
34.3520331741
 20
44.6046725292
 30
0.0
 10
33.9917248873
 20
44.250116456
 30
0.0
 10
33.7190664201
 20
44.059835302
 30
0.0
 10
33.5772382503
 20
43.9779691055
 30
0.0
  0
SPLINE
  5
2E0
100
AcDbEntity
  8
0
100
AcDbSpline
 62
7
  6
BYLAYER
 70
0
 71
3
 72
16
 73
12
 74
0
 42
0.0000001
 43
0.0000001
 44
0.0000000001
 40
0.0
 40
0.0
 40
0.0
 40
0.0
 40
0.0470117369
 40
0.095601781
 40
0.1985515625
 40
0.3105966986
 40
0.432282335
 40
0.5632891604
 40
0.7026292898
 40
0.8488151025
 40
1.0
 40
1.0
 40
1.0
 40
1.0
 10
64.8428728446
 20
87.5967649446
 30
0.0
 10
65.0446058241
 20
87.6367579174
 30
0.0
 10
65.4601367651
 20
87.6933022425
 30
0.0
 10
66.3299811459
 20
87.713031358
 30
0.0
 10
67.4802822667
 20
87.5542891203
 30
0.0
 10
68.8868310255
 20
87.0973376118
 30
0.0
 10
70.3192296972
 20
86.3829543036
 30
0.0
 10
71.7479685902
 20
85.4271871637
 30
0.0
 10
73.1437440319
 20
84.2505933703
 30
0.0
 10
74.4770184204
 20
82.8784617055
 30
0.0
 10
75.2956103109
 20
81.8648036008
 30
0.0
 10
75.688618045
 20
81.3328580719
 30
0.0
  0
SPLINE
  5
2E1
100
AcDbEntity
  8
0
100
AcDbSpline
 62
7
  6
BYLAYER
 70
0
 71
3
 72
11
 73
7
 74
0
 42
0.0000001
 43
0.0000001
 44
0.0000000001
 40
0.0
 40
0.0
 40
0.0
 40
0.0
 40
0.2177821605
 40
0.4509085882
 40
0.7102951949
 40
1.0
 40
1.0
 40
1.0
 40
1.0
 10
21.4526702333
 20
73.5143398387
 30
0.0
 10
21.4526702108
 20
73.4343550313
 30
0.0
 10
21.4231122392
 20
73.2676415012
 30
0.0
 10
21.2967273774
 20
73.0353557836
 30
0.0
 10
21.0969306365
 20
72.8253785481
 30
0.0
 10
20.9297562208
 20
72.7102339268
 30
0.0
 10
20.8376111348
 20
72.6570342542
 30
0.0
  0
SPLINE
  5
2E2
100
AcDbEntity
  8
0
100
AcDbSpline
 62
7
  6
BYLAYER
 70
0
 71
3
 72
19
 73
15
 74
0
 42
0.0000001
 43
0.0000001
 44
0.0000000001
 40
0.0
 40
0.0
 40
0.0
 40
0.0
 40
0.0451805501
 40
0.0914004476
 40
0.1393176841
 40
0.1895095491
 40
0.298060745
 40
0.3569860047
 40
0.4190063373
 40
0.4840278404
 40
0.551866129
 40
0.6948429521
 40
0.8453190831
 40
1.0
 40
1.0
 40
1.0
 40
1.0
 10
25.4074835138
 20
65.1197669312
 30
0.0
 10
25.6313331057
 20
65.2344653982
 30
0.0
 10
26.1042445644
 20
65.4293342829
 30
0.0
 10
26.8621000411
 20
65.6076371031
 30
0.0
 10
27.6658666506
 20
65.6725711833
 30
0.0
 10
28.8174402017
 20
65.6064416976
 30
0.0
 10
30.0039847035
 20
65.3057741568
 30
0.0
 10
31.1846238819
 20
64.8152302594
 30
0.0
 10
32.1024663734
 20
64.3330639683
 30
0.0
 10
33.0194445104
 20
63.7512656535
 30
0.0
 10
34.2521431102
 20
62.8335497307
 30
0.0
 10
35.7358503724
 20
61.4663115121
 30
0.0
 10
37.3574402557
 20
59.5638137159
 30
0.0
 10
38.3109210027
 20
58.1528446871
 30
0.0
 10
38.7538868948
 20
57.4143916653
 30
0.0
  0
SPLINE
  5
2E3
100
AcDbEntity
  8
0
100
AcDbSpline
 62
7
  6
BYLAYER
 70
0
 71
3
 72
18
 73
14
 74
0
 42
0.0000001
 43
0.0000001
 44
0.0000000001
 40
0.0
 40
0.0
 40
0.0
 40
0.0
 40
0.0428471062
 40
0.0874607367
 40
0.1352819149
 40
0.1872298257
 40
0.243719446
 40
0.3047237535
 40
0.4383540717
 40
0.5826581257
 40
0.7297840182
 40
0.871340059
 40
1.0
 40
1.0
 40
1.0
 40
1.0
 10
44.8297257457
 20
91.0688316605
 30
0.0
 10
44.8297212257
 20
91.1286111828
 30
0.0
 10
44.8457455389
 20
91.2511483846
 30
0.0
 10
44.9159839431
 20
91.428106509
 30
0.0
 10
45.0300519557
 20
91.5958339905
 30
0.0
 10
45.1846070712
 20
91.7510600421
 30
0.0
 10
45.3761355943
 20
91.8910408706
 30
0.0
 10
45.6846898042
 20
92.0587604183
 30
0.0
 10
46.1367901873
 20
92.2097819943
 30
0.0
 10
46.7267428877
 20
92.2926354442
 30
0.0
 10
47.3335690253
 20
92.27587316
 30
0.0
 10
47.9072021269
 20
92.1611201631
 30
0.0
 10
48.2591806838
 20
92.0158948905
 30
0.0
 10
48.4146366456
 20
91.9261443796
 30
0.0
  0
SPLINE
  5
2E4
100
AcDbEntity
  8
0
100
AcDbSpline
 62
7
  6
BYLAYER
 70
0
 71
3
 72
18
 73
14
 74
0
 42
0.0000001
 43
0.0000001
 44
0.0000000001
 40
0.0
 40
0.0
 40
0.0
 40
0.0
 40
0.0428471062
 40
0.0874607367
 40
0.1352819149
 40
0.1872298257
 40
0.243719446
 40
0.3047237535
 40
0.4383540717
 40
0.5826581257
 40
0.7297840182
 40
0.871340059
 40
1.0
 40
1.0
 40
1.0
 40
1.0
 10
22.2024029549
 20
78.0050187366
 30
0.0
 10
22.2023984348
 20
78.0647982589
 30
0.0
 10
22.2184227481
 20
78.1873354607
 30
0.0
 10
22.2886611522
 20
78.3642935851
 30
0.0
 10
22.4027291648
 20
78.5320210666
 30
0.0
 10
22.5572842803
 20
78.6872471182
 30
0.0
 10
22.7488128035
 20
78.8272279467
 30
0.0
 10
23.0573670134
 20
78.9949474944
 30
0.0
 10
23.5094673965
 20
79.1459690705
 30
0.0
 10
24.0994200969
 20
79.2288225203
 30
0.0
 10
24.7062462345
 20
79.2120602361
 30
0.0
 10
25.2798793361
 20
79.0973072392
 30
0.0
 10
25.631857893
 20
78.9520819667
 30
0.0
 10
25.7873138548
 20
78.8623314557
 30
0.0
  0
SPLINE
  5
2E5
100
AcDbEntity
  8
0
100
AcDbSpline
 62
7
  6
BYLAYER
 70
0
 71
3
 72
24
 73
20
 74
0
 42
0.0000001
 43
0.0000001
 44
0.0000000001
 40
0.0
 40
0.0
 40
0.0
 40
0.0
 40
0.0213341705
 40
0.0428965603
 40
0.0874755667
 40
0.1352552113
 40
0.187160304
 40
0.2436018071
 40
0.3045537398
 40
0.3696461368
 40
0.4382481228
 40
0.5095390846
 40
0.5825683978
 40
0.6563052307
 40
0.7296861342
 40
0.8016689137
 40
0.8712620987
 40
0.9376179694
 40
1.0
 40
1.0
 40
1.0
 40
1.0
 10
33.5772382503
 20
43.9779691055
 30
0.0
 10
33.4709588694
 20
43.9166224162
 30
0.0
 10
33.2490850402
 20
43.8068380328
 30
0.0
 10
32.7725332027
 20
43.6419511627
 30
0.0
 10
32.1176494815
 20
43.5455818839
 30
0.0
 10
31.2846610244
 20
43.6071328705
 30
0.0
 10
30.4124814561
 20
43.8387882549
 30
0.0
 10
29.5187473157
 20
44.2338005321
 30
0.0
 10
28.6210908956
 20
44.7829606412
 30
0.0
 10
27.7378048839
 20
45.4744874913
 30
0.0
 10
26.8872083819
 20
46.2937007589
 30
0.0
 10
26.0871943771
 20
47.2232291786
 30
0.0
 10
25.3547363689
 20
48.2433190199
 30
0.0
 10
24.7054436645
 20
49.3322272207
 30
0.0
 10
24.1531653323
 20
50.46674646
 30
0.0
 10
23.7097362258
 20
51.6226478492
 30
0.0
 10
23.3844188079
 20
52.7754861009
 30
0.0
 10
23.1844278569
 20
53.900550456
 30
0.0
 10
23.1357707329
 20
54.6415400649
 30
0.0
 10
23.1357707329
 20
55.000361038
 30
0.0
  0
SPLINE
  5
2E6
100
AcDbEntity
  8
0
100
AcDbSpline
 62
7
  6
BYLAYER
 70
0
 71
3
 72
23
 73
19
 74
0
 42
0.0000001
 43
0.0000001
 44
0.0000000001
 40
0.0
 40
0.0
 40
0.0
 40
0.0
 40
0.0700087747
 40
0.1421502215
 40
0.215657347
 40
0.2897599292
 40
0.363644055
 40
0.4365123694
 40
0.5075980407
 40
0.5761972379
 40
0.6416994047
 40
0.7036209927
 40
0.761645397
 40
0.8156702077
 40
0.865860817
 40
0.9127023269
 40
0.9570297155
 40
1.0
 40
1.0
 40
1.0
 40
1.0
 10
38.5188856393
 20
49.5175318924
 30
0.0
 10
38.3909661808
 20
50.0564591605
 30
0.0
 10
38.0832815717
 20
51.1398195196
 30
0.0
 10
37.4872933826
 20
52.7403197746
 30
0.0
 10
36.7578040963
 20
54.3203445624
 30
0.0
 10
35.9068834147
 20
55.8541240064
 30
0.0
 10
34.9481417696
 20
57.3169107145
 30
0.0
 10
33.8971565184
 20
58.6849947124
 30
0.0
 10
32.7708951585
 20
59.9362599413
 30
0.0
 10
31.5875152892
 20
61.0505110329
 30
0.0
 10
30.3659716292
 20
62.0098019601
 30
0.0
 10
29.1256441956
 20
62.7986757965
 30
0.0
 10
27.885955507
 20
63.4043086757
 30
0.0
 10
26.6659968193
 20
63.8164901569
 30
0.0
 10
25.4844413918
 20
64.0274851158
 30
0.0
 10
24.3595304933
 20
64.0315393254
 30
0.0
 10
23.3109405546
 20
63.8257377187
 30
0.0
 10
22.6717296489
 20
63.5469306402
 30
0.0
 10
22.3773029527
 20
63.3769415627
 30
0.0
  0
SPLINE
  5
2E7
100
AcDbEntity
  8
0
100
AcDbSpline
 62
7
  6
BYLAYER
 70
0
 71
3
 72
11
 73
7
 74
0
 42
0.0000001
 43
0.0000001
 44
0.0000000001
 40
0.0
 40
0.0
 40
0.0
 40
0.0
 40
0.2377909565
 40
0.4841383452
 40
0.7384510764
 40
1.0
 40
1.0
 40
1.0
 40
1.0
 10
40.5093275459
 20
33.5389264135
 30
0.0
 10
40.5093275459
 20
34.8179215781
 30
0.0
 10
40.4210927764
 20
37.4225622709
 30
0.0
 10
40.042043638
 20
41.3785436127
 30
0.0
 10
39.4158761574
 20
45.4322161658
 30
0.0
 10
38.8437717926
 20
48.1487799513
 30
0.0
 10
38.5188856393
 20
49.5175318924
 30
0.0
  0
SPLINE
  5
2E8
100
AcDbEntity
  8
0
100
AcDbSpline
 62
7
  6
BYLAYER
 70
0
 71
3
 72
15
 73
11
 74
0
 42
0.0000001
 43
0.0000001
 44
0.0000000001
 40
0.0
 40
0.0
 40
0.0
 40
0.0
 40
0.1485416591
 40
0.2895055231
 40
0.4227357724
 40
0.5486414199
 40
0.6679989406
 40
0.7819402232
 40
0.8919879822
 40
1.0
 40
1.0
 40
1.0
 40
1.0
 10
23.1357707329
 20
55.000361038
 30
0.0
 10
23.1357707329
 20
55.2255690035
 30
0.0
 10
23.1539911876
 20
55.6647940091
 30
0.0
 10
23.2403584243
 20
56.300886981
 30
0.0
 10
23.3848372393
 20
56.8913212076
 30
0.0
 10
23.5860964136
 20
57.430289678
 30
0.0
 10
23.8426868173
 20
57.9126180396
 30
0.0
 10
24.1525065368
 20
58.3334844936
 30
0.0
 10
24.5128148236
 20
58.6880405669
 30
0.0
 10
24.7854732908
 20
58.8783217209
 30
0.0
 10
24.9273014606
 20
58.9601879173
 30
0.0
  0
SPLINE
  5
2E9
100
AcDbEntity
  8
0
100
AcDbSpline
 62
7
  6
BYLAYER
 70
0
 71
3
 72
9
 73
5
 74
0
 42
0.0000001
 43
0.0000001
 44
0.0000000001
 40
0.0
 40
0.0
 40
0.0
 40
0.0
 40
0.2566942213
 40
1.0
 40
1.0
 40
1.0
 40
1.0
 10
27.9086371423
 20
78.4540941005
 30
0.0
 10
27.9258473095
 20
78.4441580306
 30
0.0
 10
27.9922962222
 20
78.4044327572
 30
0.0
 10
28.0563036334
 20
78.3605725825
 30
0.0
 10
28.10195052
 20
78.325533674
 30
0.0
  0
SPLINE
  5
2EA
100
AcDbEntity
  8
0
100
AcDbSpline
 62
7
  6
BYLAYER
 70
0
 71
3
 72
11
 73
7
 74
0
 42
0.0000001
 43
0.0000001
 44
0.0000000001
 40
0.0
 40
0.0
 40
0.0
 40
0.0
 40
0.2619773896
 40
0.52303113
 40
0.7721513045
 40
1.0
 40
1.0
 40
1.0
 40
1.0
 10
25.9366169747
 20
78.7761332093
 30
0.0
 10
26.112213453
 20
78.8003077791
 30
0.0
 10
26.4669557424
 20
78.821781207
 30
0.0
 10
26.9893693816
 20
78.7776677959
 30
0.0
 10
27.4767836254
 20
78.6605695546
 30
0.0
 10
27.7751286856
 20
78.5311735001
 30
0.0
 10
27.9086371423
 20
78.4540941005
 30
0.0
  0
SPLINE
  5
2EB
100
AcDbEntity
  8
0
100
AcDbSpline
 62
7
  6
BYLAYER
 70
0
 71
3
 72
11
 73
7
 74
0
 42
0.0000001
 43
0.0000001
 44
0.0000000001
 40
0.0
 40
0.0
 40
0.0
 40
0.0
 40
0.2615489236
 40
0.5158616548
 40
0.7622090435
 40
1.0
 40
1.0
 40
1.0
 40
1.0
 10
41.3473009881
 20
51.1505085079
 30
0.0
 10
41.6721871414
 20
49.7817565668
 30
0.0
 10
42.2442915062
 20
47.0651927813
 30
0.0
 10
42.8704589869
 20
43.0115202282
 30
0.0
 10
43.2495081253
 20
39.0555388863
 30
0.0
 10
43.3377428948
 20
36.4508981935
 30
0.0
 10
43.3377428948
 20
35.1719030289
 30
0.0
  0
SPLINE
  5
2EC
100
AcDbEntity
  8
0
100
AcDbSpline
 62
7
  6
BYLAYER
 70
0
 71
3
 72
11
 73
7
 74
0
 42
0.0000001
 43
0.0000001
 44
0.0000000001
 40
0.0
 40
0.0
 40
0.0
 40
0.0
 40
0.2557745048
 40
0.5094458243
 40
0.7583544723
 40
1.0
 40
1.0
 40
1.0
 40
1.0
 10
38.7538868948
 20
57.4143916653
 30
0.0
 10
39.0522963298
 20
56.916923682
 30
0.0
 10
39.610719544
 20
55.9040044541
 30
0.0
 10
40.3292050388
 20
54.339603468
 30
0.0
 10
40.9168794616
 20
52.7555923778
 30
0.0
 10
41.2207302498
 20
51.683753591
 30
0.0
 10
41.3473009881
 20
51.1505085079
 30
0.0
  0
SPLINE
  5
2ED
100
AcDbEntity
  8
0
100
AcDbSpline
 62
7
  6
BYLAYER
 70
0
 71
3
 72
11
 73
7
 74
0
 42
0.0000001
 43
0.0000001
 44
0.0000000001
 40
0.0
 40
0.0
 40
0.0
 40
0.0
 40
0.2897052857
 40
0.5490919933
 40
0.7822182543
 40
1.0
 40
1.0
 40
1.0
 40
1.0
 10
20.8375987701
 20
74.3716525618
 30
0.0
 10
20.9297455799
 20
74.3184527799
 30
0.0
 10
21.0969231668
 20
74.2033077622
 30
0.0
 10
21.2967239423
 20
73.9933289607
 30
0.0
 10
21.4231115171
 20
73.7610410035
 30
0.0
 10
21.4526702557
 20
73.5943255243
 30
0.0
 10
21.4526702333
 20
73.5143398387
 30
0.0
  0
SPLINE
  5
2EE
100
AcDbEntity
  8
0
100
AcDbSpline
 62
7
  6
BYLAYER
 70
0
 71
3
 72
15
 73
11
 74
0
 42
0.0000001
 43
0.0000001
 44
0.0000000001
 40
0.0
 40
0.0
 40
0.0
 40
0.0
 40
0.1169203741
 40
0.2416859509
 40
0.3718049328
 40
0.5043949196
 40
0.6363855066
 40
0.7647165413
 40
0.8867332839
 40
1.0
 40
1.0
 40
1.0
 40
1.0
 10
38.4869527174
 20
87.9043890759
 30
0.0
 10
38.5901022144
 20
87.9557520255
 30
0.0
 10
38.8117474374
 20
88.0454651303
 30
0.0
 10
39.1670108438
 20
88.1385286429
 30
0.0
 10
39.5458896192
 20
88.1923327564
 30
0.0
 10
39.9354228593
 20
88.2049818264
 30
0.0
 10
40.3223240006
 20
88.1760378521
 30
0.0
 10
40.6935273477
 20
88.106510494
 30
0.0
 10
41.0361832645
 20
87.9986667045
 30
0.0
 10
41.2469239672
 20
87.8995165149
 30
0.0
 10
41.3435982735
 20
87.8437028409
 30
0.0
  0
SPLINE
  5
2EF
100
AcDbEntity
  8
0
100
AcDbSpline
 62
7
  6
BYLAYER
 70
0
 71
3
 72
11
 73
7
 74
0
 42
0.0000001
 43
0.0000001
 44
0.0000000001
 40
0.0
 40
0.0
 40
0.0
 40
0.0
 40
0.2619773896
 40
0.52303113
 40
0.7721513045
 40
1.0
 40
1.0
 40
1.0
 40
1.0
 10
18.8655786025
 20
74.6936916706
 30
0.0
 10
19.0411750808
 20
74.7178662403
 30
0.0
 10
19.3959173702
 20
74.7393396683
 30
0.0
 10
19.9183310094
 20
74.6952262572
 30
0.0
 10
20.4057452533
 20
74.5781280159
 30
0.0
 10
20.7040903135
 20
74.4487319614
 30
0.0
 10
20.8375987701
 20
74.3716525618
 30
0.0
  0
SPLINE
  5
2F0
100
AcDbEntity
  8
0
100
AcDbSpline
 62
7
  6
BYLAYER
 70
0
 71
3
 72
11
 73
7
 74
0
 42
0.0000001
 43
0.0000001
 44
0.0000000001
 40
0.0
 40
0.0
 40
0.0
 40
0.0
 40
0.2897052857
 40
0.5490919933
 40
0.7822182543
 40
1.0
 40
1.0
 40
1.0
 40
1.0
 10
49.8288560959
 20
91.1096628705
 30
0.0
 10
49.9210029057
 20
91.0564630887
 30
0.0
 10
50.0881804926
 20
90.9413180709
 30
0.0
 10
50.2879812681
 20
90.7313392694
 30
0.0
 10
50.4143688429
 20
90.4990513122
 30
0.0
 10
50.4439275814
 20
90.332335833
 30
0.0
 10
50.443927559
 20
90.2523501474
 30
0.0
  0
SPLINE
  5
2F1
100
AcDbEntity
  8
0
100
AcDbSpline
 62
7
  6
BYLAYER
 70
0
 71
3
 72
18
 73
14
 74
0
 42
0.0000001
 43
0.0000001
 44
0.0000000001
 40
0.0
 40
0.0
 40
0.0
 40
0.0
 40
0.0428471062
 40
0.0874607367
 40
0.1352819149
 40
0.1872298257
 40
0.243719446
 40
0.3047237535
 40
0.4383540717
 40
0.5826581257
 40
0.7297840182
 40
0.871340059
 40
1.0
 40
1.0
 40
1.0
 40
1.0
 10
15.1313645827
 20
73.9225771979
 30
0.0
 10
15.1313600627
 20
73.9823567202
 30
0.0
 10
15.1473843759
 20
74.104893922
 30
0.0
 10
15.2176227801
 20
74.2818520464
 30
0.0
 10
15.3316907927
 20
74.4495795279
 30
0.0
 10
15.4862459082
 20
74.6048055795
 30
0.0
 10
15.6777744313
 20
74.744786408
 30
0.0
 10
15.9863286412
 20
74.9125059557
 30
0.0
 10
16.4384290244
 20
75.0635275317
 30
0.0
 10
17.0283817248
 20
75.1463809816
 30
0.0
 10
17.6352078623
 20
75.1296186974
 30
0.0
 10
18.2088409639
 20
75.0148657005
 30
0.0
 10
18.5608195208
 20
74.8696404279
 30
0.0
 10
18.7162754826
 20
74.779889917
 30
0.0
  0
ELLIPSE
  5
2F2
100
AcDbEntity
  8
0
100
AcDbEllipse
 62
7
  6
BYLAYER
 10
33.5654723737
 20
86.3017252745
 30
0.0
 11
-0.0997350413
 21
0.1758654326
 31
0.0
 40
0.0413652604
 41
-2.2833788144
 42
-0.9788831494
  0
ELLIPSE
  5
2F3
100
AcDbEntity
  8
0
100
AcDbEllipse
 62
7
  6
BYLAYER
 10
34.5129915156
 20
86.8487724407
 30
0.0
 11
0.0208567035
 21
0.2362280367
 31
0.0
 40
0.4140101603
 41
1.2618125315
 42
2.5663081965
  0
ELLIPSE
  5
2F4
100
AcDbEntity
  8
0
100
AcDbEllipse
 62
7
  6
BYLAYER
 10
33.8483083739
 20
87.2529313104
 30
0.0
 11
0.0913113651
 21
0.2000690333
 31
0.0
 40
0.2037822185
 41
-2.7761297217
 42
-1.5832823378
  0
ENDSEC
  0
SECTION
  2
OBJECTS
  0
DICTIONARY
  5
C
100
AcDbDictionary
280
0
281
1
  3
ACAD_GROUP
350
D
  3
ACAD_MLINESTYLE
350
17
  3
ACAD_LAYOUT
350
1A
  3
ACAD_PLOTSETTINGS
350
19
  3
ACAD_PLOTSTYLENAME
350
E
  0
DICTIONARY
  5
D
102
{ACAD_REACTORS
330
C
102
}
100
AcDbDictionary
280
0
281
1
  0
ACDBDICTIONARYWDFLT
  5
E
102
{ACAD_REACTORS
330
C
102
}
100
AcDbDictionary
281
1
  3
Normal
350
F
100
AcDbDictionaryWithDefault
340
F
  0
DICTIONARY
  5
17
102
{ACAD_REACTORS
330
C
102
}
100
AcDbDictionary
280
0
281
1
  3
Standard
350
18
  0
DICTIONARY
  5
19
102
{ACAD_REACTORS
330
C
102
}
100
AcDbDictionary
281
1
  0
DICTIONARY
  5
1A
102
{ACAD_REACTORS
330
C
102
}
100
AcDbDictionary
281
1
  3
Model
350
2F5
  3
Layout1
350
2F6
  0
ACDBPLACEHOLDER
  5
F
102
{ACAD_REACTORS
330
E
102
}
  0
MLINESTYLE
  5
18
102
{ACAD_REACTORS
330
17
102
}
100
AcDbMlineStyle
  2
STANDARD
 70
0
  3

 62
256
 51
90.0
 52
90.0
 71
2
 49
0.5
 62
256
  6
BYLAYER
 49
-0.5
 62
256
  6
BYLAYER
  0
LAYOUT
  5
2F5
102
{ACAD_REACTORS
330
1A
102
}
100
AcDbPlotSettings
  1

  2
none_device
  4

  6

 40
0.0
 41
0.0
 42
0.0
 43
0.0
 44
210.0
 45
297.0
 46
0.0
 47
0.0
 48
0.0
 49
0.0
140
0.0
141
0.0
142
1.0
143
1.0
 70
1024
 72
1
 73
0
 74
0
  7

 75
0
147
1.0
148
0.0
149
0.0
100
AcDbLayout
  1
Model
 70
0
 71
0
 10
0.0
 20
0.0
 11
210.0
 21
297.0
 12
0.0
 22
0.0
 32
0.0
 14
0.0
 24
0.0
 34
0.0
 15
0.0
 25
0.0
 35
0.0
146
0.0
 13
0.0
 23
0.0
 33
0.0
 16
1.0
 26
0.0
 36
0.0
 17
0.0
 27
1.0
 37
0.0
 76
0
330
210
345
0
346
0
  0
LAYOUT
  5
2F6
102
{ACAD_REACTORS
330
1A
102
}
100
AcDbPlotSettings
  1

  2
none_device
  4

  6

 40
0.0
 41
0.0
 42
0.0
 43
0.0
 44
210.0
 45
297.0
 46
0.0
 47
0.0
 48
0.0
 49
0.0
140
0.0
141
0.0
142
1.0
143
1.0
 70
0
 72
1
 73
0
 74
0
  7

 75
0
147
1.0
148
0.0
149
0.0
100
AcDbLayout
  1
Layout1
 70
0
 71
1
 10
0.0
 20
0.0
 11
210.0
 21
297.0
 12
0.0
 22
0.0
 32
0.0
 14
0.0
 24
0.0
 34
0.0
 15
0.0
 25
0.0
 35
0.0
146
0.0
 13
0.0
 23
0.0
 33
0.0
 16
1.0
 26
0.0
 36
0.0
 17
0.0
 27
1.0
 37
0.0
 76
0
330
211
345
0
346
0
  0
ENDSEC
  0
EOF
