999
DXF file: C:\Users\sesa63760\Dev\_Creo\CAD\MCADID0004827_3D-CAD\drw0001_3.dxf
999
Pro/ENGINEER 2019471 by Parametric Technology Corporation
  0
SECTION
  2
HEADER
  9
$ACADVER
  1
AC1024
  9
$DWGCODEPAGE
  3
ANSI_1252
  9
$EXTMAX
 10
64.7632850145
 20
91.5937888063
 30
0.0
  9
$EXTMIN
 10
0.0
 20
0.0
 30
0.0
  9
$LIMMIN
 10
0.0
 20
0.0
  9
$LIMMAX
 10
64.7632850145
 20
91.5937888063
  9
$VIEWCTR
 10
32.3816425073
 20
45.7968944031
  9
$VIEWSIZE
 40
91.5937888063
  9
$CLAYER
  8
0
  9
$LTSCALE
 40
5.9705580852
  9
$CELTYPE
  6
BYLAYER
  9
$DIMSCALE
 40
1.0
  9
$DIMASZ
 40
0.7709914883
  9
$DIMEXO
 40
1.0
  9
$DIMDLI
 40
4.1251128588
  9
$DIMEXE
 40
1.0
  9
$DIMCEN
 40
0.9770004139
  9
$DIMLFAC
 40
1.0
  9
$DIMBLK
  1
_FILLED
  9
$DIMALT
 70
0
  9
$DIMALTF
 40
0.0393700787
  9
$DIMTXT
 40
1.0793880836
  9
$DIMTOL
 70
1
  9
$DIMLIM
 70
0
  9
$DIMTFAC
 40
1.0
  9
$DIMTP
 40
0.01
  9
$DIMTM
 40
0.01
  9
$DIMGAP
 40
0.625
  9
$DIMDSEP
 70
46
  9
$AUNITS
 70
0
  9
$PDMODE
 70
3
  9
$PDSIZE
 40
0.3125
  9
$HANDSEED
  5
298
  9
$TILEMODE
 70
1
  9
$MEASUREMENT
 70
1
  9
$INSUNITS
 70
4
  0
ENDSEC
  0
SECTION
  2
CLASSES
  0
CLASS
  1
ACDBDICTIONARYWDFLT
  2
AcDbDictionaryWithDefault
  3
AutoCAD 2000
 90
0
 91
1
280
0
281
0
  0
CLASS
  1
ACDBPLACEHOLDER
  2
AcDbPlaceHolder
  3
AutoCAD 2000
 90
0
 91
1
280
0
281
0
  0
CLASS
  1
LAYOUT
  2
AcDbLayout
  3
AutoCAD 2000
 90
0
 91
0
280
0
281
0
  0
ENDSEC
  0
SECTION
  2
TABLES
  0
TABLE
  2
VPORT
  5
8
100
AcDbSymbolTable
 70
2
  0
VPORT
  5
1F4
100
AcDbSymbolTableRecord
100
AcDbViewportTableRecord
  2
*ACTIVE
 70
0
 10
0.0
 20
0.0
 11
1.0
 21
1.0
 12
32.3816425073
 22
45.7968944031
 13
0.0
 23
0.0
 14
1.0
 24
1.0
 15
0.0
 25
0.0
 16
0.0
 26
0.0
 36
1.0
 17
0.0
 27
0.0
 37
0.0
 40
91.5937888063
 41
0.7070707071
 42
50.0
 43
0.0
 44
0.0
 50
0.0
 51
0.0
 71
0
 72
100
 73
1
 74
1
 75
0
 76
0
 77
0
 78
0
  0
ENDTAB
  0
TABLE
  2
LTYPE
  5
5
100
AcDbSymbolTable
 70
6
  0
LTYPE
  5
14
100
AcDbSymbolTableRecord
100
AcDbLinetypeTableRecord
  2
BYBLOCK
 70
0
  3

 72
65
 73
0
 40
0.0
  0
LTYPE
  5
15
100
AcDbSymbolTableRecord
100
AcDbLinetypeTableRecord
  2
BYLAYER
 70
0
  3

 72
65
 73
0
 40
0.0
  0
LTYPE
  5
16
100
AcDbSymbolTableRecord
100
AcDbLinetypeTableRecord
  2
CONTINUOUS
 70
64
  3
Solid line
 72
65
 73
0
 40
0.0
  0
LTYPE
  5
1F5
100
AcDbSymbolTableRecord
100
AcDbLinetypeTableRecord
  2
CENTER
 70
64
  3
____ _ ____ _ ____ _ ____ _ ____ _ ____ _ ____
 72
65
 73
4
 40
0.6
 49
0.375
 74
0
 49
-0.075
 74
0
 49
0.075
 74
0
 49
-0.075
 74
0
  0
LTYPE
  5
1F6
100
AcDbSymbolTableRecord
100
AcDbLinetypeTableRecord
  2
HIDDEN
 70
64
  3
- - - - - - - - - - - - - - - - - - - -
 72
65
 73
2
 40
0.2
 49
0.1
 74
0
 49
-0.1
 74
0
  0
LTYPE
  5
1F7
100
AcDbSymbolTableRecord
100
AcDbLinetypeTableRecord
  2
PHANTOM
 70
64
  3
_____ _ _ _____ _ _ _____ _ _ _____
 72
65
 73
6
 40
0.8
 49
0.45
 74
0
 49
-0.05
 74
0
 49
0.1
 74
0
 49
-0.05
 74
0
 49
0.1
 74
0
 49
-0.05
 74
0
  0
LTYPE
  5
1F8
100
AcDbSymbolTableRecord
100
AcDbLinetypeTableRecord
  2
DOT
 70
64
  3
. . . . . . . . . . . . . . . . . . . .
 72
65
 73
2
 40
0.2
 49
0.1
 74
0
 49
-0.1
 74
0
  0
LTYPE
  5
1F9
100
AcDbSymbolTableRecord
100
AcDbLinetypeTableRecord
  2
DASHED
 70
64
  3
- - - - - - - - - - - - - - - - - - - -
 72
65
 73
2
 40
0.2
 49
0.1
 74
0
 49
-0.1
 74
0
  0
ENDTAB
  0
TABLE
  2
LAYER
  5
2
100
AcDbSymbolTable
 70
36
  0
LAYER
  5
10
100
AcDbSymbolTableRecord
100
AcDbLayerTableRecord
  2
0
 70
0
 62
7
  6
CONTINUOUS
370
-3
390
F
  0
LAYER
  5
1FA
100
AcDbSymbolTableRecord
100
AcDbLayerTableRecord
  2
DEFAULT_1
 70
0
 62
7
  6
CENTER
370
-3
390
F
  0
LAYER
  5
1FB
100
AcDbSymbolTableRecord
100
AcDbLayerTableRecord
  2
DEFAULT_2
 70
0
 62
7
  6
HIDDEN
370
-3
390
F
  0
LAYER
  5
1FC
100
AcDbSymbolTableRecord
100
AcDbLayerTableRecord
  2
DEFAULT_3
 70
0
 62
7
  6
PHANTOM
370
-3
390
F
  0
LAYER
  5
1FD
100
AcDbSymbolTableRecord
100
AcDbLayerTableRecord
  2
00_COMPONENTS
 70
0
 62
7
  6
CONTINUOUS
370
-3
390
F
  0
LAYER
  5
1FE
100
AcDbSymbolTableRecord
100
AcDbLayerTableRecord
  2
01_1_DEFAULT_DATUMS
 70
0
 62
7
  6
CONTINUOUS
370
-3
390
F
  0
LAYER
  5
1FF
100
AcDbSymbolTableRecord
100
AcDbLayerTableRecord
  2
01_PLANES
 70
0
 62
7
  6
CONTINUOUS
370
-3
390
F
  0
LAYER
  5
200
100
AcDbSymbolTableRecord
100
AcDbLayerTableRecord
  2
02_COORD_SYS
 70
0
 62
7
  6
CONTINUOUS
370
-3
390
F
  0
LAYER
  5
201
100
AcDbSymbolTableRecord
100
AcDbLayerTableRecord
  2
03_AXES
 70
0
 62
7
  6
CONTINUOUS
370
-3
390
F
  0
LAYER
  5
202
100
AcDbSymbolTableRecord
100
AcDbLayerTableRecord
  2
04_POINTS
 70
0
 62
7
  6
CONTINUOUS
370
-3
390
F
  0
LAYER
  5
203
100
AcDbSymbolTableRecord
100
AcDbLayerTableRecord
  2
05_CURVES
 70
0
 62
7
  6
CONTINUOUS
370
-3
390
F
  0
LAYER
  5
204
100
AcDbSymbolTableRecord
100
AcDbLayerTableRecord
  2
06_SURFS
 70
0
 62
7
  6
CONTINUOUS
370
-3
390
F
  0
LAYER
  5
205
100
AcDbSymbolTableRecord
100
AcDbLayerTableRecord
  2
07_COSMETICS
 70
0
 62
7
  6
CONTINUOUS
370
-3
390
F
  0
LAYER
  5
206
100
AcDbSymbolTableRecord
100
AcDbLayerTableRecord
  2
10_NOTES
 70
0
 62
7
  6
CONTINUOUS
370
-3
390
F
  0
LAYER
  5
207
100
AcDbSymbolTableRecord
100
AcDbLayerTableRecord
  2
11_NOTES_PUB
 70
0
 62
7
  6
CONTINUOUS
370
-3
390
F
  0
LAYER
  5
208
100
AcDbSymbolTableRecord
100
AcDbLayerTableRecord
  2
13_REF_GTOL
 70
0
 62
7
  6
CONTINUOUS
370
-3
390
F
  0
LAYER
  5
209
100
AcDbSymbolTableRecord
100
AcDbLayerTableRecord
  2
16_MISC
 70
0
 62
7
  6
CONTINUOUS
370
-3
390
F
  0
LAYER
  5
20A
100
AcDbSymbolTableRecord
100
AcDbLayerTableRecord
  2
17_NO_PRINT
 70
0
 62
7
  6
CONTINUOUS
370
-3
390
F
  0
LAYER
  5
20B
100
AcDbSymbolTableRecord
100
AcDbLayerTableRecord
  2
18_DATUM_CAMS_JOINTS
 70
0
 62
7
  6
CONTINUOUS
370
-3
390
F
  0
LAYER
  5
20C
100
AcDbSymbolTableRecord
100
AcDbLayerTableRecord
  2
19_DATUM_FUNCTIONAL
 70
0
 62
7
  6
CONTINUOUS
370
-3
390
F
  0
LAYER
  5
20D
100
AcDbSymbolTableRecord
100
AcDbLayerTableRecord
  2
20_DATUM_KINEMATIC_SCHEME
 70
0
 62
7
  6
CONTINUOUS
370
-3
390
F
  0
ENDTAB
  0
TABLE
  2
STYLE
  5
3
100
AcDbSymbolTable
 70
1
  0
STYLE
  5
11
100
AcDbSymbolTableRecord
100
AcDbTextStyleTableRecord
  2
STANDARD
 70
0
 40
0.0
 41
1.0
 50
0.0
 71
0
 42
0.2
  3
ARIAL.TTF
  4

  0
STYLE
  5
20E
100
AcDbSymbolTableRecord
100
AcDbTextStyleTableRecord
  2
TEXTSTYLE_1
 70
0
 40
0.0
 41
0.8
 50
0.0
 71
0
 42
0.2
  3
gdt
  4

  0
ENDTAB
  0
TABLE
  2
VIEW
  5
6
100
AcDbSymbolTable
 70
0
  0
ENDTAB
  0
TABLE
  2
UCS
  5
7
100
AcDbSymbolTable
 70
0
  0
ENDTAB
  0
TABLE
  2
APPID
  5
9
100
AcDbSymbolTable
 70
1
  0
APPID
  5
20F
100
AcDbSymbolTableRecord
100
AcDbRegAppTableRecord
  2
ACAD
 70
0
  0
ENDTAB
  0
TABLE
  2
BLOCK_RECORD
  5
1
100
AcDbSymbolTable
 70
0
  0
BLOCK_RECORD
  5
210
100
AcDbSymbolTableRecord
100
AcDbBlockTableRecord
  2
*Model_Space
  0
BLOCK_RECORD
  5
211
100
AcDbSymbolTableRecord
100
AcDbBlockTableRecord
  2
*Paper_Space
  0
BLOCK_RECORD
  5
212
100
AcDbSymbolTableRecord
100
AcDbBlockTableRecord
  2
_FILLED
  0
ENDTAB
  0
TABLE
  2
DIMSTYLE
  5
A
100
AcDbSymbolTable
 70
1
100
AcDbDimStyleTable
 71
0
  0
DIMSTYLE
105
213
100
AcDbSymbolTableRecord
100
AcDbDimStyleTableRecord
  2
STANDARD
 70
0
  3

  4

 40
1.0
 41
0.7709914883
 42
1.0
 43
0.38
 44
1.0
 45
0.0
 46
0.0
 47
0.01
 48
0.01
140
1.0793880836
141
0.09
142
0.0
143
25.4
144
1.0
145
0.0
146
1.0
147
0.625
 71
1
 72
0
 73
0
 74
0
 75
0
 76
0
 77
1
 78
8
 79
2
170
0
171
1
172
0
173
0
174
0
175
0
176
0
177
0
178
0
270
2
179
2
271
2
272
2
273
2
274
2
275
0
280
0
281
0
282
0
283
1
284
8
285
0
286
0
287
3
288
0
340
11
278
46
341
212
342
212
343
212
344
212
  0
ENDTAB
  0
ENDSEC
  0
SECTION
  2
BLOCKS
  0
BLOCK
  5
20
100
AcDbEntity
  8
0
100
AcDbBlockBegin
  2
*Model_Space
 70
0
 10
0.0
 20
0.0
 30
0.0
  3
*Model_Space
  1

  0
ENDBLK
  5
21
100
AcDbEntity
  8
0
100
AcDbBlockEnd
  0
BLOCK
  5
1C
100
AcDbEntity
  8
0
100
AcDbBlockBegin
  2
*Paper_Space
 70
0
 10
0.0
 20
0.0
 30
0.0
  3
*Paper_Space
  1

  0
ENDBLK
  5
1D
100
AcDbEntity
  8
0
100
AcDbBlockEnd
  0
BLOCK
  5
214
100
AcDbEntity
  8
0
100
AcDbBlockBegin
  2
_FILLED
 70
64
 10
0.0
 20
0.0
  3
_FILLED
  1

  0
SOLID
  5
215
100
AcDbEntity
  8
0
  6
BYBLOCK
 62
0
100
AcDbTrace
 10
0.0
 20
0.0
 11
-1.0
 21
0.25
 12
-1.0
 22
-0.25
 13
-1.0
 23
-0.25
  0
ENDBLK
  5
216
100
AcDbEntity
  8
0
  6
BYBLOCK
 62
0
100
AcDbBlockEnd
  0
ENDSEC
  0
SECTION
  2
ENTITIES
  0
LINE
  5
217
100
AcDbEntity
  8
0
100
AcDbLine
 62
7
  6
BYLAYER
 10
44.2785207765
 20
19.4431984906
 11
43.2785207765
 21
19.4431984906
  0
LINE
  5
218
100
AcDbEntity
  8
0
100
AcDbLine
 62
7
  6
BYLAYER
 10
23.2785207765
 20
19.4431984906
 11
22.2785207765
 21
19.4431984906
  0
LINE
  5
219
100
AcDbEntity
  8
0
100
AcDbLine
 62
7
  6
BYLAYER
 10
17.8785207765
 20
9.3431984906
 11
17.8785207765
 21
72.643198544
  0
LINE
  5
21A
100
AcDbEntity
  8
0
100
AcDbLine
 62
7
  6
BYLAYER
 10
20.1785207765
 20
17.3431984906
 11
20.1785207765
 21
15.3431984906
  0
LINE
  5
21B
100
AcDbEntity
  8
0
100
AcDbLine
 62
7
  6
BYLAYER
 10
20.8785207765
 20
72.6431984906
 11
20.8785207765
 21
67.4931984906
  0
LINE
  5
21C
100
AcDbEntity
  8
0
100
AcDbLine
 62
7
  6
BYLAYER
 10
21.0785207765
 20
66.0431984906
 11
21.0785207765
 21
72.3431984906
  0
LINE
  5
21D
100
AcDbEntity
  8
0
100
AcDbLine
 62
7
  6
BYLAYER
 10
22.5785207765
 20
72.6532682802
 11
22.5785207765
 21
72.3431984906
  0
LINE
  5
21E
100
AcDbEntity
  8
0
100
AcDbLine
 62
7
  6
BYLAYER
 10
24.3785207765
 20
15.3431984906
 11
24.3785207765
 21
15.5543441086
  0
LINE
  5
21F
100
AcDbEntity
  8
0
100
AcDbLine
 62
7
  6
BYLAYER
 10
26.0285207765
 20
74.3532035494
 11
26.0285207765
 21
73.4532378187
  0
LINE
  5
220
100
AcDbEntity
  8
0
100
AcDbLine
 62
7
  6
BYLAYER
 10
27.3785207765
 20
83.1528684724
 11
27.3785207765
 21
76.3531273956
  0
LINE
  5
221
100
AcDbEntity
  8
0
100
AcDbLine
 62
7
  6
BYLAYER
 10
27.9785207765
 20
84.652811357
 11
27.9785207765
 21
83.1528684724
  0
LINE
  5
222
100
AcDbEntity
  8
0
100
AcDbLine
 62
7
  6
BYLAYER
 10
28.0285207765
 20
74.6531921264
 11
28.0285207765
 21
76.3301261997
  0
LINE
  5
223
100
AcDbEntity
  8
0
100
AcDbLine
 62
7
  6
BYLAYER
 10
28.2785207765
 20
22.8451992912
 11
28.2785207765
 21
7.5508874498
  0
LINE
  5
224
100
AcDbEntity
  8
0
100
AcDbLine
 62
7
  6
BYLAYER
 10
38.2785207765
 20
7.5508874498
 11
38.2785207765
 21
22.8451992912
  0
LINE
  5
225
100
AcDbEntity
  8
0
100
AcDbLine
 62
7
  6
BYLAYER
 10
38.5285207765
 20
74.6531921264
 11
38.5285207765
 21
76.3306932617
  0
LINE
  5
226
100
AcDbEntity
  8
0
100
AcDbLine
 62
7
  6
BYLAYER
 10
38.5785207765
 20
84.652811357
 11
38.5785207765
 21
83.1528684724
  0
LINE
  5
227
100
AcDbEntity
  8
0
100
AcDbLine
 62
7
  6
BYLAYER
 10
39.1785207765
 20
83.1528684724
 11
39.1785207765
 21
76.3531273956
  0
LINE
  5
228
100
AcDbEntity
  8
0
100
AcDbLine
 62
7
  6
BYLAYER
 10
40.5285207765
 20
74.3532035494
 11
40.5285207765
 21
73.4532378187
  0
LINE
  5
229
100
AcDbEntity
  8
0
100
AcDbLine
 62
7
  6
BYLAYER
 10
39.7785207765
 20
53.3431984906
 11
26.7785207765
 21
53.3431984906
  0
LINE
  5
22A
100
AcDbEntity
  8
0
100
AcDbLine
 62
7
  6
BYLAYER
 10
42.1785207765
 20
15.5543441086
 11
42.1785207765
 21
15.3431984906
  0
LINE
  5
22B
100
AcDbEntity
  8
0
100
AcDbLine
 62
7
  6
BYLAYER
 10
43.9785207765
 20
72.6532682802
 11
43.9785207765
 21
72.3431984906
  0
LINE
  5
22C
100
AcDbEntity
  8
0
100
AcDbLine
 62
7
  6
BYLAYER
 10
45.4785207765
 20
66.0431984906
 11
45.4785207765
 21
72.3431984906
  0
LINE
  5
22D
100
AcDbEntity
  8
0
100
AcDbLine
 62
7
  6
BYLAYER
 10
45.6785207765
 20
67.4931984906
 11
45.6785207765
 21
72.6431984906
  0
LINE
  5
22E
100
AcDbEntity
  8
0
100
AcDbLine
 62
7
  6
BYLAYER
 10
46.3785207765
 20
15.3431984906
 11
46.3785207765
 21
17.3431984906
  0
LINE
  5
22F
100
AcDbEntity
  8
0
100
AcDbLine
 62
7
  6
BYLAYER
 10
48.6785207765
 20
9.3431984906
 11
48.6785207765
 21
72.6431982623
  0
LINE
  5
230
100
AcDbEntity
  8
0
100
AcDbLine
 62
7
  6
BYLAYER
 10
26.7785207765
 20
61.3431984906
 11
39.7785207765
 21
61.3431984906
  0
LINE
  5
231
100
AcDbEntity
  8
0
100
AcDbLine
 62
7
  6
BYLAYER
 10
21.0785207765
 20
66.0431984906
 11
17.8785207765
 21
66.0431984906
  0
LINE
  5
232
100
AcDbEntity
  8
0
100
AcDbLine
 62
7
  6
BYLAYER
 10
45.4785207765
 20
66.0431984906
 11
48.6785207765
 21
66.0431984906
  0
LINE
  5
233
100
AcDbEntity
  8
0
100
AcDbLine
 62
7
  6
BYLAYER
 10
17.8785207765
 20
66.9979619671
 11
21.0785207765
 21
66.9979619671
  0
LINE
  5
234
100
AcDbEntity
  8
0
100
AcDbLine
 62
7
  6
BYLAYER
 10
45.4785207765
 20
66.9979619671
 11
48.6785207765
 21
66.9979619671
  0
LINE
  5
235
100
AcDbEntity
  8
0
100
AcDbLine
 62
7
  6
BYLAYER
 10
17.8785207765
 20
67.4931984906
 11
20.8785207765
 21
67.4931984906
  0
LINE
  5
236
100
AcDbEntity
  8
0
100
AcDbLine
 62
7
  6
BYLAYER
 10
45.6785207765
 20
67.4931984906
 11
48.6785207765
 21
67.4931984906
  0
LINE
  5
237
100
AcDbEntity
  8
0
100
AcDbLine
 62
7
  6
BYLAYER
 10
45.6785207765
 20
67.8431984906
 11
45.4785207765
 21
67.8431984906
  0
LINE
  5
238
100
AcDbEntity
  8
0
100
AcDbLine
 62
7
  6
BYLAYER
 10
21.0785207765
 20
67.8431984906
 11
20.8785207765
 21
67.8431984906
  0
LINE
  5
239
100
AcDbEntity
  8
0
100
AcDbLine
 62
7
  6
BYLAYER
 10
20.8785207765
 20
68.0931984906
 11
21.0785207765
 21
68.0931984906
  0
LINE
  5
23A
100
AcDbEntity
  8
0
100
AcDbLine
 62
7
  6
BYLAYER
 10
45.4785207765
 20
68.0931984906
 11
45.6785207765
 21
68.0931984906
  0
LINE
  5
23B
100
AcDbEntity
  8
0
100
AcDbLine
 62
7
  6
BYLAYER
 10
48.6785207765
 20
68.2631569511
 11
45.6785207765
 21
68.2631569511
  0
LINE
  5
23C
100
AcDbEntity
  8
0
100
AcDbLine
 62
7
  6
BYLAYER
 10
20.8785207765
 20
68.2631569511
 11
17.8785207765
 21
68.2631569511
  0
LINE
  5
23D
100
AcDbEntity
  8
0
100
AcDbLine
 62
7
  6
BYLAYER
 10
45.6785207765
 20
68.7431984906
 11
45.4785207765
 21
68.7431984906
  0
LINE
  5
23E
100
AcDbEntity
  8
0
100
AcDbLine
 62
7
  6
BYLAYER
 10
21.0785207765
 20
68.7431984906
 11
20.8785207765
 21
68.7431984906
  0
LINE
  5
23F
100
AcDbEntity
  8
0
100
AcDbLine
 62
7
  6
BYLAYER
 10
45.6785207765
 20
69.4431984906
 11
45.4785207765
 21
69.4431984906
  0
LINE
  5
240
100
AcDbEntity
  8
0
100
AcDbLine
 62
7
  6
BYLAYER
 10
21.0785207765
 20
69.4431984906
 11
20.8785207765
 21
69.4431984906
  0
LINE
  5
241
100
AcDbEntity
  8
0
100
AcDbLine
 62
7
  6
BYLAYER
 10
17.8785207765
 20
70.5295481721
 11
20.8785207765
 21
70.5295481721
  0
LINE
  5
242
100
AcDbEntity
  8
0
100
AcDbLine
 62
7
  6
BYLAYER
 10
45.6785207765
 20
70.5295481721
 11
48.6785207765
 21
70.5295481721
  0
LINE
  5
243
100
AcDbEntity
  8
0
100
AcDbLine
 62
7
  6
BYLAYER
 10
45.4785207765
 20
72.3431984906
 11
21.0785207765
 21
72.3431984906
  0
LINE
  5
244
100
AcDbEntity
  8
0
100
AcDbLine
 62
7
  6
BYLAYER
 10
48.6785207765
 20
72.5668716391
 11
45.6785207765
 21
72.5668716391
  0
LINE
  5
245
100
AcDbEntity
  8
0
100
AcDbLine
 62
7
  6
BYLAYER
 10
20.8785207765
 20
72.5668716391
 11
17.8785207765
 21
72.5668716391
  0
LINE
  5
246
100
AcDbEntity
  8
0
100
AcDbLine
 62
7
  6
BYLAYER
 10
17.8785207765
 20
72.6431984906
 11
20.8785207765
 21
72.6431984906
  0
LINE
  5
247
100
AcDbEntity
  8
0
100
AcDbLine
 62
7
  6
BYLAYER
 10
45.6785207765
 20
72.6431984906
 11
48.6785207765
 21
72.6431984906
  0
ARC
  5
248
100
AcDbEntity
  8
0
100
AcDbCircle
 62
7
  6
BYLAYER
 10
31.3452299319
 20
415.7761285634
 40
341.1788387167
100
AcDbArc
 50
269.4728811336
 51
269.6963411351
  0
ARC
  5
249
100
AcDbEntity
  8
0
100
AcDbCircle
 62
7
  6
BYLAYER
 10
36.7799681893
 20
-101.727072633
 40
176.4286653034
100
AcDbArc
 50
89.2900022813
 51
89.4161100859
  0
ARC
  5
24A
100
AcDbEntity
  8
0
100
AcDbCircle
 62
7
  6
BYLAYER
 10
34.8412725862
 20
243.4505936496
 40
158.8299552671
100
AcDbArc
 50
270.3724458796
 51
270.627524743
  0
ARC
  5
24B
100
AcDbEntity
  8
0
100
AcDbCircle
 62
7
  6
BYLAYER
 10
30.1640069816
 20
209.3421742078
 40
133.0296559295
100
AcDbArc
 50
269.0700990332
 51
269.5445667822
  0
ARC
  5
24C
100
AcDbEntity
  8
0
100
AcDbCircle
 62
7
  6
BYLAYER
 10
33.2785207765
 20
67.6331984906
 40
60.29
100
AcDbArc
 50
255.2008106802
 51
284.7991893198
  0
ARC
  5
24D
100
AcDbEntity
  8
0
100
AcDbCircle
 62
7
  6
BYLAYER
 10
33.2785207765
 20
66.56018528
 40
44.0
100
AcDbArc
 50
276.5249788441
 51
290.4873151147
  0
ARC
  5
24E
100
AcDbEntity
  8
0
100
AcDbCircle
 62
7
  6
BYLAYER
 10
33.2785207765
 20
66.56018528
 40
44.0
100
AcDbArc
 50
249.5126848853
 51
263.4750211559
  0
ARC
  5
24F
100
AcDbEntity
  8
0
100
AcDbCircle
 62
7
  6
BYLAYER
 10
26.7785207765
 20
57.3431984906
 40
4.0
100
AcDbArc
 50
90.0
 51
270.0
  0
ARC
  5
250
100
AcDbEntity
  8
0
100
AcDbCircle
 62
7
  6
BYLAYER
 10
39.7785207765
 20
57.3431984906
 40
4.0
100
AcDbArc
 50
270.0
 51
90.0
  0
ARC
  5
251
100
AcDbEntity
  8
0
100
AcDbCircle
 62
7
  6
BYLAYER
 10
44.2785207765
 20
17.3431984906
 40
2.1
100
AcDbArc
 50
0.0
 51
90.0
  0
ARC
  5
252
100
AcDbEntity
  8
0
100
AcDbCircle
 62
7
  6
BYLAYER
 10
44.2785207765
 20
15.3431984906
 40
2.1
100
AcDbArc
 50
180.0
 51
360.0
  0
ARC
  5
253
100
AcDbEntity
  8
0
100
AcDbCircle
 62
7
  6
BYLAYER
 10
43.2785207765
 20
17.3431984906
 40
2.1
100
AcDbArc
 50
90.0
 51
238.4118644948
  0
ARC
  5
254
100
AcDbEntity
  8
0
100
AcDbCircle
 62
7
  6
BYLAYER
 10
23.2785207765
 20
17.3431984906
 40
2.1
100
AcDbArc
 50
301.5881355052
 51
90.0
  0
ARC
  5
255
100
AcDbEntity
  8
0
100
AcDbCircle
 62
7
  6
BYLAYER
 10
22.2785207765
 20
15.3431984906
 40
2.1
100
AcDbArc
 50
180.0
 51
360.0
  0
ARC
  5
256
100
AcDbEntity
  8
0
100
AcDbCircle
 62
7
  6
BYLAYER
 10
22.2785207765
 20
17.3431984906
 40
2.1
100
AcDbArc
 50
90.0
 51
180.0
  0
ARC
  5
257
100
AcDbEntity
  8
0
100
AcDbCircle
 62
7
  6
BYLAYER
 10
25.2292429363
 20
73.4532335406
 40
0.7992747811
100
AcDbArc
 50
317.4685869122
 51
0.0003066715
  0
SPLINE
  5
258
100
AcDbEntity
  8
0
100
AcDbSpline
 62
7
  6
BYLAYER
 70
0
 71
3
 72
39
 73
35
 74
0
 42
0.0000001
 43
0.0000001
 44
0.0000000001
 40
0.0
 40
0.0
 40
0.0
 40
0.0
 40
0.1380625131
 40
0.2168457421
 40
0.2998998893
 40
0.3854278059
 40
0.4715778518
 40
0.5564849668
 40
0.6383114029
 40
0.7152862106
 40
0.7514282183
 40
0.7857433789
 40
0.8180445408
 40
0.8481579403
 40
0.8759192092
 40
0.9011791801
 40
0.9237999004
 40
0.943660004
 40
0.95252057
 40
0.9606510598
 40
0.9680414793
 40
0.9746821947
 40
0.9805635955
 40
0.9856771333
 40
0.9900170553
 40
0.9935781697
 40
0.9950651227
 40
0.9963555554
 40
0.9974490887
 40
0.9983458005
 40
0.9990460541
 40
0.9995508044
 40
0.9998630771
 40
1.0
 40
1.0
 40
1.0
 40
1.0
 10
37.0261867168
 20
84.6855154969
 30
0.0
 10
36.6097708385
 20
84.6891493648
 30
0.0
 10
35.9557184151
 20
84.6931060333
 30
0.0
 10
35.0511506057
 20
84.696575915
 30
0.0
 10
34.3050356152
 20
84.6983535668
 30
0.0
 10
33.5366988874
 20
84.6991725427
 30
0.0
 10
32.7627726871
 20
84.6990082148
 30
0.0
 10
32.0000119293
 20
84.6978661148
 30
0.0
 10
31.2649281487
 20
84.6957715948
 30
0.0
 10
30.6769348418
 20
84.6932242839
 30
0.0
 10
30.2322494733
 20
84.6907097413
 30
0.0
 10
29.9223108749
 20
84.6886606508
 30
0.0
 10
29.630557917
 20
84.6864200485
 30
0.0
 10
29.3585753048
 20
84.6840011079
 30
0.0
 10
29.1078332581
 20
84.6814172406
 30
0.0
 10
28.8796940558
 20
84.6786845123
 30
0.0
 10
28.6753904968
 20
84.6758184673
 30
0.0
 10
28.5205528464
 20
84.6732477013
 30
0.0
 10
28.4094209511
 20
84.671104847
 30
0.0
 10
28.3358968845
 20
84.6695357613
 30
0.0
 10
28.2690706078
 20
84.6679459589
 30
0.0
 10
28.209030722
 20
84.6663381955
 30
0.0
 10
28.1558617427
 20
84.6647154343
 30
0.0
 10
28.1096363914
 20
84.6630814541
 30
0.0
 10
28.0704154834
 20
84.6614401067
 30
0.0
 10
28.0421339938
 20
84.660000788
 30
0.0
 10
28.0230533464
 20
84.658814368
 30
0.0
 10
28.0114045435
 20
84.6579774264
 30
0.0
 10
28.0015523215
 20
84.6571476186
 30
0.0
 10
27.9934558695
 20
84.6563075368
 30
0.0
 10
27.9872281156
 20
84.6555159299
 30
0.0
 10
27.98258251
 20
84.6546531664
 30
0.0
 10
27.9800532854
 20
84.6540189383
 30
0.0
 10
27.978527782
 20
84.6532243495
 30
0.0
 10
27.9785265175
 20
84.6528113569
 30
0.0
  0
SPLINE
  5
259
100
AcDbEntity
  8
0
100
AcDbSpline
 62
7
  6
BYLAYER
 70
0
 71
3
 72
11
 73
7
 74
0
 42
0.0000001
 43
0.0000001
 44
0.0000000001
 40
0.0
 40
0.0
 40
0.0
 40
0.0
 40
0.2409967485
 40
0.5113384422
 40
0.7758199199
 40
1.0
 40
1.0
 40
1.0
 40
1.0
 10
35.8737246497
 20
84.6239940735
 30
0.0
 10
35.4266786931
 20
84.620928245
 30
0.0
 10
34.4781352789
 20
84.6169283065
 30
0.0
 10
33.0389639367
 20
84.615463384
 30
0.0
 10
31.6309905385
 20
84.6183226666
 30
0.0
 10
30.7245174879
 20
84.623265981
 30
0.0
 10
30.3086722955
 20
84.6268948688
 30
0.0
  0
SPLINE
  5
25A
100
AcDbEntity
  8
0
100
AcDbSpline
 62
7
  6
BYLAYER
 70
0
 71
3
 72
27
 73
23
 74
0
 42
0.0000001
 43
0.0000001
 44
0.0000000001
 40
0.0
 40
0.0
 40
0.0
 40
0.0
 40
0.2248185879
 40
0.4243493156
 40
0.5139469398
 40
0.5964918731
 40
0.6717880678
 40
0.7396621528
 40
0.7999530441
 40
0.8525023091
 40
0.8971861973
 40
0.9165482854
 40
0.9339078504
 40
0.9492530841
 40
0.9625734498
 40
0.9738637131
 40
0.9831207125
 40
0.9903426493
 40
0.9955312348
 40
0.9987007293
 40
0.9995537331
 40
1.0
 40
1.0
 40
1.0
 40
1.0
 10
30.3086722955
 20
84.6268948688
 30
0.0
 10
30.2164259493
 20
84.6276998598
 30
0.0
 10
30.0423104098
 20
84.6293593328
 30
0.0
 10
29.8314364193
 20
84.6318061034
 30
0.0
 10
29.678941942
 20
84.6338984636
 30
0.0
 10
29.5774222224
 20
84.6354546814
 30
0.0
 10
29.484818138
 20
84.6370508115
 30
0.0
 10
29.4013477307
 20
84.6386824271
 30
0.0
 10
29.3272136974
 20
84.6403438716
 30
0.0
 10
29.2625986764
 20
84.6420308608
 30
0.0
 10
29.2147787849
 20
84.6435132998
 30
0.0
 10
29.1813977776
 20
84.6447326034
 30
0.0
 10
29.1600510316
 20
84.6456064016
 30
0.0
 10
29.1411854962
 20
84.6464828626
 30
0.0
 10
29.1248144622
 20
84.6473602286
 30
0.0
 10
29.1109428468
 20
84.648238616
 30
0.0
 10
29.0995872369
 20
84.6491087338
 30
0.0
 10
29.0907222976
 20
84.6499809879
 30
0.0
 10
29.0844174363
 20
84.6508019818
 30
0.0
 10
29.0806472721
 20
84.6515864434
 30
0.0
 10
29.0789786372
 20
84.6521963569
 30
0.0
 10
29.0785240206
 20
84.6526282408
 30
0.0
 10
29.0785244931
 20
84.652811357
 30
0.0
  0
SPLINE
  5
25B
100
AcDbEntity
  8
0
100
AcDbSpline
 62
7
  6
BYLAYER
 70
0
 71
3
 72
22
 73
18
 74
0
 42
0.0000001
 43
0.0000001
 44
0.0000000001
 40
0.0
 40
0.0
 40
0.0
 40
0.0
 40
0.2311015429
 40
0.432814032
 40
0.6045412686
 40
0.6790075958
 40
0.7457953093
 40
0.8048477031
 40
0.8561281929
 40
0.8996087726
 40
0.9352634433
 40
0.9630704658
 40
0.9830204511
 40
0.9900613003
 40
0.9951678099
 40
0.9983944315
 40
1.0
 40
1.0
 40
1.0
 40
1.0
 10
27.934203845
 20
83.1746816136
 30
0.0
 10
27.8913219331
 20
83.1738815216
 30
0.0
 10
27.8110131215
 20
83.1722849762
 30
0.0
 10
27.6988483478
 20
83.1696791697
 30
0.0
 10
27.6157542174
 20
83.1673813235
 30
0.0
 10
27.5576998646
 20
83.1654865876
 30
0.0
 10
27.5205503716
 20
83.1641264617
 30
0.0
 10
27.4877075165
 20
83.1627606592
 30
0.0
 10
27.4591939208
 20
83.1613911271
 30
0.0
 10
27.435030236
 20
83.1600220449
 30
0.0
 10
27.4152256373
 20
83.1586562316
 30
0.0
 10
27.3998129465
 20
83.1573096725
 30
0.0
 10
27.3896913403
 20
83.1561011888
 30
0.0
 10
27.3838435718
 20
83.1551020408
 30
0.0
 10
27.3810291109
 20
83.1543889944
 30
0.0
 10
27.3793618497
 20
83.1538463994
 30
0.0
 10
27.3785290216
 20
83.1531664446
 30
0.0
 10
27.3785289748
 20
83.1528684724
 30
0.0
  0
SPLINE
  5
25C
100
AcDbEntity
  8
0
100
AcDbSpline
 62
7
  6
BYLAYER
 70
0
 71
3
 72
23
 73
19
 74
0
 42
0.0000001
 43
0.0000001
 44
0.0000000001
 40
0.0
 40
0.0
 40
0.0
 40
0.0
 40
0.2307611536
 40
0.432383564
 40
0.6041511406
 40
0.6786688908
 40
0.7455243828
 40
0.8046546472
 40
0.8560096997
 40
0.8995578067
 40
0.9352702829
 40
0.9631222237
 40
0.9740955193
 40
0.9831004742
 40
0.9901442663
 40
0.9952442213
 40
0.9984493343
 40
1.0
 40
1.0
 40
1.0
 40
1.0
 10
28.0050525872
 20
76.3300383981
 30
0.0
 10
27.956783385
 20
76.3308780094
 30
0.0
 10
27.8663417857
 20
76.3325562398
 30
0.0
 10
27.7399796352
 20
76.3353014227
 30
0.0
 10
27.6463058331
 20
76.3377283628
 30
0.0
 10
27.5808255991
 20
76.3397329484
 30
0.0
 10
27.5389038038
 20
76.3411734579
 30
0.0
 10
27.5018311447
 20
76.3426210128
 30
0.0
 10
27.4696391994
 20
76.3440736007
 30
0.0
 10
27.4423513847
 20
76.3455267965
 30
0.0
 10
27.419990668
 20
76.346976596
 30
0.0
 10
27.4044446111
 20
76.3482537752
 30
0.0
 10
27.3944986399
 20
76.3493147544
 30
0.0
 10
27.3888835513
 20
76.3500541785
 30
0.0
 10
27.3845394251
 20
76.3507517791
 30
0.0
 10
27.3813519179
 20
76.3515119689
 30
0.0
 10
27.3794947125
 20
76.3520799516
 30
0.0
 10
27.378528884
 20
76.3528029878
 30
0.0
 10
27.3785289086
 20
76.3531273956
 30
0.0
  0
SPLINE
  5
25D
100
AcDbEntity
  8
0
100
AcDbSpline
 62
7
  6
BYLAYER
 70
0
 71
3
 72
18
 73
14
 74
0
 42
0.0000001
 43
0.0000001
 44
0.0000000001
 40
0.0
 40
0.0
 40
0.0
 40
0.0
 40
0.0057152189
 40
0.0181647783
 40
0.0381455791
 40
0.0658070765
 40
0.1011983449
 40
0.1443394521
 40
0.253894047
 40
0.3944073393
 40
0.5657154239
 40
0.7676406789
 40
1.0
 40
1.0
 40
1.0
 40
1.0
 10
38.5285150566
 20
74.6531921265
 30
0.0
 10
38.5285140003
 20
74.6528476049
 30
0.0
 10
38.5273608151
 20
74.6521291875
 30
0.0
 10
38.5253118079
 20
74.6515683538
 30
0.0
 10
38.5216729622
 20
74.6508032654
 30
0.0
 10
38.5167552734
 20
74.65010414
 30
0.0
 10
38.5103813315
 20
74.6493611178
 30
0.0
 10
38.4990998092
 20
74.6482957965
 30
0.0
 10
38.481465001
 20
74.6470142245
 30
0.0
 10
38.456106956
 20
74.6455611603
 30
0.0
 10
38.4251704548
 20
74.6441061641
 30
0.0
 10
38.3886932622
 20
74.6426537922
 30
0.0
 10
38.3625291551
 20
74.6417532442
 30
0.0
 10
38.3485295141
 20
74.641298777
 30
0.0
  0
SPLINE
  5
25E
100
AcDbEntity
  8
0
100
AcDbSpline
 62
7
  6
BYLAYER
 70
0
 71
3
 72
9
 73
5
 74
0
 42
0.0000001
 43
0.0000001
 44
0.0000000001
 40
0.0
 40
0.0
 40
0.0
 40
0.0
 40
0.4411955612
 40
1.0
 40
1.0
 40
1.0
 40
1.0
 10
38.3485295141
 20
74.641298777
 30
0.0
 10
38.3036559276
 20
74.6398420557
 30
0.0
 10
38.2019278438
 20
74.6371356108
 30
0.0
 10
38.1001868002
 20
74.6350284439
 30
0.0
 10
38.0433314981
 20
74.6339560479
 30
0.0
  0
SPLINE
  5
25F
100
AcDbEntity
  8
0
100
AcDbSpline
 62
7
  6
BYLAYER
 70
0
 71
3
 72
15
 73
11
 74
0
 42
0.0000001
 43
0.0000001
 44
0.0000000001
 40
0.0
 40
0.0
 40
0.0
 40
0.0
 40
0.0352337181
 40
0.078066758
 40
0.1839579041
 40
0.3115868945
 40
0.4536176185
 40
0.7478618188
 40
0.8831578077
 40
1.0
 40
1.0
 40
1.0
 40
1.0
 10
38.0433314981
 20
74.6339560479
 30
0.0
 10
37.9437872555
 20
74.6320784595
 30
0.0
 10
37.7232157894
 20
74.6286100476
 30
0.0
 10
37.2034329453
 20
74.6223110172
 30
0.0
 10
36.4225486586
 20
74.6159956385
 30
0.0
 10
35.3613453782
 20
74.610669538
 30
0.0
 10
33.7678937567
 20
74.606583939
 30
0.0
 10
32.1527671036
 20
74.6073783551
 30
0.0
 10
30.6088332091
 20
74.6132570485
 30
0.0
 10
29.8963653229
 20
74.6179154055
 30
0.0
 10
29.5662101753
 20
74.6207965161
 30
0.0
  0
SPLINE
  5
260
100
AcDbEntity
  8
0
100
AcDbSpline
 62
7
  6
BYLAYER
 70
0
 71
3
 72
9
 73
5
 74
0
 42
0.0000001
 43
0.0000001
 44
0.0000000001
 40
0.0
 40
0.0
 40
0.0
 40
0.0
 40
0.5656229971
 40
1.0
 40
1.0
 40
1.0
 40
1.0
 10
29.5662101753
 20
74.6207965161
 30
0.0
 10
29.3638268384
 20
74.6225626215
 30
0.0
 10
29.0060252181
 20
74.6261806457
 30
0.0
 10
28.6482395826
 20
74.6313482478
 30
0.0
 10
28.4928400223
 20
74.6343548302
 30
0.0
  0
SPLINE
  5
261
100
AcDbEntity
  8
0
100
AcDbSpline
 62
7
  6
BYLAYER
 70
0
 71
3
 72
9
 73
5
 74
0
 42
0.0000001
 43
0.0000001
 44
0.0000000001
 40
0.0
 40
0.0
 40
0.0
 40
0.0
 40
0.2891019536
 40
1.0
 40
1.0
 40
1.0
 40
1.0
 10
28.4928400223
 20
74.6343548302
 30
0.0
 10
28.4666674782
 20
74.6348612018
 30
0.0
 10
28.3761390026
 20
74.6367035887
 30
0.0
 10
28.2856155937
 20
74.638877446
 30
0.0
 10
28.221277126
 20
74.6408919818
 30
0.0
  0
SPLINE
  5
262
100
AcDbEntity
  8
0
100
AcDbSpline
 62
7
  6
BYLAYER
 70
0
 71
3
 72
18
 73
14
 74
0
 42
0.0000001
 43
0.0000001
 44
0.0000000001
 40
0.0
 40
0.0
 40
0.0
 40
0.0
 40
0.2323583303
 40
0.4343351982
 40
0.6056690915
 40
0.7461770673
 40
0.8557595314
 40
0.8989316309
 40
0.9343522967
 40
0.9620298513
 40
0.9819999601
 40
0.9943989039
 40
1.0
 40
1.0
 40
1.0
 40
1.0
 10
28.221277126
 20
74.6408919818
 30
0.0
 10
28.2062884503
 20
74.6413613002
 30
0.0
 10
28.1782724163
 20
74.6422914433
 30
0.0
 10
28.1392124474
 20
74.6437918841
 30
0.0
 10
28.1060842716
 20
74.6452959573
 30
0.0
 10
28.0789297476
 20
74.6467990878
 30
0.0
 10
28.0600426606
 20
74.6481251725
 30
0.0
 10
28.047955893
 20
74.6492271094
 30
0.0
 10
28.0411225866
 20
74.6499961748
 30
0.0
 10
28.0358552793
 20
74.6507187707
 30
0.0
 10
28.031949544
 20
74.6515114669
 30
0.0
 10
28.0297746013
 20
74.6520878833
 30
0.0
 10
28.0285253882
 20
74.6528306425
 30
0.0
 10
28.0285264965
 20
74.6531921263
 30
0.0
  0
SPLINE
  5
263
100
AcDbEntity
  8
0
100
AcDbSpline
 62
7
  6
BYLAYER
 70
0
 71
3
 72
22
 73
18
 74
0
 42
0.0000001
 43
0.0000001
 44
0.0000000001
 40
0.0
 40
0.0
 40
0.0
 40
0.0
 40
0.0015693098
 40
0.0047815782
 40
0.0098835496
 40
0.0169260631
 40
0.0368930093
 40
0.0647285338
 40
0.1004199531
 40
0.1439436811
 40
0.1952721908
 40
0.2543755494
 40
0.3212082628
 40
0.3957087212
 40
0.5674616025
 40
0.7691145454
 40
1.0
 40
1.0
 40
1.0
 40
1.0
 10
39.1785126445
 20
76.3531273956
 30
0.0
 10
39.1785126207
 20
76.3528125222
 30
0.0
 10
39.1775953057
 20
76.3521046116
 30
0.0
 10
39.17580655
 20
76.3515457778
 30
0.0
 10
39.1727548509
 20
76.3508023439
 30
0.0
 10
39.166426448
 20
76.349764077
 30
0.0
 10
39.1554661454
 20
76.3485062174
 30
0.0
 10
39.1387828925
 20
76.3471061101
 30
0.0
 10
39.1173454241
 20
76.3456857264
 30
0.0
 10
39.0911925194
 20
76.3442625846
 30
0.0
 10
39.0603341518
 20
76.3428394341
 30
0.0
 10
39.02479531
 20
76.341420913
 30
0.0
 10
38.9846034424
 20
76.3400089067
 30
0.0
 10
38.921815123
 20
76.3380432402
 30
0.0
 10
38.8319762684
 20
76.3356619221
 30
0.0
 10
38.7107583283
 20
76.3329658623
 30
0.0
 10
38.6239874187
 20
76.3313163439
 30
0.0
 10
38.5776688882
 20
76.3304905895
 30
0.0
  0
SPLINE
  5
264
100
AcDbEntity
  8
0
100
AcDbSpline
 62
7
  6
BYLAYER
 70
0
 71
3
 72
16
 73
12
 74
0
 42
0.0000001
 43
0.0000001
 44
0.0000000001
 40
0.0
 40
0.0
 40
0.0
 40
0.0
 40
0.0364125809
 40
0.0801989253
 40
0.1873301064
 40
0.315375708
 40
0.4571396105
 40
0.6046563246
 40
0.7496360697
 40
0.8839313511
 40
1.0
 40
1.0
 40
1.0
 40
1.0
 10
38.5776688882
 20
76.3304905895
 30
0.0
 10
38.4627297099
 20
76.3284414845
 30
0.0
 10
38.2095627763
 20
76.3246446165
 30
0.0
 10
37.6181860685
 20
76.3177610696
 30
0.0
 10
36.7375012868
 20
76.3108638441
 30
0.0
 10
35.5474823214
 20
76.3050926909
 30
0.0
 10
34.2299527462
 20
76.3018411936
 30
0.0
 10
32.8589571354
 20
76.3013012312
 30
0.0
 10
31.5115420616
 20
76.3035135313
 30
0.0
 10
30.2634187199
 20
76.3083392359
 30
0.0
 10
29.4730148624
 20
76.3135232874
 30
0.0
 10
29.1065907675
 20
76.3167209002
 30
0.0
  0
SPLINE
  5
265
100
AcDbEntity
  8
0
100
AcDbSpline
 62
7
  6
BYLAYER
 70
0
 71
3
 72
22
 73
18
 74
0
 42
0.0000001
 43
0.0000001
 44
0.0000000001
 40
0.0
 40
0.0
 40
0.0
 40
0.0
 40
0.0015981217
 40
0.0048215098
 40
0.0099267838
 40
0.0169677445
 40
0.0369210994
 40
0.0647334019
 40
0.1003944429
 40
0.1438822578
 40
0.1951706869
 40
0.2542315195
 40
0.3210259057
 40
0.3954964184
 40
0.567226296
 40
0.7689337498
 40
1.0
 40
1.0
 40
1.0
 40
1.0
 10
39.1785125783
 20
83.1528684724
 30
0.0
 10
39.1785126256
 20
83.1531695904
 30
0.0
 10
39.1776641675
 20
83.153855055
 30
0.0
 10
39.1759740837
 20
83.1544006326
 30
0.0
 10
39.1731152276
 20
83.1551195353
 30
0.0
 10
39.1671770934
 20
83.156126124
 30
0.0
 10
39.1568978355
 20
83.157344028
 30
0.0
 10
39.141246343
 20
83.158700819
 30
0.0
 10
39.1211350516
 20
83.1600770679
 30
0.0
 10
39.0965978536
 20
83.1614564868
 30
0.0
 10
39.067643995
 20
83.1628362748
 30
0.0
 10
39.0342949686
 20
83.1642121519
 30
0.0
 10
38.9965743134
 20
83.1655822077
 30
0.0
 10
38.9376306537
 20
83.1674905502
 30
0.0
 10
38.8532671413
 20
83.1698044605
 30
0.0
 10
38.7393966305
 20
83.172427595
 30
0.0
 10
38.6578691356
 20
83.1740343926
 30
0.0
 10
38.6143390988
 20
83.1748394706
 30
0.0
  0
SPLINE
  5
266
100
AcDbEntity
  8
0
100
AcDbSpline
 62
7
  6
BYLAYER
 70
0
 71
3
 72
25
 73
21
 74
0
 42
0.0000001
 43
0.0000001
 44
0.0000000001
 40
0.0
 40
0.0
 40
0.0
 40
0.0
 40
0.0013215633
 40
0.0044737022
 40
0.0096024297
 40
0.0167328716
 40
0.02587255
 40
0.0370203019
 40
0.0501717959
 40
0.0653218216
 40
0.1015943692
 40
0.1457891658
 40
0.1978317673
 40
0.2576214239
 40
0.3250556447
 40
0.4000264819
 40
0.4824041336
 40
0.5720530161
 40
0.7725710766
 40
1.0
 40
1.0
 40
1.0
 40
1.0
 10
37.4785138647
 20
84.652811357
 30
0.0
 10
37.4785133476
 20
84.6524155466
 30
0.0
 10
37.4769078589
 20
84.6517334971
 30
0.0
 10
37.4744227831
 20
84.6511536746
 30
0.0
 10
37.4696882829
 20
84.6503901101
 30
0.0
 10
37.4633957809
 20
84.649678026
 30
0.0
 10
37.4551879417
 20
84.64892765
 30
0.0
 10
37.4452109786
 20
84.6481848523
 30
0.0
 10
37.4334157248
 20
84.6474365822
 30
0.0
 10
37.4141061422
 20
84.6463763466
 30
0.0
 10
37.3854958193
 20
84.6450917791
 30
0.0
 10
37.3458359317
 20
84.6436300029
 30
0.0
 10
37.2991277327
 20
84.6421783793
 30
0.0
 10
37.2454562691
 20
84.640740178
 30
0.0
 10
37.1849151109
 20
84.6393199407
 30
0.0
 10
37.1176067279
 20
84.6379211186
 30
0.0
 10
37.0436432621
 20
84.6365462557
 30
0.0
 10
36.9320810186
 20
84.6346783744
 30
0.0
 10
36.7770757389
 20
84.6324579239
 30
0.0
 10
36.6489139112
 20
84.630920793
 30
0.0
 10
36.5808027067
 20
84.6301644689
 30
0.0
  0
SPLINE
  5
267
100
AcDbEntity
  8
0
100
AcDbSpline
 62
7
  6
BYLAYER
 70
0
 71
3
 72
28
 73
24
 74
0
 42
0.0000001
 43
0.0000001
 44
0.0000000001
 40
0.0
 40
0.0
 40
0.0
 40
0.0
 40
0.0004460087
 40
0.0012980643
 40
0.0044656577
 40
0.0096541736
 40
0.0168771812
 40
0.026135528
 40
0.037426545
 40
0.0507462
 40
0.0660897251
 40
0.0834488724
 40
0.102811433
 40
0.1474964436
 40
0.200043515
 40
0.2603342525
 40
0.328210376
 40
0.4035075591
 40
0.4860530057
 40
0.5756503331
 40
0.6720989901
 40
0.7751757264
 40
1.0
 40
1.0
 40
1.0
 40
1.0
 10
38.5785150356
 20
84.6528113571
 30
0.0
 10
38.5785157427
 20
84.6530422982
 30
0.0
 10
38.5779432205
 20
84.6535873277
 30
0.0
 10
38.5758390875
 20
84.6543574699
 30
0.0
 10
38.5710832072
 20
84.6553471929
 30
0.0
 10
38.5631274331
 20
84.6563830875
 30
0.0
 10
38.5519395324
 20
84.657483697
 30
0.0
 10
38.5376081757
 20
84.6585816701
 30
0.0
 10
38.5201028062
 20
84.6596900845
 30
0.0
 10
38.499444991
 20
84.6607972779
 30
0.0
 10
38.4756399648
 20
84.6619033847
 30
0.0
 10
38.4487032673
 20
84.6630059894
 30
0.0
 10
38.4065790168
 20
84.6645445993
 30
0.0
 10
38.3462351931
 20
84.666415181
 30
0.0
 10
38.2646978539
 20
84.6685441572
 30
0.0
 10
38.1711479515
 20
84.6706407054
 30
0.0
 10
38.06581479
 20
84.6726995939
 30
0.0
 10
37.9489554584
 20
84.6747138477
 30
0.0
 10
37.8208466548
 20
84.6766775579
 30
0.0
 10
37.6817837306
 20
84.6785860199
 30
0.0
 10
37.5320880783
 20
84.6804342582
 30
0.0
 10
37.3123744871
 20
84.6828824933
 30
0.0
 10
37.1425957291
 20
84.6844996495
 30
0.0
 10
37.0261867168
 20
84.6855154969
 30
0.0
  0
SPLINE
  5
268
100
AcDbEntity
  8
0
100
AcDbSpline
 62
7
  6
BYLAYER
 70
0
 71
3
 72
28
 73
24
 74
0
 42
0.0000001
 43
0.0000001
 44
0.0000000001
 40
0.0
 40
0.0
 40
0.0
 40
0.0
 40
0.2248244067
 40
0.3279007521
 40
0.4243489414
 40
0.5139460271
 40
0.596491329
 40
0.6717885232
 40
0.7396648359
 40
0.7999555894
 40
0.8525026194
 40
0.8971879471
 40
0.9165506528
 40
0.9339098539
 40
0.9492533438
 40
0.96257308
 40
0.9738642608
 40
0.9831227896
 40
0.9903459334
 40
0.9955344763
 40
0.9987019676
 40
0.9995539957
 40
1.0
 40
1.0
 40
1.0
 40
1.0
 10
29.5308548362
 20
83.1201643325
 30
0.0
 10
29.414445756
 20
83.1211801805
 30
0.0
 10
29.2446671331
 20
83.1227973325
 30
0.0
 10
29.0249539196
 20
83.1252455646
 30
0.0
 10
28.8752588383
 20
83.127093797
 30
0.0
 10
28.7361963575
 20
83.1290022483
 30
0.0
 10
28.6080877492
 20
83.1309659541
 30
0.0
 10
28.4912283899
 20
83.1329802072
 30
0.0
 10
28.3858951172
 20
83.1350390839
 30
0.0
 10
28.2923451308
 20
83.1371356276
 30
0.0
 10
28.2108076415
 20
83.1392646155
 30
0.0
 10
28.1504636
 20
83.1411351861
 30
0.0
 10
28.1083390825
 20
83.1426737946
 30
0.0
 10
28.0814023003
 20
83.1437763992
 30
0.0
 10
28.0575972233
 20
83.144882519
 30
0.0
 10
28.0369392996
 20
83.1459897156
 30
0.0
 10
28.0194337092
 20
83.1470981335
 30
0.0
 10
28.0051021017
 20
83.1481961065
 30
0.0
 10
27.9939140235
 20
83.1492967201
 30
0.0
 10
27.9859582111
 20
83.1503325992
 30
0.0
 10
27.9812023975
 20
83.1513223452
 30
0.0
 10
27.9790983317
 20
83.1520925031
 30
0.0
 10
27.9785258432
 20
83.1526375335
 30
0.0
 10
27.9785265518
 20
83.1528684723
 30
0.0
  0
SPLINE
  5
269
100
AcDbEntity
  8
0
100
AcDbSpline
 62
7
  6
BYLAYER
 70
0
 71
3
 72
39
 73
35
 74
0
 42
0.0000001
 43
0.0000001
 44
0.0000000001
 40
0.0
 40
0.0
 40
0.0
 40
0.0
 40
0.1380625131
 40
0.2168457421
 40
0.2998998893
 40
0.3854278059
 40
0.4715778518
 40
0.5564849668
 40
0.6383114029
 40
0.7152862106
 40
0.7514282183
 40
0.7857433789
 40
0.8180445408
 40
0.8481579403
 40
0.8759192092
 40
0.9011791801
 40
0.9237999004
 40
0.943660004
 40
0.95252057
 40
0.9606510598
 40
0.9680414793
 40
0.9746821947
 40
0.9805635955
 40
0.9856771333
 40
0.9900170553
 40
0.9935781697
 40
0.9950651227
 40
0.9963555554
 40
0.9974490887
 40
0.9983458005
 40
0.9990460541
 40
0.9995508044
 40
0.9998630771
 40
1.0
 40
1.0
 40
1.0
 40
1.0
 10
29.5308548362
 20
84.6201072171
 30
0.0
 10
29.9472707146
 20
84.6164733492
 30
0.0
 10
30.601323138
 20
84.6125166807
 30
0.0
 10
31.5058909473
 20
84.609046799
 30
0.0
 10
32.2520059378
 20
84.6072691472
 30
0.0
 10
33.0203426657
 20
84.6064501713
 30
0.0
 10
33.794268866
 20
84.6066144992
 30
0.0
 10
34.5570296238
 20
84.6077565992
 30
0.0
 10
35.2921134044
 20
84.6098511192
 30
0.0
 10
35.8801067112
 20
84.6123984301
 30
0.0
 10
36.3247920797
 20
84.6149129727
 30
0.0
 10
36.6347306782
 20
84.6169620632
 30
0.0
 10
36.926483636
 20
84.6192026655
 30
0.0
 10
37.1984662482
 20
84.6216216061
 30
0.0
 10
37.4492082949
 20
84.6242054734
 30
0.0
 10
37.6773474973
 20
84.6269382017
 30
0.0
 10
37.8816510563
 20
84.6298042466
 30
0.0
 10
38.0364887067
 20
84.6323750127
 30
0.0
 10
38.147620602
 20
84.6345178669
 30
0.0
 10
38.2211446686
 20
84.6360869527
 30
0.0
 10
38.2879709452
 20
84.6376767551
 30
0.0
 10
38.348010831
 20
84.6392845185
 30
0.0
 10
38.4011798103
 20
84.6409072797
 30
0.0
 10
38.4474051617
 20
84.6425412599
 30
0.0
 10
38.4866260696
 20
84.6441826073
 30
0.0
 10
38.5149075593
 20
84.645621926
 30
0.0
 10
38.5339882066
 20
84.646808346
 30
0.0
 10
38.5456370096
 20
84.6476452876
 30
0.0
 10
38.5554892316
 20
84.6484750954
 30
0.0
 10
38.5635856835
 20
84.6493151772
 30
0.0
 10
38.5698134374
 20
84.6501067841
 30
0.0
 10
38.574459043
 20
84.6509695476
 30
0.0
 10
38.5769882677
 20
84.6516037757
 30
0.0
 10
38.5785137711
 20
84.6523983645
 30
0.0
 10
38.5785150356
 20
84.6528113571
 30
0.0
  0
SPLINE
  5
26A
100
AcDbEntity
  8
0
100
AcDbSpline
 62
7
  6
BYLAYER
 70
0
 71
3
 72
22
 73
18
 74
0
 42
0.0000001
 43
0.0000001
 44
0.0000000001
 40
0.0
 40
0.0
 40
0.0
 40
0.0
 40
0.0015981217
 40
0.0048215098
 40
0.0099267838
 40
0.0169677445
 40
0.0369210994
 40
0.0647334019
 40
0.1003944429
 40
0.1438822578
 40
0.1951706869
 40
0.2542315195
 40
0.3210259057
 40
0.3954964184
 40
0.567226296
 40
0.7689337498
 40
1.0
 40
1.0
 40
1.0
 40
1.0
 10
27.3785289748
 20
83.1528684724
 30
0.0
 10
27.3785289274
 20
83.1525673544
 30
0.0
 10
27.3793773856
 20
83.1518818898
 30
0.0
 10
27.3810674693
 20
83.1513363122
 30
0.0
 10
27.3839263255
 20
83.1506174095
 30
0.0
 10
27.3898644597
 20
83.1496108208
 30
0.0
 10
27.4001437175
 20
83.1483929168
 30
0.0
 10
27.41579521
 20
83.1470361258
 30
0.0
 10
27.4359065014
 20
83.1456598769
 30
0.0
 10
27.4604436995
 20
83.144280458
 30
0.0
 10
27.4893975581
 20
83.14290067
 30
0.0
 10
27.5227465845
 20
83.1415247929
 30
0.0
 10
27.5604672397
 20
83.1401547372
 30
0.0
 10
27.6194108993
 20
83.1382463946
 30
0.0
 10
27.7037744117
 20
83.1359324843
 30
0.0
 10
27.8176449226
 20
83.1333093498
 30
0.0
 10
27.8991724174
 20
83.1317025522
 30
0.0
 10
27.9427024542
 20
83.1308974742
 30
0.0
  0
SPLINE
  5
26B
100
AcDbEntity
  8
0
100
AcDbSpline
 62
7
  6
BYLAYER
 70
0
 71
3
 72
9
 73
5
 74
0
 42
0.0000001
 43
0.0000001
 44
0.0000000001
 40
0.0
 40
0.0
 40
0.0
 40
0.0
 40
0.438636126
 40
1.0
 40
1.0
 40
1.0
 40
1.0
 10
27.9427024542
 20
83.1308974742
 30
0.0
 10
28.1128613774
 20
83.127750424
 30
0.0
 10
28.500819089
 20
83.1222622193
 30
0.0
 10
28.8887934531
 20
83.1183625931
 30
0.0
 10
29.1065907675
 20
83.1164619771
 30
0.0
  0
SPLINE
  5
26C
100
AcDbEntity
  8
0
100
AcDbSpline
 62
7
  6
BYLAYER
 70
0
 71
3
 72
27
 73
23
 74
0
 42
0.0000001
 43
0.0000001
 44
0.0000000001
 40
0.0
 40
0.0
 40
0.0
 40
0.0
 40
0.224831073
 40
0.4243493104
 40
0.5139457916
 40
0.5964911401
 40
0.6717896378
 40
0.7396679652
 40
0.7999573817
 40
0.8525032915
 40
0.8971904618
 40
0.9165533271
 40
0.9339112187
 40
0.9492535259
 40
0.9625738376
 40
0.9738664247
 40
0.9831261973
 40
0.9903494329
 40
0.9955360364
 40
0.9987017048
 40
0.9995537305
 40
1.0
 40
1.0
 40
1.0
 40
1.0
 10
36.2483692575
 20
84.6787278452
 30
0.0
 10
36.340620507
 20
84.6779228114
 30
0.0
 10
36.5147356309
 20
84.6762634329
 30
0.0
 10
36.7256086465
 20
84.6738165229
 30
0.0
 10
36.8780973383
 20
84.6717242967
 30
0.0
 10
36.9796174622
 20
84.6701680492
 30
0.0
 10
37.0722241811
 20
84.6685718341
 30
0.0
 10
37.155696473
 20
84.6669403431
 30
0.0
 10
37.2298300887
 20
84.6652788866
 30
0.0
 10
37.2944443143
 20
84.6635916806
 30
0.0
 10
37.3422643866
 20
84.6621094314
 30
0.0
 10
37.375646296
 20
84.6608901804
 30
0.0
 10
37.3969914216
 20
84.6600163781
 30
0.0
 10
37.4158549925
 20
84.6591397616
 30
0.0
 10
37.4322257176
 20
84.6582623792
 30
0.0
 10
37.4460993726
 20
84.6573840557
 30
0.0
 10
37.4574576015
 20
84.656513987
 30
0.0
 10
37.4663233742
 20
84.6556419969
 30
0.0
 10
37.4726264613
 20
84.6548209476
 30
0.0
 10
37.4763935727
 20
84.6540366534
 30
0.0
 10
37.4780602332
 20
84.6534259866
 30
0.0
 10
37.478514104
 20
84.6529944743
 30
0.0
 10
37.4785138647
 20
84.652811357
 30
0.0
  0
SPLINE
  5
26D
100
AcDbEntity
  8
0
100
AcDbSpline
 62
7
  6
BYLAYER
 70
0
 71
3
 72
11
 73
7
 74
0
 42
0.0000001
 43
0.0000001
 44
0.0000000001
 40
0.0
 40
0.0
 40
0.0
 40
0.0
 40
0.240996743
 40
0.5113384422
 40
0.7758199199
 40
1.0
 40
1.0
 40
1.0
 40
1.0
 10
30.6833169033
 20
84.6816286405
 30
0.0
 10
31.1303628493
 20
84.6846945146
 30
0.0
 10
32.078906264
 20
84.6886943843
 30
0.0
 10
33.5180776059
 20
84.6901593364
 30
0.0
 10
34.9260510146
 20
84.6873000459
 30
0.0
 10
35.8325240651
 20
84.682356733
 30
0.0
 10
36.2483692575
 20
84.6787278452
 30
0.0
  0
SPLINE
  5
26E
100
AcDbEntity
  8
0
100
AcDbSpline
 62
7
  6
BYLAYER
 70
0
 71
3
 72
28
 73
24
 74
0
 42
0.0000001
 43
0.0000001
 44
0.0000000001
 40
0.0
 40
0.0
 40
0.0
 40
0.0
 40
0.0004460087
 40
0.0012980643
 40
0.0044656577
 40
0.0096541736
 40
0.0168771812
 40
0.026135528
 40
0.037426545
 40
0.0507462
 40
0.0660897251
 40
0.0834488724
 40
0.102811433
 40
0.1474964436
 40
0.200043515
 40
0.2603342525
 40
0.328210376
 40
0.4035075591
 40
0.4860530057
 40
0.5756503331
 40
0.6720989901
 40
0.7751757264
 40
1.0
 40
1.0
 40
1.0
 40
1.0
 10
27.9785265175
 20
84.6528113569
 30
0.0
 10
27.9785258104
 20
84.6525804158
 30
0.0
 10
27.9790983326
 20
84.6520353863
 30
0.0
 10
27.9812024655
 20
84.6512652441
 30
0.0
 10
27.9859583459
 20
84.6502755211
 30
0.0
 10
27.9939141199
 20
84.6492396265
 30
0.0
 10
28.0051020206
 20
84.648139017
 30
0.0
 10
28.0194333774
 20
84.6470410439
 30
0.0
 10
28.0369387468
 20
84.6459326295
 30
0.0
 10
28.0575965621
 20
84.6448254361
 30
0.0
 10
28.0814015882
 20
84.6437193293
 30
0.0
 10
28.1083382858
 20
84.6426167246
 30
0.0
 10
28.1504625362
 20
84.6410781147
 30
0.0
 10
28.21080636
 20
84.639207533
 30
0.0
 10
28.2923436992
 20
84.6370785568
 30
0.0
 10
28.3858936016
 20
84.6349820086
 30
0.0
 10
28.491226763
 20
84.6329231201
 30
0.0
 10
28.6080860946
 20
84.6309088663
 30
0.0
 10
28.7361948982
 20
84.6289451561
 30
0.0
 10
28.8752578225
 20
84.6270366941
 30
0.0
 10
29.0249534748
 20
84.6251884558
 30
0.0
 10
29.244667066
 20
84.6227402206
 30
0.0
 10
29.4144458239
 20
84.6211230645
 30
0.0
 10
29.5308548362
 20
84.6201072171
 30
0.0
  0
SPLINE
  5
26F
100
AcDbEntity
  8
0
100
AcDbSpline
 62
7
  6
BYLAYER
 70
0
 71
3
 72
29
 73
25
 74
0
 42
0.0000001
 43
0.0000001
 44
0.0000000001
 40
0.0
 40
0.0
 40
0.0
 40
0.0
 40
0.0004158535
 40
0.0012645881
 40
0.002611067
 40
0.0044683548
 40
0.0097298026
 40
0.017061887
 40
0.026466058
 40
0.0379386547
 40
0.0514692021
 40
0.0670458833
 40
0.0846566187
 40
0.1042891769
 40
0.1495628457
 40
0.20271596
 40
0.263580835
 40
0.3319711686
 40
0.4076542757
 40
0.4903896744
 40
0.5799205181
 40
0.6759708356
 40
0.7782548404
 40
1.0
 40
1.0
 40
1.0
 40
1.0
 10
29.0785244931
 20
84.652811357
 30
0.0
 10
29.0785250674
 20
84.6530339267
 30
0.0
 10
29.0791703247
 20
84.6535339107
 30
0.0
 10
29.0804311132
 20
84.6539302608
 30
0.0
 10
29.0825782257
 20
84.6544557346
 30
0.0
 10
29.0870279348
 20
84.6551903139
 30
0.0
 10
29.0947303985
 20
84.6560801531
 30
0.0
 10
29.1064546796
 20
84.6570710382
 30
0.0
 10
29.1215227022
 20
84.6580758936
 30
0.0
 10
29.1399095597
 20
84.6590825519
 30
0.0
 10
29.1616056688
 20
84.6600893493
 30
0.0
 10
29.1865895962
 20
84.6610931218
 30
0.0
 10
29.2148420282
 20
84.6620924735
 30
0.0
 10
29.2589843815
 20
84.6634838402
 30
0.0
 10
29.3221492289
 20
84.665169003
 30
0.0
 10
29.4073830817
 20
84.667078148
 30
0.0
 10
29.5049927606
 20
84.6689473324
 30
0.0
 10
29.6146635118
 20
84.6707690839
 30
0.0
 10
29.7360419043
 20
84.6725369135
 30
0.0
 10
29.8687368636
 20
84.674243966
 30
0.0
 10
30.0123342331
 20
84.6758842562
 30
0.0
 10
30.1663956615
 20
84.6774527794
 30
0.0
 10
30.3912187012
 20
84.6794956464
 30
0.0
 10
30.5646386497
 20
84.6808147363
 30
0.0
 10
30.6833169033
 20
84.6816286405
 30
0.0
  0
SPLINE
  5
270
100
AcDbEntity
  8
0
100
AcDbSpline
 62
7
  6
BYLAYER
 70
0
 71
3
 72
39
 73
35
 74
0
 42
0.0000001
 43
0.0000001
 44
0.0000000001
 40
0.0
 40
0.0
 40
0.0
 40
0.0
 40
0.0001369214
 40
0.0004491883
 40
0.0009539324
 40
0.0016541827
 40
0.0025508975
 40
0.0036444435
 40
0.0049348927
 40
0.0064218535
 40
0.0099829674
 40
0.014322884
 40
0.0194364326
 40
0.0253178485
 40
0.0319585521
 40
0.039348954
 40
0.0474794418
 40
0.0563400151
 40
0.0762000787
 40
0.0988207998
 40
0.1240807351
 40
0.1518419979
 40
0.1819553541
 40
0.2142564916
 40
0.2485715976
 40
0.2847135744
 40
0.3616883237
 40
0.4435147009
 40
0.5284216189
 40
0.6145713266
 40
0.7000990387
 40
0.7831533341
 40
0.8619368714
 40
1.0
 40
1.0
 40
1.0
 40
1.0
 10
38.5785150013
 20
83.1528684725
 30
0.0
 10
38.5785137342
 20
83.1524554847
 30
0.0
 10
38.5769882832
 20
83.1516608862
 30
0.0
 10
38.5744590798
 20
83.1510266573
 30
0.0
 10
38.5698135321
 20
83.1501638891
 30
0.0
 10
38.5635857941
 20
83.1493722815
 30
0.0
 10
38.5554893059
 20
83.1485321972
 30
0.0
 10
38.5456369857
 20
83.1477023918
 30
0.0
 10
38.5339880706
 20
83.1468654531
 30
0.0
 10
38.5149073517
 20
83.1456790312
 30
0.0
 10
38.4866258565
 20
83.144239709
 30
0.0
 10
38.4474049341
 20
83.1425983578
 30
0.0
 10
38.4011795206
 20
83.1409643818
 30
0.0
 10
38.3480104988
 20
83.139341627
 30
0.0
 10
38.2879706568
 20
83.1377338611
 30
0.0
 10
38.221144475
 20
83.1361440587
 30
0.0
 10
38.1476204459
 20
83.1345749765
 30
0.0
 10
38.0364886551
 20
83.1324321317
 30
0.0
 10
37.8816511016
 20
83.129861356
 30
0.0
 10
37.6773477686
 20
83.1269953257
 30
0.0
 10
37.4492086902
 20
83.1242625887
 30
0.0
 10
37.1984669005
 20
83.1216787319
 30
0.0
 10
36.9264845111
 20
83.1192597848
 30
0.0
 10
36.6347319228
 20
83.1170191911
 30
0.0
 10
36.3247936565
 20
83.1149700955
 30
0.0
 10
35.8801087235
 20
83.1124555595
 30
0.0
 10
35.2921158652
 20
83.1099082443
 30
0.0
 10
34.5570330346
 20
83.1078137242
 30
0.0
 10
33.7942740706
 20
83.1066716214
 30
0.0
 10
33.0203501034
 20
83.1065072873
 30
0.0
 10
32.2520145674
 20
83.1073262499
 30
0.0
 10
31.5058988188
 20
83.1091038928
 30
0.0
 10
30.6013277784
 20
83.1125737688
 30
0.0
 10
29.9472725701
 20
83.1165304484
 30
0.0
 10
29.5308548362
 20
83.1201643325
 30
0.0
  0
SPLINE
  5
271
100
AcDbEntity
  8
0
100
AcDbSpline
 62
7
  6
BYLAYER
 70
0
 71
3
 72
16
 73
12
 74
0
 42
0.0000001
 43
0.0000001
 44
0.0000000001
 40
0.0
 40
0.0
 40
0.0
 40
0.0
 40
0.1166912475
 40
0.2517940756
 40
0.3975795076
 40
0.5457018934
 40
0.6876814676
 40
0.8153921615
 40
0.9215228036
 40
0.9645391755
 40
1.0
 40
1.0
 40
1.0
 40
1.0
 10
29.1065907675
 20
83.1164619771
 30
0.0
 10
29.4767375356
 20
83.1132318782
 30
0.0
 10
30.275448148
 20
83.1080093615
 30
0.0
 10
31.5366173243
 20
83.1031782035
 30
0.0
 10
32.8974981315
 20
83.1010110838
 30
0.0
 10
34.280194294
 20
83.1016467639
 30
0.0
 10
35.6055510458
 20
83.1050364165
 30
0.0
 10
36.7976933682
 20
83.1109771103
 30
0.0
 10
37.6758991601
 20
83.1180368648
 30
0.0
 10
38.2614591645
 20
83.1250786241
 30
0.0
 10
38.5103706166
 20
83.1289569166
 30
0.0
 10
38.622837708
 20
83.1310553312
 30
0.0
  0
SPLINE
  5
272
100
AcDbEntity
  8
0
100
AcDbSpline
 62
7
  6
BYLAYER
 70
0
 71
3
 72
22
 73
18
 74
0
 42
0.0000001
 43
0.0000001
 44
0.0000000001
 40
0.0
 40
0.0
 40
0.0
 40
0.0
 40
0.2311015429
 40
0.432814032
 40
0.6045412686
 40
0.6790075958
 40
0.7457953093
 40
0.8048477031
 40
0.8561281929
 40
0.8996087726
 40
0.9352634433
 40
0.9630704658
 40
0.9830204511
 40
0.9900613003
 40
0.9951678099
 40
0.9983944315
 40
1.0
 40
1.0
 40
1.0
 40
1.0
 10
38.622837708
 20
83.1310553312
 30
0.0
 10
38.66571962
 20
83.1318554232
 30
0.0
 10
38.7460284316
 20
83.1334519686
 30
0.0
 10
38.8581932052
 20
83.1360577751
 30
0.0
 10
38.9412873356
 20
83.1383556213
 30
0.0
 10
38.9993416884
 20
83.1402503572
 30
0.0
 10
39.0364911814
 20
83.1416104831
 30
0.0
 10
39.0693340365
 20
83.1429762856
 30
0.0
 10
39.0978476323
 20
83.1443458177
 30
0.0
 10
39.1220113171
 20
83.1457148999
 30
0.0
 10
39.1418159157
 20
83.1470807133
 30
0.0
 10
39.1572286066
 20
83.1484272723
 30
0.0
 10
39.1673502127
 20
83.149635756
 30
0.0
 10
39.1731979812
 20
83.150634904
 30
0.0
 10
39.1760124421
 20
83.1513479504
 30
0.0
 10
39.1776797033
 20
83.1518905454
 30
0.0
 10
39.1785125315
 20
83.1525705002
 30
0.0
 10
39.1785125783
 20
83.1528684724
 30
0.0
  0
LINE
  5
273
100
AcDbEntity
  8
0
100
AcDbLine
 62
7
  6
BYLAYER
 10
25.4903729024
 20
72.7172966209
 11
25.3226648186
 21
72.7157067663
  0
SPLINE
  5
274
100
AcDbEntity
  8
0
100
AcDbSpline
 62
7
  6
BYLAYER
 70
0
 71
3
 72
28
 73
24
 74
0
 42
0.0000001
 43
0.0000001
 44
0.0000000001
 40
0.0
 40
0.0
 40
0.0
 40
0.0
 40
0.226079435
 40
0.3294240556
 40
0.4260071498
 40
0.5156264433
 40
0.5981017739
 40
0.6732544846
 40
0.7409249508
 40
0.800980725
 40
0.853291791
 40
0.8977445298
 40
0.9169983376
 40
0.9342575787
 40
0.9495127865
 40
0.9627547389
 40
0.9739766842
 40
0.9831766409
 40
0.9903546441
 40
0.995514722
 40
0.9986751111
 40
0.9995345
 40
1.0
 40
1.0
 40
1.0
 40
1.0
 10
25.3226648186
 20
72.7157067663
 30
0.0
 10
25.1157157688
 20
72.7136987616
 30
0.0
 10
24.8141691708
 20
72.7105226444
 30
0.0
 10
24.4242206388
 20
72.7057516852
 30
0.0
 10
24.1591861054
 20
72.7021736241
 30
0.0
 10
23.9132591762
 20
72.6984957546
 30
0.0
 10
23.6869540078
 20
72.6947271364
 30
0.0
 10
23.4807458787
 20
72.6908763361
 30
0.0
 10
23.2950666335
 20
72.6869522403
 30
0.0
 10
23.1303038034
 20
72.6829672256
 30
0.0
 10
22.9868035545
 20
72.6789313236
 30
0.0
 10
22.8806563303
 20
72.6753910577
 30
0.0
 10
22.8065950134
 20
72.672483039
 30
0.0
 10
22.7592507483
 20
72.6704008278
 30
0.0
 10
22.7174154556
 20
72.6683136977
 30
0.0
 10
22.681116529
 20
72.6662256165
 30
0.0
 10
22.6503658526
 20
72.6641367149
 30
0.0
 10
22.6251953749
 20
72.6620657463
 30
0.0
 10
22.6055556182
 20
72.6599965258
 30
0.0
 10
22.5915683003
 20
72.6580336299
 30
0.0
 10
22.5832308258
 20
72.6561851033
 30
0.0
 10
22.579503495
 20
72.6547107234
 30
0.0
 10
22.5785267171
 20
72.6536944106
 30
0.0
 10
22.5785267313
 20
72.6532682802
 30
0.0
  0
SPLINE
  5
275
100
AcDbEntity
  8
0
100
AcDbSpline
 62
7
  6
BYLAYER
 70
0
 71
3
 72
28
 73
24
 74
0
 42
0.0000001
 43
0.0000001
 44
0.0000000001
 40
0.0
 40
0.0
 40
0.0
 40
0.0
 40
0.0004656857
 40
0.0013251443
 40
0.004485474
 40
0.0096453224
 40
0.0168229683
 40
0.0260224669
 40
0.0372438759
 40
0.0504852082
 40
0.0657396751
 40
0.0829980805
 40
0.102250987
 40
0.1467018414
 40
0.1990110013
 40
0.2590648594
 40
0.3267336759
 40
0.4018852219
 40
0.4843599209
 40
0.5739793972
 40
0.6705637536
 40
0.773910826
 40
1.0
 40
1.0
 40
1.0
 40
1.0
 10
43.9785148218
 20
72.6532682802
 30
0.0
 10
43.9785148076
 20
72.6536940795
 30
0.0
 10
43.9775394917
 20
72.6547096538
 30
0.0
 10
43.9738164973
 20
72.6561833737
 30
0.0
 10
43.9654894156
 20
72.6580306123
 30
0.0
 10
43.9515191874
 20
72.65999242
 30
0.0
 10
43.931903643
 20
72.662060334
 30
0.0
 10
43.9067640712
 20
72.6641300604
 30
0.0
 10
43.876051108
 20
72.6662176882
 30
0.0
 10
43.8397966547
 20
72.6683045105
 30
0.0
 10
43.7980126113
 20
72.6703903954
 30
0.0
 10
43.7507263205
 20
72.6724713743
 30
0.0
 10
43.6767554441
 20
72.6753776937
 30
0.0
 10
43.5707373588
 20
72.6789159264
 30
0.0
 10
43.4274110845
 20
72.6829495676
 30
0.0
 10
43.2628469997
 20
72.686932441
 30
0.0
 10
43.077390402
 20
72.6908545112
 30
0.0
 10
42.8714278719
 20
72.6947034191
 30
0.0
 10
42.6453902465
 20
72.6984703073
 30
0.0
 10
42.3997517027
 20
72.7021466104
 30
0.0
 10
42.1350251932
 20
72.7057232791
 30
0.0
 10
41.7455227948
 20
72.7104926301
 30
0.0
 10
41.4443195488
 20
72.7136678736
 30
0.0
 10
41.2376048817
 20
72.7156754251
 30
0.0
  0
LINE
  5
276
100
AcDbEntity
  8
0
100
AcDbLine
 62
7
  6
BYLAYER
 10
41.2376048817
 20
72.7156754251
 11
41.0825582945
 21
72.7171491189
  0
SPLINE
  5
277
100
AcDbEntity
  8
0
100
AcDbSpline
 62
7
  6
BYLAYER
 70
0
 71
3
 72
19
 73
15
 74
0
 42
0.0000001
 43
0.0000001
 44
0.0000000001
 40
0.0
 40
0.0
 40
0.0
 40
0.0
 40
0.0086745557
 40
0.0143981199
 40
0.0249012206
 40
0.0426552
 40
0.070424473
 40
0.1122213655
 40
0.173679574
 40
0.2579737318
 40
0.3632024377
 40
0.481804302
 40
0.7366467074
 40
1.0
 40
1.0
 40
1.0
 40
1.0
 10
25.3427018009
 20
72.6636273383
 30
0.0
 10
25.3410952647
 20
72.6635076071
 30
0.0
 10
25.3354664712
 20
72.6630176666
 30
0.0
 10
25.342747175
 20
72.6637293622
 30
0.0
 10
25.3477376811
 20
72.6643615117
 30
0.0
 10
25.3587649637
 20
72.6658002848
 30
0.0
 10
25.3744223603
 20
72.6682872501
 30
0.0
 10
25.3985292783
 20
72.6727319736
 30
0.0
 10
25.4324242635
 20
72.6804524141
 30
0.0
 10
25.4773135894
 20
72.6932300235
 30
0.0
 10
25.5312118114
 20
72.71258159
 30
0.0
 10
25.6123291871
 20
72.7491755552
 30
0.0
 10
25.7133922695
 20
72.8118373569
 30
0.0
 10
25.7851674557
 20
72.8768915152
 30
0.0
 10
25.8182340405
 20
72.9129282656
 30
0.0
  0
SPLINE
  5
278
100
AcDbEntity
  8
0
100
AcDbSpline
 62
7
  6
BYLAYER
 70
0
 71
3
 72
16
 73
12
 74
0
 42
0.0000001
 43
0.0000001
 44
0.0000000001
 40
0.0
 40
0.0
 40
0.0
 40
0.0
 40
0.1655717442
 40
0.3309314904
 40
0.4958327726
 40
0.6587638806
 40
0.7385012249
 40
0.8145541283
 40
0.8803437449
 40
0.930754162
 40
1.0
 40
1.0
 40
1.0
 40
1.0
 10
40.5285207765
 20
73.4532378187
 30
0.0
 10
40.5285207765
 20
73.3901938818
 30
0.0
 10
40.5436173174
 20
73.2636971272
 30
0.0
 10
40.6098466628
 20
73.0850622871
 30
0.0
 10
40.7158245889
 20
72.9279515131
 30
0.0
 10
40.8309699029
 20
72.8216385294
 30
0.0
 10
40.9334808758
 20
72.7562228756
 30
0.0
 10
41.0094473869
 20
72.7191683658
 30
0.0
 10
41.0780313667
 20
72.6932246774
 30
0.0
 10
41.146201302
 20
72.674642035
 30
0.0
 10
41.191129629
 20
72.6662874625
 30
0.0
 10
41.2173409919
 20
72.6634324119
 30
0.0
  0
SPLINE
  5
279
100
AcDbEntity
  8
0
100
AcDbSpline
 62
7
  6
BYLAYER
 70
0
 71
3
 72
18
 73
14
 74
0
 42
0.0000001
 43
0.0000001
 44
0.0000000001
 40
0.0
 40
0.0
 40
0.0
 40
0.0
 40
0.1819103769
 40
0.3624560384
 40
0.4517867974
 40
0.5399016515
 40
0.6248861195
 40
0.7035836788
 40
0.7730563305
 40
0.8318176456
 40
0.9135718558
 40
0.9637630107
 40
1.0
 40
1.0
 40
1.0
 40
1.0
 10
40.5285207765
 20
74.3532035494
 30
0.0
 10
40.5285207765
 20
74.3796203792
 30
0.0
 10
40.5214435547
 20
74.4324933242
 30
0.0
 10
40.4959303371
 20
74.493775684
 30
0.0
 10
40.4668859441
 20
74.5370574191
 30
0.0
 10
40.4414925313
 20
74.5656254693
 30
0.0
 10
40.414043098
 20
74.5898957233
 30
0.0
 10
40.3863418136
 20
74.6094876734
 30
0.0
 10
40.3599373629
 20
74.6239671074
 30
0.0
 10
40.3318937974
 20
74.635997795
 30
0.0
 10
40.3055522031
 20
74.644787593
 30
0.0
 10
40.2816564749
 20
74.6499203393
 30
0.0
 10
40.2693043674
 20
74.6521526639
 30
0.0
 10
40.2641068095
 20
74.6529755606
 30
0.0
  0
SPLINE
  5
27A
100
AcDbEntity
  8
0
100
AcDbSpline
 62
7
  6
BYLAYER
 70
0
 71
3
 72
9
 73
5
 74
0
 42
0.0000001
 43
0.0000001
 44
0.0000000001
 40
0.0
 40
0.0
 40
0.0
 40
0.0
 40
0.4969398469
 40
1.0
 40
1.0
 40
1.0
 40
1.0
 10
40.2641068095
 20
74.6529755606
 30
0.0
 10
40.2500624092
 20
74.6551991222
 30
0.0
 10
40.2215816139
 20
74.6582355639
 30
0.0
 10
40.1930402801
 20
74.6602297997
 30
0.0
 10
40.1786732127
 20
74.6611173661
 30
0.0
  0
SPLINE
  5
27B
100
AcDbEntity
  8
0
100
AcDbSpline
 62
7
  6
BYLAYER
 70
0
 71
3
 72
13
 73
9
 74
0
 42
0.0000001
 43
0.0000001
 44
0.0000000001
 40
0.0
 40
0.0
 40
0.0
 40
0.0
 40
0.0570038227
 40
0.1332714802
 40
0.2296047505
 40
0.345912389
 40
0.6365891606
 40
1.0
 40
1.0
 40
1.0
 40
1.0
 10
40.1786732127
 20
74.6611173661
 30
0.0
 10
40.1476122235
 20
74.6630362469
 30
0.0
 10
40.0749236662
 20
74.666344487
 30
0.0
 10
39.9496450524
 20
74.6705230857
 30
0.0
 10
39.7919712497
 20
74.6745847085
 30
0.0
 10
39.51725326
 20
74.6803056026
 30
0.0
 10
39.0967166265
 20
74.6867544337
 30
0.0
 10
38.7396522262
 20
74.6908275858
 30
0.0
 10
38.5412647837
 20
74.692831986
 30
0.0
  0
SPLINE
  5
27C
100
AcDbEntity
  8
0
100
AcDbSpline
 62
7
  6
BYLAYER
 70
0
 71
3
 72
12
 73
8
 74
0
 42
0.0000001
 43
0.0000001
 44
0.0000000001
 40
0.0
 40
0.0
 40
0.0
 40
0.0
 40
0.3563557341
 40
0.644582896
 40
0.8597637591
 40
0.93911775
 40
1.0
 40
1.0
 40
1.0
 40
1.0
 10
28.0148345066
 20
74.6928224691
 30
0.0
 10
27.8234192375
 20
74.6908877112
 30
0.0
 10
27.4771869696
 20
74.6869701946
 30
0.0
 10
27.0153981789
 20
74.6799264777
 30
0.0
 10
26.7024158069
 20
74.6733647925
 30
0.0
 10
26.5115867009
 20
74.6674282151
 30
0.0
 10
26.436316037
 20
74.6643088052
 30
0.0
 10
26.4036581286
 20
74.6625662711
 30
0.0
  0
SPLINE
  5
27D
100
AcDbEntity
  8
0
100
AcDbSpline
 62
7
  6
BYLAYER
 70
0
 71
3
 72
9
 73
5
 74
0
 42
0.0000001
 43
0.0000001
 44
0.0000000001
 40
0.0
 40
0.0
 40
0.0
 40
0.0
 40
0.5259863176
 40
1.0
 40
1.0
 40
1.0
 40
1.0
 10
26.4036581286
 20
74.6625662711
 30
0.0
 10
26.3849038837
 20
74.6615655974
 30
0.0
 10
26.3492667091
 20
74.6594241303
 30
0.0
 10
26.3136859048
 20
74.656049357
 30
0.0
 10
26.2969412438
 20
74.6535839738
 30
0.0
  0
SPLINE
  5
27E
100
AcDbEntity
  8
0
100
AcDbSpline
 62
7
  6
BYLAYER
 70
0
 71
3
 72
10
 73
6
 74
0
 42
0.0000001
 43
0.0000001
 44
0.0000000001
 40
0.0
 40
0.0
 40
0.0
 40
0.0
 40
0.2542405078
 40
0.5548194403
 40
1.0
 40
1.0
 40
1.0
 40
1.0
 10
26.2969412438
 20
74.6535839738
 30
0.0
 10
26.2787925839
 20
74.6509118744
 30
0.0
 10
26.2394478292
 20
74.6425481543
 30
0.0
 10
26.1725890333
 20
74.6142106776
 30
0.0
 10
26.129414754
 20
74.5801837628
 30
0.0
 10
26.1076978689
 20
74.5565161849
 30
0.0
  0
SPLINE
  5
27F
100
AcDbEntity
  8
0
100
AcDbSpline
 62
7
  6
BYLAYER
 70
0
 71
3
 72
12
 73
8
 74
0
 42
0.0000001
 43
0.0000001
 44
0.0000000001
 40
0.0
 40
0.0
 40
0.0
 40
0.0
 40
0.039021368
 40
0.1011558623
 40
0.299551592
 40
0.5989562115
 40
1.0
 40
1.0
 40
1.0
 40
1.0
 10
41.3282626262
 20
72.6527057972
 30
0.0
 10
41.3279629907
 20
72.6523792474
 30
0.0
 10
41.3269200988
 20
72.6518167477
 30
0.0
 10
41.3237165982
 20
72.6507218448
 30
0.0
 10
41.3174340248
 20
72.6495141574
 30
0.0
 10
41.3073382422
 20
72.6481063618
 30
0.0
 10
41.2994182304
 20
72.6472875552
 30
0.0
 10
41.2948838405
 20
72.6468558821
 30
0.0
  0
SPLINE
  5
280
100
AcDbEntity
  8
0
100
AcDbSpline
 62
7
  6
BYLAYER
 70
0
 71
3
 72
35
 73
31
 74
0
 42
0.0000001
 43
0.0000001
 44
0.0000000001
 40
0.0
 40
0.0
 40
0.0
 40
0.0
 40
0.002661374
 40
0.0063846619
 40
0.0111631467
 40
0.0169855915
 40
0.0317141048
 40
0.050445214
 40
0.0730203148
 40
0.099245007
 40
0.1288978015
 40
0.1617230444
 40
0.2357455739
 40
0.3187861602
 40
0.408010303
 40
0.5003726777
 40
0.5927208071
 40
0.6819026779
 40
0.7648746128
 40
0.8388049503
 40
0.8715764947
 40
0.9011708029
 40
0.9273331901
 40
0.9498424074
 40
0.9685045058
 40
0.9831618987
 40
0.9889479073
 40
0.9936896133
 40
0.9973759716
 40
1.0
 40
1.0
 40
1.0
 40
1.0
 10
41.2948838405
 20
72.6468558821
 30
0.0
 10
41.2807226638
 20
72.6455077406
 30
0.0
 10
41.2466724084
 20
72.6431244119
 30
0.0
 10
41.1870856964
 20
72.6400260919
 30
0.0
 10
41.1105826035
 20
72.6369288593
 30
0.0
 10
40.97526911
 20
72.6324457391
 30
0.0
 10
40.765366535
 20
72.62720415
 30
0.0
 10
40.4659131344
 20
72.621412578
 30
0.0
 10
40.1049983487
 20
72.6158544227
 30
0.0
 10
39.6856974436
 20
72.6105769668
 30
0.0
 10
39.2116013818
 20
72.6056435783
 30
0.0
 10
38.4820246946
 20
72.5993319091
 30
0.0
 10
37.4670796504
 20
72.5928254817
 30
0.0
 10
36.1506706762
 20
72.5872234739
 30
0.0
 10
34.736226414
 20
72.5837822292
 30
0.0
 10
33.2720291479
 20
72.5826266781
 30
0.0
 10
31.8080578442
 20
72.5838026735
 30
0.0
 10
30.3942826648
 20
72.5872635989
 30
0.0
 10
29.0789594402
 20
72.5928836937
 30
0.0
 10
28.0651612461
 20
72.5994044076
 30
0.0
 10
27.3366770979
 20
72.6057268042
 30
0.0
 10
26.8635138104
 20
72.6106666561
 30
0.0
 10
26.4452108416
 20
72.6159495764
 30
0.0
 10
26.0853502752
 20
72.6215119748
 30
0.0
 10
25.7869983211
 20
72.6273070016
 30
0.0
 10
25.5780397933
 20
72.6325507736
 30
0.0
 10
25.4434983455
 20
72.6370374336
 30
0.0
 10
25.3675843649
 20
72.6401343702
 30
0.0
 10
25.3085921227
 20
72.6432318005
 30
0.0
 10
25.2749395457
 20
72.6456158608
 30
0.0
 10
25.2609793958
 20
72.6469691386
 30
0.0
  0
SPLINE
  5
281
100
AcDbEntity
  8
0
100
AcDbSpline
 62
7
  6
BYLAYER
 70
0
 71
3
 72
12
 73
8
 74
0
 42
0.0000001
 43
0.0000001
 44
0.0000000001
 40
0.0
 40
0.0
 40
0.0
 40
0.0
 40
0.4263169232
 40
0.7328696546
 40
0.9207693287
 40
0.9720021462
 40
1.0
 40
1.0
 40
1.0
 40
1.0
 10
25.2609793958
 20
72.6469691386
 30
0.0
 10
25.2562426989
 20
72.6474283075
 30
0.0
 10
25.2480918991
 20
72.6483044694
 30
0.0
 10
25.2379614924
 20
72.6497549916
 30
0.0
 10
25.2319263222
 20
72.6511160721
 30
0.0
 10
25.2292221588
 20
72.6522082665
 30
0.0
 10
25.2285208695
 20
72.6529557451
 30
0.0
 10
25.2285208695
 20
72.6532682802
 30
0.0
  0
LINE
  5
282
100
AcDbEntity
  8
0
100
AcDbLine
 62
7
  6
BYLAYER
 10
41.3285206835
 20
72.6532682802
 11
41.3282626262
 21
72.6527057972
  0
SPLINE
  5
283
100
AcDbEntity
  8
0
100
AcDbSpline
 62
7
  6
BYLAYER
 70
0
 71
3
 72
12
 73
8
 74
0
 42
0.0000001
 43
0.0000001
 44
0.0000000001
 40
0.0
 40
0.0
 40
0.0
 40
0.0
 40
0.0382892459
 40
0.099932241
 40
0.2979862422
 40
0.5978140128
 40
1.0
 40
1.0
 40
1.0
 40
1.0
 10
25.2287789268
 20
72.6538307632
 30
0.0
 10
25.2290925647
 20
72.6541725732
 30
0.0
 10
25.2301991988
 20
72.6547548158
 30
0.0
 10
25.233605074
 20
72.6558908119
 30
0.0
 10
25.2403106399
 20
72.6571393614
 30
0.0
 10
25.2511000551
 20
72.6585984726
 30
0.0
 10
25.2595706537
 20
72.6594457465
 30
0.0
 10
25.2644228533
 20
72.6598927881
 30
0.0
  0
SPLINE
  5
284
100
AcDbEntity
  8
0
100
AcDbSpline
 62
7
  6
BYLAYER
 70
0
 71
3
 72
12
 73
8
 74
0
 42
0.0000001
 43
0.0000001
 44
0.0000000001
 40
0.0
 40
0.0
 40
0.0
 40
0.0
 40
0.4260310793
 40
0.7324301141
 40
0.9203512852
 40
0.9717112964
 40
1.0
 40
1.0
 40
1.0
 40
1.0
 10
41.2970742206
 20
72.6594685329
 30
0.0
 10
41.3016634897
 20
72.6590165172
 30
0.0
 10
41.3095603665
 20
72.658154528
 30
0.0
 10
41.3193776949
 20
72.6567248747
 30
0.0
 10
41.3252226524
 20
72.6553876249
 30
0.0
 10
41.327846549
 20
72.6543084905
 30
0.0
 10
41.3285206835
 20
72.6535744848
 30
0.0
 10
41.3285206835
 20
72.6532682802
 30
0.0
  0
LINE
  5
285
100
AcDbEntity
  8
0
100
AcDbLine
 62
7
  6
BYLAYER
 10
25.2285208695
 20
72.6532682802
 11
25.2287789268
 21
72.6538307632
  0
SPLINE
  5
286
100
AcDbEntity
  8
0
100
AcDbSpline
 62
7
  6
BYLAYER
 70
0
 71
3
 72
37
 73
33
 74
0
 42
0.0000001
 43
0.0000001
 44
0.0000000001
 40
0.0
 40
0.0
 40
0.0
 40
0.0
 40
0.0001309467
 40
0.0003810917
 40
0.0007726402
 40
0.0013104514
 40
0.0028304371
 40
0.0049462302
 40
0.0076586746
 40
0.0109675836
 40
0.0148717969
 40
0.019368642
 40
0.0244551596
 40
0.0301283321
 40
0.0432223727
 40
0.0586216746
 40
0.0762866431
 40
0.0961760679
 40
0.1182435565
 40
0.1424334864
 40
0.1686891292
 40
0.1969480925
 40
0.2271401209
 40
0.2930332703
 40
0.3657332423
 40
0.4445413054
 40
0.5286980176
 40
0.6173943927
 40
0.7097743273
 40
0.8049439079
 40
0.9020159383
 40
1.0
 40
1.0
 40
1.0
 40
1.0
 10
22.5785267313
 20
72.6532682802
 30
0.0
 10
22.5785267468
 20
72.6528011404
 30
0.0
 10
22.5796888805
 20
72.651701961
 30
0.0
 10
22.5821859932
 20
72.6507901336
 30
0.0
 10
22.5862905795
 20
72.6496372159
 30
0.0
 10
22.5948505743
 20
72.6480043322
 30
0.0
 10
22.6096373369
 20
72.646039609
 30
0.0
 10
22.6321686032
 20
72.6438422869
 30
0.0
 10
22.6611171065
 20
72.6416158187
 30
0.0
 10
22.6964542886
 20
72.6393816656
 30
0.0
 10
22.7381695915
 20
72.6371456331
 30
0.0
 10
22.7862335551
 20
72.6349129744
 30
0.0
 10
22.8406145249
 20
72.632686617
 30
0.0
 10
22.9256539311
 20
72.6295800491
 30
0.0
 10
23.0474821009
 20
72.6258035548
 30
0.0
 10
23.2120918461
 20
72.6215063865
 30
0.0
 10
23.4009520766
 20
72.6172727969
 30
0.0
 10
23.6136071304
 20
72.6131162185
 30
0.0
 10
23.8495449093
 20
72.6090503135
 30
0.0
 10
24.1081981672
 20
72.6050851432
 30
0.0
 10
24.3889428581
 20
72.6012323884
 30
0.0
 10
24.6911028601
 20
72.5975020303
 30
0.0
 10
25.1346614153
 20
72.5925583007
 30
0.0
 10
25.7367596512
 20
72.5868239041
 30
0.0
 10
26.5122943433
 20
72.580742062
 30
0.0
 10
27.3529890461
 20
72.575341345
 30
0.0
 10
28.2507545842
 20
72.5706760382
 30
0.0
 10
29.1969406277
 20
72.5667936287
 30
0.0
 10
30.1824172343
 20
72.5637330609
 30
0.0
 10
31.1977755437
 20
72.5615247153
 30
0.0
 10
32.2331275766
 20
72.5601915646
 30
0.0
 10
32.9289718603
 20
72.5598943504
 30
0.0
 10
33.2785207765
 20
72.5598943504
 30
0.0
  0
LINE
  5
287
100
AcDbEntity
  8
0
100
AcDbLine
 62
7
  6
BYLAYER
 10
26.3285211531
 20
74.6531921264
 11
26.3287439479
 21
74.6536777483
  0
SPLINE
  5
288
100
AcDbEntity
  8
0
100
AcDbSpline
 62
7
  6
BYLAYER
 70
0
 71
3
 72
63
 73
59
 74
0
 42
0.0000001
 43
0.0000001
 44
0.0000000001
 40
0.0
 40
0.0
 40
0.0
 40
0.0
 40
0.0000652211
 40
0.0001897334
 40
0.0006518849
 40
0.0014081791
 40
0.0024608192
 40
0.0038101766
 40
0.0054561101
 40
0.0073982384
 40
0.0096354765
 40
0.0121662193
 40
0.0149888199
 40
0.0215029167
 40
0.0291640241
 40
0.0379535811
 40
0.0478493498
 40
0.058828882
 40
0.0708663133
 40
0.0839313528
 40
0.0979933964
 40
0.1130197294
 40
0.1458149636
 40
0.1820045785
 40
0.2212402254
 40
0.2631468681
 40
0.3073232307
 40
0.3533452645
 40
0.4007729382
 40
0.4980169886
 40
0.5953375602
 40
0.6428601916
 40
0.6890138972
 40
0.7333573675
 40
0.7754649686
 40
0.81493349
 40
0.8513856592
 40
0.8844706233
 40
0.9138731045
 40
0.9271034129
 40
0.9393110601
 40
0.9504653535
 40
0.9605400039
 40
0.96951212
 40
0.977359018
 40
0.9840616891
 40
0.9869794788
 40
0.9896059346
 40
0.9919393485
 40
0.99397805
 40
0.9957208735
 40
0.9971673312
 40
0.9983171282
 40
0.9991703359
 40
0.9994860574
 40
0.9997283614
 40
0.9998984006
 40
1.0
 40
1.0
 40
1.0
 40
1.0
 10
26.0285207765
 20
74.3532035494
 30
0.0
 10
26.0285207765
 20
74.3528882604
 30
0.0
 10
26.0293032341
 20
74.3521465348
 30
0.0
 10
26.0321700082
 20
74.3510957348
 30
0.0
 10
26.0386455784
 20
74.3497461982
 30
0.0
 10
26.0494724097
 20
74.3483316809
 30
0.0
 10
26.0646952471
 20
74.3468296128
 30
0.0
 10
26.0841963483
 20
74.3453306905
 30
0.0
 10
26.1080208911
 20
74.343817676
 30
0.0
 10
26.1361397523
 20
74.3423067021
 30
0.0
 10
26.1685429639
 20
74.3407972924
 30
0.0
 10
26.2052061626
 20
74.3392925503
 30
0.0
 10
26.2625369829
 20
74.3371929191
 30
0.0
 10
26.3446679026
 20
74.3346402044
 30
0.0
 10
26.4556454059
 20
74.3317351746
 30
0.0
 10
26.5829762463
 20
74.3288733274
 30
0.0
 10
26.7263533937
 20
74.3260625005
 30
0.0
 10
26.8854350216
 20
74.3233125613
 30
0.0
 10
27.059840524
 20
74.3206311562
 30
0.0
 10
27.2491500188
 20
74.3180248044
 30
0.0
 10
27.452910624
 20
74.3155005644
 30
0.0
 10
27.7520469996
 20
74.3121554545
 30
0.0
 10
28.1581518602
 20
74.3082723744
 30
0.0
 10
28.6812905738
 20
74.3041527727
 30
0.0
 10
29.2484796328
 20
74.3004907801
 30
0.0
 10
29.8542813838
 20
74.2973237288
 30
0.0
 10
30.4928923908
 20
74.2946840436
 30
0.0
 10
31.1581950953
 20
74.2925971049
 30
0.0
 10
32.0800363102
 20
74.2905644891
 30
0.0
 10
33.2498649492
 20
74.2895417997
 30
0.0
 10
34.4201526936
 20
74.2904839369
 30
0.0
 10
35.3434595293
 20
74.2924516429
 30
0.0
 10
36.0106657724
 20
74.2944923326
 30
0.0
 10
36.6516927901
 20
74.2970877011
 30
0.0
 10
37.2603998391
 20
74.30021273
 30
0.0
 10
37.8309556504
 20
74.3038357614
 30
0.0
 10
38.3578903652
 20
74.3079188758
 30
0.0
 10
38.8361589232
 20
74.3124217876
 30
0.0
 10
39.202166724
 20
74.316614238
 30
0.0
 10
39.4672497865
 20
74.3201994905
 30
0.0
 10
39.6441223593
 20
74.3228691758
 30
0.0
 10
39.8057369507
 20
74.3256084449
 30
0.0
 10
39.9517068427
 20
74.3284099282
 30
0.0
 10
40.081683902
 20
74.3312639276
 30
0.0
 10
40.1953546936
 20
74.3341627007
 30
0.0
 10
40.2797567623
 20
74.3367088572
 30
0.0
 10
40.3389233882
 20
74.3388016762
 30
0.0
 10
40.3769757021
 20
74.340304597
 30
0.0
 10
40.4107743923
 20
74.3418126153
 30
0.0
 10
40.440296747
 20
74.3433236448
 30
0.0
 10
40.4655242975
 20
74.3448361194
 30
0.0
 10
40.4864479628
 20
74.3463416545
 30
0.0
 10
40.5030536442
 20
74.347841405
 30
0.0
 10
40.5141945988
 20
74.3491565432
 30
0.0
 10
40.5209186152
 20
74.3502775782
 30
0.0
 10
40.5243739543
 20
74.3510198891
 30
0.0
 10
40.5267263673
 20
74.351746314
 30
0.0
 10
40.5279563048
 20
74.3523350786
 30
0.0
 10
40.5282883647
 20
74.3526969654
 30
0.0
  0
LINE
  5
289
100
AcDbEntity
  8
0
100
AcDbLine
 62
7
  6
BYLAYER
 10
40.2285204
 20
74.6531921264
 11
40.2282976052
 21
74.6527065044
  0
LINE
  5
28A
100
AcDbEntity
  8
0
100
AcDbLine
 62
7
  6
BYLAYER
 10
40.5282883647
 20
74.3526969654
 11
40.5285207765
 21
74.3532035494
  0
SPLINE
  5
28B
100
AcDbEntity
  8
0
100
AcDbSpline
 62
7
  6
BYLAYER
 70
0
 71
3
 72
25
 73
21
 74
0
 42
0.0000001
 43
0.0000001
 44
0.0000000001
 40
0.0
 40
0.0
 40
0.0
 40
0.0
 40
0.0013631114
 40
0.004521716
 40
0.0096382739
 40
0.0167396072
 40
0.0258330038
 40
0.0369201936
 40
0.050000735
 40
0.0650731653
 40
0.1011791578
 40
0.1451818043
 40
0.1970120613
 40
0.2565998302
 40
0.3238702271
 40
0.3987185864
 40
0.4810275154
 40
0.5706794439
 40
0.7715055341
 40
1.0
 40
1.0
 40
1.0
 40
1.0
 10
40.2285204
 20
74.6531921264
 30
0.0
 10
40.2285204
 20
74.6537662915
 30
0.0
 10
40.2263278322
 20
74.654836999
 30
0.0
 10
40.2227800363
 20
74.655703146
 30
0.0
 10
40.2161816024
 20
74.6568758773
 30
0.0
 10
40.2073647174
 20
74.6579554958
 30
0.0
 10
40.195892502
 20
74.6590999811
 30
0.0
 10
40.1819408268
 20
74.6602309929
 30
0.0
 10
40.1654468343
 20
74.6613715542
 30
0.0
 10
40.1384298397
 20
74.6629881404
 30
0.0
 10
40.0983837252
 20
74.6649475283
 30
0.0
 10
40.0428538584
 20
74.6671804186
 30
0.0
 10
39.9774252698
 20
74.669401765
 30
0.0
 10
39.9021908991
 20
74.6716066451
 30
0.0
 10
39.8172566117
 20
74.6737886667
 30
0.0
 10
39.722748413
 20
74.6759440346
 30
0.0
 10
39.6188098995
 20
74.6780689169
 30
0.0
 10
39.4618124951
 20
74.6809668427
 30
0.0
 10
39.2432397904
 20
74.6844336927
 30
0.0
 10
39.0624188365
 20
74.6868509891
 30
0.0
 10
38.9661805966
 20
74.688046946
 30
0.0
  0
LINE
  5
28C
100
AcDbEntity
  8
0
100
AcDbLine
 62
7
  6
BYLAYER
 10
27.9829889497
 20
74.69247088
 11
27.6769048408
 21
74.6890924228
  0
SPLINE
  5
28D
100
AcDbEntity
  8
0
100
AcDbSpline
 62
7
  6
BYLAYER
 70
0
 71
3
 72
26
 73
22
 74
0
 42
0.0000001
 43
0.0000001
 44
0.0000000001
 40
0.0
 40
0.0
 40
0.0
 40
0.0
 40
0.2254650644
 40
0.4242074321
 40
0.5131604468
 40
0.59499039
 40
0.669577101
 40
0.7368005335
 40
0.7965495576
 40
0.8487440364
 40
0.8933110371
 40
0.9301784832
 40
0.9457040216
 40
0.9592847667
 40
0.970918525
 40
0.9806038325
 40
0.9883406925
 40
0.994132556
 40
0.997993279
 40
0.9992164592
 40
1.0
 40
1.0
 40
1.0
 40
1.0
 10
27.6769048408
 20
74.6890924228
 30
0.0
 10
27.5755105259
 20
74.6878876396
 30
0.0
 10
27.3847414021
 20
74.6854474675
 30
0.0
 10
27.1539770197
 20
74.6819443265
 30
0.0
 10
26.9878111705
 20
74.6790112146
 30
0.0
 10
26.8774787031
 20
74.6768558373
 30
0.0
 10
26.776921723
 20
74.6746670355
 30
0.0
 10
26.6862987788
 20
74.6724488708
 30
0.0
 10
26.6057506566
 20
74.6702051695
 30
0.0
 10
26.535397131
 20
74.667942311
 30
0.0
 10
26.4753411708
 20
74.6656651457
 30
0.0
 10
26.431778952
 20
74.6636685629
 30
0.0
 10
26.4021530065
 20
74.6620230428
 30
0.0
 10
26.383867407
 20
74.6608595985
 30
0.0
 10
26.3682133122
 20
74.6596985611
 30
0.0
 10
26.3551985519
 20
74.6585392049
 30
0.0
 10
26.3448142592
 20
74.6573970357
 30
0.0
 10
26.3370870176
 20
74.6562584615
 30
0.0
 10
26.332266689
 20
74.6552772544
 30
0.0
 10
26.3297912902
 20
74.6543930445
 30
0.0
 10
26.328982197
 20
74.6539373978
 30
0.0
 10
26.3287439479
 20
74.6536777483
 30
0.0
  0
SPLINE
  5
28E
100
AcDbEntity
  8
0
100
AcDbSpline
 62
7
  6
BYLAYER
 70
0
 71
3
 72
26
 73
22
 74
0
 42
0.0000001
 43
0.0000001
 44
0.0000000001
 40
0.0
 40
0.0
 40
0.0
 40
0.0
 40
0.000476946
 40
0.0013406758
 40
0.0044985495
 40
0.0096463596
 40
0.0168037773
 40
0.0259752401
 40
0.0371608943
 40
0.0503592156
 40
0.0655670861
 40
0.101977329
 40
0.1463139368
 40
0.1984956909
 40
0.2584344391
 40
0.3260064995
 40
0.4010754732
 40
0.4835045289
 40
0.5731390761
 40
0.7732894279
 40
1.0
 40
1.0
 40
1.0
 40
1.0
 10
26.3285211531
 20
74.6531921264
 30
0.0
 10
26.3285211531
 20
74.6529294792
 30
0.0
 10
26.329095827
 20
74.6522994505
 30
0.0
 10
26.3313393964
 20
74.6513713131
 30
0.0
 10
26.3363340975
 20
74.6502233137
 30
0.0
 10
26.3447261216
 20
74.648994402
 30
0.0
 10
26.3565001223
 20
74.6477040629
 30
0.0
 10
26.3715912617
 20
74.6464101713
 30
0.0
 10
26.3900263313
 20
74.645105635
 30
0.0
 10
26.4117894445
 20
74.643800663
 30
0.0
 10
26.4474354391
 20
74.64194887
 30
0.0
 10
26.5002296417
 20
74.6397094351
 30
0.0
 10
26.5733875819
 20
74.6371619992
 30
0.0
 10
26.6595094995
 20
74.6346354954
 30
0.0
 10
26.7584322147
 20
74.632136847
 30
0.0
 10
26.8699628834
 20
74.6296734208
 30
0.0
 10
26.9938821253
 20
74.6272512304
 30
0.0
 10
27.1299537796
 20
74.6248763424
 30
0.0
 10
27.3349014238
 20
74.6216610309
 30
0.0
 10
27.6193028123
 20
74.6178544105
 30
0.0
 10
27.8543544572
 20
74.6152362695
 30
0.0
 10
27.9791940502
 20
74.6139523744
 30
0.0
  0
LINE
  5
28F
100
AcDbEntity
  8
0
100
AcDbLine
 62
7
  6
BYLAYER
 10
27.9791940502
 20
74.6139523744
 11
28.2064426201
 21
74.611728307
  0
SPLINE
  5
290
100
AcDbEntity
  8
0
100
AcDbSpline
 62
7
  6
BYLAYER
 70
0
 71
3
 72
12
 73
8
 74
0
 42
0.0000001
 43
0.0000001
 44
0.0000000001
 40
0.0
 40
0.0
 40
0.0
 40
0.0
 40
0.2510079334
 40
0.5226505651
 40
0.7826207029
 40
0.8984086215
 40
1.0
 40
1.0
 40
1.0
 40
1.0
 10
29.5370427534
 20
74.6020814156
 30
0.0
 10
30.2744547182
 20
74.59797079
 30
0.0
 10
31.8099183499
 20
74.5927645061
 30
0.0
 10
34.1091420304
 20
74.5918447313
 30
0.0
 10
36.0111056737
 20
74.5966027682
 30
0.0
 10
37.4134670755
 20
74.6040783252
 30
0.0
 10
38.052077057
 20
74.6089473927
 30
0.0
 10
38.3505242435
 20
74.6117276318
 30
0.0
  0
LINE
  5
291
100
AcDbEntity
  8
0
100
AcDbLine
 62
7
  6
BYLAYER
 10
38.3505242435
 20
74.6117276318
 11
38.574013837
 21
74.6139129747
  0
SPLINE
  5
292
100
AcDbEntity
  8
0
100
AcDbSpline
 62
7
  6
BYLAYER
 70
0
 71
3
 72
26
 73
22
 74
0
 42
0.0000001
 43
0.0000001
 44
0.0000000001
 40
0.0
 40
0.0
 40
0.0
 40
0.0
 40
0.2243288746
 40
0.4227217337
 40
0.5117244144
 40
0.5936923342
 40
0.6684773725
 40
0.735944233
 40
0.7959579042
 40
0.848399072
 40
0.8931811785
 40
0.9302224376
 40
0.9458151498
 40
0.959444793
 40
0.97110804
 40
0.9808026807
 40
0.9885277445
 40
0.9942852027
 40
0.9980860754
 40
0.9992676525
 40
1.0
 40
1.0
 40
1.0
 40
1.0
 10
38.574013837
 20
74.6139129747
 30
0.0
 10
38.6977897647
 20
74.6151837142
 30
0.0
 10
38.9310291872
 20
74.6177753597
 30
0.0
 10
39.2133689341
 20
74.6215375241
 30
0.0
 10
39.4171553662
 20
74.6247135228
 30
0.0
 10
39.5527406552
 20
74.6270608356
 30
0.0
 10
39.6764398664
 20
74.6294548645
 30
0.0
 10
39.7880215788
 20
74.6318898796
 30
0.0
 10
39.8872700368
 20
74.6343602066
 30
0.0
 10
39.9739961482
 20
74.6368589243
 30
0.0
 10
40.0480394847
 20
74.6393791999
 30
0.0
 10
40.1017479052
 20
74.6415930848
 30
0.0
 10
40.1382662296
 20
74.6434200823
 30
0.0
 10
40.1607893438
 20
74.6447127679
 30
0.0
 10
40.1800533628
 20
74.646003258
 30
0.0
 10
40.1960469245
 20
74.647292961
 30
0.0
 10
40.2087814732
 20
74.6485618599
 30
0.0
 10
40.2182186191
 20
74.6498298874
 30
0.0
 10
40.2240819506
 20
74.6509148858
 30
0.0
 10
40.2270578207
 20
74.651902715
 30
0.0
 10
40.2280243957
 20
74.6524087543
 30
0.0
 10
40.2282976052
 20
74.6527065044
 30
0.0
  0
SPLINE
  5
293
100
AcDbEntity
  8
0
100
AcDbSpline
 62
7
  6
BYLAYER
 70
0
 71
3
 72
37
 73
33
 74
0
 42
0.0000001
 43
0.0000001
 44
0.0000000001
 40
0.0
 40
0.0
 40
0.0
 40
0.0
 40
0.0979839007
 40
0.195055401
 40
0.2902246134
 40
0.3826043356
 40
0.47130053
 40
0.555457274
 40
0.6342655993
 40
0.7069658551
 40
0.7728592713
 40
0.8030514186
 40
0.8313104758
 40
0.8575661623
 40
0.8817561629
 40
0.9038237033
 40
0.9237131511
 40
0.9413781802
 40
0.9567775239
 40
0.9698715819
 40
0.9755447767
 40
0.9806313174
 40
0.9851281794
 40
0.9890323968
 40
0.9923413019
 40
0.9950537516
 40
0.9971695546
 40
0.9986895496
 40
0.9992273637
 40
0.9996189129
 40
0.9998690563
 40
1.0
 40
1.0
 40
1.0
 40
1.0
 10
33.2785207765
 20
72.5598943504
 30
0.0
 10
33.6280691189
 20
72.5598943504
 30
0.0
 10
34.3239109388
 20
72.5601915592
 30
0.0
 10
35.3592591949
 20
72.5615247044
 30
0.0
 10
36.3746135446
 20
72.5637330367
 30
0.0
 10
37.3600874379
 20
72.5667935724
 30
0.0
 10
38.3062721949
 20
72.5706759682
 30
0.0
 10
39.2040381395
 20
72.5753412646
 30
0.0
 10
40.0447349055
 20
72.5807419642
 30
0.0
 10
40.8202724992
 20
72.586823821
 30
0.0
 10
41.4223731249
 20
72.5925582296
 30
0.0
 10
41.8659333921
 20
72.5975019665
 30
0.0
 10
42.16809431
 20
72.6012323242
 30
0.0
 10
42.4488397442
 20
72.6050850935
 30
0.0
 10
42.7074935956
 20
72.6090502608
 30
0.0
 10
42.9434318942
 20
72.6131161649
 30
0.0
 10
43.1560874316
 20
72.6172727587
 30
0.0
 10
43.3449481101
 20
72.6215063442
 30
0.0
 10
43.509558283
 20
72.6258035136
 30
0.0
 10
43.6313867432
 20
72.6295800252
 30
0.0
 10
43.7164263738
 20
72.632686593
 30
0.0
 10
43.7708075664
 20
72.6349129525
 30
0.0
 10
43.8188716875
 20
72.6371456122
 30
0.0
 10
43.8605870516
 20
72.6393816478
 30
0.0
 10
43.8959242527
 20
72.6416158114
 30
0.0
 10
43.9248727962
 20
72.6438422826
 30
0.0
 10
43.9474041504
 20
72.6460396037
 30
0.0
 10
43.9621909919
 20
72.6480043321
 30
0.0
 10
43.9707510343
 20
72.6496372082
 30
0.0
 10
43.9748556271
 20
72.6507901377
 30
0.0
 10
43.9773527297
 20
72.6517019374
 30
0.0
 10
43.9785148373
 20
72.652801151
 30
0.0
 10
43.9785148218
 20
72.6532682802
 30
0.0
  0
LINE
  5
294
100
AcDbEntity
  8
0
100
AcDbLine
 62
7
  6
BYLAYER
 10
40.5285207765
 20
73.4532378187
 11
40.5282883647
 21
73.4527312346
  0
SPLINE
  5
295
100
AcDbEntity
  8
0
100
AcDbSpline
 62
7
  6
BYLAYER
 70
0
 71
3
 72
63
 73
59
 74
0
 42
0.0000001
 43
0.0000001
 44
0.0000000001
 40
0.0
 40
0.0
 40
0.0
 40
0.0
 40
0.0001015994
 40
0.0002716386
 40
0.0005139426
 40
0.0008296641
 40
0.0016828718
 40
0.0028326688
 40
0.0042791265
 40
0.00602195
 40
0.0080606515
 40
0.0103940654
 40
0.0130205212
 40
0.0159383109
 40
0.022640982
 40
0.03048788
 40
0.0394599961
 40
0.0495346465
 40
0.0606889399
 40
0.0728965871
 40
0.0861268955
 40
0.1155293767
 40
0.1486143408
 40
0.18506651
 40
0.2245350314
 40
0.2666426325
 40
0.3109861028
 40
0.3571398084
 40
0.4046624398
 40
0.5019830114
 40
0.5992270618
 40
0.6466547355
 40
0.6926767693
 40
0.7368531319
 40
0.7787597746
 40
0.8179954215
 40
0.8541850364
 40
0.8869802706
 40
0.9020066036
 40
0.9160686472
 40
0.9291336867
 40
0.941171118
 40
0.9521506502
 40
0.9620464189
 40
0.9708359759
 40
0.9784970833
 40
0.9850111801
 40
0.9878337807
 40
0.9903645235
 40
0.9926017616
 40
0.9945438899
 40
0.9961898234
 40
0.9975391808
 40
0.9985918209
 40
0.9993481151
 40
0.9998102666
 40
0.9999347789
 40
1.0
 40
1.0
 40
1.0
 40
1.0
 10
40.5282883647
 20
73.4527312346
 30
0.0
 10
40.5279563048
 20
73.4523693479
 30
0.0
 10
40.5267263673
 20
73.4517805832
 30
0.0
 10
40.5243739543
 20
73.4510541584
 30
0.0
 10
40.5209186152
 20
73.4503118475
 30
0.0
 10
40.5141945988
 20
73.4491908125
 30
0.0
 10
40.5030536442
 20
73.4478756743
 30
0.0
 10
40.4864479628
 20
73.4463759237
 30
0.0
 10
40.4655242975
 20
73.4448703886
 30
0.0
 10
40.440296747
 20
73.443357914
 30
0.0
 10
40.4107743923
 20
73.4418468845
 30
0.0
 10
40.3769757021
 20
73.4403388662
 30
0.0
 10
40.3389233882
 20
73.4388359454
 30
0.0
 10
40.2797567623
 20
73.4367431264
 30
0.0
 10
40.1953546936
 20
73.4341969699
 30
0.0
 10
40.081683902
 20
73.4312981968
 30
0.0
 10
39.9517068427
 20
73.4284441974
 30
0.0
 10
39.8057369507
 20
73.4256427141
 30
0.0
 10
39.6441223593
 20
73.422903445
 30
0.0
 10
39.4672497865
 20
73.4202337597
 30
0.0
 10
39.202166724
 20
73.4166485072
 30
0.0
 10
38.8361589232
 20
73.4124560568
 30
0.0
 10
38.3578903652
 20
73.407953145
 30
0.0
 10
37.8309556504
 20
73.4038700307
 30
0.0
 10
37.2603998391
 20
73.4002469993
 30
0.0
 10
36.6516927901
 20
73.3971219703
 30
0.0
 10
36.0106657724
 20
73.3945266018
 30
0.0
 10
35.3434595293
 20
73.3924859122
 30
0.0
 10
34.4201526936
 20
73.3905182061
 30
0.0
 10
33.2498649492
 20
73.3895760689
 30
0.0
 10
32.0800363102
 20
73.3905987584
 30
0.0
 10
31.1581950953
 20
73.3926313741
 30
0.0
 10
30.4928923908
 20
73.3947183129
 30
0.0
 10
29.8542813838
 20
73.397357998
 30
0.0
 10
29.2484796328
 20
73.4005250493
 30
0.0
 10
28.6812905738
 20
73.4041870419
 30
0.0
 10
28.1581518602
 20
73.4083066437
 30
0.0
 10
27.7520469996
 20
73.4121897237
 30
0.0
 10
27.452910624
 20
73.4155348336
 30
0.0
 10
27.2491500188
 20
73.4180590736
 30
0.0
 10
27.059840524
 20
73.4206654255
 30
0.0
 10
26.8854350216
 20
73.4233468305
 30
0.0
 10
26.7263533937
 20
73.4260967697
 30
0.0
 10
26.5829762463
 20
73.4289075967
 30
0.0
 10
26.4556454059
 20
73.4317694439
 30
0.0
 10
26.3446679026
 20
73.4346744736
 30
0.0
 10
26.2625369829
 20
73.4372271884
 30
0.0
 10
26.2052061626
 20
73.4393268196
 30
0.0
 10
26.1685429639
 20
73.4408315616
 30
0.0
 10
26.1361397523
 20
73.4423409713
 30
0.0
 10
26.1080208911
 20
73.4438519452
 30
0.0
 10
26.0841963483
 20
73.4453649598
 30
0.0
 10
26.0646952471
 20
73.446863882
 30
0.0
 10
26.0494724097
 20
73.4483659501
 30
0.0
 10
26.0386455784
 20
73.4497804674
 30
0.0
 10
26.0321700082
 20
73.451130004
 30
0.0
 10
26.0293032341
 20
73.452180804
 30
0.0
 10
26.0285207765
 20
73.4529225297
 30
0.0
 10
26.0285207765
 20
73.4532378187
 30
0.0
  0
ENDSEC
  0
SECTION
  2
OBJECTS
  0
DICTIONARY
  5
C
100
AcDbDictionary
280
0
281
1
  3
ACAD_GROUP
350
D
  3
ACAD_MLINESTYLE
350
17
  3
ACAD_LAYOUT
350
1A
  3
ACAD_PLOTSETTINGS
350
19
  3
ACAD_PLOTSTYLENAME
350
E
  0
DICTIONARY
  5
D
102
{ACAD_REACTORS
330
C
102
}
100
AcDbDictionary
280
0
281
1
  0
ACDBDICTIONARYWDFLT
  5
E
102
{ACAD_REACTORS
330
C
102
}
100
AcDbDictionary
281
1
  3
Normal
350
F
100
AcDbDictionaryWithDefault
340
F
  0
DICTIONARY
  5
17
102
{ACAD_REACTORS
330
C
102
}
100
AcDbDictionary
280
0
281
1
  3
Standard
350
18
  0
DICTIONARY
  5
19
102
{ACAD_REACTORS
330
C
102
}
100
AcDbDictionary
281
1
  0
DICTIONARY
  5
1A
102
{ACAD_REACTORS
330
C
102
}
100
AcDbDictionary
281
1
  3
Model
350
296
  3
Layout1
350
297
  0
ACDBPLACEHOLDER
  5
F
102
{ACAD_REACTORS
330
E
102
}
  0
MLINESTYLE
  5
18
102
{ACAD_REACTORS
330
17
102
}
100
AcDbMlineStyle
  2
STANDARD
 70
0
  3

 62
256
 51
90.0
 52
90.0
 71
2
 49
0.5
 62
256
  6
BYLAYER
 49
-0.5
 62
256
  6
BYLAYER
  0
LAYOUT
  5
296
102
{ACAD_REACTORS
330
1A
102
}
100
AcDbPlotSettings
  1

  2
none_device
  4

  6

 40
0.0
 41
0.0
 42
0.0
 43
0.0
 44
210.0
 45
297.0
 46
0.0
 47
0.0
 48
0.0
 49
0.0
140
0.0
141
0.0
142
1.0
143
1.0
 70
1024
 72
1
 73
0
 74
0
  7

 75
0
147
1.0
148
0.0
149
0.0
100
AcDbLayout
  1
Model
 70
0
 71
0
 10
0.0
 20
0.0
 11
210.0
 21
297.0
 12
0.0
 22
0.0
 32
0.0
 14
0.0
 24
0.0
 34
0.0
 15
0.0
 25
0.0
 35
0.0
146
0.0
 13
0.0
 23
0.0
 33
0.0
 16
1.0
 26
0.0
 36
0.0
 17
0.0
 27
1.0
 37
0.0
 76
0
330
210
345
0
346
0
  0
LAYOUT
  5
297
102
{ACAD_REACTORS
330
1A
102
}
100
AcDbPlotSettings
  1

  2
none_device
  4

  6

 40
0.0
 41
0.0
 42
0.0
 43
0.0
 44
210.0
 45
297.0
 46
0.0
 47
0.0
 48
0.0
 49
0.0
140
0.0
141
0.0
142
1.0
143
1.0
 70
0
 72
1
 73
0
 74
0
  7

 75
0
147
1.0
148
0.0
149
0.0
100
AcDbLayout
  1
Layout1
 70
0
 71
1
 10
0.0
 20
0.0
 11
210.0
 21
297.0
 12
0.0
 22
0.0
 32
0.0
 14
0.0
 24
0.0
 34
0.0
 15
0.0
 25
0.0
 35
0.0
146
0.0
 13
0.0
 23
0.0
 33
0.0
 16
1.0
 26
0.0
 36
0.0
 17
0.0
 27
1.0
 37
0.0
 76
0
330
211
345
0
346
0
  0
ENDSEC
  0
EOF
