999
DXF file: C:\Users\sesa63760\Dev\_Creo\CAD\MCADID0004741_3D-CAD\drw0001_1.dxf
999
Pro/ENGINEER 2019471 by Parametric Technology Corporation
  0
SECTION
  2
HEADER
  9
$ACADVER
  1
AC1024
  9
$DWGCODEPAGE
  3
ANSI_1252
  9
$EXTMAX
 10
93.1023736946
 20
131.6733570824
 30
0.0
  9
$EXTMIN
 10
0.0
 20
0.0
 30
0.0
  9
$LIMMIN
 10
0.0
 20
0.0
  9
$LIMMAX
 10
93.1023736946
 20
131.6733570824
  9
$VIEWCTR
 10
46.5511868473
 20
65.8366785412
  9
$VIEWSIZE
 40
131.6733570824
  9
$CLAYER
  8
0
  9
$LTSCALE
 40
8.5831521654
  9
$CELTYPE
  6
BYLAYER
  9
$DIMSCALE
 40
1.0
  9
$DIMASZ
 40
1.1083615916
  9
$DIMEXO
 40
1.0
  9
$DIMDLI
 40
5.9301778597
  9
$DIMEXE
 40
1.0
  9
$DIMCEN
 40
1.4045158089
  9
$DIMLFAC
 40
1.0
  9
$DIMBLK
  1
_FILLED
  9
$DIMALT
 70
0
  9
$DIMALTF
 40
0.0393700787
  9
$DIMTXT
 40
1.5517062282
  9
$DIMTOL
 70
1
  9
$DIMLIM
 70
0
  9
$DIMTFAC
 40
1.0
  9
$DIMTP
 40
0.01
  9
$DIMTM
 40
0.01
  9
$DIMGAP
 40
0.625
  9
$DIMDSEP
 70
46
  9
$AUNITS
 70
0
  9
$PDMODE
 70
3
  9
$PDSIZE
 40
0.3125
  9
$HANDSEED
  5
285
  9
$TILEMODE
 70
1
  9
$MEASUREMENT
 70
1
  9
$INSUNITS
 70
4
  0
ENDSEC
  0
SECTION
  2
CLASSES
  0
CLASS
  1
ACDBDICTIONARYWDFLT
  2
AcDbDictionaryWithDefault
  3
AutoCAD 2000
 90
0
 91
1
280
0
281
0
  0
CLASS
  1
ACDBPLACEHOLDER
  2
AcDbPlaceHolder
  3
AutoCAD 2000
 90
0
 91
1
280
0
281
0
  0
CLASS
  1
LAYOUT
  2
AcDbLayout
  3
AutoCAD 2000
 90
0
 91
0
280
0
281
0
  0
ENDSEC
  0
SECTION
  2
TABLES
  0
TABLE
  2
VPORT
  5
8
100
AcDbSymbolTable
 70
2
  0
VPORT
  5
1F4
100
AcDbSymbolTableRecord
100
AcDbViewportTableRecord
  2
*ACTIVE
 70
0
 10
0.0
 20
0.0
 11
1.0
 21
1.0
 12
46.5511868473
 22
65.8366785412
 13
0.0
 23
0.0
 14
1.0
 24
1.0
 15
0.0
 25
0.0
 16
0.0
 26
0.0
 36
1.0
 17
0.0
 27
0.0
 37
0.0
 40
131.6733570824
 41
0.7070707071
 42
50.0
 43
0.0
 44
0.0
 50
0.0
 51
0.0
 71
0
 72
100
 73
1
 74
1
 75
0
 76
0
 77
0
 78
0
  0
ENDTAB
  0
TABLE
  2
LTYPE
  5
5
100
AcDbSymbolTable
 70
6
  0
LTYPE
  5
14
100
AcDbSymbolTableRecord
100
AcDbLinetypeTableRecord
  2
BYBLOCK
 70
0
  3

 72
65
 73
0
 40
0.0
  0
LTYPE
  5
15
100
AcDbSymbolTableRecord
100
AcDbLinetypeTableRecord
  2
BYLAYER
 70
0
  3

 72
65
 73
0
 40
0.0
  0
LTYPE
  5
16
100
AcDbSymbolTableRecord
100
AcDbLinetypeTableRecord
  2
CONTINUOUS
 70
64
  3
Solid line
 72
65
 73
0
 40
0.0
  0
LTYPE
  5
1F5
100
AcDbSymbolTableRecord
100
AcDbLinetypeTableRecord
  2
CENTER
 70
64
  3
____ _ ____ _ ____ _ ____ _ ____ _ ____ _ ____
 72
65
 73
4
 40
0.6
 49
0.375
 74
0
 49
-0.075
 74
0
 49
0.075
 74
0
 49
-0.075
 74
0
  0
LTYPE
  5
1F6
100
AcDbSymbolTableRecord
100
AcDbLinetypeTableRecord
  2
HIDDEN
 70
64
  3
- - - - - - - - - - - - - - - - - - - -
 72
65
 73
2
 40
0.2
 49
0.1
 74
0
 49
-0.1
 74
0
  0
LTYPE
  5
1F7
100
AcDbSymbolTableRecord
100
AcDbLinetypeTableRecord
  2
PHANTOM
 70
64
  3
_____ _ _ _____ _ _ _____ _ _ _____
 72
65
 73
6
 40
0.8
 49
0.45
 74
0
 49
-0.05
 74
0
 49
0.1
 74
0
 49
-0.05
 74
0
 49
0.1
 74
0
 49
-0.05
 74
0
  0
LTYPE
  5
1F8
100
AcDbSymbolTableRecord
100
AcDbLinetypeTableRecord
  2
DOT
 70
64
  3
. . . . . . . . . . . . . . . . . . . .
 72
65
 73
2
 40
0.2
 49
0.1
 74
0
 49
-0.1
 74
0
  0
LTYPE
  5
1F9
100
AcDbSymbolTableRecord
100
AcDbLinetypeTableRecord
  2
DASHED
 70
64
  3
- - - - - - - - - - - - - - - - - - - -
 72
65
 73
2
 40
0.2
 49
0.1
 74
0
 49
-0.1
 74
0
  0
ENDTAB
  0
TABLE
  2
LAYER
  5
2
100
AcDbSymbolTable
 70
36
  0
LAYER
  5
10
100
AcDbSymbolTableRecord
100
AcDbLayerTableRecord
  2
0
 70
0
 62
7
  6
CONTINUOUS
370
-3
390
F
  0
LAYER
  5
1FA
100
AcDbSymbolTableRecord
100
AcDbLayerTableRecord
  2
DEFAULT_1
 70
0
 62
7
  6
CENTER
370
-3
390
F
  0
LAYER
  5
1FB
100
AcDbSymbolTableRecord
100
AcDbLayerTableRecord
  2
DEFAULT_2
 70
0
 62
7
  6
HIDDEN
370
-3
390
F
  0
LAYER
  5
1FC
100
AcDbSymbolTableRecord
100
AcDbLayerTableRecord
  2
DEFAULT_3
 70
0
 62
7
  6
PHANTOM
370
-3
390
F
  0
LAYER
  5
1FD
100
AcDbSymbolTableRecord
100
AcDbLayerTableRecord
  2
00_COMPONENTS
 70
0
 62
7
  6
CONTINUOUS
370
-3
390
F
  0
LAYER
  5
1FE
100
AcDbSymbolTableRecord
100
AcDbLayerTableRecord
  2
01_1_DEFAULT_DATUMS
 70
0
 62
7
  6
CONTINUOUS
370
-3
390
F
  0
LAYER
  5
1FF
100
AcDbSymbolTableRecord
100
AcDbLayerTableRecord
  2
01_PLANES
 70
0
 62
7
  6
CONTINUOUS
370
-3
390
F
  0
LAYER
  5
200
100
AcDbSymbolTableRecord
100
AcDbLayerTableRecord
  2
02_COORD_SYS
 70
0
 62
7
  6
CONTINUOUS
370
-3
390
F
  0
LAYER
  5
201
100
AcDbSymbolTableRecord
100
AcDbLayerTableRecord
  2
03_AXES
 70
0
 62
7
  6
CONTINUOUS
370
-3
390
F
  0
LAYER
  5
202
100
AcDbSymbolTableRecord
100
AcDbLayerTableRecord
  2
04_POINTS
 70
0
 62
7
  6
CONTINUOUS
370
-3
390
F
  0
LAYER
  5
203
100
AcDbSymbolTableRecord
100
AcDbLayerTableRecord
  2
05_CURVES
 70
0
 62
7
  6
CONTINUOUS
370
-3
390
F
  0
LAYER
  5
204
100
AcDbSymbolTableRecord
100
AcDbLayerTableRecord
  2
06_SURFS
 70
0
 62
7
  6
CONTINUOUS
370
-3
390
F
  0
LAYER
  5
205
100
AcDbSymbolTableRecord
100
AcDbLayerTableRecord
  2
07_COSMETICS
 70
0
 62
7
  6
CONTINUOUS
370
-3
390
F
  0
LAYER
  5
206
100
AcDbSymbolTableRecord
100
AcDbLayerTableRecord
  2
10_NOTES
 70
0
 62
7
  6
CONTINUOUS
370
-3
390
F
  0
LAYER
  5
207
100
AcDbSymbolTableRecord
100
AcDbLayerTableRecord
  2
11_NOTES_PUB
 70
0
 62
7
  6
CONTINUOUS
370
-3
390
F
  0
LAYER
  5
208
100
AcDbSymbolTableRecord
100
AcDbLayerTableRecord
  2
13_REF_GTOL
 70
0
 62
7
  6
CONTINUOUS
370
-3
390
F
  0
LAYER
  5
209
100
AcDbSymbolTableRecord
100
AcDbLayerTableRecord
  2
16_MISC
 70
0
 62
7
  6
CONTINUOUS
370
-3
390
F
  0
LAYER
  5
20A
100
AcDbSymbolTableRecord
100
AcDbLayerTableRecord
  2
17_NO_PRINT
 70
0
 62
7
  6
CONTINUOUS
370
-3
390
F
  0
LAYER
  5
20B
100
AcDbSymbolTableRecord
100
AcDbLayerTableRecord
  2
18_DATUM_CAMS_JOINTS
 70
0
 62
7
  6
CONTINUOUS
370
-3
390
F
  0
LAYER
  5
20C
100
AcDbSymbolTableRecord
100
AcDbLayerTableRecord
  2
19_DATUM_FUNCTIONAL
 70
0
 62
7
  6
CONTINUOUS
370
-3
390
F
  0
LAYER
  5
20D
100
AcDbSymbolTableRecord
100
AcDbLayerTableRecord
  2
20_DATUM_KINEMATIC_SCHEME
 70
0
 62
7
  6
CONTINUOUS
370
-3
390
F
  0
ENDTAB
  0
TABLE
  2
STYLE
  5
3
100
AcDbSymbolTable
 70
1
  0
STYLE
  5
11
100
AcDbSymbolTableRecord
100
AcDbTextStyleTableRecord
  2
STANDARD
 70
0
 40
0.0
 41
1.0
 50
0.0
 71
0
 42
0.2
  3
ARIAL.TTF
  4

  0
STYLE
  5
20E
100
AcDbSymbolTableRecord
100
AcDbTextStyleTableRecord
  2
TEXTSTYLE_1
 70
0
 40
0.0
 41
0.8
 50
0.0
 71
0
 42
0.2
  3
gdt
  4

  0
ENDTAB
  0
TABLE
  2
VIEW
  5
6
100
AcDbSymbolTable
 70
0
  0
ENDTAB
  0
TABLE
  2
UCS
  5
7
100
AcDbSymbolTable
 70
0
  0
ENDTAB
  0
TABLE
  2
APPID
  5
9
100
AcDbSymbolTable
 70
1
  0
APPID
  5
20F
100
AcDbSymbolTableRecord
100
AcDbRegAppTableRecord
  2
ACAD
 70
0
  0
ENDTAB
  0
TABLE
  2
BLOCK_RECORD
  5
1
100
AcDbSymbolTable
 70
0
  0
BLOCK_RECORD
  5
210
100
AcDbSymbolTableRecord
100
AcDbBlockTableRecord
  2
*Model_Space
  0
BLOCK_RECORD
  5
211
100
AcDbSymbolTableRecord
100
AcDbBlockTableRecord
  2
*Paper_Space
  0
BLOCK_RECORD
  5
212
100
AcDbSymbolTableRecord
100
AcDbBlockTableRecord
  2
_FILLED
  0
ENDTAB
  0
TABLE
  2
DIMSTYLE
  5
A
100
AcDbSymbolTable
 70
1
100
AcDbDimStyleTable
 71
0
  0
DIMSTYLE
105
213
100
AcDbSymbolTableRecord
100
AcDbDimStyleTableRecord
  2
STANDARD
 70
0
  3

  4

 40
1.0
 41
1.1083615916
 42
1.0
 43
0.38
 44
1.0
 45
0.0
 46
0.0
 47
0.01
 48
0.01
140
1.5517062282
141
0.09
142
0.0
143
25.4
144
1.0
145
0.0
146
1.0
147
0.625
 71
1
 72
0
 73
0
 74
0
 75
0
 76
0
 77
1
 78
8
 79
2
170
0
171
1
172
0
173
0
174
0
175
0
176
0
177
0
178
0
270
2
179
2
271
2
272
2
273
2
274
2
275
0
280
0
281
0
282
0
283
1
284
8
285
0
286
0
287
3
288
0
340
11
278
46
341
212
342
212
343
212
344
212
  0
ENDTAB
  0
ENDSEC
  0
SECTION
  2
BLOCKS
  0
BLOCK
  5
20
100
AcDbEntity
  8
0
100
AcDbBlockBegin
  2
*Model_Space
 70
0
 10
0.0
 20
0.0
 30
0.0
  3
*Model_Space
  1

  0
ENDBLK
  5
21
100
AcDbEntity
  8
0
100
AcDbBlockEnd
  0
BLOCK
  5
1C
100
AcDbEntity
  8
0
100
AcDbBlockBegin
  2
*Paper_Space
 70
0
 10
0.0
 20
0.0
 30
0.0
  3
*Paper_Space
  1

  0
ENDBLK
  5
1D
100
AcDbEntity
  8
0
100
AcDbBlockEnd
  0
BLOCK
  5
214
100
AcDbEntity
  8
0
100
AcDbBlockBegin
  2
_FILLED
 70
64
 10
0.0
 20
0.0
  3
_FILLED
  1

  0
SOLID
  5
215
100
AcDbEntity
  8
0
  6
BYBLOCK
 62
0
100
AcDbTrace
 10
0.0
 20
0.0
 11
-1.0
 21
0.25
 12
-1.0
 22
-0.25
 13
-1.0
 23
-0.25
  0
ENDBLK
  5
216
100
AcDbEntity
  8
0
  6
BYBLOCK
 62
0
100
AcDbBlockEnd
  0
ENDSEC
  0
SECTION
  2
ENTITIES
  0
LINE
  5
217
100
AcDbEntity
  8
0
100
AcDbLine
 62
7
  6
BYLAYER
 10
45.1528962404
 20
121.2779552451
 11
45.2943181854
 21
121.3596075776
  0
LINE
  5
218
100
AcDbEntity
  8
0
100
AcDbLine
 62
7
  6
BYLAYER
 10
39.2742254158
 20
23.8692482437
 11
39.2742254158
 21
23.0527458266
  0
LINE
  5
219
100
AcDbEntity
  8
0
100
AcDbLine
 62
7
  6
BYLAYER
 10
39.7742254158
 20
24.2774994523
 11
39.7742254158
 21
24.8490511442
  0
LINE
  5
21A
100
AcDbEntity
  8
0
100
AcDbLine
 62
7
  6
BYLAYER
 10
39.7742254158
 20
25.8288540448
 11
39.7742254158
 21
27.7884598459
  0
LINE
  5
21B
100
AcDbEntity
  8
0
100
AcDbLine
 62
7
  6
BYLAYER
 10
40.9242254158
 20
13.826268513
 11
40.9242254158
 21
18.3170318072
  0
LINE
  5
21C
100
AcDbEntity
  8
0
100
AcDbLine
 62
7
  6
BYLAYER
 10
40.9242254158
 20
19.2968347078
 11
40.9242254158
 21
20.2358124875
  0
LINE
  5
21D
100
AcDbEntity
  8
0
100
AcDbLine
 62
7
  6
BYLAYER
 10
44.2242254158
 20
118.5835286307
 11
44.2242254158
 21
36.9332869178
  0
LINE
  5
21E
100
AcDbEntity
  8
0
100
AcDbLine
 62
7
  6
BYLAYER
 10
44.2742254158
 20
120.0532329816
 11
44.2742254158
 21
118.5835286307
  0
LINE
  5
21F
100
AcDbEntity
  8
0
100
AcDbLine
 62
7
  6
BYLAYER
 10
50.2742254158
 20
120.0532329816
 11
50.2742254158
 21
118.5835286307
  0
LINE
  5
220
100
AcDbEntity
  8
0
100
AcDbLine
 62
7
  6
BYLAYER
 10
50.3242254158
 20
118.5835286307
 11
50.3242254158
 21
36.9332869178
  0
LINE
  5
221
100
AcDbEntity
  8
0
100
AcDbLine
 62
7
  6
BYLAYER
 10
53.6242254158
 20
13.826268513
 11
53.6242254158
 21
18.3170318072
  0
LINE
  5
222
100
AcDbEntity
  8
0
100
AcDbLine
 62
7
  6
BYLAYER
 10
53.6242254158
 20
19.2968347078
 11
53.6242254158
 21
20.226750555
  0
LINE
  5
223
100
AcDbEntity
  8
0
100
AcDbLine
 62
7
  6
BYLAYER
 10
54.7742254158
 20
24.2774994523
 11
54.7742254158
 21
24.8490511442
  0
LINE
  5
224
100
AcDbEntity
  8
0
100
AcDbLine
 62
7
  6
BYLAYER
 10
54.7742254158
 20
25.8288540448
 11
54.7742254158
 21
27.7884598459
  0
LINE
  5
225
100
AcDbEntity
  8
0
100
AcDbLine
 62
7
  6
BYLAYER
 10
55.2742254158
 20
23.8692482437
 11
55.2742254158
 21
23.0527458266
  0
LINE
  5
226
100
AcDbEntity
  8
0
100
AcDbLine
 62
7
  6
BYLAYER
 10
49.2541668583
 20
121.359587825
 11
49.3955912471
 21
121.2779340816
  0
LINE
  5
227
100
AcDbEntity
  8
0
100
AcDbLine
 62
7
  6
BYLAYER
 10
49.3944126073
 20
121.2724217449
 11
49.3927920021
 21
121.2734286296
  0
LINE
  5
228
100
AcDbEntity
  8
0
100
AcDbLine
 62
7
  6
BYLAYER
 10
49.3944126073
 20
121.2724217449
 11
49.3928578267
 21
121.2734614678
  0
ARC
  5
229
100
AcDbEntity
  8
0
100
AcDbCircle
 62
7
  6
BYLAYER
 10
49.1350096761
 20
27.1794914549
 40
6.8860696409
100
AcDbArc
 50
299.995233317
 51
301.989271411
  0
ARC
  5
22A
100
AcDbEntity
  8
0
100
AcDbCircle
 62
7
  6
BYLAYER
 10
47.2739881683
 20
122.0707020669
 40
5.2480585787
100
AcDbArc
 50
268.0542490108
 51
276.7261391152
  0
ARC
  5
22B
100
AcDbEntity
  8
0
100
AcDbCircle
 62
7
  6
BYLAYER
 10
47.9956923144
 20
119.8243425708
 40
2.8705032113
100
AcDbArc
 50
299.531503897
 51
299.9992199978
  0
ARC
  5
22C
100
AcDbEntity
  8
0
100
AcDbCircle
 62
7
  6
BYLAYER
 10
51.2936295466
 20
21.466275466
 40
2.7032729704
100
AcDbArc
 50
332.5966859822
 51
336.733436905
  0
ARC
  5
22D
100
AcDbEntity
  8
0
100
AcDbCircle
 62
7
  6
BYLAYER
 10
52.2464050653
 20
24.8479337756
 40
2.5278102589
100
AcDbArc
 50
0.0253264562
 51
11.4070996231
  0
ARC
  5
22E
100
AcDbEntity
  8
0
100
AcDbCircle
 62
7
  6
BYLAYER
 10
42.3003719887
 20
24.8480428613
 40
2.5261364356
100
AcDbArc
 50
168.9208278355
 51
179.9771309296
  0
ARC
  5
22F
100
AcDbEntity
  8
0
100
AcDbCircle
 62
7
  6
BYLAYER
 10
46.5502481337
 20
119.1826954116
 40
2.5132263355
100
AcDbArc
 50
119.9820162076
 51
123.8902246532
  0
ARC
  5
230
100
AcDbEntity
  8
0
100
AcDbCircle
 62
7
  6
BYLAYER
 10
42.2834846865
 20
24.2776243815
 40
2.5092492474
100
AcDbArc
 50
180.1637258636
 51
187.0479902017
  0
ARC
  5
231
100
AcDbEntity
  8
0
100
AcDbCircle
 62
7
  6
BYLAYER
 10
48.0196086379
 20
119.2167113452
 40
2.4730617464
100
AcDbArc
 50
56.2697894703
 51
60.052862452
  0
ARC
  5
232
100
AcDbEntity
  8
0
100
AcDbCircle
 62
7
  6
BYLAYER
 10
51.4733520585
 20
18.3152927455
 40
2.1508671357
100
AcDbArc
 50
0.046325698
 51
13.3610157568
  0
ARC
  5
233
100
AcDbEntity
  8
0
100
AcDbCircle
 62
7
  6
BYLAYER
 10
43.0730412168
 20
18.31545862
 40
2.1488094522
100
AcDbArc
 50
166.8962058313
 51
179.9580523643
  0
ARC
  5
234
100
AcDbEntity
  8
0
100
AcDbCircle
 62
7
  6
BYLAYER
 10
45.2528794416
 20
118.5828822992
 40
1.028645689
100
AcDbArc
 50
169.1753617842
 51
179.2784861639
  0
ARC
  5
235
100
AcDbEntity
  8
0
100
AcDbCircle
 62
7
  6
BYLAYER
 10
45.240911576
 20
118.5837002709
 40
1.016668691
100
AcDbArc
 50
179.3160872662
 51
180.0096731242
  0
ARC
  5
236
100
AcDbEntity
  8
0
100
AcDbCircle
 62
7
  6
BYLAYER
 10
49.3075392974
 20
118.5833569904
 40
1.0166686492
100
AcDbArc
 50
359.3158432924
 51
0.009673131
  0
SPLINE
  5
237
100
AcDbEntity
  8
0
100
AcDbSpline
 62
7
  6
BYLAYER
 70
0
 71
3
 72
25
 73
21
 74
0
 42
0.0000001
 43
0.0000001
 44
0.0000000001
 40
0.0
 40
0.0
 40
0.0
 40
0.0
 40
0.0623832354
 40
0.1287222641
 40
0.1983149023
 40
0.2702914207
 40
0.3436689096
 40
0.417400985
 40
0.4904256487
 40
0.5617123577
 40
0.6303098129
 40
0.6953976753
 40
0.7563455577
 40
0.8127830736
 40
0.8646837098
 40
0.9124584323
 40
0.9351028679
 40
0.957108036
 40
0.9786681839
 40
1.0
 40
1.0
 40
1.0
 40
1.0
 10
49.3955545912
 20
117.3588063672
 30
0.0
 10
49.287770201
 20
117.2965773919
 30
0.0
 10
49.0567876322
 20
117.182689978
 30
0.0
 10
48.6841820451
 20
117.0476825509
 30
0.0
 10
48.2815276918
 20
116.945462712
 30
0.0
 10
47.8574357655
 20
116.8782159548
 30
0.0
 10
47.4209018287
 20
116.847355947
 30
0.0
 10
46.9812397894
 20
116.8535422553
 30
0.0
 10
46.5478278362
 20
116.8966425064
 30
0.0
 10
46.1299017638
 20
116.9757401913
 30
0.0
 10
45.736340064
 20
117.0891633455
 30
0.0
 10
45.375461509
 20
117.2345495819
 30
0.0
 10
45.0548515634
 20
117.4089213249
 30
0.0
 10
44.7812131581
 20
117.6088865685
 30
0.0
 10
44.560411674
 20
117.8305733748
 30
0.0
 10
44.422189948
 20
118.0339654541
 30
0.0
 10
44.345168411
 20
118.2018952545
 30
0.0
 10
44.3043341182
 20
118.3278611887
 30
0.0
 10
44.2797216099
 20
118.4552994804
 30
0.0
 10
44.2742306382
 20
118.540970308
 30
0.0
 10
44.2742286678
 20
118.5835286329
 30
0.0
  0
SPLINE
  5
238
100
AcDbEntity
  8
0
100
AcDbSpline
 62
7
  6
BYLAYER
 70
0
 71
3
 72
15
 73
11
 74
0
 42
0.0000001
 43
0.0000001
 44
0.0000000001
 40
0.0
 40
0.0
 40
0.0
 40
0.0
 40
0.1485801254
 40
0.289509359
 40
0.4227246153
 40
0.5486415202
 40
0.668001922
 40
0.7819395159
 40
0.8919876913
 40
1.0
 40
1.0
 40
1.0
 40
1.0
 10
45.1528962404
 20
121.2779552451
 30
0.0
 10
45.0852384085
 20
121.2388932108
 30
0.0
 10
44.9564671583
 20
121.1572701698
 30
0.0
 10
44.7804170631
 20
121.0210111062
 30
0.0
 10
44.6281424858
 20
120.8752565099
 30
0.0
 10
44.5011703875
 20
120.72134617
 30
0.0
 10
44.4007782235
 20
120.5606486778
 30
0.0
 10
44.3281087659
 20
120.3946098722
 30
0.0
 10
44.2840964143
 20
120.2249141197
 30
0.0
 10
44.2742250036
 20
120.110026572
 30
0.0
 10
44.2742275654
 20
120.0532329816
 30
0.0
  0
SPLINE
  5
239
100
AcDbEntity
  8
0
100
AcDbSpline
 62
7
  6
BYLAYER
 70
0
 71
3
 72
19
 73
15
 74
0
 42
0.0000001
 43
0.0000001
 44
0.0000000001
 40
0.0
 40
0.0
 40
0.0
 40
0.0
 40
0.0558498502
 40
0.1142035008
 40
0.1748206901
 40
0.2374046121
 40
0.367014193
 40
0.4999974887
 40
0.6329812002
 40
0.7625920456
 40
0.8251764289
 40
0.8857910246
 40
0.9441577412
 40
1.0
 40
1.0
 40
1.0
 40
1.0
 10
49.2541629699
 20
121.3595855839
 30
0.0
 10
49.1878297853
 20
121.3978841097
 30
0.0
 10
49.0487405483
 20
121.4703398888
 30
0.0
 10
48.8280078969
 20
121.564458654
 30
0.0
 10
48.5924138216
 20
121.6456711648
 30
0.0
 10
48.257655485
 20
121.7367437696
 30
0.0
 10
47.8170362517
 20
121.8128580155
 30
0.0
 10
47.2742538738
 20
121.8433319454
 30
0.0
 10
46.7314681109
 20
121.8128699873
 30
0.0
 10
46.2908475712
 20
121.7367486734
 30
0.0
 10
45.9560866421
 20
121.6456910856
 30
0.0
 10
45.7204766325
 20
121.5644772257
 30
0.0
 10
45.49974488
 20
121.4703471607
 30
0.0
 10
45.3606429046
 20
121.3978999436
 30
0.0
 10
45.2943181854
 20
121.3596075776
 30
0.0
  0
SPLINE
  5
23A
100
AcDbEntity
  8
0
100
AcDbSpline
 62
7
  6
BYLAYER
 70
0
 71
3
 72
15
 73
11
 74
0
 42
0.0000001
 43
0.0000001
 44
0.0000000001
 40
0.0
 40
0.0
 40
0.0
 40
0.0
 40
0.1080127016
 40
0.2180619985
 40
0.3319992555
 40
0.4513571949
 40
0.5772776565
 40
0.7104996553
 40
0.8513939294
 40
1.0
 40
1.0
 40
1.0
 40
1.0
 10
50.2742232661
 20
120.0532329815
 30
0.0
 10
50.2742207043
 20
120.1100253246
 30
0.0
 10
50.264364985
 20
120.2249118679
 30
0.0
 10
50.2203364753
 20
120.394600543
 30
0.0
 10
50.147679307
 20
120.5606370072
 30
0.0
 10
50.0472959473
 20
120.7213359926
 30
0.0
 10
49.9203163559
 20
120.875239039
 30
0.0
 10
49.7680589662
 20
121.0209836955
 30
0.0
 10
49.5920256439
 20
121.1572539505
 30
0.0
 10
49.4632557947
 20
121.2388636087
 30
0.0
 10
49.3955884644
 20
121.2779324751
 30
0.0
  0
SPLINE
  5
23B
100
AcDbEntity
  8
0
100
AcDbSpline
 62
7
  6
BYLAYER
 70
0
 71
3
 72
15
 73
11
 74
0
 42
0.0000001
 43
0.0000001
 44
0.0000000001
 40
0.0
 40
0.0
 40
0.0
 40
0.0
 40
0.1080119891
 40
0.218059705
 40
0.3319965448
 40
0.4513568268
 40
0.5772739457
 40
0.7104898336
 40
0.8514199145
 40
1.0
 40
1.0
 40
1.0
 40
1.0
 10
50.2742221638
 20
118.5835286286
 30
0.0
 10
50.2742247933
 20
118.526735228
 30
0.0
 10
50.264353251
 20
118.4118481462
 30
0.0
 10
50.2203415739
 20
118.2421531813
 30
0.0
 10
50.1476732178
 20
118.0761146979
 30
0.0
 10
50.047281065
 20
117.9154176958
 30
0.0
 10
49.9203095803
 20
117.7615064862
 30
0.0
 10
49.7680344894
 20
117.6157511932
 30
0.0
 10
49.591983859
 20
117.4794917418
 30
0.0
 10
49.463212379
 20
117.397868376
 30
0.0
 10
49.3955545912
 20
117.3588063672
 30
0.0
  0
SPLINE
  5
23C
100
AcDbEntity
  8
0
100
AcDbSpline
 62
7
  6
BYLAYER
 70
0
 71
3
 72
23
 73
19
 74
0
 42
0.0000001
 43
0.0000001
 44
0.0000000001
 40
0.0
 40
0.0
 40
0.0
 40
0.0
 40
0.0751008893
 40
0.1465271654
 40
0.2142313079
 40
0.2783856099
 40
0.3393044045
 40
0.3974658114
 40
0.4535306381
 40
0.5083102532
 40
0.5627170555
 40
0.6176962583
 40
0.6741454654
 40
0.7328461606
 40
0.7944191585
 40
0.8593123159
 40
0.9277998313
 40
1.0
 40
1.0
 40
1.0
 40
1.0
 10
49.2541326462
 20
119.0734593523
 30
0.0
 10
49.3143929403
 20
119.1082504417
 30
0.0
 10
49.429354467
 20
119.1808195606
 30
0.0
 10
49.5873531168
 20
119.3014243495
 30
0.0
 10
49.7253002915
 20
119.4301689482
 30
0.0
 10
49.8419401698
 20
119.565965767
 30
0.0
 10
49.9362359952
 20
119.7077077704
 30
0.0
 10
50.0072270292
 20
119.8542385299
 30
0.0
 10
50.0541438465
 20
120.0042742297
 30
0.0
 10
50.0764303887
 20
120.156420605
 30
0.0
 10
50.0737602493
 20
120.309176266
 30
0.0
 10
50.0461973772
 20
120.4609969943
 30
0.0
 10
49.9940907239
 20
120.610400049
 30
0.0
 10
49.9180550407
 20
120.7560104947
 30
0.0
 10
49.8189226914
 20
120.8965895604
 30
0.0
 10
49.6976348078
 20
121.0309677267
 30
0.0
 10
49.5553254271
 20
121.1580487676
 30
0.0
 10
49.4500048267
 20
121.2352137531
 30
0.0
 10
49.3944126073
 20
121.2724217449
 30
0.0
  0
SPLINE
  5
23D
100
AcDbEntity
  8
0
100
AcDbSpline
 62
7
  6
BYLAYER
 70
0
 71
3
 72
34
 73
30
 74
0
 42
0.0000001
 43
0.0000001
 44
0.0000000001
 40
0.0
 40
0.0
 40
0.0
 40
0.0
 40
0.0578921664
 40
0.0845708344
 40
0.1098634711
 40
0.1339691347
 40
0.1571682861
 40
0.1798090338
 40
0.2022853436
 40
0.2250062664
 40
0.2483595238
 40
0.2726807869
 40
0.2982338638
 40
0.3252057152
 40
0.3537073297
 40
0.3837810493
 40
0.4154106284
 40
0.448528052
 40
0.4830232516
 40
0.5187517595
 40
0.5555396395
 40
0.6314607176
 40
0.7090720918
 40
0.7864942067
 40
0.8618620035
 40
0.8982488356
 40
0.9335026829
 40
0.9674710741
 40
1.0
 40
1.0
 40
1.0
 40
1.0
 10
45.1488643558
 20
121.2689432686
 30
0.0
 10
45.038612843
 20
121.1947261896
 30
0.0
 10
44.8858124031
 20
121.0721096254
 30
0.0
 10
44.7184100585
 20
120.8828103445
 30
0.0
 10
44.6194979437
 20
120.7382426336
 30
0.0
 10
44.5449392308
 20
120.5885422874
 30
0.0
 10
44.4955618405
 20
120.4350583866
 30
0.0
 10
44.4719937756
 20
120.2792873335
 30
0.0
 10
44.4745939709
 20
120.1228456337
 30
0.0
 10
44.5032995524
 20
119.9674009862
 30
0.0
 10
44.5577204178
 20
119.8145496336
 30
0.0
 10
44.6371806238
 20
119.6657646971
 30
0.0
 10
44.7407698958
 20
119.5223669592
 30
0.0
 10
44.8674505974
 20
119.385598069
 30
0.0
 10
45.0160102466
 20
119.2566184347
 30
0.0
 10
45.1850737893
 20
119.1365203707
 30
0.0
 10
45.3731145971
 20
119.0263566098
 30
0.0
 10
45.5784279682
 20
118.927087468
 30
0.0
 10
45.7991539341
 20
118.8395900618
 30
0.0
 10
46.0333060144
 20
118.7646572983
 30
0.0
 10
46.3639795142
 20
118.6815422913
 30
0.0
 10
46.7967025012
 20
118.6137617772
 30
0.0
 10
47.327443277
 20
118.5905104419
 30
0.0
 10
47.8562838769
 20
118.6253169126
 30
0.0
 10
48.284774421
 20
118.7025877454
 30
0.0
 10
48.6101237896
 20
118.7930242188
 30
0.0
 10
48.8391821896
 20
118.8730678358
 30
0.0
 10
49.0539701383
 20
118.9653704383
 30
0.0
 10
49.1894600264
 20
119.0361208207
 30
0.0
 10
49.2541326462
 20
119.0734593523
 30
0.0
  0
SPLINE
  5
23E
100
AcDbEntity
  8
0
100
AcDbSpline
 62
7
  6
BYLAYER
 70
0
 71
3
 72
25
 73
21
 74
0
 42
0.0000001
 43
0.0000001
 44
0.0000000001
 40
0.0
 40
0.0
 40
0.0
 40
0.0
 40
0.0213318283
 40
0.0428920031
 40
0.0648971933
 40
0.087541666
 40
0.1353164503
 40
0.1872171315
 40
0.2436546685
 40
0.3046025612
 40
0.3696904617
 40
0.4382880332
 40
0.5095748845
 40
0.5825995513
 40
0.6563314434
 40
0.7297088151
 40
0.8016856016
 40
0.8712780953
 40
0.9376168957
 40
1.0
 40
1.0
 40
1.0
 40
1.0
 10
44.2742275654
 20
120.0532329816
 30
0.0
 10
44.2742294852
 20
120.0106746168
 30
0.0
 10
44.2797200291
 20
119.9250036377
 30
0.0
 10
44.3043329439
 20
119.7975652478
 30
0.0
 10
44.3451668232
 20
119.6715989573
 30
0.0
 10
44.4221888505
 20
119.5036690153
 30
0.0
 10
44.56041057
 20
119.3002765247
 30
0.0
 10
44.7812124629
 20
119.0785895497
 30
0.0
 10
45.054851151
 20
118.8786242446
 30
0.0
 10
45.375461423
 20
118.7042525184
 30
0.0
 10
45.7363404866
 20
118.5588662822
 30
0.0
 10
46.1299029692
 20
118.4454431519
 30
0.0
 10
46.5478297662
 20
118.3663456302
 30
0.0
 10
46.9812418398
 20
118.3232457362
 30
0.0
 10
47.4209034511
 20
118.3170597516
 30
0.0
 10
47.8574374562
 20
118.3479200885
 30
0.0
 10
48.2815295281
 20
118.4151670646
 30
0.0
 10
48.6841837176
 20
118.5173873159
 30
0.0
 10
49.0567884211
 20
118.6523946352
 30
0.0
 10
49.287770388
 20
118.7662818507
 30
0.0
 10
49.3955545912
 20
118.828510718
 30
0.0
  0
SPLINE
  5
23F
100
AcDbEntity
  8
0
100
AcDbSpline
 62
7
  6
BYLAYER
 70
0
 71
3
 72
15
 73
11
 74
0
 42
0.0000001
 43
0.0000001
 44
0.0000000001
 40
0.0
 40
0.0
 40
0.0
 40
0.0
 40
0.1485801254
 40
0.289509359
 40
0.4227246153
 40
0.5486415202
 40
0.668001922
 40
0.7819395159
 40
0.8919876913
 40
1.0
 40
1.0
 40
1.0
 40
1.0
 10
49.3955545912
 20
118.828510718
 30
0.0
 10
49.4632124231
 20
118.8675727523
 30
0.0
 10
49.5919836733
 20
118.9491957933
 30
0.0
 10
49.7680337685
 20
119.0854548569
 30
0.0
 10
49.9203083458
 20
119.2312094532
 30
0.0
 10
50.047280444
 20
119.3851197931
 30
0.0
 10
50.1476726081
 20
119.5458172853
 30
0.0
 10
50.2203420656
 20
119.7118560909
 30
0.0
 10
50.2643544173
 20
119.8815518434
 30
0.0
 10
50.274225828
 20
119.9964393911
 30
0.0
 10
50.2742232661
 20
120.0532329815
 30
0.0
  0
SPLINE
  5
240
100
AcDbEntity
  8
0
100
AcDbSpline
 62
7
  6
BYLAYER
 70
0
 71
3
 72
9
 73
5
 74
0
 42
0.0000001
 43
0.0000001
 44
0.0000000001
 40
0.0
 40
0.0
 40
0.0
 40
0.0
 40
0.2487889438
 40
1.0
 40
1.0
 40
1.0
 40
1.0
 10
43.1529051941
 20
37.5528707144
 30
0.0
 10
43.2357227681
 20
37.6006851776
 30
0.0
 10
43.5726226832
 20
37.7858624111
 30
0.0
 10
43.9245991804
 20
37.9433503788
 30
0.0
 10
44.1943765201
 20
38.0462911287
 30
0.0
  0
SPLINE
  5
241
100
AcDbEntity
  8
0
100
AcDbSpline
 62
7
  6
BYLAYER
 70
0
 71
3
 72
23
 73
19
 74
0
 42
0.0000001
 43
0.0000001
 44
0.0000000001
 40
0.0
 40
0.0
 40
0.0
 40
0.0
 40
0.0630870994
 40
0.1256666822
 40
0.1879535385
 40
0.2501599482
 40
0.3124423695
 40
0.3748621751
 40
0.4374340082
 40
0.500121165
 40
0.5628576648
 40
0.6255773383
 40
0.6882142584
 40
0.7507255377
 40
0.8130802774
 40
0.8753190883
 40
0.9375705724
 40
1.0
 40
1.0
 40
1.0
 40
1.0
 10
50.3504825624
 20
38.0476560814
 30
0.0
 10
50.599693344
 20
37.9527208331
 30
0.0
 10
51.0867402898
 20
37.7376246211
 30
0.0
 10
51.7744582008
 20
37.3363077093
 30
0.0
 10
52.405856529
 20
36.8566910405
 30
0.0
 10
52.9686929683
 20
36.2995748567
 30
0.0
 10
53.449185147
 20
35.6689626495
 30
0.0
 10
53.8331255505
 20
34.9732569259
 30
0.0
 10
54.1074288697
 20
34.2254399487
 30
0.0
 10
54.261933942
 20
33.4425288054
 30
0.0
 10
54.2906100995
 20
32.6443487005
 30
0.0
 10
54.1922932879
 20
31.8519651941
 30
0.0
 10
53.970868147
 20
31.0859151873
 30
0.0
 10
53.6346797172
 20
30.3647348318
 30
0.0
 10
53.1957969848
 20
29.7033466556
 30
0.0
 10
52.6680179841
 20
29.1122937973
 30
0.0
 10
52.0657589132
 20
28.5975016986
 30
0.0
 10
51.6240907948
 20
28.3071624386
 30
0.0
 10
51.3955456375
 20
28.1752126182
 30
0.0
  0
SPLINE
  5
242
100
AcDbEntity
  8
0
100
AcDbSpline
 62
7
  6
BYLAYER
 70
0
 71
3
 72
32
 73
28
 74
0
 42
0.0000001
 43
0.0000001
 44
0.0000000001
 40
0.0
 40
0.0
 40
0.0
 40
0.0
 40
0.0623170173
 40
0.1256403721
 40
0.1898586886
 40
0.2543590326
 40
0.3183778938
 40
0.3814165271
 40
0.4435043079
 40
0.4743592178
 40
0.5051564609
 40
0.5359547577
 40
0.5667942245
 40
0.5976879295
 40
0.628642029
 40
0.6596502473
 40
0.6906951942
 40
0.7217554461
 40
0.752810694
 40
0.7838399942
 40
0.8148271012
 40
0.8457611143
 40
0.8766315194
 40
0.9074512227
 40
0.9382528429
 40
0.9690841751
 40
1.0
 40
1.0
 40
1.0
 40
1.0
 10
51.3955456375
 20
28.1752126182
 30
0.0
 10
51.0336311376
 20
27.9662624315
 30
0.0
 10
50.2639229919
 20
27.6114727787
 30
0.0
 10
49.0321784833
 20
27.2711845336
 30
0.0
 10
47.749461865
 20
27.1138099677
 30
0.0
 10
46.4529707328
 20
27.1380841263
 30
0.0
 10
45.180376343
 20
27.3441575801
 30
0.0
 10
43.9680635176
 20
27.734120093
 30
0.0
 10
43.0341112155
 20
28.2186155759
 30
0.0
 10
42.3579762267
 20
28.7016618867
 30
0.0
 10
41.8911538512
 20
29.1113508102
 30
0.0
 10
41.4701452258
 20
29.5679606982
 30
0.0
 10
41.1017599142
 20
30.0689489953
 30
0.0
 10
40.7928676263
 20
30.6099720548
 30
0.0
 10
40.549935425
 20
31.1849691107
 30
0.0
 10
40.3783736106
 20
31.7862590843
 30
0.0
 10
40.2822617138
 20
32.4048780895
 30
0.0
 10
40.2639565675
 20
33.030984415
 30
0.0
 10
40.3239087489
 20
33.6543697459
 30
0.0
 10
40.4606210625
 20
34.2649929617
 30
0.0
 10
40.6708579032
 20
34.8534417006
 30
0.0
 10
40.9498133859
 20
35.4113216071
 30
0.0
 10
41.2913673843
 20
35.9317733714
 30
0.0
 10
41.6887973543
 20
36.4096208861
 30
0.0
 10
42.1352350376
 20
36.8415074213
 30
0.0
 10
42.6239402458
 20
37.2256803663
 30
0.0
 10
42.9733573632
 20
37.4492093447
 30
0.0
 10
43.1529051941
 20
37.5528707144
 30
0.0
  0
SPLINE
  5
243
100
AcDbEntity
  8
0
100
AcDbSpline
 62
7
  6
BYLAYER
 70
0
 71
3
 72
27
 73
23
 74
0
 42
0.0000001
 43
0.0000001
 44
0.0000000001
 40
0.0
 40
0.0
 40
0.0
 40
0.0
 40
0.0623770042
 40
0.1287077854
 40
0.1982931919
 40
0.2702617155
 40
0.3436312263
 40
0.4173551009
 40
0.4903717406
 40
0.5616507006
 40
0.6302407828
 40
0.6953216433
 40
0.7562629097
 40
0.8126942772
 40
0.8392170753
 40
0.8646371108
 40
0.8890213593
 40
0.9124679401
 40
0.9351101104
 40
0.9571126976
 40
0.9786705976
 40
1.0
 40
1.0
 40
1.0
 40
1.0
 10
52.5775483544
 20
21.2156937933
 30
0.0
 10
52.3080848861
 20
21.060119916
 30
0.0
 10
51.7306312717
 20
20.7754001841
 30
0.0
 10
50.7991157329
 20
20.4378871772
 30
0.0
 10
49.7924850135
 20
20.1823334841
 30
0.0
 10
48.7322532854
 20
20.014219647
 30
0.0
 10
47.6409200368
 20
19.9370678858
 30
0.0
 10
46.5417656021
 20
19.9525343786
 30
0.0
 10
45.4582372197
 20
20.0602839184
 30
0.0
 10
44.4134192618
 20
20.2580297213
 30
0.0
 10
43.4295219122
 20
20.5415823272
 30
0.0
 10
42.5272963532
 20
20.905067176
 30
0.0
 10
41.7258655221
 20
21.340933349
 30
0.0
 10
41.1440433629
 20
21.7660928146
 30
0.0
 10
40.7484804438
 20
22.135378358
 30
0.0
 10
40.4931220292
 20
22.4184765955
 30
0.0
 10
40.2743614122
 20
22.7118587349
 30
0.0
 10
40.0935012268
 20
23.0140558385
 30
0.0
 10
39.9515593724
 20
23.3234212001
 30
0.0
 10
39.8495094651
 20
23.6383327715
 30
0.0
 10
39.7879524134
 20
23.9569257232
 30
0.0
 10
39.7742360906
 20
24.1711040681
 30
0.0
 10
39.7742358378
 20
24.2774994531
 30
0.0
  0
SPLINE
  5
244
100
AcDbEntity
  8
0
100
AcDbSpline
 62
7
  6
BYLAYER
 70
0
 71
3
 72
27
 73
23
 74
0
 42
0.0000001
 43
0.0000001
 44
0.0000000001
 40
0.0
 40
0.0
 40
0.0
 40
0.0
 40
0.0623770042
 40
0.1287077854
 40
0.1982931919
 40
0.2702617155
 40
0.3436312263
 40
0.4173551009
 40
0.4903717406
 40
0.5616507006
 40
0.6302407828
 40
0.6953216433
 40
0.7562629097
 40
0.8126942772
 40
0.8392170753
 40
0.8646371108
 40
0.8890213593
 40
0.9124679401
 40
0.9351101104
 40
0.9571126976
 40
0.9786705976
 40
1.0
 40
1.0
 40
1.0
 40
1.0
 10
52.5775483544
 20
22.7670483859
 30
0.0
 10
52.3080848861
 20
22.6114745086
 30
0.0
 10
51.7306312717
 20
22.3267547766
 30
0.0
 10
50.7991157329
 20
21.9892417697
 30
0.0
 10
49.7924850135
 20
21.7336880767
 30
0.0
 10
48.7322532854
 20
21.5655742396
 30
0.0
 10
47.6409200368
 20
21.4884224784
 30
0.0
 10
46.5417656021
 20
21.5038889712
 30
0.0
 10
45.4582372197
 20
21.6116385109
 30
0.0
 10
44.4134192618
 20
21.8093843138
 30
0.0
 10
43.4295219122
 20
22.0929369198
 30
0.0
 10
42.5272963532
 20
22.4564217685
 30
0.0
 10
41.7258655221
 20
22.8922879415
 30
0.0
 10
41.1440433629
 20
23.3174474071
 30
0.0
 10
40.7484804438
 20
23.6867329506
 30
0.0
 10
40.4931220292
 20
23.969831188
 30
0.0
 10
40.2743614122
 20
24.2632133275
 30
0.0
 10
40.0935012268
 20
24.565410431
 30
0.0
 10
39.9515593724
 20
24.8747757927
 30
0.0
 10
39.8495094651
 20
25.189687364
 30
0.0
 10
39.7879524134
 20
25.5082803158
 30
0.0
 10
39.7742360906
 20
25.7224586607
 30
0.0
 10
39.7742358378
 20
25.8288540457
 30
0.0
  0
SPLINE
  5
245
100
AcDbEntity
  8
0
100
AcDbSpline
 62
7
  6
BYLAYER
 70
0
 71
3
 72
12
 73
8
 74
0
 42
0.0000001
 43
0.0000001
 44
0.0000000001
 40
0.0
 40
0.0
 40
0.0
 40
0.0
 40
0.2585420081
 40
0.5093697063
 40
0.7555477731
 40
0.8777669561
 40
1.0
 40
1.0
 40
1.0
 40
1.0
 10
53.5761020871
 20
30.4321811884
 30
0.0
 10
53.7584784409
 20
30.2516785359
 30
0.0
 10
54.0915216351
 20
29.8677027872
 30
0.0
 10
54.4764024945
 20
29.2191764153
 30
0.0
 10
54.6788840286
 20
28.6334961997
 30
0.0
 10
54.7605275359
 20
28.1526301275
 30
0.0
 10
54.7742254158
 20
27.9097736285
 30
0.0
 10
54.7742254158
 20
27.7884598459
 30
0.0
  0
SPLINE
  5
246
100
AcDbEntity
  8
0
100
AcDbSpline
 62
7
  6
BYLAYER
 70
0
 71
3
 72
13
 73
9
 74
0
 42
0.0000001
 43
0.0000001
 44
0.0000000001
 40
0.0
 40
0.0
 40
0.0
 40
0.0
 40
0.1222856157
 40
0.2445734595
 40
0.3674542588
 40
0.4911482572
 40
0.7418625103
 40
1.0
 40
1.0
 40
1.0
 40
1.0
 10
39.7742254158
 20
27.7884598459
 30
0.0
 10
39.7742254158
 20
27.9076527352
 30
0.0
 10
39.7874348927
 20
28.146250996
 30
0.0
 10
39.8465094455
 20
28.5001880476
 30
0.0
 10
39.9436551966
 20
28.8470704906
 30
0.0
 10
40.1221725665
 20
29.2985179908
 30
0.0
 10
40.4341985382
 20
29.8348547809
 30
0.0
 10
40.7569625916
 20
30.2147516611
 30
0.0
 10
40.9338567333
 20
30.3936804669
 30
0.0
  0
SPLINE
  5
247
100
AcDbEntity
  8
0
100
AcDbSpline
 62
7
  6
BYLAYER
 70
0
 71
3
 72
15
 73
11
 74
0
 42
0.0000001
 43
0.0000001
 44
0.0000000001
 40
0.0
 40
0.0
 40
0.0
 40
0.0
 40
0.1080118158
 40
0.2180602371
 40
0.3319969938
 40
0.4513559062
 40
0.5772753985
 40
0.7104908092
 40
0.8514143906
 40
1.0
 40
1.0
 40
1.0
 40
1.0
 10
54.7742149938
 20
25.8288540439
 30
0.0
 10
54.7742153313
 20
25.6868707212
 30
0.0
 10
54.7495616298
 20
25.3996504829
 30
0.0
 10
54.6395107448
 20
24.9754155944
 30
0.0
 10
54.4578425352
 20
24.5603214417
 30
0.0
 10
54.2068718934
 20
24.1585701423
 30
0.0
 10
53.8894311559
 20
23.773800419
 30
0.0
 10
53.5087504364
 20
23.4094146058
 30
0.0
 10
53.0686299961
 20
23.0687602039
 30
0.0
 10
52.7466991706
 20
22.8647070722
 30
0.0
 10
52.5775483544
 20
22.7670483859
 30
0.0
  0
SPLINE
  5
248
100
AcDbEntity
  8
0
100
AcDbSpline
 62
7
  6
BYLAYER
 70
0
 71
3
 72
15
 73
11
 74
0
 42
0.0000001
 43
0.0000001
 44
0.0000000001
 40
0.0
 40
0.0
 40
0.0
 40
0.0
 40
0.1080118158
 40
0.2180602371
 40
0.3319969938
 40
0.4513559062
 40
0.5772753985
 40
0.7104908092
 40
0.8514143906
 40
1.0
 40
1.0
 40
1.0
 40
1.0
 10
54.7742149938
 20
24.2774994514
 30
0.0
 10
54.7742153313
 20
24.1355161287
 30
0.0
 10
54.7495616298
 20
23.8482958903
 30
0.0
 10
54.6395107448
 20
23.4240610018
 30
0.0
 10
54.4578425352
 20
23.0089668491
 30
0.0
 10
54.2068718934
 20
22.6072155497
 30
0.0
 10
53.8894311559
 20
22.2224458265
 30
0.0
 10
53.5087504364
 20
21.8580600133
 30
0.0
 10
53.0686299961
 20
21.5174056114
 30
0.0
 10
52.7466991706
 20
21.3133524797
 30
0.0
 10
52.5775483544
 20
21.2156937933
 30
0.0
  0
SPLINE
  5
249
100
AcDbEntity
  8
0
100
AcDbSpline
 62
7
  6
BYLAYER
 70
0
 71
3
 72
15
 73
11
 74
0
 42
0.0000001
 43
0.0000001
 44
0.0000000001
 40
0.0
 40
0.0
 40
0.0
 40
0.0
 40
0.1485856112
 40
0.2895086371
 40
0.422723745
 40
0.5486431539
 40
0.6680019726
 40
0.7819388787
 40
0.8919876968
 40
1.0
 40
1.0
 40
1.0
 40
1.0
 10
52.5775483544
 20
21.7872454853
 30
0.0
 10
52.746699179
 20
21.8849041765
 30
0.0
 10
53.0686295195
 20
22.0889567376
 30
0.0
 10
53.5087490483
 20
22.4296105346
 30
0.0
 10
53.8894288865
 20
22.7939954417
 30
0.0
 10
54.2068701609
 20
23.1787639246
 30
0.0
 10
54.4578409126
 20
23.5805151918
 30
0.0
 10
54.6395095475
 20
23.9956097397
 30
0.0
 10
54.7495621363
 20
24.4198456857
 30
0.0
 10
54.7742152409
 20
24.707067175
 30
0.0
 10
54.7742150773
 20
24.8490511436
 30
0.0
  0
SPLINE
  5
24A
100
AcDbEntity
  8
0
100
AcDbSpline
 62
7
  6
BYLAYER
 70
0
 71
3
 72
24
 73
20
 74
0
 42
0.0000001
 43
0.0000001
 44
0.0000000001
 40
0.0
 40
0.0
 40
0.0
 40
0.0
 40
0.0605178757
 40
0.1246120928
 40
0.1917248318
 40
0.2611702301
 40
0.332164487
 40
0.4038655937
 40
0.4754045859
 40
0.5459188984
 40
0.61458429
 40
0.6806486705
 40
0.7434688244
 40
0.8025524395
 40
0.8576075257
 40
0.9086006429
 40
0.9558217302
 40
0.9782394947
 40
1.0
 40
1.0
 40
1.0
 40
1.0
 10
52.2239934918
 20
21.9913658626
 30
0.0
 10
51.9939111285
 20
21.8585285411
 30
0.0
 10
51.5034242521
 20
21.6133242833
 30
0.0
 10
50.7148822622
 20
21.3155288151
 30
0.0
 10
49.8644752761
 20
21.081387788
 30
0.0
 10
48.9675625006
 20
20.9151062545
 30
0.0
 10
48.0401789188
 20
20.8196443423
 30
0.0
 10
47.0990141936
 20
20.7967133492
 30
0.0
 10
46.1610024714
 20
20.8467284889
 30
0.0
 10
45.2430234648
 20
20.9687885854
 30
0.0
 10
44.3615687068
 20
21.160707081
 30
0.0
 10
43.5324307728
 20
21.4190645637
 30
0.0
 10
42.7704006957
 20
21.7393177034
 30
0.0
 10
42.0890183872
 20
22.1159121847
 30
0.0
 10
41.500331839
 20
22.5425878516
 30
0.0
 10
41.0150003084
 20
23.0122303067
 30
0.0
 10
40.698807217
 20
23.4410760164
 30
0.0
 10
40.5104968113
 20
23.7960378913
 30
0.0
 10
40.4375661366
 20
23.9762254565
 30
0.0
 10
40.4066718379
 20
24.0666213703
 30
0.0
  0
SPLINE
  5
24B
100
AcDbEntity
  8
0
100
AcDbSpline
 62
7
  6
BYLAYER
 70
0
 71
3
 72
14
 73
10
 74
0
 42
0.0000001
 43
0.0000001
 44
0.0000000001
 40
0.0
 40
0.0
 40
0.0
 40
0.0
 40
0.1083167088
 40
0.2201899387
 40
0.3364661352
 40
0.4577945979
 40
0.7170258916
 40
0.8556127388
 40
1.0
 40
1.0
 40
1.0
 40
1.0
 10
54.1799130857
 20
24.187910095
 30
0.0
 10
54.1499008291
 20
24.0834075449
 30
0.0
 10
54.0750361135
 20
23.8747251754
 30
0.0
 10
53.9231419301
 20
23.5722649121
 30
0.0
 10
53.7311596494
 20
23.277811357
 30
0.0
 10
53.4166403211
 20
22.8898571261
 30
0.0
 10
53.0312233871
 20
22.5344365093
 30
0.0
 10
52.5909544303
 20
22.2140510115
 30
0.0
 10
52.349510141
 20
22.0638325012
 30
0.0
 10
52.2239934918
 20
21.9913658626
 30
0.0
  0
SPLINE
  5
24C
100
AcDbEntity
  8
0
100
AcDbSpline
 62
7
  6
BYLAYER
 70
0
 71
3
 72
15
 73
11
 74
0
 42
0.0000001
 43
0.0000001
 44
0.0000000001
 40
0.0
 40
0.0
 40
0.0
 40
0.0
 40
0.1280763549
 40
0.2510914399
 40
0.3709877763
 40
0.4899807425
 40
0.6103724542
 40
0.7343349251
 40
0.8637305564
 40
1.0
 40
1.0
 40
1.0
 40
1.0
 10
41.2300486551
 20
29.9014907616
 30
0.0
 10
41.1624407892
 20
29.7893766104
 30
0.0
 10
41.0447894879
 20
29.5600304424
 30
0.0
 10
40.9253061545
 20
29.198457815
 30
0.0
 10
40.8685530979
 20
28.8310793144
 30
0.0
 10
40.8754969294
 20
28.4620628541
 30
0.0
 10
40.9459661953
 20
28.0956082959
 30
0.0
 10
41.0789225757
 20
27.7357222146
 30
0.0
 10
41.2725572358
 20
27.3861422591
 30
0.0
 10
41.4360206043
 20
27.1681610161
 30
0.0
 10
41.5261135206
 20
27.0619218031
 30
0.0
  0
SPLINE
  5
24D
100
AcDbEntity
  8
0
100
AcDbSpline
 62
7
  6
BYLAYER
 70
0
 71
3
 72
23
 73
19
 74
0
 42
0.0000001
 43
0.0000001
 44
0.0000000001
 40
0.0
 40
0.0
 40
0.0
 40
0.0
 40
0.0486682402
 40
0.1007601343
 40
0.1563060232
 40
0.2151534798
 40
0.277003365
 40
0.3414406322
 40
0.4079606553
 40
0.4759922103
 40
0.5449188434
 40
0.614098643
 40
0.6828821186
 40
0.750630751
 40
0.8167381306
 40
0.880640889
 40
0.9418662307
 40
1.0
 40
1.0
 40
1.0
 40
1.0
 10
41.5261135206
 20
27.0619218031
 30
0.0
 10
41.6413635121
 20
26.9260169075
 30
0.0
 10
41.9017392949
 20
26.6626633767
 30
0.0
 10
42.3541128119
 20
26.3100461533
 30
0.0
 10
42.8749311281
 20
25.9910818436
 30
0.0
 10
43.456884791
 20
25.7100934721
 30
0.0
 10
44.0919733975
 20
25.4708050084
 30
0.0
 10
44.7714006095
 20
25.2764904611
 30
0.0
 10
45.4857370617
 20
25.1298291488
 30
0.0
 10
46.2250347875
 20
25.0328530517
 30
0.0
 10
46.9789818862
 20
24.9869064071
 30
0.0
 10
47.7370529187
 20
24.9926314398
 30
0.0
 10
48.4886596817
 20
25.0499491101
 30
0.0
 10
49.2233165131
 20
25.1580644425
 30
0.0
 10
49.9307539393
 20
25.3154807363
 30
0.0
 10
50.6012049559
 20
25.5199931754
 30
0.0
 10
51.2252094198
 20
25.7688008923
 30
0.0
 10
51.6153940765
 20
25.9674472689
 30
0.0
 10
51.7997276567
 20
26.0738716758
 30
0.0
  0
SPLINE
  5
24E
100
AcDbEntity
  8
0
100
AcDbSpline
 62
7
  6
BYLAYER
 70
0
 71
3
 72
20
 73
16
 74
0
 42
0.0000001
 43
0.0000001
 44
0.0000000001
 40
0.0
 40
0.0
 40
0.0
 40
0.0
 40
0.1517723828
 40
0.2920887753
 40
0.4214796446
 40
0.4826333338
 40
0.5417855802
 40
0.5993359919
 40
0.6557514388
 40
0.711548676
 40
0.7672749534
 40
0.8234804607
 40
0.8806934433
 40
0.939393637
 40
1.0
 40
1.0
 40
1.0
 40
1.0
 10
51.7997276567
 20
26.0738716758
 30
0.0
 10
52.0048554557
 20
26.1923015589
 30
0.0
 10
52.3869203864
 20
26.4437417101
 30
0.0
 10
52.8819352834
 20
26.8804423285
 30
0.0
 10
53.2092839341
 20
27.2838780842
 30
0.0
 10
53.4074142664
 20
27.6201423303
 30
0.0
 10
53.5227096225
 20
27.8732425238
 30
0.0
 10
53.6067585833
 20
28.1306313386
 30
0.0
 10
53.6590669813
 20
28.3909977717
 30
0.0
 10
53.6793087409
 20
28.6529612164
 30
0.0
 10
53.6673231242
 20
28.9151064371
 30
0.0
 10
53.6232329423
 20
29.1760173711
 30
0.0
 10
53.5472626887
 20
29.4342995259
 30
0.0
 10
53.4399616119
 20
29.6886068161
 30
0.0
 10
53.349481147
 20
29.8517817171
 30
0.0
 10
53.2996319612
 20
29.9321635205
 30
0.0
  0
SPLINE
  5
24F
100
AcDbEntity
  8
0
100
AcDbSpline
 62
7
  6
BYLAYER
 70
0
 71
3
 72
16
 73
12
 74
0
 42
0.0000001
 43
0.0000001
 44
0.0000000001
 40
0.0
 40
0.0
 40
0.0
 40
0.0
 40
0.1091837744
 40
0.2190505321
 40
0.3320364305
 40
0.4502547405
 40
0.5118961411
 40
0.5754029825
 40
0.7083951305
 40
0.8499271111
 40
1.0
 40
1.0
 40
1.0
 40
1.0
 10
52.3583497042
 20
28.9186828663
 30
0.0
 10
52.3727381656
 20
28.8136135114
 30
0.0
 10
52.3820958058
 20
28.5995797052
 30
0.0
 10
52.3351980751
 20
28.2786938458
 30
0.0
 10
52.2283027166
 20
27.9633372318
 30
0.0
 10
52.0925877353
 20
27.7119036042
 30
0.0
 10
51.9577181309
 20
27.5175788907
 30
0.0
 10
51.8003799436
 20
27.3221121693
 30
0.0
 10
51.5688591133
 20
27.0879400527
 30
0.0
 10
51.2457954785
 20
26.830350901
 30
0.0
 10
51.0067218176
 20
26.6774670742
 30
0.0
 10
50.880485014
 20
26.6045846567
 30
0.0
  0
SPLINE
  5
250
100
AcDbEntity
  8
0
100
AcDbSpline
 62
7
  6
BYLAYER
 70
0
 71
3
 72
26
 73
22
 74
0
 42
0.0000001
 43
0.0000001
 44
0.0000000001
 40
0.0
 40
0.0
 40
0.0
 40
0.0
 40
0.0628900425
 40
0.1298453604
 40
0.2001153224
 40
0.2727746195
 40
0.3467793401
 40
0.4210205181
 40
0.4943783671
 40
0.5657748657
 40
0.634226292
 40
0.6989020493
 40
0.759191913
 40
0.8147866637
 40
0.8657744529
 40
0.8897357193
 40
0.9128131984
 40
0.9351705115
 40
0.9570028516
 40
0.978533166
 40
1.0
 40
1.0
 40
1.0
 40
1.0
 10
50.880485014
 20
26.6045846567
 30
0.0
 10
50.6927821283
 20
26.496214992
 30
0.0
 10
50.2899308111
 20
26.2983764575
 30
0.0
 10
49.6395028104
 20
26.0655055992
 30
0.0
 10
48.9362924538
 20
25.8912237205
 30
0.0
 10
48.1960495378
 20
25.779422896
 30
0.0
 10
47.4352093814
 20
25.7325734599
 30
0.0
 10
46.6707722667
 20
25.751718738
 30
0.0
 10
45.9198125232
 20
25.8364351914
 30
0.0
 10
45.1990810616
 20
25.9848339966
 30
0.0
 10
44.524590259
 20
26.1936455368
 30
0.0
 10
43.9112526906
 20
26.4583136065
 30
0.0
 10
43.3724983473
 20
26.7732961086
 30
0.0
 10
42.9202509133
 20
27.1320128436
 30
0.0
 10
42.6176951568
 20
27.4688615245
 30
0.0
 10
42.4327174807
 20
27.7522327644
 30
0.0
 10
42.3243290689
 20
27.9660049501
 30
0.0
 10
42.2441105461
 20
28.1841030356
 30
0.0
 10
42.1926826584
 20
28.4053104144
 30
0.0
 10
42.1703561142
 20
28.6282214554
 30
0.0
 10
42.1750260276
 20
28.7768306666
 30
0.0
 10
42.1821380816
 20
28.8504699751
 30
0.0
  0
SPLINE
  5
251
100
AcDbEntity
  8
0
100
AcDbSpline
 62
7
  6
BYLAYER
 70
0
 71
3
 72
15
 73
11
 74
0
 42
0.0000001
 43
0.0000001
 44
0.0000000001
 40
0.0
 40
0.0
 40
0.0
 40
0.0
 40
0.1485855515
 40
0.2895083633
 40
0.4227232286
 40
0.5486425556
 40
0.6680017289
 40
0.7819390888
 40
0.8919878313
 40
1.0
 40
1.0
 40
1.0
 40
1.0
 10
52.5775483544
 20
24.726654187
 30
0.0
 10
52.7466991572
 20
24.8243128656
 30
0.0
 10
53.0686293009
 20
25.0283652473
 30
0.0
 10
53.508748539
 20
25.3690185721
 30
0.0
 10
53.8894280732
 20
25.7334029246
 30
0.0
 10
54.206870286
 20
26.1181709008
 30
0.0
 10
54.4578413303
 20
26.5199232559
 30
0.0
 10
54.6395113467
 20
26.9350183748
 30
0.0
 10
54.7495641272
 20
27.359254762
 30
0.0
 10
54.7742174267
 20
27.6464760153
 30
0.0
 10
54.7742173932
 20
27.7884598459
 30
0.0
  0
SPLINE
  5
252
100
AcDbEntity
  8
0
100
AcDbSpline
 62
7
  6
BYLAYER
 70
0
 71
3
 72
28
 73
24
 74
0
 42
0.0000001
 43
0.0000001
 44
0.0000000001
 40
0.0
 40
0.0
 40
0.0
 40
0.0
 40
0.0493416747
 40
0.0726024886
 40
0.0952313173
 40
0.11753851
 40
0.1398574327
 40
0.1625207213
 40
0.1858362567
 40
0.2100682063
 40
0.2354263325
 40
0.2620618467
 40
0.2900695624
 40
0.3502761251
 40
0.4159393959
 40
0.4863399307
 40
0.5603737091
 40
0.636681176
 40
0.7137564114
 40
0.7900457055
 40
0.8640449354
 40
0.9343965523
 40
1.0
 40
1.0
 40
1.0
 40
1.0
 10
44.2237932222
 20
36.9303260885
 30
0.0
 10
44.1458077445
 20
36.832858299
 30
0.0
 10
44.0455988836
 20
36.6759613954
 30
0.0
 10
43.9597029627
 20
36.450193479
 30
0.0
 10
43.9218335721
 20
36.2812118024
 30
0.0
 10
43.9097689925
 20
36.1108493488
 30
0.0
 10
43.9236412965
 20
35.9405311509
 30
0.0
 10
43.9632742944
 20
35.7717206368
 30
0.0
 10
44.0282759858
 20
35.6058126212
 30
0.0
 10
44.1179815626
 20
35.444084674
 30
0.0
 10
44.2316246178
 20
35.2877538145
 30
0.0
 10
44.3682393135
 20
35.1379129449
 30
0.0
 10
44.5848140661
 20
34.9436134266
 30
0.0
 10
44.9092987856
 20
34.724971881
 30
0.0
 10
45.3589655895
 20
34.5109959579
 30
0.0
 10
45.8652203541
 20
34.3449144025
 30
0.0
 10
46.4131372109
 20
34.2315509515
 30
0.0
 10
46.9866000412
 20
34.1741858595
 30
0.0
 10
47.5686024322
 20
34.1745240642
 30
0.0
 10
48.1418561425
 20
34.2325466911
 30
0.0
 10
48.6894145121
 20
34.346564641
 30
0.0
 10
49.1949783512
 20
34.5131641959
 30
0.0
 10
49.506503458
 20
34.6620430189
 30
0.0
 10
49.6502348206
 20
34.7450258645
 30
0.0
  0
SPLINE
  5
253
100
AcDbEntity
  8
0
100
AcDbSpline
 62
7
  6
BYLAYER
 70
0
 71
3
 72
19
 73
15
 74
0
 42
0.0000001
 43
0.0000001
 44
0.0000000001
 40
0.0
 40
0.0
 40
0.0
 40
0.0
 40
0.1512363412
 40
0.2901285504
 40
0.4174564347
 40
0.4775121352
 40
0.5356381772
 40
0.5923464795
 40
0.6482216688
 40
0.7038930722
 40
0.7600025585
 40
0.8171664825
 40
0.8759455188
 40
1.0
 40
1.0
 40
1.0
 40
1.0
 10
49.6502348206
 20
34.7450258645
 30
0.0
 10
49.7660477104
 20
34.8118900685
 30
0.0
 10
49.9805813075
 20
34.9544084309
 30
0.0
 10
50.25434042
 20
35.2043762908
 30
0.0
 10
50.4295308557
 20
35.4363695255
 30
0.0
 10
50.5299522736
 20
35.6293170444
 30
0.0
 10
50.58493068
 20
35.7742712643
 30
0.0
 10
50.6205882395
 20
35.9213664478
 30
0.0
 10
50.6366808616
 20
36.0697023104
 30
0.0
 10
50.6330615509
 20
36.2183409875
 30
0.0
 10
50.6097775226
 20
36.3663264577
 30
0.0
 10
50.5669865025
 20
36.5127541423
 30
0.0
 10
50.4829465401
 20
36.7080550505
 30
0.0
 10
50.3932814359
 20
36.8445383406
 30
0.0
 10
50.3247580603
 20
36.9301961916
 30
0.0
  0
SPLINE
  5
254
100
AcDbEntity
  8
0
100
AcDbSpline
 62
7
  6
BYLAYER
 70
0
 71
3
 72
27
 73
23
 74
0
 42
0.0000001
 43
0.0000001
 44
0.0000000001
 40
0.0
 40
0.0
 40
0.0
 40
0.0
 40
0.0213294432
 40
0.0428873859
 40
0.0648900165
 40
0.0875322359
 40
0.1109788618
 40
0.1353631447
 40
0.1607832008
 40
0.1873060041
 40
0.2437373614
 40
0.3046785781
 40
0.3697593486
 40
0.4383494073
 40
0.5096284527
 40
0.582645134
 40
0.6563689473
 40
0.7297383554
 40
0.8017071179
 40
0.8712924624
 40
0.9376230686
 40
1.0
 40
1.0
 40
1.0
 40
1.0
 10
39.7742334384
 20
27.7884598459
 30
0.0
 10
39.7742334635
 20
27.6820642247
 30
0.0
 10
39.7879497562
 20
27.4678853772
 30
0.0
 10
39.8495067675
 20
27.1492916733
 30
0.0
 10
39.9515569403
 20
26.834379361
 30
0.0
 10
40.09349917
 20
26.5250132983
 30
0.0
 10
40.2743598723
 20
26.2228156256
 30
0.0
 10
40.493120991
 20
25.9294330928
 30
0.0
 10
40.7484798977
 20
25.6463347358
 30
0.0
 10
41.1440431781
 20
25.2770492224
 30
0.0
 10
41.7258655766
 20
24.8518901666
 30
0.0
 10
42.527296183
 20
24.416024578
 30
0.0
 10
43.4295213808
 20
24.052540219
 30
0.0
 10
44.4134189845
 20
23.7689878562
 30
0.0
 10
45.4582378503
 20
23.5712422907
 30
0.0
 10
46.5417669377
 20
23.4634930879
 30
0.0
 10
47.6409211054
 20
23.448027137
 30
0.0
 10
48.732255042
 20
23.5251792135
 30
0.0
 10
49.7924873817
 20
23.6932937682
 30
0.0
 10
50.79911828
 20
23.9488480743
 30
0.0
 10
51.730632497
 20
24.2863610665
 30
0.0
 10
52.3080851172
 20
24.5710804431
 30
0.0
 10
52.5775483544
 20
24.726654187
 30
0.0
  0
SPLINE
  5
255
100
AcDbEntity
  8
0
100
AcDbSpline
 62
7
  6
BYLAYER
 70
0
 71
3
 72
26
 73
22
 74
0
 42
0.0000001
 43
0.0000001
 44
0.0000000001
 40
0.0
 40
0.0
 40
0.0
 40
0.0
 40
0.0641948569
 40
0.1327535287
 40
0.2047815853
 40
0.2791895308
 40
0.3547493512
 40
0.4301746982
 40
0.5041835177
 40
0.5755704073
 40
0.6432773985
 40
0.7064756916
 40
0.7646624498
 40
0.8177788225
 40
0.8663440361
 40
0.8893138954
 40
0.9116566148
 40
0.9336218307
 40
0.9554830287
 40
0.9775193342
 40
1.0
 40
1.0
 40
1.0
 40
1.0
 10
49.3955545912
 20
34.8920622371
 30
0.0
 10
49.2777927278
 20
34.8240727994
 30
0.0
 10
49.0240047306
 20
34.7008232398
 30
0.0
 10
48.613312491
 20
34.5586544467
 30
0.0
 10
48.168836408
 20
34.4558560629
 30
0.0
 10
47.7018422333
 20
34.3950087041
 30
0.0
 10
47.2240434767
 20
34.3776438868
 30
0.0
 10
46.7475121813
 20
34.4041903432
 30
0.0
 10
46.2842701505
 20
34.4739860578
 30
0.0
 10
45.8459783867
 20
34.5852778673
 30
0.0
 10
45.4436045649
 20
34.7353203444
 30
0.0
 10
45.0871440056
 20
34.9204788227
 30
0.0
 10
44.7853849918
 20
35.1365338543
 30
0.0
 10
44.5459513102
 20
35.3786284875
 30
0.0
 10
44.4011964662
 20
35.6024450698
 30
0.0
 10
44.3258292469
 20
35.786988507
 30
0.0
 10
44.2893683812
 20
35.92520115
 30
0.0
 10
44.2723414529
 20
36.0647723413
 30
0.0
 10
44.2748489097
 20
36.2047204109
 30
0.0
 10
44.2968862993
 20
36.3440170909
 30
0.0
 10
44.3241196227
 20
36.4346298062
 30
0.0
 10
44.3406695894
 20
36.4792805531
 30
0.0
  0
SPLINE
  5
256
100
AcDbEntity
  8
0
100
AcDbSpline
 62
7
  6
BYLAYER
 70
0
 71
3
 72
15
 73
11
 74
0
 42
0.0000001
 43
0.0000001
 44
0.0000000001
 40
0.0
 40
0.0
 40
0.0
 40
0.0
 40
0.1120853396
 40
0.2225501501
 40
0.3345862383
 40
0.4511758321
 40
0.5747210707
 40
0.7068699709
 40
0.8485943635
 40
1.0
 40
1.0
 40
1.0
 40
1.0
 10
50.2244779737
 20
36.4308668395
 30
0.0
 10
50.246024169
 20
36.3634029277
 30
0.0
 10
50.2758713515
 20
36.2248096466
 30
0.0
 10
50.2761891192
 20
36.0118767433
 30
0.0
 10
50.2314311024
 20
35.8007876572
 30
0.0
 10
50.1427407484
 20
35.595268043
 30
0.0
 10
50.0120546891
 20
35.398366543
 30
0.0
 10
49.8416720598
 20
35.2126919284
 30
0.0
 10
49.6342906759
 20
35.0407276054
 30
0.0
 10
49.4784034888
 20
34.9398947848
 30
0.0
 10
49.3955545912
 20
34.8920622371
 30
0.0
  0
SPLINE
  5
257
100
AcDbEntity
  8
0
100
AcDbSpline
 62
7
  6
BYLAYER
 70
0
 71
3
 72
27
 73
23
 74
0
 42
0.0000001
 43
0.0000001
 44
0.0000000001
 40
0.0
 40
0.0
 40
0.0
 40
0.0
 40
0.0213294451
 40
0.0428873778
 40
0.0648899832
 40
0.0875321606
 40
0.1109787481
 40
0.1353630057
 40
0.1607830612
 40
0.1873058817
 40
0.2437372824
 40
0.3046785061
 40
0.3697592507
 40
0.4383492113
 40
0.5096280667
 40
0.5826445432
 40
0.6563681728
 40
0.7297375213
 40
0.8017061199
 40
0.8712917419
 40
0.9376228274
 40
1.0
 40
1.0
 40
1.0
 40
1.0
 10
39.7742357543
 20
24.8490511448
 30
0.0
 10
39.7742358769
 20
24.7426555464
 30
0.0
 10
39.7879524024
 20
24.5284768217
 30
0.0
 10
39.8495095896
 20
24.2098834235
 30
0.0
 10
39.9515598509
 20
23.8949716607
 30
0.0
 10
40.0935017676
 20
23.5856061478
 30
0.0
 10
40.2743623588
 20
23.2834091521
 30
0.0
 10
40.4931230337
 20
22.9900268344
 30
0.0
 10
40.7484819248
 20
22.7069286715
 30
0.0
 10
41.1440451392
 20
22.3376429011
 30
0.0
 10
41.72586763
 20
21.912483747
 30
0.0
 10
42.5272980119
 20
21.4766180918
 30
0.0
 10
43.4295223276
 20
21.1131338996
 30
0.0
 10
44.4134180213
 20
20.8295817297
 30
0.0
 10
45.4582340363
 20
20.6318361157
 30
0.0
 10
46.541759834
 20
20.5240864686
 30
0.0
 10
47.6409114055
 20
20.5086194273
 30
0.0
 10
48.7322430636
 20
20.5857701754
 30
0.0
 10
49.7924755536
 20
20.7538832915
 30
0.0
 10
50.7991094198
 20
21.009436724
 30
0.0
 10
51.7306283183
 20
21.3469506059
 30
0.0
 10
52.3080841575
 20
21.6316711874
 30
0.0
 10
52.5775483544
 20
21.7872454853
 30
0.0
  0
SPLINE
  5
258
100
AcDbEntity
  8
0
100
AcDbSpline
 62
7
  6
BYLAYER
 70
0
 71
3
 72
25
 73
21
 74
0
 42
0.0000001
 43
0.0000001
 44
0.0000000001
 40
0.0
 40
0.0
 40
0.0
 40
0.0
 40
0.0623832409
 40
0.1287222727
 40
0.1983149037
 40
0.2702914246
 40
0.3436689254
 40
0.4174010067
 40
0.4904256734
 40
0.5617123831
 40
0.6303098345
 40
0.6953976889
 40
0.7563455622
 40
0.8127830712
 40
0.8646837042
 40
0.9124584274
 40
0.9351028643
 40
0.9571080337
 40
0.9786681828
 40
1.0
 40
1.0
 40
1.0
 40
1.0
 10
51.7643721705
 20
11.2339397218
 30
0.0
 10
51.5362285247
 20
11.1022217127
 30
0.0
 10
51.0473153853
 20
10.8611600096
 30
0.0
 10
50.2586335519
 20
10.5753942924
 30
0.0
 10
49.4063485095
 20
10.3590289745
 30
0.0
 10
48.5086872348
 20
10.2166900028
 30
0.0
 10
47.5846903146
 20
10.1513696623
 30
0.0
 10
46.6540722439
 20
10.1644640352
 30
0.0
 10
45.7366835719
 20
10.2556929306
 30
0.0
 10
44.8520733913
 20
10.4231163913
 30
0.0
 10
44.0190345135
 20
10.6631954152
 30
0.0
 10
43.2551749957
 20
10.9709296035
 30
0.0
 10
42.5765507072
 20
11.3400164223
 30
0.0
 10
41.9973494827
 20
11.7632761405
 30
0.0
 10
41.5299863651
 20
12.2325131797
 30
0.0
 10
41.2374170371
 20
12.6630264028
 30
0.0
 10
41.0743881074
 20
13.0184778249
 30
0.0
 10
40.9879555107
 20
13.2851057324
 30
0.0
 10
40.9358590258
 20
13.5548501306
 30
0.0
 10
40.9242364693
 20
13.7361867255
 30
0.0
 10
40.9242322987
 20
13.8262685175
 30
0.0
  0
SPLINE
  5
259
100
AcDbEntity
  8
0
100
AcDbSpline
 62
7
  6
BYLAYER
 70
0
 71
3
 72
25
 73
21
 74
0
 42
0.0000001
 43
0.0000001
 44
0.0000000001
 40
0.0
 40
0.0
 40
0.0
 40
0.0
 40
0.0623832409
 40
0.1287222727
 40
0.1983149037
 40
0.2702914246
 40
0.3436689254
 40
0.4174010067
 40
0.4904256734
 40
0.5617123831
 40
0.6303098345
 40
0.6953976889
 40
0.7563455622
 40
0.8127830712
 40
0.8646837042
 40
0.9124584274
 40
0.9351028643
 40
0.9571080337
 40
0.9786681828
 40
1.0
 40
1.0
 40
1.0
 40
1.0
 10
51.7643721705
 20
16.7045059166
 30
0.0
 10
51.5362285247
 20
16.5727879075
 30
0.0
 10
51.0473153853
 20
16.3317262044
 30
0.0
 10
50.2586335519
 20
16.0459604872
 30
0.0
 10
49.4063485095
 20
15.8295951693
 30
0.0
 10
48.5086872348
 20
15.6872561975
 30
0.0
 10
47.5846903146
 20
15.6219358571
 30
0.0
 10
46.6540722439
 20
15.6350302299
 30
0.0
 10
45.7366835719
 20
15.7262591254
 30
0.0
 10
44.8520733913
 20
15.8936825861
 30
0.0
 10
44.0190345135
 20
16.13376161
 30
0.0
 10
43.2551749957
 20
16.4414957982
 30
0.0
 10
42.5765507072
 20
16.8105826171
 30
0.0
 10
41.9973494827
 20
17.2338423353
 30
0.0
 10
41.5299863651
 20
17.7030793744
 30
0.0
 10
41.2374170371
 20
18.1335925976
 30
0.0
 10
41.0743881074
 20
18.4890440197
 30
0.0
 10
40.9879555107
 20
18.7556719272
 30
0.0
 10
40.9358590258
 20
19.0254163254
 30
0.0
 10
40.9242364693
 20
19.2067529202
 30
0.0
 10
40.9242322987
 20
19.2968347123
 30
0.0
  0
SPLINE
  5
25A
100
AcDbEntity
  8
0
100
AcDbSpline
 62
7
  6
BYLAYER
 70
0
 71
3
 72
23
 73
19
 74
0
 42
0.0000001
 43
0.0000001
 44
0.0000000001
 40
0.0
 40
0.0
 40
0.0
 40
0.0
 40
0.0596117129
 40
0.1226206874
 40
0.1885234765
 40
0.2567198774
 40
0.3265112937
 40
0.3971480902
 40
0.4678493807
 40
0.5378328431
 40
0.6063404762
 40
0.6726660849
 40
0.736184344
 40
0.7963832783
 40
0.8529018187
 40
0.9055739933
 40
0.9544800568
 40
1.0
 40
1.0
 40
1.0
 40
1.0
 10
52.0118605743
 20
18.5947126711
 30
0.0
 10
51.8016285931
 20
18.4733359047
 30
0.0
 10
51.3546051658
 20
18.2483616106
 30
0.0
 10
50.6372560468
 20
17.9719751426
 30
0.0
 10
49.8645686418
 20
17.7509534741
 30
0.0
 10
49.0493485885
 20
17.5888911077
 30
0.0
 10
48.2048995425
 20
17.4884510517
 30
0.0
 10
47.3451327752
 20
17.451267058
 30
0.0
 10
46.4841951983
 20
17.4779609086
 30
0.0
 10
45.6362672354
 20
17.5680921828
 30
0.0
 10
44.8152968666
 20
17.7201799171
 30
0.0
 10
44.0347601591
 20
17.9317357463
 30
0.0
 10
43.3074291292
 20
18.1993250057
 30
0.0
 10
42.6451528851
 20
18.5186708293
 30
0.0
 10
42.0586957549
 20
18.8847384007
 30
0.0
 10
41.5575683737
 20
19.2920384145
 30
0.0
 10
41.1502327221
 20
19.7342867388
 30
0.0
 10
40.9393251495
 20
20.058799034
 30
0.0
 10
40.8541801923
 20
20.2234565042
 30
0.0
  0
SPLINE
  5
25B
100
AcDbEntity
  8
0
100
AcDbSpline
 62
7
  6
BYLAYER
 70
0
 71
3
 72
23
 73
19
 74
0
 42
0.0000001
 43
0.0000001
 44
0.0000000001
 40
0.0
 40
0.0
 40
0.0
 40
0.0
 40
0.0566284217
 40
0.1159963553
 40
0.1777847481
 40
0.2416444781
 40
0.307151493
 40
0.3738456319
 40
0.441238755
 40
0.5088256164
 40
0.576096817
 40
0.6425502413
 40
0.7077030651
 40
0.7711033994
 40
0.8323432065
 40
0.8910735158
 40
0.9470198504
 40
1.0
 40
1.0
 40
1.0
 40
1.0
 10
52.931103217
 20
19.7868197904
 30
0.0
 10
52.7252927627
 20
19.6679957785
 30
0.0
 10
52.2920605222
 20
19.4443835852
 30
0.0
 10
51.6023279138
 20
19.1579949567
 30
0.0
 10
50.8640040615
 20
18.9154110423
 30
0.0
 10
50.0854898016
 20
18.7193067442
 30
0.0
 10
49.275412886
 20
18.5718879002
 30
0.0
 10
48.4428788067
 20
18.4747886889
 30
0.0
 10
47.5972232248
 20
18.4290895416
 30
0.0
 10
46.7479392346
 20
18.4353139387
 30
0.0
 10
45.9045665465
 20
18.4933990102
 30
0.0
 10
45.0765715401
 20
18.6026807555
 30
0.0
 10
44.2732401755
 20
18.7619325449
 30
0.0
 10
43.5035707946
 20
18.969383335
 30
0.0
 10
42.7761811332
 20
19.2227293017
 30
0.0
 10
42.0991576729
 20
19.5191800714
 30
0.0
 10
41.4801202502
 20
19.8554213395
 30
0.0
 10
41.0999677906
 20
20.1109254311
 30
0.0
 10
40.9224362982
 20
20.244779919
 30
0.0
  0
SPLINE
  5
25C
100
AcDbEntity
  8
0
100
AcDbSpline
 62
7
  6
BYLAYER
 70
0
 71
3
 72
15
 73
11
 74
0
 42
0.0000001
 43
0.0000001
 44
0.0000000001
 40
0.0
 40
0.0
 40
0.0
 40
0.0
 40
0.1440521403
 40
0.2815161278
 40
0.4126753445
 40
0.5380426219
 40
0.6583658041
 40
0.7746328514
 40
0.888052237
 40
1.0
 40
1.0
 40
1.0
 40
1.0
 10
40.9224362982
 20
20.244779919
 30
0.0
 10
40.7930439378
 20
20.3423386559
 30
0.0
 10
40.5475988094
 20
20.5431629293
 30
0.0
 10
40.2153769705
 20
20.8683458988
 30
0.0
 10
39.9299725895
 20
21.2084607688
 30
0.0
 10
39.6933667172
 20
21.5612959598
 30
0.0
 10
39.5073048998
 20
21.9246142593
 30
0.0
 10
39.3732518305
 20
22.2960463563
 30
0.0
 10
39.2923033238
 20
22.6729290051
 30
0.0
 10
39.2742368416
 20
22.926811592
 30
0.0
 10
39.2742365397
 20
23.0527458276
 30
0.0
  0
SPLINE
  5
25D
100
AcDbEntity
  8
0
100
AcDbSpline
 62
7
  6
BYLAYER
 70
0
 71
3
 72
11
 73
7
 74
0
 42
0.0000001
 43
0.0000001
 44
0.0000000001
 40
0.0
 40
0.0
 40
0.0
 40
0.0
 40
0.2616658877
 40
0.5135688077
 40
0.7585739815
 40
1.0
 40
1.0
 40
1.0
 40
1.0
 10
39.7519707389
 20
25.4414517158
 30
0.0
 10
39.674876542
 20
25.3184990712
 30
0.0
 10
39.5377978271
 20
25.0677942005
 30
0.0
 10
39.3862864852
 20
24.673908442
 30
0.0
 10
39.2946955805
 20
24.2733549367
 30
0.0
 10
39.2742339416
 20
24.0031465539
 30
0.0
 10
39.2742339732
 20
23.8692482437
 30
0.0
  0
SPLINE
  5
25E
100
AcDbEntity
  8
0
100
AcDbSpline
 62
7
  6
BYLAYER
 70
0
 71
3
 72
15
 73
11
 74
0
 42
0.0000001
 43
0.0000001
 44
0.0000000001
 40
0.0
 40
0.0
 40
0.0
 40
0.0
 40
0.1120813836
 40
0.2256165407
 40
0.3419649608
 40
0.4623242326
 40
0.5876786182
 40
0.7187683507
 40
0.8561012181
 40
1.0
 40
1.0
 40
1.0
 40
1.0
 10
55.2742142919
 20
23.0527458256
 30
0.0
 10
55.2742145917
 20
22.9276754154
 30
0.0
 10
55.256398288
 20
22.67556085
 30
0.0
 10
55.1765639348
 20
22.3012472371
 30
0.0
 10
55.0443454264
 20
21.9322674877
 30
0.0
 10
54.8608022948
 20
21.5712295931
 30
0.0
 10
54.6273537918
 20
21.2204652378
 30
0.0
 10
54.3457190063
 20
20.8821724911
 30
0.0
 10
54.0178186498
 20
20.558496119
 30
0.0
 10
53.7754667696
 20
20.3584280188
 30
0.0
 10
53.6476813988
 20
20.2611898441
 30
0.0
  0
SPLINE
  5
25F
100
AcDbEntity
  8
0
100
AcDbSpline
 62
7
  6
BYLAYER
 70
0
 71
3
 72
9
 73
5
 74
0
 42
0.0000001
 43
0.0000001
 44
0.0000000001
 40
0.0
 40
0.0
 40
0.0
 40
0.0
 40
0.243336601
 40
1.0
 40
1.0
 40
1.0
 40
1.0
 10
53.6476813988
 20
20.2611898441
 30
0.0
 10
53.5921889429
 20
20.2189629046
 30
0.0
 10
53.3611546391
 20
20.0493712187
 30
0.0
 10
53.1188867847
 20
19.8952360366
 30
0.0
 10
52.931103217
 20
19.7868197904
 30
0.0
  0
SPLINE
  5
260
100
AcDbEntity
  8
0
100
AcDbSpline
 62
7
  6
BYLAYER
 70
0
 71
3
 72
15
 73
11
 74
0
 42
0.0000001
 43
0.0000001
 44
0.0000000001
 40
0.0
 40
0.0
 40
0.0
 40
0.0
 40
0.1080119995
 40
0.2180597244
 40
0.3319965618
 40
0.4513568261
 40
0.5772739241
 40
0.7104898057
 40
0.8514199034
 40
1.0
 40
1.0
 40
1.0
 40
1.0
 10
53.6242185329
 20
13.8262685085
 30
0.0
 10
53.6242240985
 20
13.7060557992
 30
0.0
 10
53.6033293261
 20
13.4628781217
 30
0.0
 10
53.5101712735
 20
13.1036904263
 30
0.0
 10
53.356356573
 20
12.7522423225
 30
0.0
 10
53.1438598833
 20
12.4121003683
 30
0.0
 10
52.8751035981
 20
12.0863216863
 30
0.0
 10
52.5527880098
 20
11.7778063115
 30
0.0
 10
52.1801474854
 20
11.4893904626
 30
0.0
 10
51.9075811653
 20
11.3166209799
 30
0.0
 10
51.7643721705
 20
11.2339397218
 30
0.0
  0
SPLINE
  5
261
100
AcDbEntity
  8
0
100
AcDbSpline
 62
7
  6
BYLAYER
 70
0
 71
3
 72
11
 73
7
 74
0
 42
0.0000001
 43
0.0000001
 44
0.0000000001
 40
0.0
 40
0.0
 40
0.0
 40
0.0
 40
0.2403906206
 40
0.4848134138
 40
0.7369736653
 40
1.0
 40
1.0
 40
1.0
 40
1.0
 10
55.2742168584
 20
23.8692482437
 30
0.0
 10
55.2742168247
 20
24.0118759661
 30
0.0
 10
55.2509492807
 20
24.3000369238
 30
0.0
 10
55.1469320441
 20
24.7264764821
 30
0.0
 10
54.9750433261
 20
25.1447779093
 30
0.0
 10
54.8201264005
 20
25.4095019447
 30
0.0
 10
54.7331142481
 20
25.5390509416
 30
0.0
  0
SPLINE
  5
262
100
AcDbEntity
  8
0
100
AcDbSpline
 62
7
  6
BYLAYER
 70
0
 71
3
 72
11
 73
7
 74
0
 42
0.0000001
 43
0.0000001
 44
0.0000000001
 40
0.0
 40
0.0
 40
0.0
 40
0.0
 40
0.2246234441
 40
0.4651627098
 40
0.7234876742
 40
1.0
 40
1.0
 40
1.0
 40
1.0
 10
53.6935649197
 20
20.2220910112
 30
0.0
 10
53.6119983729
 20
20.0645372736
 30
0.0
 10
53.4117191936
 20
19.753901075
 30
0.0
 10
53.0274218977
 20
19.3282836956
 30
0.0
 10
52.5563444132
 20
18.9342738948
 30
0.0
 10
52.2010001477
 20
18.7039118029
 30
0.0
 10
52.0118605743
 20
18.5947126711
 30
0.0
  0
SPLINE
  5
263
100
AcDbEntity
  8
0
100
AcDbSpline
 62
7
  6
BYLAYER
 70
0
 71
3
 72
15
 73
11
 74
0
 42
0.0000001
 43
0.0000001
 44
0.0000000001
 40
0.0
 40
0.0
 40
0.0
 40
0.0
 40
0.1080119995
 40
0.2180597244
 40
0.3319965618
 40
0.4513568261
 40
0.5772739241
 40
0.7104898057
 40
0.8514199034
 40
1.0
 40
1.0
 40
1.0
 40
1.0
 10
53.6242185329
 20
19.2968347032
 30
0.0
 10
53.6242240985
 20
19.176621994
 30
0.0
 10
53.6033293261
 20
18.9334443164
 30
0.0
 10
53.5101712735
 20
18.574256621
 30
0.0
 10
53.356356573
 20
18.2228085173
 30
0.0
 10
53.1438598833
 20
17.8826665631
 30
0.0
 10
52.8751035981
 20
17.5568878811
 30
0.0
 10
52.5527880098
 20
17.2483725062
 30
0.0
 10
52.1801474854
 20
16.9599566574
 30
0.0
 10
51.9075811653
 20
16.7871871747
 30
0.0
 10
51.7643721705
 20
16.7045059166
 30
0.0
  0
SPLINE
  5
264
100
AcDbEntity
  8
0
100
AcDbSpline
 62
7
  6
BYLAYER
 70
0
 71
3
 72
15
 73
11
 74
0
 42
0.0000001
 43
0.0000001
 44
0.0000000001
 40
0.0
 40
0.0
 40
0.0
 40
0.0
 40
0.1485061354
 40
0.2894007847
 40
0.4226174305
 40
0.5485641793
 40
0.6679705404
 40
0.7819514039
 40
0.8920182664
 40
1.0
 40
1.0
 40
1.0
 40
1.0
 10
51.7643721705
 20
17.6434836963
 30
0.0
 10
51.9069745331
 20
17.7258147172
 30
0.0
 10
52.1784448844
 20
17.897823495
 30
0.0
 10
52.5497691397
 20
18.1848511813
 30
0.0
 10
52.8712296305
 20
18.4918234894
 30
0.0
 10
53.1396301279
 20
18.8159404739
 30
0.0
 10
53.3523026466
 20
19.1543402285
 30
0.0
 10
53.5068507057
 20
19.5040103818
 30
0.0
 10
53.6013164652
 20
19.8614390367
 30
0.0
 10
53.6234792824
 20
20.1035616245
 30
0.0
 10
53.624182029
 20
20.2232891093
 30
0.0
  0
SPLINE
  5
265
100
AcDbEntity
  8
0
100
AcDbSpline
 62
7
  6
BYLAYER
 70
0
 71
3
 72
9
 73
5
 74
0
 42
0.0000001
 43
0.0000001
 44
0.0000000001
 40
0.0
 40
0.0
 40
0.0
 40
0.0
 40
0.5142970627
 40
1.0
 40
1.0
 40
1.0
 40
1.0
 10
52.931103217
 20
20.6033222075
 30
0.0
 10
53.1244251524
 20
20.7149360128
 30
0.0
 10
53.4909630905
 20
20.9487511854
 30
0.0
 10
53.8321398882
 20
21.2186510151
 30
0.0
 10
53.9894884276
 20
21.358955795
 30
0.0
  0
SPLINE
  5
266
100
AcDbEntity
  8
0
100
AcDbSpline
 62
7
  6
BYLAYER
 70
0
 71
3
 72
13
 73
9
 74
0
 42
0.0000001
 43
0.0000001
 44
0.0000000001
 40
0.0
 40
0.0
 40
0.0
 40
0.0
 40
0.2762542751
 40
0.5312013714
 40
0.6522857439
 40
0.7700946064
 40
0.8856306464
 40
1.0
 40
1.0
 40
1.0
 40
1.0
 10
53.9894884276
 20
21.358955795
 30
0.0
 10
54.1890628232
 20
21.5369125892
 30
0.0
 10
54.5482570829
 20
21.9085678224
 30
0.0
 10
54.8988748008
 20
22.4391244063
 30
0.0
 10
55.0942711427
 20
22.8763533928
 30
0.0
 10
55.1978485308
 20
23.204252038
 30
0.0
 10
55.2603039079
 20
23.5357714675
 30
0.0
 10
55.2742168845
 20
23.758547814
 30
0.0
 10
55.2742168584
 20
23.8692482437
 30
0.0
  0
SPLINE
  5
267
100
AcDbEntity
  8
0
100
AcDbSpline
 62
7
  6
BYLAYER
 70
0
 71
3
 72
9
 73
5
 74
0
 42
0.0000001
 43
0.0000001
 44
0.0000000001
 40
0.0
 40
0.0
 40
0.0
 40
0.0
 40
0.5173904941
 40
1.0
 40
1.0
 40
1.0
 40
1.0
 10
52.7829770871
 20
21.3390900245
 30
0.0
 10
52.9852977012
 20
21.4655314275
 30
0.0
 10
53.3637074525
 20
21.7310475214
 30
0.0
 10
53.7059395727
 20
22.0425811281
 30
0.0
 10
53.8587505163
 20
22.2043655423
 30
0.0
  0
SPLINE
  5
268
100
AcDbEntity
  8
0
100
AcDbSpline
 62
7
  6
BYLAYER
 70
0
 71
3
 72
9
 73
5
 74
0
 42
0.0000001
 43
0.0000001
 44
0.0000000001
 40
0.0
 40
0.0
 40
0.0
 40
0.0
 40
0.2560843718
 40
1.0
 40
1.0
 40
1.0
 40
1.0
 10
53.8587505163
 20
22.2043655423
 30
0.0
 10
53.8920946035
 20
22.2396676841
 30
0.0
 10
54.0200054693
 20
22.3796607319
 30
0.0
 10
54.1384635731
 20
22.5283815451
 30
0.0
 10
54.2198069004
 20
22.6436315461
 30
0.0
  0
LINE
  5
269
100
AcDbEntity
  8
0
100
AcDbLine
 62
7
  6
BYLAYER
 10
54.7742149641
 20
24.2774994514
 11
54.7742051477
 21
24.284544832
  0
SPLINE
  5
26A
100
AcDbEntity
  8
0
100
AcDbSpline
 62
7
  6
BYLAYER
 70
0
 71
3
 72
15
 73
11
 74
0
 42
0.0000001
 43
0.0000001
 44
0.0000000001
 40
0.0
 40
0.0
 40
0.0
 40
0.0
 40
0.1039076046
 40
0.2114631154
 40
0.3244292317
 40
0.4441072519
 40
0.5713176457
 40
0.7064330925
 40
0.8494397918
 40
1.0
 40
1.0
 40
1.0
 40
1.0
 10
39.7931960106
 20
23.969737882
 30
0.0
 10
39.8122523839
 20
23.8153363711
 30
0.0
 10
39.880311275
 20
23.5040697709
 30
0.0
 10
40.0656782425
 20
23.0527697562
 30
0.0
 10
40.3325542784
 20
22.6166164894
 30
0.0
 10
40.6772966692
 20
22.2004736288
 30
0.0
 10
41.0957092882
 20
21.8085724438
 30
0.0
 10
41.5829827589
 20
21.4449474527
 30
0.0
 10
42.1336175934
 20
21.1134140873
 30
0.0
 10
42.5293785706
 20
20.9207856852
 30
0.0
 10
42.7357996364
 20
20.8302007094
 30
0.0
  0
SPLINE
  5
26B
100
AcDbEntity
  8
0
100
AcDbSpline
 62
7
  6
BYLAYER
 70
0
 71
3
 72
9
 73
5
 74
0
 42
0.0000001
 43
0.0000001
 44
0.0000000001
 40
0.0
 40
0.0
 40
0.0
 40
0.0
 40
0.5150172166
 40
1.0
 40
1.0
 40
1.0
 40
1.0
 10
50.8650590397
 20
20.4759793041
 30
0.0
 10
51.1709708272
 20
20.5722917872
 30
0.0
 10
51.756557548
 20
20.7875201293
 30
0.0
 10
52.3159981058
 20
21.0646885883
 30
0.0
 10
52.5775483544
 20
21.2156937933
 30
0.0
  0
SPLINE
  5
26C
100
AcDbEntity
  8
0
100
AcDbSpline
 62
7
  6
BYLAYER
 70
0
 71
3
 72
22
 73
18
 74
0
 42
0.0000001
 43
0.0000001
 44
0.0000000001
 40
0.0
 40
0.0
 40
0.0
 40
0.0
 40
0.0570029215
 40
0.1168459505
 40
0.179174459
 40
0.2436135326
 40
0.3097037675
 40
0.3769469448
 40
0.5127056618
 40
0.580200519
 40
0.6467021063
 40
0.7117013019
 40
0.7747288818
 40
0.8353698884
 40
0.8932792029
 40
0.9482029423
 40
1.0
 40
1.0
 40
1.0
 40
1.0
 10
51.1633289041
 20
17.9904883376
 30
0.0
 10
51.0172612589
 20
17.9061566467
 30
0.0
 10
50.7092994129
 20
17.7477992597
 30
0.0
 10
50.2183950396
 20
17.5461728574
 30
0.0
 10
49.6923229306
 20
17.3767243832
 30
0.0
 10
49.1374744609
 20
17.2414527986
 30
0.0
 10
48.5603445333
 20
17.1419396376
 30
0.0
 10
47.7681216616
 20
17.0583156114
 30
0.0
 10
46.9652088529
 20
17.0505968372
 30
0.0
 10
46.1695391738
 20
17.1186617583
 30
0.0
 10
45.5869220375
 20
17.2068781642
 30
0.0
 10
45.0244815312
 20
17.331280982
 30
0.0
 10
44.488865848
 20
17.4903866817
 30
0.0
 10
43.986452441
 20
17.6823089601
 30
0.0
 10
43.5231784556
 20
17.9048416105
 30
0.0
 10
43.1045938191
 20
18.1553489637
 30
0.0
 10
42.8510156193
 20
18.3447857626
 30
0.0
 10
42.7339238505
 20
18.4436713081
 30
0.0
  0
SPLINE
  5
26D
100
AcDbEntity
  8
0
100
AcDbSpline
 62
7
  6
BYLAYER
 70
0
 71
3
 72
15
 73
11
 74
0
 42
0.0000001
 43
0.0000001
 44
0.0000000001
 40
0.0
 40
0.0
 40
0.0
 40
0.0
 40
0.1485802154
 40
0.2895097469
 40
0.4227252375
 40
0.5486422286
 40
0.6680023222
 40
0.7819392891
 40
0.8919874334
 40
1.0
 40
1.0
 40
1.0
 40
1.0
 10
51.7643721705
 20
15.724703016
 30
0.0
 10
51.9075812868
 20
15.8073843443
 30
0.0
 10
52.1801473141
 20
15.9801533891
 30
0.0
 10
52.5527870369
 20
16.2685688119
 30
0.0
 10
52.8751017988
 20
16.577083293
 30
0.0
 10
53.1438584972
 20
16.9028607352
 30
0.0
 10
53.3563548332
 20
17.2430027305
 30
0.0
 10
53.510170734
 20
17.5944507443
 30
0.0
 10
53.6033295275
 20
17.9536396338
 30
0.0
 10
53.6242240613
 20
18.1968184523
 30
0.0
 10
53.6242184911
 20
18.3170317988
 30
0.0
  0
SPLINE
  5
26E
100
AcDbEntity
  8
0
100
AcDbSpline
 62
7
  6
BYLAYER
 70
0
 71
3
 72
25
 73
21
 74
0
 42
0.0000001
 43
0.0000001
 44
0.0000000001
 40
0.0
 40
0.0
 40
0.0
 40
0.0
 40
0.021331862
 40
0.042892046
 40
0.0648972198
 40
0.0875416484
 40
0.1353163033
 40
0.1872168692
 40
0.2436543209
 40
0.3046021236
 40
0.3696899025
 40
0.4382873068
 40
0.5095739615
 40
0.582598446
 40
0.6563302378
 40
0.7297075872
 40
0.8016842667
 40
0.8712771787
 40
0.9376165948
 40
1.0
 40
1.0
 40
1.0
 40
1.0
 10
40.9242323404
 20
18.3170318156
 30
0.0
 10
40.9242365144
 20
18.2269498353
 30
0.0
 10
40.9358584797
 20
18.0456128398
 30
0.0
 10
40.9879560049
 20
17.7758682764
 30
0.0
 10
41.0743880109
 20
17.5092400633
 30
0.0
 10
41.2374176973
 20
17.1537892856
 30
0.0
 10
41.5299863699
 20
16.7232764864
 30
0.0
 10
41.9973490031
 20
16.2540400553
 30
0.0
 10
42.5765494148
 20
15.8307806828
 30
0.0
 10
43.2551728399
 20
15.4616940791
 30
0.0
 10
44.0190314761
 20
15.153959922
 30
0.0
 10
44.8520695274
 20
14.9138807686
 30
0.0
 10
45.736678444
 20
14.7464571447
 30
0.0
 10
46.6540648405
 20
14.6552279715
 30
0.0
 10
47.5846802476
 20
14.6421329945
 30
0.0
 10
48.508676042
 20
14.7074521915
 30
0.0
 10
49.4063386444
 20
14.8497904769
 30
0.0
 10
50.2586273654
 20
15.0661554819
 30
0.0
 10
51.0473125983
 20
15.3519221493
 30
0.0
 10
51.5362279257
 20
15.5929846611
 30
0.0
 10
51.7643721705
 20
15.724703016
 30
0.0
  0
SPLINE
  5
26F
100
AcDbEntity
  8
0
100
AcDbSpline
 62
7
  6
BYLAYER
 70
0
 71
3
 72
23
 73
19
 74
0
 42
0.0000001
 43
0.0000001
 44
0.0000000001
 40
0.0
 40
0.0
 40
0.0
 40
0.0
 40
0.0593009191
 40
0.1219403954
 40
0.1874274958
 40
0.255193114
 40
0.3245662028
 40
0.3948289638
 40
0.4652289348
 40
0.5350109327
 40
0.6034407614
 40
0.6698292881
 40
0.733559695
 40
0.7941176243
 40
0.8511254945
 40
0.9043820588
 40
0.953908775
 40
1.0
 40
1.0
 40
1.0
 40
1.0
 10
51.2340398766
 20
16.0308835819
 30
0.0
 10
51.0612307065
 20
15.9311127566
 30
0.0
 10
50.694099669
 20
15.7459204872
 30
0.0
 10
50.1053530922
 20
15.5174996364
 30
0.0
 10
49.4714746478
 20
15.3337963477
 30
0.0
 10
48.8026651802
 20
15.1976820058
 30
0.0
 10
48.1094725328
 20
15.1113361345
 30
0.0
 10
47.4029620678
 20
15.0761223928
 30
0.0
 10
46.6943933523
 20
15.0926050302
 30
0.0
 10
45.9950740386
 20
15.1605169224
 30
0.0
 10
45.3161468702
 20
15.2787744721
 30
0.0
 10
44.6684105207
 20
15.4455057356
 30
0.0
 10
44.0621423158
 20
15.6580894154
 30
0.0
 10
43.5069193332
 20
15.913220966
 30
0.0
 10
43.01148666
 20
16.2069769976
 30
0.0
 10
42.5836120131
 20
16.5350482433
 30
0.0
 10
42.2302411617
 20
16.8924923667
 30
0.0
 10
42.0421329783
 20
17.1558480814
 30
0.0
 10
41.9642892475
 20
17.2899905696
 30
0.0
  0
SPLINE
  5
270
100
AcDbEntity
  8
0
100
AcDbSpline
 62
7
  6
BYLAYER
 70
0
 71
3
 72
9
 73
5
 74
0
 42
0.0000001
 43
0.0000001
 44
0.0000000001
 40
0.0
 40
0.0
 40
0.0
 40
0.0
 40
0.4862098673
 40
1.0
 40
1.0
 40
1.0
 40
1.0
 10
51.8721847119
 20
18.4933500259
 30
0.0
 10
51.7662919964
 20
18.4002080632
 30
0.0
 10
51.537496807
 20
18.2209366379
 30
0.0
 10
51.2923903085
 20
18.0650015294
 30
0.0
 10
51.1633289041
 20
17.9904883376
 30
0.0
  0
SPLINE
  5
271
100
AcDbEntity
  8
0
100
AcDbSpline
 62
7
  6
BYLAYER
 70
0
 71
3
 72
25
 73
21
 74
0
 42
0.0000001
 43
0.0000001
 44
0.0000000001
 40
0.0
 40
0.0
 40
0.0
 40
0.0
 40
0.0213307347
 40
0.0428921626
 40
0.0649005733
 40
0.087549813
 40
0.1353370886
 40
0.1872513981
 40
0.243701226
 40
0.3046584581
 40
0.3697519024
 40
0.4383509714
 40
0.5096354832
 40
0.5826545217
 40
0.6563782864
 40
0.7297458841
 40
0.8017120152
 40
0.8712944898
 40
0.9376244384
 40
1.0
 40
1.0
 40
1.0
 40
1.0
 10
40.9242347172
 20
20.2327367941
 30
0.0
 10
40.924369722
 20
20.1426814632
 30
0.0
 10
40.9362483337
 20
19.9614051715
 30
0.0
 10
40.9887025804
 20
19.6917839965
 30
0.0
 10
41.0754601662
 20
19.4252927936
 30
0.0
 10
41.2388943465
 20
19.0700373544
 30
0.0
 10
41.531878329
 20
18.6398097131
 30
0.0
 10
41.9995918962
 20
18.1709270372
 30
0.0
 10
42.5790167671
 20
17.7480224101
 30
0.0
 10
43.2577437661
 20
17.3792812959
 30
0.0
 10
44.0215928521
 20
17.0718733111
 30
0.0
 10
44.8545191536
 20
16.8320907234
 30
0.0
 10
45.738928392
 20
16.6649247296
 30
0.0
 10
46.6560443274
 20
16.5739064383
 30
0.0
 10
47.5863378236
 20
16.5609697973
 30
0.0
 10
48.5099810205
 20
16.6263911815
 30
0.0
 10
49.4072816585
 20
16.7687743799
 30
0.0
 10
50.2592201742
 20
16.9851280667
 30
0.0
 10
51.0475870871
 20
17.2708308321
 30
0.0
 10
51.5363117884
 20
17.5118137592
 30
0.0
 10
51.7643721705
 20
17.6434836963
 30
0.0
  0
SPLINE
  5
272
100
AcDbEntity
  8
0
100
AcDbSpline
 62
7
  6
BYLAYER
 70
0
 71
3
 72
11
 73
7
 74
0
 42
0.0000001
 43
0.0000001
 44
0.0000000001
 40
0.0
 40
0.0
 40
0.0
 40
0.0
 40
0.2263391652
 40
0.5942804013
 40
0.7925145543
 40
1.0
 40
1.0
 40
1.0
 40
1.0
 10
52.5774416314
 20
17.2784797725
 30
0.0
 10
52.5066648249
 20
17.1580256467
 30
0.0
 10
52.2938202993
 20
16.8572615239
 30
0.0
 10
51.9404249573
 20
16.5138567765
 30
0.0
 10
51.5574196718
 20
16.2281255185
 30
0.0
 10
51.3449530202
 20
16.094918933
 30
0.0
 10
51.2340398766
 20
16.0308835819
 30
0.0
  0
SPLINE
  5
273
100
AcDbEntity
  8
0
100
AcDbSpline
 62
7
  6
BYLAYER
 70
0
 71
3
 72
13
 73
9
 74
0
 42
0.0000001
 43
0.0000001
 44
0.0000000001
 40
0.0
 40
0.0
 40
0.0
 40
0.0
 40
0.1143100229
 40
0.2297939317
 40
0.347564811
 40
0.4686307266
 40
0.7236041353
 40
1.0
 40
1.0
 40
1.0
 40
1.0
 10
39.2742339732
 20
23.8692482437
 30
0.0
 10
39.2742339994
 20
23.7581683878
 30
0.0
 10
39.2882436969
 20
23.5346192614
 30
0.0
 10
39.3511295234
 20
23.2019684138
 30
0.0
 10
39.455419065
 20
22.8729767037
 30
0.0
 10
39.6521684285
 20
22.4343086041
 30
0.0
 10
40.0051864942
 20
21.9021295976
 30
0.0
 10
40.3667034926
 20
21.5296439842
 30
0.0
 10
40.5675512869
 20
21.3513231335
 30
0.0
  0
SPLINE
  5
274
100
AcDbEntity
  8
0
100
AcDbSpline
 62
7
  6
BYLAYER
 70
0
 71
3
 72
23
 73
19
 74
0
 42
0.0000001
 43
0.0000001
 44
0.0000000001
 40
0.0
 40
0.0
 40
0.0
 40
0.0
 40
0.0512843372
 40
0.105757648
 40
0.1632992302
 40
0.2236662182
 40
0.2865178605
 40
0.351436684
 40
0.4179464266
 40
0.485528025
 40
0.5536347456
 40
0.6217070798
 40
0.6891861899
 40
0.7555281408
 40
0.8202189939
 40
0.8827840559
 40
0.942828016
 40
1.0
 40
1.0
 40
1.0
 40
1.0
 10
40.5675512869
 20
21.3513231335
 30
0.0
 10
40.7343479347
 20
21.2032342774
 30
0.0
 10
41.097521556
 20
20.9190392903
 30
0.0
 10
41.7010214229
 20
20.5425064695
 30
0.0
 10
42.3726431031
 20
20.2069860786
 30
0.0
 10
43.1041276451
 20
19.9165342676
 30
0.0
 10
43.8866133806
 20
19.6745910677
 30
0.0
 10
44.710556907
 20
19.4840876148
 30
0.0
 10
45.5658991168
 20
19.3473417998
 30
0.0
 10
46.4421737271
 20
19.2660317162
 30
0.0
 10
47.3286452487
 20
19.2411432535
 30
0.0
 10
48.2144494501
 20
19.2729799141
 30
0.0
 10
49.0887307892
 20
19.3611506689
 30
0.0
 10
49.9407861976
 20
19.504583493
 30
0.0
 10
50.7601626658
 20
19.7015365472
 30
0.0
 10
51.5369371248
 20
19.94959021
 30
0.0
 10
52.2614832905
 20
20.2457597642
 30
0.0
 10
52.7157593116
 20
20.4789940879
 30
0.0
 10
52.931103217
 20
20.6033222075
 30
0.0
  0
SPLINE
  5
275
100
AcDbEntity
  8
0
100
AcDbSpline
 62
7
  6
BYLAYER
 70
0
 71
3
 72
20
 73
16
 74
0
 42
0.0000001
 43
0.0000001
 44
0.0000000001
 40
0.0
 40
0.0
 40
0.0
 40
0.0
 40
0.0623919221
 40
0.128810384
 40
0.2703044164
 40
0.4173663825
 40
0.5616182261
 40
0.6302547789
 40
0.6953816909
 40
0.7563642139
 40
0.8128334512
 40
0.8647659789
 40
0.9125673596
 40
0.9571680072
 40
1.0
 40
1.0
 40
1.0
 40
1.0
 10
49.4309100775
 20
35.6881526165
 30
0.0
 10
49.3213788823
 20
35.6249151289
 30
0.0
 10
49.0864875096
 20
35.5091648999
 30
0.0
 10
48.5705770026
 20
35.322164165
 30
0.0
 10
47.8604742285
 20
35.1801694268
 30
0.0
 10
46.9798182673
 20
35.1558565726
 30
0.0
 10
46.2530176904
 20
35.2577683311
 30
0.0
 10
45.7107320586
 20
35.4140351249
 30
0.0
 10
45.3438161006
 20
35.561825692
 30
0.0
 10
45.0178761922
 20
35.7391217199
 30
0.0
 10
44.7396976161
 20
35.9424053982
 30
0.0
 10
44.5151604997
 20
36.1678218532
 30
0.0
 10
44.3495735421
 20
36.4114880659
 30
0.0
 10
44.2474386504
 20
36.6684662338
 30
0.0
 10
44.2242586729
 20
36.8464615791
 30
0.0
 10
44.2242434575
 20
36.9332869118
 30
0.0
  0
SPLINE
  5
276
100
AcDbEntity
  8
0
100
AcDbSpline
 62
7
  6
BYLAYER
 70
0
 71
3
 72
12
 73
8
 74
0
 42
0.0000001
 43
0.0000001
 44
0.0000000001
 40
0.0
 40
0.0
 40
0.0
 40
0.0
 40
0.1081622398
 40
0.2183722144
 40
0.4513390543
 40
0.7104786245
 40
1.0
 40
1.0
 40
1.0
 40
1.0
 10
50.3242073741
 20
36.9332869237
 30
0.0
 10
50.3242174924
 20
36.8755475368
 30
0.0
 10
50.3141605189
 20
36.7587322545
 30
0.0
 10
50.2534483126
 20
36.5245840899
 30
0.0
 10
50.0977478163
 20
36.23737549
 30
0.0
 10
49.8075671908
 20
35.9327173641
 30
0.0
 10
49.5647570079
 20
35.7654287165
 30
0.0
 10
49.4309100775
 20
35.6881526165
 30
0.0
  0
SPLINE
  5
277
100
AcDbEntity
  8
0
100
AcDbSpline
 62
7
  6
BYLAYER
 70
0
 71
3
 72
9
 73
5
 74
0
 42
0.0000001
 43
0.0000001
 44
0.0000000001
 40
0.0
 40
0.0
 40
0.0
 40
0.0
 40
0.2478891581
 40
1.0
 40
1.0
 40
1.0
 40
1.0
 10
50.3242079321
 20
118.5835286325
 30
0.0
 10
50.3242034671
 20
118.6100166763
 30
0.0
 10
50.3200341054
 20
118.7168444873
 30
0.0
 10
50.2989194678
 20
118.8228941665
 30
0.0
 10
50.274704319
 20
118.8995255942
 30
0.0
  0
SPLINE
  5
278
100
AcDbEntity
  8
0
100
AcDbSpline
 62
7
  6
BYLAYER
 70
0
 71
3
 72
9
 73
5
 74
0
 42
0.0000001
 43
0.0000001
 44
0.0000000001
 40
0.0
 40
0.0
 40
0.0
 40
0.0
 40
0.4873798374
 40
1.0
 40
1.0
 40
1.0
 40
1.0
 10
44.2242428995
 20
118.5835286289
 30
0.0
 10
44.2242594083
 20
118.4855910918
 30
0.0
 10
44.2540240586
 20
118.2836826353
 30
0.0
 10
44.3378597291
 20
118.0983456037
 30
0.0
 10
44.3906411498
 20
118.0098861203
 30
0.0
  0
SPLINE
  5
279
100
AcDbEntity
  8
0
100
AcDbSpline
 62
7
  6
BYLAYER
 70
0
 71
3
 72
9
 73
5
 74
0
 42
0.0000001
 43
0.0000001
 44
0.0000000001
 40
0.0
 40
0.0
 40
0.0
 40
0.0
 40
0.2414670536
 40
1.0
 40
1.0
 40
1.0
 40
1.0
 10
44.3906411498
 20
118.0098861203
 30
0.0
 10
44.404894522
 20
117.9859980565
 30
0.0
 10
44.4669486808
 20
117.8888840056
 30
0.0
 10
44.5405373117
 20
117.7993274218
 30
0.0
 10
44.6007645802
 20
117.7360140186
 30
0.0
  0
SPLINE
  5
27A
100
AcDbEntity
  8
0
100
AcDbSpline
 62
7
  6
BYLAYER
 70
0
 71
3
 72
9
 73
5
 74
0
 42
0.0000001
 43
0.0000001
 44
0.0000000001
 40
0.0
 40
0.0
 40
0.0
 40
0.0
 40
0.4650644563
 40
1.0
 40
1.0
 40
1.0
 40
1.0
 10
44.6007645802
 20
117.7360140186
 30
0.0
 10
44.7494792646
 20
117.5796789729
 30
0.0
 10
45.1287958765
 20
117.2998694163
 30
0.0
 10
45.5595887177
 20
117.1189440162
 30
0.0
 10
45.7959694157
 20
117.0433063056
 30
0.0
  0
SPLINE
  5
27B
100
AcDbEntity
  8
0
100
AcDbSpline
 62
7
  6
BYLAYER
 70
0
 71
3
 72
9
 73
5
 74
0
 42
0.0000001
 43
0.0000001
 44
0.0000000001
 40
0.0
 40
0.0
 40
0.0
 40
0.0
 40
0.2454387769
 40
1.0
 40
1.0
 40
1.0
 40
1.0
 10
45.7959694157
 20
117.0433063056
 30
0.0
 10
45.8341547263
 20
117.0310876706
 30
0.0
 10
45.9904592161
 20
116.9835875003
 30
0.0
 10
46.149472456
 20
116.9450948111
 30
0.0
 10
46.270308714
 20
116.9207816861
 30
0.0
  0
SPLINE
  5
27C
100
AcDbEntity
  8
0
100
AcDbSpline
 62
7
  6
BYLAYER
 70
0
 71
3
 72
9
 73
5
 74
0
 42
0.0000001
 43
0.0000001
 44
0.0000000001
 40
0.0
 40
0.0
 40
0.0
 40
0.0
 40
0.2463170803
 40
1.0
 40
1.0
 40
1.0
 40
1.0
 10
46.270308714
 20
116.9207816861
 30
0.0
 10
46.3372368681
 20
116.9073152598
 30
0.0
 10
46.6101103451
 20
116.8585200837
 30
0.0
 10
46.8870276697
 20
116.8327359739
 30
0.0
 10
47.0957996067
 20
116.8256693995
 30
0.0
  0
SPLINE
  5
27D
100
AcDbEntity
  8
0
100
AcDbSpline
 62
7
  6
BYLAYER
 70
0
 71
3
 72
9
 73
5
 74
0
 42
0.0000001
 43
0.0000001
 44
0.0000000001
 40
0.0
 40
0.0
 40
0.0
 40
0.0
 40
0.2542917669
 40
1.0
 40
1.0
 40
1.0
 40
1.0
 10
47.888660852
 20
116.8587641992
 30
0.0
 10
47.9444929955
 20
116.8653913738
 30
0.0
 10
48.163598195
 20
116.8950870766
 30
0.0
 10
48.3807679017
 20
116.9395000656
 30
0.0
 10
48.5402070885
 20
116.9814934
 30
0.0
  0
SPLINE
  5
27E
100
AcDbEntity
  8
0
100
AcDbSpline
 62
7
  6
BYLAYER
 70
0
 71
3
 72
9
 73
5
 74
0
 42
0.0000001
 43
0.0000001
 44
0.0000000001
 40
0.0
 40
0.0
 40
0.0
 40
0.0
 40
0.2557749185
 40
1.0
 40
1.0
 40
1.0
 40
1.0
 10
48.5402070885
 20
116.9814934
 30
0.0
 10
48.5825231936
 20
116.9926386798
 30
0.0
 10
48.7473018945
 20
117.0386718653
 30
0.0
 10
48.9093275399
 20
117.0947475709
 30
0.0
 10
49.0273129224
 20
117.1426148636
 30
0.0
  0
SPLINE
  5
27F
100
AcDbEntity
  8
0
100
AcDbSpline
 62
7
  6
BYLAYER
 70
0
 71
3
 72
9
 73
5
 74
0
 42
0.0000001
 43
0.0000001
 44
0.0000000001
 40
0.0
 40
0.0
 40
0.0
 40
0.0
 40
0.257123266
 40
1.0
 40
1.0
 40
1.0
 40
1.0
 10
49.0273129224
 20
117.1426148636
 30
0.0
 10
49.0610955803
 20
117.1563206663
 30
0.0
 10
49.1916691003
 20
117.211590443
 30
0.0
 10
49.3189227289
 20
117.2748423719
 30
0.0
 10
49.4105692257
 20
117.3267613385
 30
0.0
  0
SPLINE
  5
280
100
AcDbEntity
  8
0
100
AcDbSpline
 62
7
  6
BYLAYER
 70
0
 71
3
 72
9
 73
5
 74
0
 42
0.0000001
 43
0.0000001
 44
0.0000000001
 40
0.0
 40
0.0
 40
0.0
 40
0.0
 40
0.258636498
 40
1.0
 40
1.0
 40
1.0
 40
1.0
 10
49.4309100775
 20
117.3383943294
 30
0.0
 10
49.4622629589
 20
117.3564958159
 30
0.0
 10
49.582128769
 20
117.42878384
 30
0.0
 10
49.6964432297
 20
117.5104761368
 30
0.0
 10
49.7763749044
 20
117.5766571122
 30
0.0
  0
SPLINE
  5
281
100
AcDbEntity
  8
0
100
AcDbSpline
 62
7
  6
BYLAYER
 70
0
 71
3
 72
9
 73
5
 74
0
 42
0.0000001
 43
0.0000001
 44
0.0000000001
 40
0.0
 40
0.0
 40
0.0
 40
0.0
 40
0.2600087222
 40
1.0
 40
1.0
 40
1.0
 40
1.0
 10
49.7763749044
 20
117.5766571122
 30
0.0
 10
49.8019793306
 20
117.5978567919
 30
0.0
 10
49.8985601284
 20
117.681621846
 30
0.0
 10
49.9871913727
 20
117.7747861901
 30
0.0
 10
50.0460712846
 20
117.8488375512
 30
0.0
  0
SPLINE
  5
282
100
AcDbEntity
  8
0
100
AcDbSpline
 62
7
  6
BYLAYER
 70
0
 71
3
 72
10
 73
6
 74
0
 42
0.0000001
 43
0.0000001
 44
0.0000000001
 40
0.0
 40
0.0
 40
0.0
 40
0.0
 40
0.5189565045
 40
0.7622438947
 40
1.0
 40
1.0
 40
1.0
 40
1.0
 10
50.0460712846
 20
117.8488375512
 30
0.0
 10
50.1307390036
 20
117.9553214034
 30
0.0
 10
50.2361442165
 20
118.1300212201
 30
0.0
 10
50.3100855935
 20
118.3826265521
 30
0.0
 10
50.323391233
 20
118.508895244
 30
0.0
 10
50.3241354679
 20
118.571217455
 30
0.0
  0
ENDSEC
  0
SECTION
  2
OBJECTS
  0
DICTIONARY
  5
C
100
AcDbDictionary
280
0
281
1
  3
ACAD_GROUP
350
D
  3
ACAD_MLINESTYLE
350
17
  3
ACAD_LAYOUT
350
1A
  3
ACAD_PLOTSETTINGS
350
19
  3
ACAD_PLOTSTYLENAME
350
E
  0
DICTIONARY
  5
D
102
{ACAD_REACTORS
330
C
102
}
100
AcDbDictionary
280
0
281
1
  0
ACDBDICTIONARYWDFLT
  5
E
102
{ACAD_REACTORS
330
C
102
}
100
AcDbDictionary
281
1
  3
Normal
350
F
100
AcDbDictionaryWithDefault
340
F
  0
DICTIONARY
  5
17
102
{ACAD_REACTORS
330
C
102
}
100
AcDbDictionary
280
0
281
1
  3
Standard
350
18
  0
DICTIONARY
  5
19
102
{ACAD_REACTORS
330
C
102
}
100
AcDbDictionary
281
1
  0
DICTIONARY
  5
1A
102
{ACAD_REACTORS
330
C
102
}
100
AcDbDictionary
281
1
  3
Model
350
283
  3
Layout1
350
284
  0
ACDBPLACEHOLDER
  5
F
102
{ACAD_REACTORS
330
E
102
}
  0
MLINESTYLE
  5
18
102
{ACAD_REACTORS
330
17
102
}
100
AcDbMlineStyle
  2
STANDARD
 70
0
  3

 62
256
 51
90.0
 52
90.0
 71
2
 49
0.5
 62
256
  6
BYLAYER
 49
-0.5
 62
256
  6
BYLAYER
  0
LAYOUT
  5
283
102
{ACAD_REACTORS
330
1A
102
}
100
AcDbPlotSettings
  1

  2
none_device
  4

  6

 40
0.0
 41
0.0
 42
0.0
 43
0.0
 44
210.0
 45
297.0
 46
0.0
 47
0.0
 48
0.0
 49
0.0
140
0.0
141
0.0
142
1.0
143
1.0
 70
1024
 72
1
 73
0
 74
0
  7

 75
0
147
1.0
148
0.0
149
0.0
100
AcDbLayout
  1
Model
 70
0
 71
0
 10
0.0
 20
0.0
 11
210.0
 21
297.0
 12
0.0
 22
0.0
 32
0.0
 14
0.0
 24
0.0
 34
0.0
 15
0.0
 25
0.0
 35
0.0
146
0.0
 13
0.0
 23
0.0
 33
0.0
 16
1.0
 26
0.0
 36
0.0
 17
0.0
 27
1.0
 37
0.0
 76
0
330
210
345
0
346
0
  0
LAYOUT
  5
284
102
{ACAD_REACTORS
330
1A
102
}
100
AcDbPlotSettings
  1

  2
none_device
  4

  6

 40
0.0
 41
0.0
 42
0.0
 43
0.0
 44
210.0
 45
297.0
 46
0.0
 47
0.0
 48
0.0
 49
0.0
140
0.0
141
0.0
142
1.0
143
1.0
 70
0
 72
1
 73
0
 74
0
  7

 75
0
147
1.0
148
0.0
149
0.0
100
AcDbLayout
  1
Layout1
 70
0
 71
1
 10
0.0
 20
0.0
 11
210.0
 21
297.0
 12
0.0
 22
0.0
 32
0.0
 14
0.0
 24
0.0
 34
0.0
 15
0.0
 25
0.0
 35
0.0
146
0.0
 13
0.0
 23
0.0
 33
0.0
 16
1.0
 26
0.0
 36
0.0
 17
0.0
 27
1.0
 37
0.0
 76
0
330
211
345
0
346
0
  0
ENDSEC
  0
EOF
