999
DXF file: C:\Users\sesa63760\Dev\_Creo\CAD\MCADID0004762_3D-CAD\drw0001_4.dxf
999
Pro/ENGINEER 2019471 by Parametric Technology Corporation
  0
SECTION
  2
HEADER
  9
$ACADVER
  1
AC1024
  9
$DWGCODEPAGE
  3
ANSI_1252
  9
$EXTMAX
 10
46.7128551704
 20
66.065323741
 30
0.0
  9
$EXTMIN
 10
0.0
 20
0.0
 30
0.0
  9
$LIMMIN
 10
0.0
 20
0.0
  9
$LIMMAX
 10
46.7128551704
 20
66.065323741
  9
$VIEWCTR
 10
23.3564275852
 20
33.0326618705
  9
$VIEWSIZE
 40
66.065323741
  9
$CLAYER
  8
0
  9
$LTSCALE
 40
4.3064803624
  9
$CELTYPE
  6
BYLAYER
  9
$DIMSCALE
 40
1.0
  9
$DIMASZ
 40
0.5561054187
  9
$DIMEXO
 40
1.0
  9
$DIMDLI
 40
2.9753864322
  9
$DIMEXE
 40
1.0
  9
$DIMCEN
 40
0.7046967866
  9
$DIMLFAC
 40
1.0
  9
$DIMBLK
  1
_FILLED
  9
$DIMALT
 70
0
  9
$DIMALTF
 40
0.0393700787
  9
$DIMTXT
 40
0.7785475862
  9
$DIMTOL
 70
1
  9
$DIMLIM
 70
0
  9
$DIMTFAC
 40
1.0
  9
$DIMTP
 40
0.01
  9
$DIMTM
 40
0.01
  9
$DIMGAP
 40
0.625
  9
$DIMDSEP
 70
46
  9
$AUNITS
 70
0
  9
$PDMODE
 70
3
  9
$PDSIZE
 40
0.3125
  9
$HANDSEED
  5
343
  9
$TILEMODE
 70
1
  9
$MEASUREMENT
 70
1
  9
$INSUNITS
 70
4
  0
ENDSEC
  0
SECTION
  2
CLASSES
  0
CLASS
  1
ACDBDICTIONARYWDFLT
  2
AcDbDictionaryWithDefault
  3
AutoCAD 2000
 90
0
 91
1
280
0
281
0
  0
CLASS
  1
ACDBPLACEHOLDER
  2
AcDbPlaceHolder
  3
AutoCAD 2000
 90
0
 91
1
280
0
281
0
  0
CLASS
  1
LAYOUT
  2
AcDbLayout
  3
AutoCAD 2000
 90
0
 91
0
280
0
281
0
  0
ENDSEC
  0
SECTION
  2
TABLES
  0
TABLE
  2
VPORT
  5
8
100
AcDbSymbolTable
 70
2
  0
VPORT
  5
1F4
100
AcDbSymbolTableRecord
100
AcDbViewportTableRecord
  2
*ACTIVE
 70
0
 10
0.0
 20
0.0
 11
1.0
 21
1.0
 12
23.3564275852
 22
33.0326618705
 13
0.0
 23
0.0
 14
1.0
 24
1.0
 15
0.0
 25
0.0
 16
0.0
 26
0.0
 36
1.0
 17
0.0
 27
0.0
 37
0.0
 40
66.065323741
 41
0.7070707071
 42
50.0
 43
0.0
 44
0.0
 50
0.0
 51
0.0
 71
0
 72
100
 73
1
 74
1
 75
0
 76
0
 77
0
 78
0
  0
ENDTAB
  0
TABLE
  2
LTYPE
  5
5
100
AcDbSymbolTable
 70
6
  0
LTYPE
  5
14
100
AcDbSymbolTableRecord
100
AcDbLinetypeTableRecord
  2
BYBLOCK
 70
0
  3

 72
65
 73
0
 40
0.0
  0
LTYPE
  5
15
100
AcDbSymbolTableRecord
100
AcDbLinetypeTableRecord
  2
BYLAYER
 70
0
  3

 72
65
 73
0
 40
0.0
  0
LTYPE
  5
16
100
AcDbSymbolTableRecord
100
AcDbLinetypeTableRecord
  2
CONTINUOUS
 70
64
  3
Solid line
 72
65
 73
0
 40
0.0
  0
LTYPE
  5
1F5
100
AcDbSymbolTableRecord
100
AcDbLinetypeTableRecord
  2
CENTER
 70
64
  3
____ _ ____ _ ____ _ ____ _ ____ _ ____ _ ____
 72
65
 73
4
 40
0.6
 49
0.375
 74
0
 49
-0.075
 74
0
 49
0.075
 74
0
 49
-0.075
 74
0
  0
LTYPE
  5
1F6
100
AcDbSymbolTableRecord
100
AcDbLinetypeTableRecord
  2
HIDDEN
 70
64
  3
- - - - - - - - - - - - - - - - - - - -
 72
65
 73
2
 40
0.2
 49
0.1
 74
0
 49
-0.1
 74
0
  0
LTYPE
  5
1F7
100
AcDbSymbolTableRecord
100
AcDbLinetypeTableRecord
  2
PHANTOM
 70
64
  3
_____ _ _ _____ _ _ _____ _ _ _____
 72
65
 73
6
 40
0.8
 49
0.45
 74
0
 49
-0.05
 74
0
 49
0.1
 74
0
 49
-0.05
 74
0
 49
0.1
 74
0
 49
-0.05
 74
0
  0
LTYPE
  5
1F8
100
AcDbSymbolTableRecord
100
AcDbLinetypeTableRecord
  2
DOT
 70
64
  3
. . . . . . . . . . . . . . . . . . . .
 72
65
 73
2
 40
0.2
 49
0.1
 74
0
 49
-0.1
 74
0
  0
LTYPE
  5
1F9
100
AcDbSymbolTableRecord
100
AcDbLinetypeTableRecord
  2
DASHED
 70
64
  3
- - - - - - - - - - - - - - - - - - - -
 72
65
 73
2
 40
0.2
 49
0.1
 74
0
 49
-0.1
 74
0
  0
ENDTAB
  0
TABLE
  2
LAYER
  5
2
100
AcDbSymbolTable
 70
36
  0
LAYER
  5
10
100
AcDbSymbolTableRecord
100
AcDbLayerTableRecord
  2
0
 70
0
 62
7
  6
CONTINUOUS
370
-3
390
F
  0
LAYER
  5
1FA
100
AcDbSymbolTableRecord
100
AcDbLayerTableRecord
  2
DEFAULT_1
 70
0
 62
7
  6
CENTER
370
-3
390
F
  0
LAYER
  5
1FB
100
AcDbSymbolTableRecord
100
AcDbLayerTableRecord
  2
DEFAULT_2
 70
0
 62
7
  6
HIDDEN
370
-3
390
F
  0
LAYER
  5
1FC
100
AcDbSymbolTableRecord
100
AcDbLayerTableRecord
  2
DEFAULT_3
 70
0
 62
7
  6
PHANTOM
370
-3
390
F
  0
LAYER
  5
1FD
100
AcDbSymbolTableRecord
100
AcDbLayerTableRecord
  2
00_COMPONENTS
 70
0
 62
7
  6
CONTINUOUS
370
-3
390
F
  0
LAYER
  5
1FE
100
AcDbSymbolTableRecord
100
AcDbLayerTableRecord
  2
01_1_DEFAULT_DATUMS
 70
0
 62
7
  6
CONTINUOUS
370
-3
390
F
  0
LAYER
  5
1FF
100
AcDbSymbolTableRecord
100
AcDbLayerTableRecord
  2
01_PLANES
 70
0
 62
7
  6
CONTINUOUS
370
-3
390
F
  0
LAYER
  5
200
100
AcDbSymbolTableRecord
100
AcDbLayerTableRecord
  2
02_COORD_SYS
 70
0
 62
7
  6
CONTINUOUS
370
-3
390
F
  0
LAYER
  5
201
100
AcDbSymbolTableRecord
100
AcDbLayerTableRecord
  2
03_AXES
 70
0
 62
7
  6
CONTINUOUS
370
-3
390
F
  0
LAYER
  5
202
100
AcDbSymbolTableRecord
100
AcDbLayerTableRecord
  2
04_POINTS
 70
0
 62
7
  6
CONTINUOUS
370
-3
390
F
  0
LAYER
  5
203
100
AcDbSymbolTableRecord
100
AcDbLayerTableRecord
  2
05_CURVES
 70
0
 62
7
  6
CONTINUOUS
370
-3
390
F
  0
LAYER
  5
204
100
AcDbSymbolTableRecord
100
AcDbLayerTableRecord
  2
06_SURFS
 70
0
 62
7
  6
CONTINUOUS
370
-3
390
F
  0
LAYER
  5
205
100
AcDbSymbolTableRecord
100
AcDbLayerTableRecord
  2
07_COSMETICS
 70
0
 62
7
  6
CONTINUOUS
370
-3
390
F
  0
LAYER
  5
206
100
AcDbSymbolTableRecord
100
AcDbLayerTableRecord
  2
10_NOTES
 70
0
 62
7
  6
CONTINUOUS
370
-3
390
F
  0
LAYER
  5
207
100
AcDbSymbolTableRecord
100
AcDbLayerTableRecord
  2
11_NOTES_PUB
 70
0
 62
7
  6
CONTINUOUS
370
-3
390
F
  0
LAYER
  5
208
100
AcDbSymbolTableRecord
100
AcDbLayerTableRecord
  2
13_REF_GTOL
 70
0
 62
7
  6
CONTINUOUS
370
-3
390
F
  0
LAYER
  5
209
100
AcDbSymbolTableRecord
100
AcDbLayerTableRecord
  2
16_MISC
 70
0
 62
7
  6
CONTINUOUS
370
-3
390
F
  0
LAYER
  5
20A
100
AcDbSymbolTableRecord
100
AcDbLayerTableRecord
  2
17_NO_PRINT
 70
0
 62
7
  6
CONTINUOUS
370
-3
390
F
  0
LAYER
  5
20B
100
AcDbSymbolTableRecord
100
AcDbLayerTableRecord
  2
18_DATUM_CAMS_JOINTS
 70
0
 62
7
  6
CONTINUOUS
370
-3
390
F
  0
LAYER
  5
20C
100
AcDbSymbolTableRecord
100
AcDbLayerTableRecord
  2
19_DATUM_FUNCTIONAL
 70
0
 62
7
  6
CONTINUOUS
370
-3
390
F
  0
LAYER
  5
20D
100
AcDbSymbolTableRecord
100
AcDbLayerTableRecord
  2
20_DATUM_KINEMATIC_SCHEME
 70
0
 62
7
  6
CONTINUOUS
370
-3
390
F
  0
ENDTAB
  0
TABLE
  2
STYLE
  5
3
100
AcDbSymbolTable
 70
1
  0
STYLE
  5
11
100
AcDbSymbolTableRecord
100
AcDbTextStyleTableRecord
  2
STANDARD
 70
0
 40
0.0
 41
1.0
 50
0.0
 71
0
 42
0.2
  3
ARIAL.TTF
  4

  0
STYLE
  5
20E
100
AcDbSymbolTableRecord
100
AcDbTextStyleTableRecord
  2
TEXTSTYLE_1
 70
0
 40
0.0
 41
0.8
 50
0.0
 71
0
 42
0.2
  3
gdt
  4

  0
ENDTAB
  0
TABLE
  2
VIEW
  5
6
100
AcDbSymbolTable
 70
0
  0
ENDTAB
  0
TABLE
  2
UCS
  5
7
100
AcDbSymbolTable
 70
0
  0
ENDTAB
  0
TABLE
  2
APPID
  5
9
100
AcDbSymbolTable
 70
1
  0
APPID
  5
20F
100
AcDbSymbolTableRecord
100
AcDbRegAppTableRecord
  2
ACAD
 70
0
  0
ENDTAB
  0
TABLE
  2
BLOCK_RECORD
  5
1
100
AcDbSymbolTable
 70
0
  0
BLOCK_RECORD
  5
210
100
AcDbSymbolTableRecord
100
AcDbBlockTableRecord
  2
*Model_Space
  0
BLOCK_RECORD
  5
211
100
AcDbSymbolTableRecord
100
AcDbBlockTableRecord
  2
*Paper_Space
  0
BLOCK_RECORD
  5
212
100
AcDbSymbolTableRecord
100
AcDbBlockTableRecord
  2
_FILLED
  0
ENDTAB
  0
TABLE
  2
DIMSTYLE
  5
A
100
AcDbSymbolTable
 70
1
100
AcDbDimStyleTable
 71
0
  0
DIMSTYLE
105
213
100
AcDbSymbolTableRecord
100
AcDbDimStyleTableRecord
  2
STANDARD
 70
0
  3

  4

 40
1.0
 41
0.5561054187
 42
1.0
 43
0.38
 44
1.0
 45
0.0
 46
0.0
 47
0.01
 48
0.01
140
0.7785475862
141
0.09
142
0.0
143
25.4
144
1.0
145
0.0
146
1.0
147
0.625
 71
1
 72
0
 73
0
 74
0
 75
0
 76
0
 77
1
 78
8
 79
2
170
0
171
1
172
0
173
0
174
0
175
0
176
0
177
0
178
0
270
2
179
2
271
2
272
2
273
2
274
2
275
0
280
0
281
0
282
0
283
1
284
8
285
0
286
0
287
3
288
0
340
11
278
46
341
212
342
212
343
212
344
212
  0
ENDTAB
  0
ENDSEC
  0
SECTION
  2
BLOCKS
  0
BLOCK
  5
20
100
AcDbEntity
  8
0
100
AcDbBlockBegin
  2
*Model_Space
 70
0
 10
0.0
 20
0.0
 30
0.0
  3
*Model_Space
  1

  0
ENDBLK
  5
21
100
AcDbEntity
  8
0
100
AcDbBlockEnd
  0
BLOCK
  5
1C
100
AcDbEntity
  8
0
100
AcDbBlockBegin
  2
*Paper_Space
 70
0
 10
0.0
 20
0.0
 30
0.0
  3
*Paper_Space
  1

  0
ENDBLK
  5
1D
100
AcDbEntity
  8
0
100
AcDbBlockEnd
  0
BLOCK
  5
214
100
AcDbEntity
  8
0
100
AcDbBlockBegin
  2
_FILLED
 70
64
 10
0.0
 20
0.0
  3
_FILLED
  1

  0
SOLID
  5
215
100
AcDbEntity
  8
0
  6
BYBLOCK
 62
0
100
AcDbTrace
 10
0.0
 20
0.0
 11
-1.0
 21
0.25
 12
-1.0
 22
-0.25
 13
-1.0
 23
-0.25
  0
ENDBLK
  5
216
100
AcDbEntity
  8
0
  6
BYBLOCK
 62
0
100
AcDbBlockEnd
  0
ENDSEC
  0
SECTION
  2
ENTITIES
  0
LINE
  5
217
100
AcDbEntity
  8
0
100
AcDbLine
 62
7
  6
BYLAYER
 10
26.4123921481
 20
4.7305035971
 11
21.5134126626
 21
4.7305035971
  0
LINE
  5
218
100
AcDbEntity
  8
0
100
AcDbLine
 62
7
  6
BYLAYER
 10
26.9209422969
 20
5.2305035971
 11
21.0048625138
 21
5.2305035971
  0
LINE
  5
219
100
AcDbEntity
  8
0
100
AcDbLine
 62
7
  6
BYLAYER
 10
26.9628909161
 20
5.9305035971
 11
26.9209422969
 21
5.9305035971
  0
LINE
  5
21A
100
AcDbEntity
  8
0
100
AcDbLine
 62
7
  6
BYLAYER
 10
21.0048625138
 20
5.9305035971
 11
20.9629138946
 21
5.9305035971
  0
LINE
  5
21B
100
AcDbEntity
  8
0
100
AcDbLine
 62
7
  6
BYLAYER
 10
28.6628997933
 20
6.0805035971
 11
19.2629050174
 21
6.0805035971
  0
LINE
  5
21C
100
AcDbEntity
  8
0
100
AcDbLine
 62
7
  6
BYLAYER
 10
28.7629024053
 20
6.8805035971
 11
28.6883055962
 21
6.8805035971
  0
LINE
  5
21D
100
AcDbEntity
  8
0
100
AcDbLine
 62
7
  6
BYLAYER
 10
24.0374992145
 20
6.8805035971
 11
23.8883055962
 21
6.8805035971
  0
LINE
  5
21E
100
AcDbEntity
  8
0
100
AcDbLine
 62
7
  6
BYLAYER
 10
19.2374992145
 20
6.8805035971
 11
19.1629024053
 21
6.8805035971
  0
LINE
  5
21F
100
AcDbEntity
  8
0
100
AcDbLine
 62
7
  6
BYLAYER
 10
19.1629024053
 20
10.2805035971
 11
19.2374992145
 21
10.2805035971
  0
LINE
  5
220
100
AcDbEntity
  8
0
100
AcDbLine
 62
7
  6
BYLAYER
 10
23.8883055962
 20
10.2805035971
 11
24.0374992145
 21
10.2805035971
  0
LINE
  5
221
100
AcDbEntity
  8
0
100
AcDbLine
 62
7
  6
BYLAYER
 10
28.6883055962
 20
10.2805035971
 11
28.7629024053
 21
10.2805035971
  0
LINE
  5
222
100
AcDbEntity
  8
0
100
AcDbLine
 62
7
  6
BYLAYER
 10
19.2629050174
 20
11.0805035971
 11
28.6628997933
 21
11.0805035971
  0
LINE
  5
223
100
AcDbEntity
  8
0
100
AcDbLine
 62
7
  6
BYLAYER
 10
19.2629024053
 20
6.0805035971
 11
19.1629024053
 21
6.1805035971
  0
LINE
  5
224
100
AcDbEntity
  8
0
100
AcDbLine
 62
7
  6
BYLAYER
 10
10.6382109827
 20
42.4335997586
 11
10.7123541278
 21
42.4830211201
  0
LINE
  5
225
100
AcDbEntity
  8
0
100
AcDbLine
 62
7
  6
BYLAYER
 10
30.9628436299
 20
16.8305035971
 11
16.9629611808
 21
16.8305035971
  0
LINE
  5
226
100
AcDbEntity
  8
0
100
AcDbLine
 62
7
  6
BYLAYER
 10
10.4629024053
 20
34.9301609221
 11
10.4629024053
 21
59.9308462721
  0
LINE
  5
227
100
AcDbEntity
  8
0
100
AcDbLine
 62
7
  6
BYLAYER
 10
10.6203606685
 20
35.0876191853
 11
10.6203606986
 21
41.3514684374
  0
LINE
  5
228
100
AcDbEntity
  8
0
100
AcDbLine
 62
7
  6
BYLAYER
 10
10.6203606986
 20
53.5095387591
 11
10.6203606685
 21
59.7733880081
  0
LINE
  5
229
100
AcDbEntity
  8
0
100
AcDbLine
 62
7
  6
BYLAYER
 10
10.7123541278
 20
52.3779860742
 11
10.7123541278
 21
42.4830211201
  0
LINE
  5
22A
100
AcDbEntity
  8
0
100
AcDbLine
 62
7
  6
BYLAYER
 10
11.1201893311
 20
35.0876428546
 11
11.1202022229
 21
41.3514607004
  0
LINE
  5
22B
100
AcDbEntity
  8
0
100
AcDbLine
 62
7
  6
BYLAYER
 10
11.1202028881
 20
53.5095483327
 11
11.120189331
 21
59.7733735596
  0
LINE
  5
22C
100
AcDbEntity
  8
0
100
AcDbLine
 62
7
  6
BYLAYER
 10
11.6200179943
 20
34.0879618594
 11
11.6200179943
 21
34.5877905228
  0
LINE
  5
22D
100
AcDbEntity
  8
0
100
AcDbLine
 62
7
  6
BYLAYER
 10
11.6200179967
 20
60.2732166715
 11
11.6200179967
 21
60.7730453189
  0
LINE
  5
22E
100
AcDbEntity
  8
0
100
AcDbLine
 62
7
  6
BYLAYER
 10
11.638142473
 20
41.2339641447
 11
11.638142473
 21
41.4339336835
  0
LINE
  5
22F
100
AcDbEntity
  8
0
100
AcDbLine
 62
7
  6
BYLAYER
 10
11.638142464
 20
53.4270735107
 11
11.638142464
 21
53.6270430496
  0
LINE
  5
230
100
AcDbEntity
  8
0
100
AcDbLine
 62
7
  6
BYLAYER
 10
11.7120114527
 20
41.4831734239
 11
11.7120114527
 21
53.3778337704
  0
LINE
  5
231
100
AcDbEntity
  8
0
100
AcDbLine
 62
7
  6
BYLAYER
 10
13.9669417111
 20
41.4339336835
 11
14.0160924623
 21
41.4831734229
  0
LINE
  5
232
100
AcDbEntity
  8
0
100
AcDbLine
 62
7
  6
BYLAYER
 10
29.9102325796
 20
57.377318173
 11
29.9594723189
 21
57.4264642913
  0
LINE
  5
233
100
AcDbEntity
  8
0
100
AcDbLine
 62
7
  6
BYLAYER
 10
11.7120114535
 20
41.4831734248
 11
11.6381424651
 21
41.4339336835
  0
LINE
  5
234
100
AcDbEntity
  8
0
100
AcDbLine
 62
7
  6
BYLAYER
 10
17.0346991751
 20
19.1305035971
 11
22.9629024053
 21
19.1305035971
  0
LINE
  5
235
100
AcDbEntity
  8
0
100
AcDbLine
 62
7
  6
BYLAYER
 10
24.9629024053
 20
19.1305035971
 11
30.8911056356
 21
19.1305035971
  0
LINE
  5
236
100
AcDbEntity
  8
0
100
AcDbLine
 62
7
  6
BYLAYER
 10
16.9629168076
 20
19.9305035971
 11
18.9619025053
 21
19.9305035971
  0
LINE
  5
237
100
AcDbEntity
  8
0
100
AcDbLine
 62
7
  6
BYLAYER
 10
22.9629024053
 20
19.9305035971
 11
24.9629024053
 21
19.9305035971
  0
LINE
  5
238
100
AcDbEntity
  8
0
100
AcDbLine
 62
7
  6
BYLAYER
 10
28.9639023054
 20
19.9305035971
 11
30.9628880031
 21
19.9305035971
  0
LINE
  5
239
100
AcDbEntity
  8
0
100
AcDbLine
 62
7
  6
BYLAYER
 10
16.212910467
 20
20.6305035971
 11
31.7128943436
 21
20.6305035971
  0
LINE
  5
23A
100
AcDbEntity
  8
0
100
AcDbLine
 62
7
  6
BYLAYER
 10
28.9103848824
 20
60.6810518747
 11
28.9598062423
 21
60.7551950176
  0
LINE
  5
23B
100
AcDbEntity
  8
0
100
AcDbLine
 62
7
  6
BYLAYER
 10
10.4629024053
 20
34.9301609221
 11
10.6203606685
 21
35.0876191853
  0
LINE
  5
23C
100
AcDbEntity
  8
0
100
AcDbLine
 62
7
  6
BYLAYER
 10
36.3057868163
 20
60.7730453339
 11
36.4632450804
 21
60.9305035971
  0
LINE
  5
23D
100
AcDbEntity
  8
0
100
AcDbLine
 62
7
  6
BYLAYER
 10
36.2137933572
 20
53.3778337695
 11
36.2876623456
 21
53.4270735107
  0
LINE
  5
23E
100
AcDbEntity
  8
0
100
AcDbLine
 62
7
  6
BYLAYER
 10
32.7129024053
 20
21.6305035971
 11
15.2129024053
 21
21.6305035971
  0
LINE
  5
23F
100
AcDbEntity
  8
0
100
AcDbLine
 62
7
  6
BYLAYER
 10
28.6629024053
 20
11.0805035971
 11
28.7629024053
 21
10.9805035971
  0
LINE
  5
240
100
AcDbEntity
  8
0
100
AcDbLine
 62
7
  6
BYLAYER
 10
13.9669417111
 20
53.6270430496
 11
13.9669417111
 21
53.4270735107
  0
LINE
  5
241
100
AcDbEntity
  8
0
100
AcDbLine
 62
7
  6
BYLAYER
 10
13.9669417111
 20
41.4339336835
 11
13.9669417111
 21
41.2339641447
  0
LINE
  5
242
100
AcDbEntity
  8
0
100
AcDbLine
 62
7
  6
BYLAYER
 10
14.0161814523
 20
53.3778337704
 11
14.0161814523
 21
52.3779860743
  0
LINE
  5
243
100
AcDbEntity
  8
0
100
AcDbLine
 62
7
  6
BYLAYER
 10
14.0161814272
 20
42.48302112
 11
14.0161814272
 21
41.4831734239
  0
LINE
  5
244
100
AcDbEntity
  8
0
100
AcDbLine
 62
7
  6
BYLAYER
 10
15.2129024053
 20
21.6305035971
 11
15.2129024053
 21
33.7305683264
  0
LINE
  5
245
100
AcDbEntity
  8
0
100
AcDbLine
 62
7
  6
BYLAYER
 10
15.2129083091
 20
33.7307082316
 11
15.2129024053
 21
33.7305684211
  0
LINE
  5
246
100
AcDbEntity
  8
0
100
AcDbLine
 62
7
  6
BYLAYER
 10
15.2129065787
 20
33.7305694506
 11
15.2129127688
 21
33.7306998585
  0
LINE
  5
247
100
AcDbEntity
  8
0
100
AcDbLine
 62
7
  6
BYLAYER
 10
29.9594723189
 20
59.7552635382
 11
29.9102325777
 21
59.6813945483
  0
LINE
  5
248
100
AcDbEntity
  8
0
100
AcDbLine
 62
7
  6
BYLAYER
 10
37.4629024053
 20
59.9308462722
 11
37.3054441422
 21
59.7733880089
  0
LINE
  5
249
100
AcDbEntity
  8
0
100
AcDbLine
 62
7
  6
BYLAYER
 10
11.6200179944
 20
34.0879618603
 11
11.4625597303
 21
33.9305035971
  0
LINE
  5
24A
100
AcDbEntity
  8
0
100
AcDbLine
 62
7
  6
BYLAYER
 10
37.287593828
 20
52.4274074356
 11
37.2134506829
 21
52.3779860741
  0
LINE
  5
24B
100
AcDbEntity
  8
0
100
AcDbLine
 62
7
  6
BYLAYER
 10
16.9629024053
 20
19.9305035971
 11
16.9629024053
 21
16.8305035971
  0
LINE
  5
24C
100
AcDbEntity
  8
0
100
AcDbLine
 62
7
  6
BYLAYER
 10
17.0346991751
 20
19.1305035971
 11
17.0346991751
 21
19.9305035971
  0
LINE
  5
24D
100
AcDbEntity
  8
0
100
AcDbLine
 62
7
  6
BYLAYER
 10
17.3385396843
 20
34.0879618594
 11
17.3385323152
 21
34.5877905228
  0
LINE
  5
24E
100
AcDbEntity
  8
0
100
AcDbLine
 62
7
  6
BYLAYER
 10
17.7663629513
 20
37.4344379718
 11
17.7663224005
 21
34.513787377
  0
LINE
  5
24F
100
AcDbEntity
  8
0
100
AcDbLine
 62
7
  6
BYLAYER
 10
17.7663629531
 20
59.7552550042
 11
17.7663629527
 21
57.4265696468
  0
LINE
  5
250
100
AcDbEntity
  8
0
100
AcDbLine
 62
7
  6
BYLAYER
 10
17.8838652374
 20
60.7730453189
 11
17.8838652374
 21
60.2732166715
  0
LINE
  5
251
100
AcDbEntity
  8
0
100
AcDbLine
 62
7
  6
BYLAYER
 10
17.9663324918
 20
57.4264642913
 11
17.9663324918
 21
59.7552635375
  0
LINE
  5
252
100
AcDbEntity
  8
0
100
AcDbLine
 62
7
  6
BYLAYER
 10
17.9663324918
 20
37.4345429029
 11
17.9663328736
 21
34.5472219559
  0
LINE
  5
253
100
AcDbEntity
  8
0
100
AcDbLine
 62
7
  6
BYLAYER
 10
17.6057931594
 20
34.0708576872
 11
17.7663678196
 21
34.513770677
  0
LINE
  5
254
100
AcDbEntity
  8
0
100
AcDbLine
 62
7
  6
BYLAYER
 10
17.9726520594
 20
34.6152813171
 11
18.015572233
 21
34.6796697519
  0
LINE
  5
255
100
AcDbEntity
  8
0
100
AcDbLine
 62
7
  6
BYLAYER
 10
33.9588630996
 20
53.4270735107
 11
33.9097123484
 21
53.3778337713
  0
LINE
  5
256
100
AcDbEntity
  8
0
100
AcDbLine
 62
7
  6
BYLAYER
 10
18.0155722311
 20
37.4836890212
 11
17.9663324918
 21
37.4345429029
  0
LINE
  5
257
100
AcDbEntity
  8
0
100
AcDbLine
 62
7
  6
BYLAYER
 10
18.015572233
 20
34.6796697519
 11
18.0155722311
 21
37.4836890212
  0
LINE
  5
258
100
AcDbEntity
  8
0
100
AcDbLine
 62
7
  6
BYLAYER
 10
18.0155722311
 20
57.3773180643
 11
18.015572233
 21
59.681394549
  0
LINE
  5
259
100
AcDbEntity
  8
0
100
AcDbLine
 62
7
  6
BYLAYER
 10
18.9619025053
 20
19.9305035971
 11
18.9619025053
 21
19.1305035971
  0
LINE
  5
25A
100
AcDbEntity
  8
0
100
AcDbLine
 62
7
  6
BYLAYER
 10
18.9629024053
 20
19.9305035971
 11
18.9629024053
 21
20.6305035971
  0
LINE
  5
25B
100
AcDbEntity
  8
0
100
AcDbLine
 62
7
  6
BYLAYER
 10
19.0154199302
 20
34.1927055466
 11
19.0154199282
 21
37.483666621
  0
LINE
  5
25C
100
AcDbEntity
  8
0
100
AcDbLine
 62
7
  6
BYLAYER
 10
19.0154199282
 20
57.3773398868
 11
19.0154199282
 21
60.6810518747
  0
LINE
  5
25D
100
AcDbEntity
  8
0
100
AcDbLine
 62
7
  6
BYLAYER
 10
19.1629024053
 20
10.9805035957
 11
19.1629024053
 21
6.1805035985
  0
LINE
  5
25E
100
AcDbEntity
  8
0
100
AcDbLine
 62
7
  6
BYLAYER
 10
19.2374992145
 20
6.8805035971
 11
19.2374992145
 21
10.2805035971
  0
LINE
  5
25F
100
AcDbEntity
  8
0
100
AcDbLine
 62
7
  6
BYLAYER
 10
18.5154951461
 20
34.1798396875
 11
18.4725788447
 21
34.1154528323
  0
LINE
  5
260
100
AcDbEntity
  8
0
100
AcDbLine
 62
7
  6
BYLAYER
 10
20.9629024053
 20
5.9305035971
 11
20.9629024053
 21
6.0805035971
  0
LINE
  5
261
100
AcDbEntity
  8
0
100
AcDbLine
 62
7
  6
BYLAYER
 10
20.9629024053
 20
11.0805035971
 11
20.9629024053
 21
16.8305035971
  0
LINE
  5
262
100
AcDbEntity
  8
0
100
AcDbLine
 62
7
  6
BYLAYER
 10
21.0048625138
 20
5.9305035971
 11
21.0048625138
 21
5.2305015342
  0
LINE
  5
263
100
AcDbEntity
  8
0
100
AcDbLine
 62
7
  6
BYLAYER
 10
22.9629024053
 20
19.9305035971
 11
22.9629024053
 21
19.1305035971
  0
LINE
  5
264
100
AcDbEntity
  8
0
100
AcDbLine
 62
7
  6
BYLAYER
 10
23.8883055962
 20
10.2805035971
 11
23.8883055962
 21
6.8805035971
  0
LINE
  5
265
100
AcDbEntity
  8
0
100
AcDbLine
 62
7
  6
BYLAYER
 10
24.0374992145
 20
6.8805035971
 11
24.0374992145
 21
10.2805035971
  0
LWPOLYLINE
  5
266
100
AcDbEntity
  8
0
100
AcDbPolyline
 62
7
  6
BYLAYER
 90
4
 70
0
 10
15.0180682423
 20
33.9305035703
 10
15.0939250032
 20
33.9134246864
 10
15.1586817427
 20
33.867498202
 10
15.2129065787
 20
33.7305683257
  0
LINE
  5
267
100
AcDbEntity
  8
0
100
AcDbLine
 62
7
  6
BYLAYER
 10
24.9629024053
 20
19.1305035971
 11
24.9629024053
 21
19.9305035971
  0
LINE
  5
268
100
AcDbEntity
  8
0
100
AcDbLine
 62
7
  6
BYLAYER
 10
19.3015604256
 20
34.1304351586
 11
20.9843775812
 21
34.1513691852
  0
LINE
  5
269
100
AcDbEntity
  8
0
100
AcDbLine
 62
7
  6
BYLAYER
 10
15.0180672081
 20
33.9305035971
 11
11.4625597303
 21
33.9305035971
  0
LINE
  5
26A
100
AcDbEntity
  8
0
100
AcDbLine
 62
7
  6
BYLAYER
 10
36.4632450804
 20
33.9305035971
 11
32.9129028851
 21
33.9305036532
  0
LINE
  5
26B
100
AcDbEntity
  8
0
100
AcDbLine
 62
7
  6
BYLAYER
 10
36.3057868172
 20
34.0879618603
 11
30.587290757
 21
34.0879618607
  0
LINE
  5
26C
100
AcDbEntity
  8
0
100
AcDbLine
 62
7
  6
BYLAYER
 10
17.3384569237
 20
34.0879618585
 11
11.6200179944
 21
34.0879618603
  0
LINE
  5
26D
100
AcDbEntity
  8
0
100
AcDbLine
 62
7
  6
BYLAYER
 10
19.0153712547
 20
34.1927055466
 11
28.9104340937
 21
34.1927055466
  0
LINE
  5
26E
100
AcDbEntity
  8
0
100
AcDbLine
 62
7
  6
BYLAYER
 10
36.3057631477
 20
34.5877905228
 11
30.5872689605
 21
34.5877904656
  0
LINE
  5
26F
100
AcDbEntity
  8
0
100
AcDbLine
 62
7
  6
BYLAYER
 10
17.3385331028
 20
34.5877905111
 11
11.6200324393
 21
34.5877905228
  0
LINE
  5
270
100
AcDbEntity
  8
0
100
AcDbLine
 62
7
  6
BYLAYER
 10
28.9103848803
 20
34.692534209
 11
19.0154199304
 21
34.692534209
  0
LINE
  5
271
100
AcDbEntity
  8
0
100
AcDbLine
 62
7
  6
BYLAYER
 10
37.3054441271
 20
35.0876191861
 11
36.8056154797
 21
35.0876191861
  0
LINE
  5
272
100
AcDbEntity
  8
0
100
AcDbLine
 62
7
  6
BYLAYER
 10
11.120189331
 20
35.0876191885
 11
10.6203606836
 21
35.0876191885
  0
LINE
  5
273
100
AcDbEntity
  8
0
100
AcDbLine
 62
7
  6
BYLAYER
 10
15.0180702552
 20
33.930572065
 11
15.0126312869
 21
33.9306406995
  0
LINE
  5
274
100
AcDbEntity
  8
0
100
AcDbLine
 62
7
  6
BYLAYER
 10
26.9414240272
 20
34.1513713893
 11
29.4532266481
 21
34.1154521736
  0
LINE
  5
275
100
AcDbEntity
  8
0
100
AcDbLine
 62
7
  6
BYLAYER
 10
26.9209422969
 20
5.230501534
 11
26.9209422969
 21
5.9305035971
  0
LINE
  5
276
100
AcDbEntity
  8
0
100
AcDbLine
 62
7
  6
BYLAYER
 10
26.9629024053
 20
5.9305035971
 11
26.9629024053
 21
6.0805035971
  0
LINE
  5
277
100
AcDbEntity
  8
0
100
AcDbLine
 62
7
  6
BYLAYER
 10
26.9629024053
 20
11.0805035971
 11
26.9629024053
 21
16.8305035971
  0
LINE
  5
278
100
AcDbEntity
  8
0
100
AcDbLine
 62
7
  6
BYLAYER
 10
28.6883055962
 20
10.2805035971
 11
28.6883055962
 21
6.8805035971
  0
LINE
  5
279
100
AcDbEntity
  8
0
100
AcDbLine
 62
7
  6
BYLAYER
 10
28.7629024053
 20
6.1805035985
 11
28.7629024053
 21
10.9805035957
  0
LINE
  5
27A
100
AcDbEntity
  8
0
100
AcDbLine
 62
7
  6
BYLAYER
 10
28.9103848825
 20
60.6810518747
 11
28.9103848825
 21
57.3773371343
  0
LINE
  5
27B
100
AcDbEntity
  8
0
100
AcDbLine
 62
7
  6
BYLAYER
 10
28.9103848825
 20
37.4836638584
 11
28.9103848699
 21
34.1927055466
  0
LINE
  5
27C
100
AcDbEntity
  8
0
100
AcDbLine
 62
7
  6
BYLAYER
 10
28.9629024053
 20
19.9305035971
 11
28.9629024053
 21
20.6305035971
  0
LINE
  5
27D
100
AcDbEntity
  8
0
100
AcDbLine
 62
7
  6
BYLAYER
 10
28.9639023054
 20
19.1305035971
 11
28.9639023054
 21
19.9305035971
  0
LINE
  5
27E
100
AcDbEntity
  8
0
100
AcDbLine
 62
7
  6
BYLAYER
 10
29.9102325777
 20
59.6813945483
 11
29.9102325796
 21
57.377318173
  0
LINE
  5
27F
100
AcDbEntity
  8
0
100
AcDbLine
 62
7
  6
BYLAYER
 10
29.9102325796
 20
37.48368913
 11
29.9102325777
 21
34.6796697519
  0
LINE
  5
280
100
AcDbEntity
  8
0
100
AcDbLine
 62
7
  6
BYLAYER
 10
29.9594718923
 20
34.5472237361
 11
29.9594723189
 21
37.4345429029
  0
LINE
  5
281
100
AcDbEntity
  8
0
100
AcDbLine
 62
7
  6
BYLAYER
 10
29.9594723189
 20
59.7552635382
 11
29.9594723189
 21
57.4264642913
  0
LINE
  5
282
100
AcDbEntity
  8
0
100
AcDbLine
 62
7
  6
BYLAYER
 10
30.0419254499
 20
60.7730453189
 11
30.0419254499
 21
60.2732166715
  0
LINE
  5
283
100
AcDbEntity
  8
0
100
AcDbLine
 62
7
  6
BYLAYER
 10
30.159441858
 20
57.4265684359
 11
30.1594418576
 21
59.7552655227
  0
LINE
  5
284
100
AcDbEntity
  8
0
100
AcDbLine
 62
7
  6
BYLAYER
 10
30.1594795269
 20
34.5137840753
 11
30.1594418593
 21
37.4344383637
  0
LINE
  5
285
100
AcDbEntity
  8
0
100
AcDbLine
 62
7
  6
BYLAYER
 10
17.7663426758
 20
37.4345429029
 11
17.9663324918
 21
37.4345429029
  0
LINE
  5
286
100
AcDbEntity
  8
0
100
AcDbLine
 62
7
  6
BYLAYER
 10
29.9594723189
 20
37.4345429029
 11
30.1594606932
 21
37.4345429029
  0
LINE
  5
287
100
AcDbEntity
  8
0
100
AcDbLine
 62
7
  6
BYLAYER
 10
18.015572232
 20
37.483782644
 11
19.0154199282
 21
37.483782644
  0
LINE
  5
288
100
AcDbEntity
  8
0
100
AcDbLine
 62
7
  6
BYLAYER
 10
28.9103848825
 20
37.4837826179
 11
29.9102325787
 21
37.4837826179
  0
LINE
  5
289
100
AcDbEntity
  8
0
100
AcDbLine
 62
7
  6
BYLAYER
 10
29.4532266481
 20
34.1154521736
 11
29.4103096724
 21
34.1798396757
  0
LINE
  5
28A
100
AcDbEntity
  8
0
100
AcDbLine
 62
7
  6
BYLAYER
 10
29.9102325777
 20
34.6796697519
 11
29.9531527785
 21
34.6152812491
  0
LINE
  5
28B
100
AcDbEntity
  8
0
100
AcDbLine
 62
7
  6
BYLAYER
 10
30.3199890612
 20
34.0708480938
 11
30.1594480954
 21
34.5137442121
  0
LINE
  5
28C
100
AcDbEntity
  8
0
100
AcDbLine
 62
7
  6
BYLAYER
 10
30.5872689536
 20
34.0879618605
 11
30.5872689536
 21
34.5877905228
  0
LINE
  5
28D
100
AcDbEntity
  8
0
100
AcDbLine
 62
7
  6
BYLAYER
 10
30.8911056356
 20
19.9305035971
 11
30.8911056356
 21
19.1305035971
  0
LINE
  5
28E
100
AcDbEntity
  8
0
100
AcDbLine
 62
7
  6
BYLAYER
 10
30.9629024053
 20
19.9305035971
 11
30.9629024053
 21
16.8305035971
  0
LWPOLYLINE
  5
28F
100
AcDbEntity
  8
0
100
AcDbPolyline
 62
7
  6
BYLAYER
 90
4
 70
0
 10
32.7128981529
 20
33.7305682251
 10
32.7671204523
 20
33.8674954055
 10
32.8318531027
 20
33.9134128048
 10
32.9129860897
 20
33.9305701749
  0
LINE
  5
290
100
AcDbEntity
  8
0
100
AcDbLine
 62
7
  6
BYLAYER
 10
11.6381509984
 20
41.2339641448
 11
13.9668367455
 21
41.2339641445
  0
LINE
  5
291
100
AcDbEntity
  8
0
100
AcDbLine
 62
7
  6
BYLAYER
 10
33.9589675859
 20
41.2339641445
 11
36.2876643358
 21
41.2339641448
  0
LINE
  5
292
100
AcDbEntity
  8
0
100
AcDbLine
 62
7
  6
BYLAYER
 10
10.6203606836
 20
41.3514664292
 11
11.120189331
 21
41.3514664292
  0
LINE
  5
293
100
AcDbEntity
  8
0
100
AcDbLine
 62
7
  6
BYLAYER
 10
37.3054441271
 20
41.3514805526
 11
36.8056154797
 21
41.3514805526
  0
LINE
  5
294
100
AcDbEntity
  8
0
100
AcDbLine
 62
7
  6
BYLAYER
 10
29.9594723189
 20
37.4345429029
 11
29.9102325796
 21
37.48368913
  0
LINE
  5
295
100
AcDbEntity
  8
0
100
AcDbLine
 62
7
  6
BYLAYER
 10
14.016092162
 20
53.3778337713
 11
13.9669417111
 21
53.4270735107
  0
LINE
  5
296
100
AcDbEntity
  8
0
100
AcDbLine
 62
7
  6
BYLAYER
 10
32.7128919623
 20
33.7306980252
 11
32.7128981527
 21
33.7305693583
  0
LINE
  5
297
100
AcDbEntity
  8
0
100
AcDbLine
 62
7
  6
BYLAYER
 10
32.7129024053
 20
33.7305682327
 11
32.7128963321
 21
33.7307102318
  0
LINE
  5
298
100
AcDbEntity
  8
0
100
AcDbLine
 62
7
  6
BYLAYER
 10
32.7129024053
 20
21.6305035971
 11
32.7129024053
 21
33.730568227
  0
LINE
  5
299
100
AcDbEntity
  8
0
100
AcDbLine
 62
7
  6
BYLAYER
 10
33.9096233584
 20
41.4831734239
 11
33.9096233584
 21
42.48302112
  0
LINE
  5
29A
100
AcDbEntity
  8
0
100
AcDbLine
 62
7
  6
BYLAYER
 10
33.9096233835
 20
52.3779860743
 11
33.9096233835
 21
53.3778337704
  0
LINE
  5
29B
100
AcDbEntity
  8
0
100
AcDbLine
 62
7
  6
BYLAYER
 10
33.9588630996
 20
41.2339641447
 11
33.9588630996
 21
41.4339336835
  0
LINE
  5
29C
100
AcDbEntity
  8
0
100
AcDbLine
 62
7
  6
BYLAYER
 10
33.9588630996
 20
53.4270735107
 11
33.9588630996
 21
53.6270430496
  0
LINE
  5
29D
100
AcDbEntity
  8
0
100
AcDbLine
 62
7
  6
BYLAYER
 10
36.2876623464
 20
41.4339336835
 11
33.9588630996
 21
41.4339336835
  0
LINE
  5
29E
100
AcDbEntity
  8
0
100
AcDbLine
 62
7
  6
BYLAYER
 10
13.9669417111
 20
41.4339336835
 11
11.6381424651
 21
41.4339336835
  0
LINE
  5
29F
100
AcDbEntity
  8
0
100
AcDbLine
 62
7
  6
BYLAYER
 10
36.2137933565
 20
41.4831734248
 11
33.9097126487
 21
41.4831734229
  0
LINE
  5
2A0
100
AcDbEntity
  8
0
100
AcDbLine
 62
7
  6
BYLAYER
 10
14.0160924623
 20
41.4831734229
 11
11.7120114535
 21
41.4831734248
  0
LINE
  5
2A1
100
AcDbEntity
  8
0
100
AcDbLine
 62
7
  6
BYLAYER
 10
37.2134506829
 20
42.48302112
 11
33.9097422588
 21
42.4830211199
  0
LINE
  5
2A2
100
AcDbEntity
  8
0
100
AcDbLine
 62
7
  6
BYLAYER
 10
14.0160653151
 20
42.4830211199
 11
10.7123541278
 21
42.48302112
  0
LINE
  5
2A3
100
AcDbEntity
  8
0
100
AcDbLine
 62
7
  6
BYLAYER
 10
10.7123541278
 20
52.3779860742
 11
10.6382109849
 21
52.427407434
  0
LINE
  5
2A4
100
AcDbEntity
  8
0
100
AcDbLine
 62
7
  6
BYLAYER
 10
11.6381424643
 20
53.4270735107
 11
11.7120114542
 21
53.3778337695
  0
LINE
  5
2A5
100
AcDbEntity
  8
0
100
AcDbLine
 62
7
  6
BYLAYER
 10
36.4632450804
 20
33.9305035971
 11
36.3057868172
 21
34.0879618603
  0
LINE
  5
2A6
100
AcDbEntity
  8
0
100
AcDbLine
 62
7
  6
BYLAYER
 10
10.6203606685
 20
59.7733880081
 11
10.4629024053
 21
59.9308462721
  0
LINE
  5
2A7
100
AcDbEntity
  8
0
100
AcDbLine
 62
7
  6
BYLAYER
 10
18.015572233
 20
59.681394549
 11
17.9663324918
 21
59.7552635375
  0
LINE
  5
2A8
100
AcDbEntity
  8
0
100
AcDbLine
 62
7
  6
BYLAYER
 10
36.2137933579
 20
53.3778337704
 11
36.2137933579
 21
41.4831734239
  0
LINE
  5
2A9
100
AcDbEntity
  8
0
100
AcDbLine
 62
7
  6
BYLAYER
 10
36.2876623377
 20
53.6270430496
 11
36.2876623377
 21
53.4270735107
  0
LINE
  5
2AA
100
AcDbEntity
  8
0
100
AcDbLine
 62
7
  6
BYLAYER
 10
36.2876623466
 20
41.4339336835
 11
36.2876623466
 21
41.2339641447
  0
LINE
  5
2AB
100
AcDbEntity
  8
0
100
AcDbLine
 62
7
  6
BYLAYER
 10
36.3057868164
 20
60.7730453189
 11
36.3057868164
 21
60.2732166715
  0
LINE
  5
2AC
100
AcDbEntity
  8
0
100
AcDbLine
 62
7
  6
BYLAYER
 10
36.305786814
 20
34.5877905228
 11
36.305786814
 21
34.0879618605
  0
LINE
  5
2AD
100
AcDbEntity
  8
0
100
AcDbLine
 62
7
  6
BYLAYER
 10
19.2629024053
 20
11.0805035971
 11
19.1629024053
 21
10.9805035971
  0
LINE
  5
2AE
100
AcDbEntity
  8
0
100
AcDbLine
 62
7
  6
BYLAYER
 10
11.4625597303
 20
60.9305035971
 11
11.6200179935
 21
60.7730453339
  0
LINE
  5
2AF
100
AcDbEntity
  8
0
100
AcDbLine
 62
7
  6
BYLAYER
 10
37.3054441422
 20
35.0876191862
 11
37.4629024053
 21
34.9301609221
  0
LINE
  5
2B0
100
AcDbEntity
  8
0
100
AcDbLine
 62
7
  6
BYLAYER
 10
18.9659985669
 20
60.7551950197
 11
19.0154199284
 21
60.6810518747
  0
LINE
  5
2B1
100
AcDbEntity
  8
0
100
AcDbLine
 62
7
  6
BYLAYER
 10
36.8056154796
 20
59.7733643406
 11
36.8056025878
 21
53.509546493
  0
LINE
  5
2B2
100
AcDbEntity
  8
0
100
AcDbLine
 62
7
  6
BYLAYER
 10
36.8056019226
 20
41.3514588606
 11
36.8056154797
 21
35.0876336309
  0
LINE
  5
2B3
100
AcDbEntity
  8
0
100
AcDbLine
 62
7
  6
BYLAYER
 10
37.2134506829
 20
42.48302112
 11
37.2134506829
 21
52.3779860741
  0
LINE
  5
2B4
100
AcDbEntity
  8
0
100
AcDbLine
 62
7
  6
BYLAYER
 10
37.3054441422
 20
59.7733880089
 11
37.3054441121
 21
53.5095387568
  0
LINE
  5
2B5
100
AcDbEntity
  8
0
100
AcDbLine
 62
7
  6
BYLAYER
 10
37.3054441121
 20
41.3514684352
 11
37.3054441422
 21
35.0876191862
  0
LINE
  5
2B6
100
AcDbEntity
  8
0
100
AcDbLine
 62
7
  6
BYLAYER
 10
37.4629024053
 20
59.9308462721
 11
37.4629024053
 21
34.9301609221
  0
LINE
  5
2B7
100
AcDbEntity
  8
0
100
AcDbLine
 62
7
  6
BYLAYER
 10
36.2876623464
 20
41.4339336835
 11
36.2137933565
 21
41.4831734248
  0
LINE
  5
2B8
100
AcDbEntity
  8
0
100
AcDbLine
 62
7
  6
BYLAYER
 10
17.9663324918
 20
57.4264642913
 11
18.0155722311
 21
57.3773180643
  0
LINE
  5
2B9
100
AcDbEntity
  8
0
100
AcDbLine
 62
7
  6
BYLAYER
 10
33.9097126487
 20
41.4831734229
 11
33.9588630996
 21
41.4339336835
  0
LINE
  5
2BA
100
AcDbEntity
  8
0
100
AcDbLine
 62
7
  6
BYLAYER
 10
37.2134506829
 20
42.48302112
 11
37.2875938258
 21
42.4335997602
  0
LINE
  5
2BB
100
AcDbEntity
  8
0
100
AcDbLine
 62
7
  6
BYLAYER
 10
10.7123541278
 20
52.3779860743
 11
14.0160660042
 21
52.3779860743
  0
LINE
  5
2BC
100
AcDbEntity
  8
0
100
AcDbLine
 62
7
  6
BYLAYER
 10
33.9097360532
 20
52.3779860743
 11
37.2134506829
 21
52.3779860743
  0
LINE
  5
2BD
100
AcDbEntity
  8
0
100
AcDbLine
 62
7
  6
BYLAYER
 10
11.7120114542
 20
53.3778337695
 11
14.016092162
 21
53.3778337713
  0
LINE
  5
2BE
100
AcDbEntity
  8
0
100
AcDbLine
 62
7
  6
BYLAYER
 10
33.9097123484
 20
53.3778337713
 11
36.2137933572
 21
53.3778337695
  0
LINE
  5
2BF
100
AcDbEntity
  8
0
100
AcDbLine
 62
7
  6
BYLAYER
 10
11.6381424643
 20
53.4270735107
 11
13.9669417111
 21
53.4270735107
  0
LINE
  5
2C0
100
AcDbEntity
  8
0
100
AcDbLine
 62
7
  6
BYLAYER
 10
33.9588630996
 20
53.4270735107
 11
36.2876623456
 21
53.4270735107
  0
LINE
  5
2C1
100
AcDbEntity
  8
0
100
AcDbLine
 62
7
  6
BYLAYER
 10
10.6203606836
 20
53.5095266417
 11
11.120189331
 21
53.5095266417
  0
LINE
  5
2C2
100
AcDbEntity
  8
0
100
AcDbLine
 62
7
  6
BYLAYER
 10
37.3054441271
 20
53.5095407651
 11
36.8056154797
 21
53.5095407651
  0
LINE
  5
2C3
100
AcDbEntity
  8
0
100
AcDbLine
 62
7
  6
BYLAYER
 10
36.2876538016
 20
53.6270430494
 11
33.9589672638
 21
53.6270430497
  0
LINE
  5
2C4
100
AcDbEntity
  8
0
100
AcDbLine
 62
7
  6
BYLAYER
 10
13.9668364227
 20
53.6270430497
 11
11.6381404732
 21
53.6270430494
  0
LINE
  5
2C5
100
AcDbEntity
  8
0
100
AcDbLine
 62
7
  6
BYLAYER
 10
28.6629024053
 20
6.0805035971
 11
28.7629024053
 21
6.1805035971
  0
LINE
  5
2C6
100
AcDbEntity
  8
0
100
AcDbLine
 62
7
  6
BYLAYER
 10
29.9102325787
 20
57.3772245502
 11
28.9103848825
 21
57.3772245502
  0
LINE
  5
2C7
100
AcDbEntity
  8
0
100
AcDbLine
 62
7
  6
BYLAYER
 10
19.0154199282
 20
57.3772245763
 11
18.015572232
 21
57.3772245763
  0
LINE
  5
2C8
100
AcDbEntity
  8
0
100
AcDbLine
 62
7
  6
BYLAYER
 10
30.1594418578
 20
57.4264642913
 11
29.9594723189
 21
57.4264642913
  0
LINE
  5
2C9
100
AcDbEntity
  8
0
100
AcDbLine
 62
7
  6
BYLAYER
 10
17.9663324918
 20
57.4264642913
 11
17.7663629529
 21
57.4264642913
  0
LINE
  5
2CA
100
AcDbEntity
  8
0
100
AcDbLine
 62
7
  6
BYLAYER
 10
18.015572232
 20
59.6813945497
 11
29.9102325787
 21
59.6813945497
  0
LINE
  5
2CB
100
AcDbEntity
  8
0
100
AcDbLine
 62
7
  6
BYLAYER
 10
17.7663629529
 20
59.7552635298
 11
17.9663324918
 21
59.7552635298
  0
LINE
  5
2CC
100
AcDbEntity
  8
0
100
AcDbLine
 62
7
  6
BYLAYER
 10
29.9594723189
 20
59.7552635384
 11
30.1594418578
 21
59.7552635384
  0
LINE
  5
2CD
100
AcDbEntity
  8
0
100
AcDbLine
 62
7
  6
BYLAYER
 10
10.6203606836
 20
59.7733880082
 11
11.120189331
 21
59.7733880082
  0
LINE
  5
2CE
100
AcDbEntity
  8
0
100
AcDbLine
 62
7
  6
BYLAYER
 10
36.8056154797
 20
59.7733880057
 11
37.3054441271
 21
59.7733880057
  0
LINE
  5
2CF
100
AcDbEntity
  8
0
100
AcDbLine
 62
7
  6
BYLAYER
 10
11.620041659
 20
60.2732166714
 11
17.8838595086
 21
60.2732037796
  0
LINE
  5
2D0
100
AcDbEntity
  8
0
100
AcDbLine
 62
7
  6
BYLAYER
 10
30.0419471415
 20
60.2732031144
 11
36.3057723707
 21
60.2732166714
  0
LINE
  5
2D1
100
AcDbEntity
  8
0
100
AcDbLine
 62
7
  6
BYLAYER
 10
28.9103848824
 20
60.6810518747
 11
19.0154199284
 21
60.6810518747
  0
LINE
  5
2D2
100
AcDbEntity
  8
0
100
AcDbLine
 62
7
  6
BYLAYER
 10
11.6200179935
 20
60.7730453339
 11
17.8838672456
 21
60.7730453039
  0
LINE
  5
2D3
100
AcDbEntity
  8
0
100
AcDbLine
 62
7
  6
BYLAYER
 10
30.0419375673
 20
60.7730453039
 11
36.3057868163
 21
60.7730453339
  0
LINE
  5
2D4
100
AcDbEntity
  8
0
100
AcDbLine
 62
7
  6
BYLAYER
 10
11.4625597303
 20
60.9305035971
 11
36.4632450804
 21
60.9305035971
  0
ARC
  5
2D5
100
AcDbEntity
  8
0
100
AcDbCircle
 62
7
  6
BYLAYER
 10
23.9627965407
 20
-297.9264377786
 40
332.0911675597
100
AcDbArc
 50
89.4860896743
 51
90.5138828044
  0
ARC
  5
2D6
100
AcDbEntity
  8
0
100
AcDbCircle
 62
7
  6
BYLAYER
 10
22.2587222251
 20
-152.2991409346
 40
186.4530327907
100
AcDbArc
 50
90.9087799673
 51
91.1635033076
  0
ARC
  5
2D7
100
AcDbEntity
  8
0
100
AcDbCircle
 62
7
  6
BYLAYER
 10
-131.4467609152
 20
165.7956233596
 40
225.5249160681
100
AcDbArc
 50
314.4240586735
 51
314.6052434547
  0
ARC
  5
2D8
100
AcDbEntity
  8
0
100
AcDbCircle
 62
7
  6
BYLAYER
 10
11.6203658049
 20
35.0879669979
 40
0.9999998728
100
AcDbArc
 50
180.0199280895
 51
269.9800720444
  0
ARC
  5
2D9
100
AcDbEntity
  8
0
100
AcDbCircle
 62
7
  6
BYLAYER
 10
11.4624286547
 20
34.9300298465
 40
0.9995155639
100
AcDbArc
 50
179.9924861683
 51
270.0075138305
  0
ARC
  5
2DA
100
AcDbEntity
  8
0
100
AcDbCircle
 62
7
  6
BYLAYER
 10
11.6199207805
 20
35.0875199386
 40
0.4997186603
100
AcDbArc
 50
179.9859072975
 51
270.0128020834
  0
ARC
  5
2DB
100
AcDbEntity
  8
0
100
AcDbCircle
 62
7
  6
BYLAYER
 10
4.7834594107
 20
41.3562152545
 40
32.5219850478
100
AcDbArc
 50
359.9916372658
 51
1.8984352124
  0
ARC
  5
2DC
100
AcDbEntity
  8
0
100
AcDbCircle
 62
7
  6
BYLAYER
 10
4.7874259001
 20
53.504726448
 40
32.518018568
100
AcDbArc
 50
358.1014485964
 51
0.0084791448
  0
ARC
  5
2DD
100
AcDbEntity
  8
0
100
AcDbCircle
 62
7
  6
BYLAYER
 10
11.6381034286
 20
52.4268785444
 40
1.2001645056
100
AcDbArc
 50
89.9982314942
 51
115.5643557697
  0
ARC
  5
2DE
100
AcDbEntity
  8
0
100
AcDbCircle
 62
7
  6
BYLAYER
 10
11.6380897982
 20
42.4340545481
 40
1.2000904048
100
AcDbArc
 50
244.4346380804
 51
270.0029218722
  0
ARC
  5
2DF
100
AcDbEntity
  8
0
100
AcDbCircle
 62
7
  6
BYLAYER
 10
11.7126711424
 20
52.3775386814
 40
1.0003041851
100
AcDbArc
 50
90.0377848444
 51
179.9744076362
  0
ARC
  5
2E0
100
AcDbEntity
  8
0
100
AcDbCircle
 62
7
  6
BYLAYER
 10
11.7126711537
 20
42.4834687287
 40
1.0003041851
100
AcDbArc
 50
180.0256047247
 51
269.9622145199
  0
ARC
  5
2E1
100
AcDbEntity
  8
0
100
AcDbCircle
 62
7
  6
BYLAYER
 10
11.6203658058
 20
59.7730401979
 40
0.9999998728
100
AcDbArc
 50
90.0199280718
 51
179.980072062
  0
ARC
  5
2E2
100
AcDbEntity
  8
0
100
AcDbCircle
 62
7
  6
BYLAYER
 10
11.4624286547
 20
59.9309773478
 40
0.9995155639
100
AcDbArc
 50
89.9924861683
 51
180.0075138305
  0
ARC
  5
2E3
100
AcDbEntity
  8
0
100
AcDbCircle
 62
7
  6
BYLAYER
 10
11.6377131221
 20
52.4275443134
 40
0.9994649053
100
AcDbArc
 50
89.9753875908
 51
180.0078139874
  0
ARC
  5
2E4
100
AcDbEntity
  8
0
100
AcDbCircle
 62
7
  6
BYLAYER
 10
11.637713126
 20
42.4334628786
 40
0.9994649047
100
AcDbArc
 50
179.9921858563
 51
270.0246121502
  0
ARC
  5
2E5
100
AcDbEntity
  8
0
100
AcDbCircle
 62
7
  6
BYLAYER
 10
11.6199187467
 20
59.7734852221
 40
0.4997186602
100
AcDbArc
 50
89.9859077238
 51
180.0128025178
  0
ARC
  5
2E6
100
AcDbEntity
  8
0
100
AcDbCircle
 62
7
  6
BYLAYER
 10
17.8886795545
 20
28.2550270929
 40
32.5180185671
100
AcDbArc
 50
88.1014485963
 51
90.0084791448
  0
ARC
  5
2E7
100
AcDbEntity
  8
0
100
AcDbCircle
 62
7
  6
BYLAYER
 10
14.0164363172
 20
37.484037509
 40
4.9989836247
100
AcDbArc
 50
359.9957490721
 51
90.0042522359
  0
ARC
  5
2E8
100
AcDbEntity
  8
0
100
AcDbCircle
 62
7
  6
BYLAYER
 10
13.9670990713
 20
37.4347002589
 40
3.9992246839
100
AcDbArc
 50
359.9970749596
 51
90.0022544916
  0
ARC
  5
2E9
100
AcDbEntity
  8
0
100
AcDbCircle
 62
7
  6
BYLAYER
 10
13.9671594476
 20
37.4347605729
 40
3.7991958144
100
AcDbArc
 50
359.9951348542
 51
90.0048666699
  0
ARC
  5
2EA
100
AcDbEntity
  8
0
100
AcDbCircle
 62
7
  6
BYLAYER
 10
17.3663385068
 20
32.4261782481
 40
1.6620195275
100
AcDbArc
 50
81.7162322674
 51
90.9647454327
  0
CIRCLE
  5
2EB
100
AcDbEntity
  8
0
100
AcDbCircle
 62
7
  6
BYLAYER
 10
13.9629024053
 20
37.4305035971
 40
1.6
  0
CIRCLE
  5
2EC
100
AcDbEntity
  8
0
100
AcDbCircle
 62
7
  6
BYLAYER
 10
13.9629024027
 20
37.4305035961
 40
1.3749999984
  0
ARC
  5
2ED
100
AcDbEntity
  8
0
100
AcDbCircle
 62
7
  6
BYLAYER
 10
16.2129024053
 20
21.6305035971
 40
1.0
100
AcDbArc
 50
180.0
 51
270.0
  0
ARC
  5
2EE
100
AcDbEntity
  8
0
100
AcDbCircle
 62
7
  6
BYLAYER
 10
18.495442104
 20
33.566976005
 40
0.5489567271
100
AcDbArc
 50
92.3863459646
 51
106.5261555629
  0
ARC
  5
2EF
100
AcDbEntity
  8
0
100
AcDbCircle
 62
7
  6
BYLAYER
 10
18.4729903179
 20
34.6158178521
 40
0.5003660423
100
AcDbArc
 50
180.0614331224
 51
269.9527042219
  0
ARC
  5
2F0
100
AcDbEntity
  8
0
100
AcDbCircle
 62
7
  6
BYLAYER
 10
18.5157409636
 20
34.6800167406
 40
0.50017542
100
AcDbArc
 50
180.039748556
 51
269.9721097767
  0
ARC
  5
2F1
100
AcDbEntity
  8
0
100
AcDbCircle
 62
7
  6
BYLAYER
 10
15.0129406824
 20
33.7306665293
 40
0.1999708446
100
AcDbArc
 50
0.0125066419
 51
88.5297953705
  0
ARC
  5
2F2
100
AcDbEntity
  8
0
100
AcDbCircle
 62
7
  6
BYLAYER
 10
14.0164378645
 20
57.376968138
 40
4.9989820775
100
AcDbArc
 50
269.9957379282
 51
0.0042607949
  0
ARC
  5
2F3
100
AcDbEntity
  8
0
100
AcDbCircle
 62
7
  6
BYLAYER
 10
13.9670990712
 20
57.4263069352
 40
3.9992246839
100
AcDbArc
 50
269.9977455115
 51
0.0029242648
  0
ARC
  5
2F4
100
AcDbEntity
  8
0
100
AcDbCircle
 62
7
  6
BYLAYER
 10
13.9671596137
 20
57.4262464367
 40
3.7991955951
100
AcDbArc
 50
269.9951259562
 51
0.0048743311
  0
CIRCLE
  5
2F5
100
AcDbEntity
  8
0
100
AcDbCircle
 62
7
  6
BYLAYER
 10
13.9629024053
 20
57.4305035971
 40
1.6
  0
CIRCLE
  5
2F6
100
AcDbEntity
  8
0
100
AcDbCircle
 62
7
  6
BYLAYER
 10
13.9629024027
 20
57.4305035961
 40
1.3749999984
  0
ARC
  5
2F7
100
AcDbEntity
  8
0
100
AcDbCircle
 62
7
  6
BYLAYER
 10
18.9664533561
 20
59.7553162043
 40
1.2000904046
100
AcDbArc
 50
154.4346380789
 51
180.0029218707
  0
ARC
  5
2F8
100
AcDbEntity
  8
0
100
AcDbCircle
 62
7
  6
BYLAYER
 10
19.0158672836
 20
59.6807348946
 40
1.0003041851
100
AcDbArc
 50
90.025590216
 51
179.9622171369
  0
ARC
  5
2F9
100
AcDbEntity
  8
0
100
AcDbCircle
 62
7
  6
BYLAYER
 10
18.965861574
 20
59.7556927635
 40
0.9994649048
100
AcDbArc
 50
89.9921793927
 51
180.0246056756
  0
ARC
  5
2FA
100
AcDbEntity
  8
0
100
AcDbCircle
 62
7
  6
BYLAYER
 10
30.037190748
 20
28.2510606024
 40
32.5219850478
100
AcDbArc
 50
89.9916372658
 51
91.8984352124
  0
ARC
  5
2FB
100
AcDbEntity
  8
0
100
AcDbCircle
 62
7
  6
BYLAYER
 10
33.9093681071
 20
37.4840378954
 40
4.9989832386
100
AcDbArc
 50
89.9957116655
 51
180.0042870194
  0
ARC
  5
2FC
100
AcDbEntity
  8
0
100
AcDbCircle
 62
7
  6
BYLAYER
 10
33.9587053615
 20
37.4347006371
 40
3.9992246838
100
AcDbArc
 50
89.9977400954
 51
180.0029296809
  0
ARC
  5
2FD
100
AcDbEntity
  8
0
100
AcDbCircle
 62
7
  6
BYLAYER
 10
33.9586452854
 20
37.434760669
 40
3.7991958129
100
AcDbArc
 50
89.9951393867
 51
180.0048606857
  0
CIRCLE
  5
2FE
100
AcDbEntity
  8
0
100
AcDbCircle
 62
7
  6
BYLAYER
 10
33.9629024053
 20
37.4305035971
 40
1.6
  0
CIRCLE
  5
2FF
100
AcDbEntity
  8
0
100
AcDbCircle
 62
7
  6
BYLAYER
 10
33.9629024027
 20
37.4305035961
 40
1.3749999984
  0
ARC
  5
300
100
AcDbEntity
  8
0
100
AcDbCircle
 62
7
  6
BYLAYER
 10
31.7129024053
 20
21.6305035971
 40
1.0
100
AcDbArc
 50
270.0
 51
360.0
  0
ARC
  5
301
100
AcDbEntity
  8
0
100
AcDbCircle
 62
7
  6
BYLAYER
 10
29.4528161579
 20
34.6158205008
 40
0.5003682843
100
AcDbArc
 50
270.047125852
 51
359.9382480737
  0
ARC
  5
302
100
AcDbEntity
  8
0
100
AcDbCircle
 62
7
  6
BYLAYER
 10
29.4100635671
 20
34.6800164725
 40
0.5001754216
100
AcDbArc
 50
270.0279362259
 51
359.9602821815
  0
ARC
  5
303
100
AcDbEntity
  8
0
100
AcDbCircle
 62
7
  6
BYLAYER
 10
32.9128800527
 20
33.7306516971
 40
0.1999889682
100
AcDbArc
 50
89.9713834282
 51
133.5131939813
  0
ARC
  5
304
100
AcDbEntity
  8
0
100
AcDbCircle
 62
7
  6
BYLAYER
 10
32.9127786869
 20
33.7307039825
 40
0.1998829116
100
AcDbArc
 50
135.5866719766
 51
179.9987616432
  0
ARC
  5
305
100
AcDbEntity
  8
0
100
AcDbCircle
 62
7
  6
BYLAYER
 10
32.9072439027
 20
33.7362653128
 40
0.1920374029
100
AcDbArc
 50
133.446860287
 51
135.6162415644
  0
ARC
  5
306
100
AcDbEntity
  8
0
100
AcDbCircle
 62
7
  6
BYLAYER
 10
33.909367336
 20
57.3769685277
 40
4.998982467
100
AcDbArc
 50
179.9957752203
 51
270.0042260489
  0
ARC
  5
307
100
AcDbEntity
  8
0
100
AcDbCircle
 62
7
  6
BYLAYER
 10
33.9587053614
 20
57.4263065573
 40
3.9992246839
100
AcDbArc
 50
179.9970695436
 51
270.0022599076
  0
ARC
  5
308
100
AcDbEntity
  8
0
100
AcDbCircle
 62
7
  6
BYLAYER
 10
33.958645274
 20
57.4262465322
 40
3.7991957998
100
AcDbArc
 50
179.9951453699
 51
270.0048559265
  0
CIRCLE
  5
309
100
AcDbEntity
  8
0
100
AcDbCircle
 62
7
  6
BYLAYER
 10
33.9629024053
 20
57.4305035971
 40
1.6
  0
CIRCLE
  5
30A
100
AcDbEntity
  8
0
100
AcDbCircle
 62
7
  6
BYLAYER
 10
33.9629024027
 20
57.4305035961
 40
1.3749999984
  0
ARC
  5
30B
100
AcDbEntity
  8
0
100
AcDbCircle
 62
7
  6
BYLAYER
 10
28.9592773426
 20
59.7553025727
 40
1.2001645156
100
AcDbArc
 50
359.9982312365
 51
25.5643556024
  0
ARC
  5
30C
100
AcDbEntity
  8
0
100
AcDbCircle
 62
7
  6
BYLAYER
 10
28.9099375578
 20
59.6807349283
 40
1.0003041851
100
AcDbArc
 50
0.037780937
 51
89.9744115442
  0
ARC
  5
30D
100
AcDbEntity
  8
0
100
AcDbCircle
 62
7
  6
BYLAYER
 10
28.9599432332
 20
59.7556927674
 40
0.9994649052
100
AcDbArc
 50
359.975394245
 51
90.0078202039
  0
ARC
  5
30E
100
AcDbEntity
  8
0
100
AcDbCircle
 62
7
  6
BYLAYER
 10
36.3054388988
 20
35.0879671025
 40
0.9999998728
100
AcDbArc
 50
270.0199341478
 51
359.980065986
  0
ARC
  5
30F
100
AcDbEntity
  8
0
100
AcDbCircle
 62
7
  6
BYLAYER
 10
36.4633761554
 20
34.9300298471
 40
0.9995155644
100
AcDbArc
 50
269.9924861965
 51
0.0075138028
  0
ARC
  5
310
100
AcDbEntity
  8
0
100
AcDbCircle
 62
7
  6
BYLAYER
 10
36.3058860638
 20
35.0875219722
 40
0.4997186603
100
AcDbArc
 50
269.9859072756
 51
0.0128020721
  0
ARC
  5
311
100
AcDbEntity
  8
0
100
AcDbCircle
 62
7
  6
BYLAYER
 10
43.1423454
 20
53.5047919397
 40
32.5219850478
100
AcDbArc
 50
179.9916372658
 51
181.8984352124
  0
ARC
  5
312
100
AcDbEntity
  8
0
100
AcDbCircle
 62
7
  6
BYLAYER
 10
43.1383789105
 20
41.3562807463
 40
32.518018568
100
AcDbArc
 50
178.1014485963
 51
180.0084791448
  0
ARC
  5
313
100
AcDbEntity
  8
0
100
AcDbCircle
 62
7
  6
BYLAYER
 10
36.2877013837
 20
42.4341286515
 40
1.2001645072
100
AcDbArc
 50
269.9982313391
 51
295.5643556507
  0
ARC
  5
314
100
AcDbEntity
  8
0
100
AcDbCircle
 62
7
  6
BYLAYER
 10
36.2877150065
 20
52.4269526276
 40
1.2000904233
100
AcDbArc
 50
64.4346381867
 51
90.002922098
  0
ARC
  5
315
100
AcDbEntity
  8
0
100
AcDbCircle
 62
7
  6
BYLAYER
 10
36.2131337031
 20
42.4834684748
 40
1.0003041851
100
AcDbArc
 50
270.0377828522
 51
359.9744098179
  0
ARC
  5
316
100
AcDbEntity
  8
0
100
AcDbCircle
 62
7
  6
BYLAYER
 10
36.2131337369
 20
52.3775387502
 40
1.0003041851
100
AcDbArc
 50
0.0255884247
 51
89.9622190859
  0
ARC
  5
317
100
AcDbEntity
  8
0
100
AcDbCircle
 62
7
  6
BYLAYER
 10
36.3054389003
 20
59.7730400909
 40
0.9999998728
100
AcDbArc
 50
0.0199341301
 51
89.9800660037
  0
ARC
  5
318
100
AcDbEntity
  8
0
100
AcDbCircle
 62
7
  6
BYLAYER
 10
36.46337603
 20
59.9309772218
 40
0.9995155644
100
AcDbArc
 50
359.9924933817
 51
90.007506617
  0
ARC
  5
319
100
AcDbEntity
  8
0
100
AcDbCircle
 62
7
  6
BYLAYER
 10
36.2880915755
 20
42.4334627689
 40
0.9994649052
100
AcDbArc
 50
269.9753942616
 51
0.0078202251
  0
ARC
  5
31A
100
AcDbEntity
  8
0
100
AcDbCircle
 62
7
  6
BYLAYER
 10
36.2880915712
 20
52.4275444286
 40
0.999464905
100
AcDbArc
 50
359.9921793798
 51
90.0246056502
  0
ARC
  5
31B
100
AcDbEntity
  8
0
100
AcDbCircle
 62
7
  6
BYLAYER
 10
36.3058840304
 20
59.7734872558
 40
0.4997186602
100
AcDbArc
 50
359.9859073895
 51
90.0128021842
  0
ARC
  5
31C
100
AcDbEntity
  8
0
100
AcDbCircle
 62
7
  6
BYLAYER
 10
179.3725658213
 20
165.7956232486
 40
225.524916056
100
AcDbArc
 50
225.3947565082
 51
225.5759412894
  0
SPLINE
  5
31D
100
AcDbEntity
  8
0
100
AcDbSpline
 62
7
  6
BYLAYER
 70
0
 71
3
 72
21
 73
17
 74
0
 42
0.0000001
 43
0.0000001
 44
0.0000000001
 40
0.0
 40
0.0
 40
0.0
 40
0.0
 40
0.0635136487
 40
0.1267287615
 40
0.252162437
 40
0.3144446359
 40
0.3764633603
 40
0.4382847775
 40
0.5000000059
 40
0.5617152317
 40
0.6235366482
 40
0.6855553712
 40
0.747837568
 40
0.8732712403
 40
0.936486351
 40
1.0
 40
1.0
 40
1.0
 40
1.0
 10
23.8883055962
 20
6.8805035971
 30
0.0
 10
23.7977383403
 20
6.829447746
 30
0.0
 10
23.6150549855
 20
6.7309902745
 30
0.0
 10
23.2433864363
 20
6.551280836
 30
0.0
 10
22.8601060852
 20
6.400520439
 30
0.0
 10
22.4665695383
 20
6.2888083463
 30
0.0
 10
22.1679251971
 20
6.22702774
 30
0.0
 10
21.8662334673
 20
6.1890533929
 30
0.0
 10
21.5629023807
 20
6.1762323727
 30
0.0
 10
21.2595712953
 20
6.1890533976
 30
0.0
 10
20.9578795736
 20
6.2270277473
 30
0.0
 10
20.6592352393
 20
6.2888083539
 30
0.0
 10
20.2656987041
 20
6.4005204471
 30
0.0
 10
19.8824183647
 20
6.5512808403
 30
0.0
 10
19.5107498231
 20
6.7309902758
 30
0.0
 10
19.3280664708
 20
6.8294477458
 30
0.0
 10
19.2374992145
 20
6.8805035971
 30
0.0
  0
SPLINE
  5
31E
100
AcDbEntity
  8
0
100
AcDbSpline
 62
7
  6
BYLAYER
 70
0
 71
3
 72
21
 73
17
 74
0
 42
0.0000001
 43
0.0000001
 44
0.0000000001
 40
0.0
 40
0.0
 40
0.0
 40
0.0
 40
0.0635136487
 40
0.1267287615
 40
0.252162437
 40
0.3144446359
 40
0.3764633603
 40
0.4382847775
 40
0.5000000059
 40
0.5617152317
 40
0.6235366482
 40
0.6855553712
 40
0.747837568
 40
0.8732712403
 40
0.936486351
 40
1.0
 40
1.0
 40
1.0
 40
1.0
 10
28.6883055962
 20
6.8805035971
 30
0.0
 10
28.5977383403
 20
6.829447746
 30
0.0
 10
28.4150549855
 20
6.7309902745
 30
0.0
 10
28.0433864363
 20
6.551280836
 30
0.0
 10
27.6601060852
 20
6.400520439
 30
0.0
 10
27.2665695383
 20
6.2888083463
 30
0.0
 10
26.9679251971
 20
6.22702774
 30
0.0
 10
26.6662334673
 20
6.1890533929
 30
0.0
 10
26.3629023807
 20
6.1762323727
 30
0.0
 10
26.0595712953
 20
6.1890533976
 30
0.0
 10
25.7578795736
 20
6.2270277473
 30
0.0
 10
25.4592352393
 20
6.2888083539
 30
0.0
 10
25.0656987041
 20
6.4005204471
 30
0.0
 10
24.6824183647
 20
6.5512808403
 30
0.0
 10
24.3107498231
 20
6.7309902758
 30
0.0
 10
24.1280664708
 20
6.8294477458
 30
0.0
 10
24.0374992145
 20
6.8805035971
 30
0.0
  0
SPLINE
  5
31F
100
AcDbEntity
  8
0
100
AcDbSpline
 62
7
  6
BYLAYER
 70
0
 71
3
 72
21
 73
17
 74
0
 42
0.0000001
 43
0.0000001
 44
0.0000000001
 40
0.0
 40
0.0
 40
0.0
 40
0.0
 40
0.0635136487
 40
0.1267287615
 40
0.252162437
 40
0.3144446359
 40
0.3764633603
 40
0.4382847775
 40
0.5000000059
 40
0.5617152317
 40
0.6235366482
 40
0.6855553712
 40
0.747837568
 40
0.8732712403
 40
0.936486351
 40
1.0
 40
1.0
 40
1.0
 40
1.0
 10
19.2374992145
 20
10.2805035971
 30
0.0
 10
19.3280664704
 20
10.3315594482
 30
0.0
 10
19.5107498252
 20
10.4300169197
 30
0.0
 10
19.8824183744
 20
10.6097263583
 30
0.0
 10
20.2656987255
 20
10.7604867553
 30
0.0
 10
20.6592352724
 20
10.872198848
 30
0.0
 10
20.9578796136
 20
10.9339794542
 30
0.0
 10
21.2595713434
 20
10.9719538014
 30
0.0
 10
21.56290243
 20
10.9847748216
 30
0.0
 10
21.8662335154
 20
10.9719537966
 30
0.0
 10
22.1679252371
 20
10.9339794469
 30
0.0
 10
22.4665695714
 20
10.8721988403
 30
0.0
 10
22.8601061066
 20
10.7604867471
 30
0.0
 10
23.2433864461
 20
10.6097263539
 30
0.0
 10
23.6150549876
 20
10.4300169184
 30
0.0
 10
23.7977383399
 20
10.3315594485
 30
0.0
 10
23.8883055962
 20
10.2805035971
 30
0.0
  0
SPLINE
  5
320
100
AcDbEntity
  8
0
100
AcDbSpline
 62
7
  6
BYLAYER
 70
0
 71
3
 72
21
 73
17
 74
0
 42
0.0000001
 43
0.0000001
 44
0.0000000001
 40
0.0
 40
0.0
 40
0.0
 40
0.0
 40
0.0635136487
 40
0.1267287615
 40
0.252162437
 40
0.3144446359
 40
0.3764633603
 40
0.4382847775
 40
0.5000000059
 40
0.5617152317
 40
0.6235366482
 40
0.6855553712
 40
0.747837568
 40
0.8732712403
 40
0.936486351
 40
1.0
 40
1.0
 40
1.0
 40
1.0
 10
24.0374992145
 20
10.2805035971
 30
0.0
 10
24.1280664704
 20
10.3315594482
 30
0.0
 10
24.3107498252
 20
10.4300169197
 30
0.0
 10
24.6824183744
 20
10.6097263583
 30
0.0
 10
25.0656987255
 20
10.7604867553
 30
0.0
 10
25.4592352724
 20
10.872198848
 30
0.0
 10
25.7578796136
 20
10.9339794542
 30
0.0
 10
26.0595713434
 20
10.9719538014
 30
0.0
 10
26.36290243
 20
10.9847748216
 30
0.0
 10
26.6662335154
 20
10.9719537966
 30
0.0
 10
26.9679252371
 20
10.9339794469
 30
0.0
 10
27.2665695714
 20
10.8721988403
 30
0.0
 10
27.6601061066
 20
10.7604867471
 30
0.0
 10
28.0433864461
 20
10.6097263539
 30
0.0
 10
28.4150549876
 20
10.4300169184
 30
0.0
 10
28.5977383399
 20
10.3315594485
 30
0.0
 10
28.6883055962
 20
10.2805035971
 30
0.0
  0
SPLINE
  5
321
100
AcDbEntity
  8
0
100
AcDbSpline
 62
7
  6
BYLAYER
 70
0
 71
3
 72
14
 73
10
 74
0
 42
0.0000001
 43
0.0000001
 44
0.0000000001
 40
0.0
 40
0.0
 40
0.0
 40
0.0
 40
0.4079474395
 40
0.5723365772
 40
0.7104099274
 40
0.822158976
 40
0.9075967135
 40
0.9667455822
 40
1.0
 40
1.0
 40
1.0
 40
1.0
 10
29.9594718923
 20
34.5472237361
 30
0.0
 10
29.9590249756
 20
34.5565257621
 30
0.0
 10
29.9583324574
 20
34.5695742537
 30
0.0
 10
29.9572181524
 20
34.5857524671
 30
0.0
 10
29.9564442555
 20
34.5951795518
 30
0.0
 10
29.9556630346
 20
34.6027865358
 30
0.0
 10
29.9549124973
 20
34.6086086967
 30
0.0
 10
29.9541373463
 20
34.6125612904
 30
0.0
 10
29.9535753185
 20
34.614650569
 30
0.0
 10
29.9531527785
 20
34.6152812491
 30
0.0
  0
SPLINE
  5
322
100
AcDbEntity
  8
0
100
AcDbSpline
 62
7
  6
BYLAYER
 70
0
 71
3
 72
13
 73
9
 74
0
 42
0.0000001
 43
0.0000001
 44
0.0000000001
 40
0.0
 40
0.0
 40
0.0
 40
0.0
 40
0.2407994206
 40
0.3680795017
 40
0.4973569146
 40
0.626916653
 40
0.7550026608
 40
1.0
 40
1.0
 40
1.0
 40
1.0
 10
29.5865195525
 20
34.0932558116
 30
0.0
 10
29.6355930114
 20
34.1056475409
 30
0.0
 10
29.7084891917
 20
34.1356766593
 30
0.0
 10
29.7937551372
 20
34.1967135983
 30
0.0
 10
29.8516920522
 20
34.2541155093
 30
0.0
 10
29.8988921023
 20
34.3208780421
 30
0.0
 10
29.9446080425
 20
34.4165345286
 30
0.0
 10
29.9591760524
 20
34.4957195724
 30
0.0
 10
29.9595042883
 20
34.5472147157
 30
0.0
  0
SPLINE
  5
323
100
AcDbEntity
  8
0
100
AcDbSpline
 62
7
  6
BYLAYER
 70
0
 71
3
 72
24
 73
20
 74
0
 42
0.0000001
 43
0.0000001
 44
0.0000000001
 40
0.0
 40
0.0
 40
0.0
 40
0.0
 40
0.0021210945
 40
0.0065457063
 40
0.0132914144
 40
0.0223486386
 40
0.0337028184
 40
0.0473365035
 40
0.0632159561
 40
0.0812967555
 40
0.123883032
 40
0.1747261002
 40
0.2333404073
 40
0.2991649176
 40
0.3716069161
 40
0.4499533222
 40
0.6213625488
 40
0.8071294374
 40
1.0
 40
1.0
 40
1.0
 40
1.0
 10
29.9102325787
 20
34.6796693769
 30
0.0
 10
29.9096673922
 20
34.6800943552
 30
0.0
 10
29.9073880168
 20
34.68041194
 30
0.0
 10
29.9031007465
 20
34.6810986647
 30
0.0
 10
29.8963280604
 20
34.6816353463
 30
0.0
 10
29.8873170108
 20
34.6822660564
 30
0.0
 10
29.8759743714
 20
34.68286282
 30
0.0
 10
29.8623660551
 20
34.6834673113
 30
0.0
 10
29.8465090681
 20
34.6840600011
 30
0.0
 10
29.821003435
 20
34.6848852522
 30
0.0
 10
29.7838399957
 20
34.6858567039
 30
0.0
 10
29.733162316
 20
34.6869177941
 30
0.0
 10
29.6747346755
 20
34.6879143852
 30
0.0
 10
29.6091043855
 20
34.6888362501
 30
0.0
 10
29.5368941073
 20
34.6896715932
 30
0.0
 10
29.4294837079
 20
34.6906915149
 30
0.0
 10
29.2842909542
 20
34.6916706928
 30
0.0
 10
29.1009159489
 20
34.692375307
 30
0.0
 10
28.9746846313
 20
34.6925329658
 30
0.0
 10
28.9103848825
 20
34.6925342772
 30
0.0
  0
SPLINE
  5
324
100
AcDbEntity
  8
0
100
AcDbSpline
 62
7
  6
BYLAYER
 70
0
 71
3
 72
24
 73
20
 74
0
 42
0.0000001
 43
0.0000001
 44
0.0000000001
 40
0.0
 40
0.0
 40
0.0
 40
0.0
 40
0.1928705538
 40
0.3786374283
 40
0.5500466518
 40
0.628393059
 40
0.7008350578
 40
0.7666595694
 40
0.8252738798
 40
0.8761169497
 40
0.9187032296
 40
0.9367840312
 40
0.9526634859
 40
0.9662971727
 40
0.9776513547
 40
0.9867085815
 40
0.9934542921
 40
0.9978789057
 40
1.0
 40
1.0
 40
1.0
 40
1.0
 10
19.0154199282
 20
34.6925345713
 30
0.0
 10
18.951120182
 20
34.6925332502
 30
0.0
 10
18.8248888712
 20
34.6923756582
 30
0.0
 10
18.6415138732
 20
34.6916711175
 30
0.0
 10
18.4963211238
 20
34.690691956
 30
0.0
 10
18.3889107242
 20
34.689672053
 30
0.0
 10
18.3167004446
 20
34.6888367191
 30
0.0
 10
18.2510701525
 20
34.6879148571
 30
0.0
 10
18.1926425096
 20
34.6869182643
 30
0.0
 10
18.1419648268
 20
34.6858571702
 30
0.0
 10
18.104801385
 20
34.6848857137
 30
0.0
 10
18.0792957495
 20
34.684060454
 30
0.0
 10
18.0634387607
 20
34.6834677555
 30
0.0
 10
18.0498304428
 20
34.6828632521
 30
0.0
 10
18.0384878021
 20
34.6822664731
 30
0.0
 10
18.0294767509
 20
34.6816357473
 30
0.0
 10
18.0227040639
 20
34.6810990517
 30
0.0
 10
18.0184167929
 20
34.6804123174
 30
0.0
 10
18.0161374186
 20
34.6800947284
 30
0.0
 10
18.015572232
 20
34.6796697504
 30
0.0
  0
SPLINE
  5
325
100
AcDbEntity
  8
0
100
AcDbSpline
 62
7
  6
BYLAYER
 70
0
 71
3
 72
14
 73
10
 74
0
 42
0.0000001
 43
0.0000001
 44
0.0000000001
 40
0.0
 40
0.0
 40
0.0
 40
0.0
 40
0.0332459587
 40
0.0923888768
 40
0.1778258604
 40
0.2895805947
 40
0.4276630517
 40
0.5920610652
 40
1.0
 40
1.0
 40
1.0
 40
1.0
 10
17.9726520594
 20
34.6152813171
 30
0.0
 10
17.972229525
 20
34.6146508407
 30
0.0
 10
17.971667535
 20
34.6125618001
 30
0.0
 10
17.9708923164
 20
34.6086094865
 30
0.0
 10
17.9701417309
 20
34.6027871763
 30
0.0
 10
17.9693604812
 20
34.5951796693
 30
0.0
 10
17.968586608
 20
34.5857517776
 30
0.0
 10
17.9674725327
 20
34.5695728873
 30
0.0
 10
17.9667800339
 20
34.556524031
 30
0.0
 10
17.9663328736
 20
34.5472219559
 30
0.0
  0
SPLINE
  5
326
100
AcDbEntity
  8
0
100
AcDbSpline
 62
7
  6
BYLAYER
 70
0
 71
3
 72
24
 73
20
 74
0
 42
0.0000001
 43
0.0000001
 44
0.0000000001
 40
0.0
 40
0.0
 40
0.0
 40
0.0
 40
0.1159250567
 40
0.2358398465
 40
0.2960158625
 40
0.3554470104
 40
0.4130607389
 40
0.4406610482
 40
0.4672063259
 40
0.4930525706
 40
0.5200043702
 40
0.5493687001
 40
0.5809265355
 40
0.647529494
 40
0.716569125
 40
0.7867253144
 40
0.8575111348
 40
0.9286620134
 40
1.0
 40
1.0
 40
1.0
 40
1.0
 10
17.9663324918
 20
34.5472219559
 30
0.0
 10
17.9661175278
 20
34.5315572501
 30
0.0
 10
17.9635525021
 20
34.4997135534
 30
0.0
 10
17.9565743675
 20
34.4602574737
 30
0.0
 10
17.9481697953
 20
34.4289655057
 30
0.0
 10
17.9400566761
 20
34.4064159425
 30
0.0
 10
17.9311849597
 20
34.388837676
 30
0.0
 10
17.9217963854
 20
34.376932546
 30
0.0
 10
17.9134229044
 20
34.3698900054
 30
0.0
 10
17.9030320977
 20
34.3661489561
 30
0.0
 10
17.8916720133
 20
34.367324676
 30
0.0
 10
17.880798297
 20
34.3724361223
 30
0.0
 10
17.8670638034
 20
34.3829481053
 30
0.0
 10
17.8513830366
 20
34.3993435675
 30
0.0
 10
17.8342175234
 20
34.421232565
 30
0.0
 10
17.8173930516
 20
34.4440878543
 30
0.0
 10
17.8008126233
 20
34.4674677167
 30
0.0
 10
17.7839097726
 20
34.4908145272
 30
0.0
 10
17.7722678201
 20
34.5061557142
 30
0.0
 10
17.7663426758
 20
34.5137606431
 30
0.0
  0
SPLINE
  5
327
100
AcDbEntity
  8
0
100
AcDbSpline
 62
7
  6
BYLAYER
 70
0
 71
3
 72
13
 73
9
 74
0
 42
0.0000001
 43
0.0000001
 44
0.0000000001
 40
0.0
 40
0.0
 40
0.0
 40
0.0
 40
0.2491951478
 40
0.3787544652
 40
0.5088001226
 40
0.6374934516
 40
0.7632631456
 40
1.0
 40
1.0
 40
1.0
 40
1.0
 10
18.339276648
 20
34.0932498043
 30
0.0
 10
18.2884939213
 20
34.1060736477
 30
0.0
 10
18.213534584
 20
34.1373905984
 30
0.0
 10
18.1270786342
 20
34.200908806
 30
0.0
 10
18.0696435699
 20
34.2594664838
 30
0.0
 10
18.0237301102
 20
34.3264952357
 30
0.0
 10
17.9803136793
 20
34.4205533973
 30
0.0
 10
17.966647926
 20
34.4974397114
 30
0.0
 10
17.9663324969
 20
34.5471970438
 30
0.0
  0
SPLINE
  5
328
100
AcDbEntity
  8
0
100
AcDbSpline
 62
7
  6
BYLAYER
 70
0
 71
3
 72
17
 73
13
 74
0
 42
0.0000001
 43
0.0000001
 44
0.0000000001
 40
0.0
 40
0.0
 40
0.0
 40
0.0
 40
0.14433555
 40
0.2143695855
 40
0.2825394561
 40
0.4144715767
 40
0.5419739515
 40
0.6651694091
 40
0.7843455494
 40
0.8416812552
 40
0.8966663808
 40
1.0
 40
1.0
 40
1.0
 40
1.0
 10
17.6057929158
 20
34.0708570299
 30
0.0
 10
17.64117225
 20
34.0663227719
 30
0.0
 10
17.6935363641
 20
34.0582543414
 30
0.0
 10
17.7626850158
 20
34.0485588744
 30
0.0
 10
17.8290146726
 20
34.0409589989
 30
0.0
 10
17.9098024949
 20
34.0350114146
 30
0.0
 10
18.0044548363
 20
34.0343799729
 30
0.0
 10
18.0956799392
 20
34.0414762187
 30
0.0
 10
18.1689914972
 20
34.0524014801
 30
0.0
 10
18.2250971644
 20
34.0636387964
 30
0.0
 10
18.276904149
 20
34.0761911375
 30
0.0
 10
18.314472049
 20
34.0871801963
 30
0.0
 10
18.339276607
 20
34.0932489483
 30
0.0
  0
SPLINE
  5
329
100
AcDbEntity
  8
0
100
AcDbSpline
 62
7
  6
BYLAYER
 70
0
 71
3
 72
9
 73
5
 74
0
 42
0.0000001
 43
0.0000001
 44
0.0000000001
 40
0.0
 40
0.0
 40
0.0
 40
0.0
 40
0.2504408952
 40
1.0
 40
1.0
 40
1.0
 40
1.0
 10
17.7663224005
 20
34.513787377
 30
0.0
 10
17.7321595403
 20
34.5261946146
 30
0.0
 10
17.5934687648
 20
34.5692792629
 30
0.0
 10
17.4473155199
 20
34.5878115366
 30
0.0
 10
17.3385331028
 20
34.5877905111
 30
0.0
  0
SPLINE
  5
32A
100
AcDbEntity
  8
0
100
AcDbSpline
 62
7
  6
BYLAYER
 70
0
 71
3
 72
15
 73
11
 74
0
 42
0.0000001
 43
0.0000001
 44
0.0000000001
 40
0.0
 40
0.0
 40
0.0
 40
0.0
 40
0.1249838268
 40
0.2500021037
 40
0.3750052203
 40
0.4999983606
 40
0.6249920616
 40
0.7499942681
 40
0.8750092048
 40
1.0
 40
1.0
 40
1.0
 40
1.0
 10
33.9096234038
 20
41.4831669984
 30
0.0
 10
33.6483149352
 20
41.4831635424
 30
0.0
 10
33.1242698483
 20
41.4311172737
 30
0.0
 10
32.3691174805
 20
41.2029503663
 30
0.0
 10
31.6734315708
 20
40.8303671
 30
0.0
 10
31.0630239204
 20
40.3303625534
 30
0.0
 10
30.5630313507
 20
39.719948299
 30
0.0
 10
30.1904512005
 20
39.0242706476
 30
0.0
 10
29.9622774077
 20
38.2691133828
 30
0.0
 10
29.9102440199
 20
37.7450589184
 30
0.0
 10
29.9102425728
 20
37.4837358808
 30
0.0
  0
SPLINE
  5
32B
100
AcDbEntity
  8
0
100
AcDbSpline
 62
7
  6
BYLAYER
 70
0
 71
3
 72
15
 73
11
 74
0
 42
0.0000001
 43
0.0000001
 44
0.0000000001
 40
0.0
 40
0.0
 40
0.0
 40
0.0
 40
0.1249908917
 40
0.250005635
 40
0.3750078019
 40
0.5000015327
 40
0.6249946389
 40
0.7499978121
 40
0.8750163226
 40
1.0
 40
1.0
 40
1.0
 40
1.0
 10
18.0155621728
 20
37.4837358237
 30
0.0
 10
18.0155607013
 20
37.7450590654
 30
0.0
 10
17.9635277035
 20
38.2691133719
 30
0.0
 10
17.7353537266
 20
39.0242703276
 30
0.0
 10
17.3627736196
 20
39.7199474839
 30
0.0
 10
16.862781486
 20
40.3303619461
 30
0.0
 10
16.2523740456
 20
40.8303669782
 30
0.0
 10
15.5566875087
 20
41.2029503222
 30
0.0
 10
14.8015347938
 20
41.4311169776
 30
0.0
 10
14.2774895669
 20
41.4831636758
 30
0.0
 10
14.0161814085
 20
41.483167054
 30
0.0
  0
SPLINE
  5
32C
100
AcDbEntity
  8
0
100
AcDbSpline
 62
7
  6
BYLAYER
 70
0
 71
3
 72
17
 73
13
 74
0
 42
0.0000001
 43
0.0000001
 44
0.0000000001
 40
0.0
 40
0.0
 40
0.0
 40
0.0
 40
0.1249434238
 40
0.2499176525
 40
0.3747386444
 40
0.4993941033
 40
0.6239299332
 40
0.7483949728
 40
0.8108765134
 40
0.8737290834
 40
0.9368696564
 40
1.0
 40
1.0
 40
1.0
 40
1.0
 10
10.638231909
 20
42.4336039452
 30
0.0
 10
10.6380260867
 20
42.3832608983
 30
0.0
 10
10.6441794267
 20
42.2824219246
 30
0.0
 10
10.6723984441
 20
42.1337048502
 30
0.0
 10
10.7187332703
 20
41.989727462
 30
0.0
 10
10.7812701837
 20
41.8522830538
 30
0.0
 10
10.8569817941
 20
41.7219521599
 30
0.0
 10
10.9270542993
 20
41.617752289
 30
0.0
 10
10.9863796333
 20
41.5364312726
 30
0.0
 10
11.0327129886
 20
41.4762532443
 30
0.0
 10
11.0795704852
 20
41.4161688986
 30
0.0
 10
11.107767139
 20
41.3736514827
 30
0.0
 10
11.1202018998
 20
41.3514608628
 30
0.0
  0
SPLINE
  5
32D
100
AcDbEntity
  8
0
100
AcDbSpline
 62
7
  6
BYLAYER
 70
0
 71
3
 72
25
 73
21
 74
0
 42
0.0000001
 43
0.0000001
 44
0.0000000001
 40
0.0
 40
0.0
 40
0.0
 40
0.0
 40
0.2245619866
 40
0.4234805813
 40
0.5947527457
 40
0.6696064385
 40
0.7370747705
 40
0.7970252682
 40
0.8493281291
 40
0.8938734714
 40
0.9305791961
 40
0.9459710381
 40
0.9593801524
 40
0.9708103573
 40
0.9802794869
 40
0.9878173815
 40
0.9934806027
 40
0.9956484249
 40
0.9974131082
 40
1.0
 40
1.0
 40
1.0
 40
1.0
 10
17.3384569237
 20
34.0879618585
 30
0.0
 10
17.1634803006
 20
34.0829094318
 30
0.0
 10
16.8335301184
 20
34.0725763938
 30
0.0
 10
16.3702387425
 20
34.0550598836
 30
0.0
 10
16.0236834108
 20
34.0390266248
 30
0.0
 10
15.779606214
 20
34.0254733745
 30
0.0
 10
15.6222403465
 20
34.0155835396
 30
0.0
 10
15.4825030332
 20
34.0055364785
 30
0.0
 10
15.3606960172
 20
33.9953639739
 30
0.0
 10
15.257092462
 20
33.9850923863
 30
0.0
 10
15.1822901703
 20
33.9760566347
 30
0.0
 10
15.1317727261
 20
33.9685886948
 30
0.0
 10
15.1008550621
 20
33.9633134695
 30
0.0
 10
15.0746327565
 20
33.958035026
 30
0.0
 10
15.0530868364
 20
33.95277763
 30
0.0
 10
15.0362002766
 20
33.9475299554
 30
0.0
 10
15.0251059404
 20
33.9429133762
 30
0.0
 10
15.0186942256
 20
33.9389834522
 30
0.0
 10
15.0147899353
 20
33.9357930927
 30
0.0
 10
15.0127871579
 20
33.9326511886
 30
0.0
 10
15.0126312869
 20
33.9306406995
 30
0.0
  0
SPLINE
  5
32E
100
AcDbEntity
  8
0
100
AcDbSpline
 62
7
  6
BYLAYER
 70
0
 71
3
 72
23
 73
19
 74
0
 42
0.0000001
 43
0.0000001
 44
0.0000000001
 40
0.0
 40
0.0
 40
0.0
 40
0.0
 40
0.0023787551
 40
0.0069289011
 40
0.0137528956
 40
0.022861024
 40
0.0342447887
 40
0.0478895234
 40
0.0818701856
 40
0.1244720525
 40
0.1752808033
 40
0.2338699169
 40
0.2996802976
 40
0.3720493954
 40
0.4503102442
 40
0.6216022714
 40
0.8073557749
 40
1.0
 40
1.0
 40
1.0
 40
1.0
 10
29.4103096724
 20
34.1798396757
 30
0.0
 10
29.410091785
 20
34.1801713335
 30
0.0
 10
29.4089262565
 20
34.1806391359
 30
0.0
 10
29.4067754325
 20
34.1812261941
 30
0.0
 10
29.4033736981
 20
34.1818190906
 30
0.0
 10
29.3988713497
 20
34.1824275146
 30
0.0
 10
29.3932030742
 20
34.1830332461
 30
0.0
 10
29.3833995176
 20
34.183901036
 30
0.0
 10
29.3683789111
 20
34.1849140718
 30
0.0
 10
29.347156849
 20
34.1860272238
 30
0.0
 10
29.3218215949
 20
34.1870879726
 30
0.0
 10
29.2926099795
 20
34.1880842287
 30
0.0
 10
29.2597974961
 20
34.1890049453
 30
0.0
 10
29.2237002074
 20
34.1898417151
 30
0.0
 10
29.1700063093
 20
34.1908622317
 30
0.0
 10
29.0973939229
 20
34.1918417407
 30
0.0
 10
29.0056962247
 20
34.1925454673
 30
0.0
 10
28.9425712691
 20
34.1927048341
 30
0.0
 10
28.9104340937
 20
34.1927055466
 30
0.0
  0
SPLINE
  5
32F
100
AcDbEntity
  8
0
100
AcDbSpline
 62
7
  6
BYLAYER
 70
0
 71
3
 72
23
 73
19
 74
0
 42
0.0000001
 43
0.0000001
 44
0.0000000001
 40
0.0
 40
0.0
 40
0.0
 40
0.0
 40
0.1926441588
 40
0.3783977714
 40
0.5496898005
 40
0.6279506303
 40
0.7003196885
 40
0.7661300431
 40
0.8247191715
 40
0.8755279132
 40
0.9181297659
 40
0.9521104509
 40
0.9657552012
 40
0.9771389761
 40
0.9862471101
 40
0.9930711059
 40
0.9976212498
 40
1.0
 40
1.0
 40
1.0
 40
1.0
 10
19.0153712547
 20
34.1927055466
 30
0.0
 10
18.9832340564
 20
34.1927048295
 30
0.0
 10
18.920109027
 20
34.1925454632
 30
0.0
 10
18.8284112245
 20
34.1918417454
 30
0.0
 10
18.7557987461
 20
34.1908622345
 30
0.0
 10
18.7021048007
 20
34.1898417189
 30
0.0
 10
18.6660074881
 20
34.1890049491
 30
0.0
 10
18.6331949784
 20
34.1880842325
 30
0.0
 10
18.6039833355
 20
34.1870879779
 30
0.0
 10
18.578648056
 20
34.18602723
 30
0.0
 10
18.5574259716
 20
34.1849140783
 30
0.0
 10
18.5424053449
 20
34.1839010442
 30
0.0
 10
18.5326017697
 20
34.1830332556
 30
0.0
 10
18.5269334828
 20
34.1824275244
 30
0.0
 10
18.5224311268
 20
34.1818191007
 30
0.0
 10
18.5190293874
 20
34.1812262046
 30
0.0
 10
18.5168785625
 20
34.1806391468
 30
0.0
 10
18.5157130328
 20
34.1801713453
 30
0.0
 10
18.5154951461
 20
34.1798396875
 30
0.0
  0
SPLINE
  5
330
100
AcDbEntity
  8
0
100
AcDbSpline
 62
7
  6
BYLAYER
 70
0
 71
3
 72
9
 73
5
 74
0
 42
0.0000001
 43
0.0000001
 44
0.0000000001
 40
0.0
 40
0.0
 40
0.0
 40
0.0
 40
0.2491897484
 40
1.0
 40
1.0
 40
1.0
 40
1.0
 10
30.5873192027
 20
34.0879644161
 30
0.0
 10
30.5650597923
 20
34.0883082306
 30
0.0
 10
30.4757178065
 20
34.0879136514
 30
0.0
 10
30.3863762517
 20
34.0805937781
 30
0.0
 10
30.3200109502
 20
34.0708571569
 30
0.0
  0
SPLINE
  5
331
100
AcDbEntity
  8
0
100
AcDbSpline
 62
7
  6
BYLAYER
 70
0
 71
3
 72
25
 73
21
 74
0
 42
0.0000001
 43
0.0000001
 44
0.0000000001
 40
0.0
 40
0.0
 40
0.0
 40
0.0
 40
0.0025572496
 40
0.0042988263
 40
0.0064424795
 40
0.0120587444
 40
0.0195539471
 40
0.0289845665
 40
0.0403794385
 40
0.0537551548
 40
0.0691152308
 40
0.1057641971
 40
0.1502649192
 40
0.2025388221
 40
0.2624782876
 40
0.3299548537
 40
0.404837211
 40
0.5762038537
 40
0.7752051637
 40
1.0
 40
1.0
 40
1.0
 40
1.0
 10
32.9129194809
 20
33.9305036532
 30
0.0
 10
32.9128309875
 20
33.9324950756
 30
0.0
 10
32.9109251889
 20
33.9356621569
 30
0.0
 10
32.9070989013
 20
33.9388550103
 30
0.0
 10
32.9007786948
 20
33.9427937845
 30
0.0
 10
32.8897790876
 20
33.9474125568
 30
0.0
 10
32.8729988291
 20
33.952663069
 30
0.0
 10
32.8515469059
 20
33.957923161
 30
0.0
 10
32.8254110895
 20
33.9632053629
 30
0.0
 10
32.7945739824
 20
33.9684847754
 30
0.0
 10
32.7441544868
 20
33.9759605293
 30
0.0
 10
32.6694587252
 20
33.9850048386
 30
0.0
 10
32.5659596141
 20
33.9952854358
 30
0.0
 10
32.4442212334
 20
34.0054670024
 30
0.0
 10
32.3045113557
 20
34.0155231284
 30
0.0
 10
32.147128055
 20
34.0254218115
 30
0.0
 10
31.9029523814
 20
34.0389868421
 30
0.0
 10
31.5562417397
 20
34.0550295477
 30
0.0
 10
31.0926381101
 20
34.0725739155
 30
0.0
 10
30.7624466077
 20
34.0829132903
 30
0.0
 10
30.587290757
 20
34.0879618607
 30
0.0
  0
SPLINE
  5
332
100
AcDbEntity
  8
0
100
AcDbSpline
 62
7
  6
BYLAYER
 70
0
 71
3
 72
14
 73
10
 74
0
 42
0.0000001
 43
0.0000001
 44
0.0000000001
 40
0.0
 40
0.0
 40
0.0
 40
0.0
 40
0.0793356048
 40
0.1710000345
 40
0.2800383063
 40
0.4068276577
 40
0.5488451928
 40
0.699895171
 40
1.0
 40
1.0
 40
1.0
 40
1.0
 10
19.3015542941
 20
34.1304350535
 30
0.0
 10
19.3079707503
 20
34.1301599056
 30
0.0
 10
19.3217648072
 20
34.1269941624
 30
0.0
 10
19.341369729
 20
34.1149847891
 30
0.0
 10
19.3596561615
 20
34.0954598122
 30
0.0
 10
19.3759097388
 20
34.0693666699
 30
0.0
 10
19.3889428885
 20
34.0378401171
 30
0.0
 10
19.4016527511
 20
33.9914500514
 30
0.0
 10
19.4054362384
 20
33.9547953317
 30
0.0
 10
19.4057190223
 20
33.9305029787
 30
0.0
  0
SPLINE
  5
333
100
AcDbEntity
  8
0
100
AcDbSpline
 62
7
  6
BYLAYER
 70
0
 71
3
 72
9
 73
5
 74
0
 42
0.0000001
 43
0.0000001
 44
0.0000000001
 40
0.0
 40
0.0
 40
0.0
 40
0.0
 40
0.252701471
 40
1.0
 40
1.0
 40
1.0
 40
1.0
 10
29.5865158834
 20
34.0932558926
 30
0.0
 10
29.575587313
 20
34.0964863869
 30
0.0
 10
29.5319567045
 20
34.1079286737
 30
0.0
 10
29.4869258122
 20
34.1140811448
 30
0.0
 10
29.4532530443
 20
34.1154556874
 30
0.0
  0
SPLINE
  5
334
100
AcDbEntity
  8
0
100
AcDbSpline
 62
7
  6
BYLAYER
 70
0
 71
3
 72
25
 73
21
 74
0
 42
0.0000001
 43
0.0000001
 44
0.0000000001
 40
0.0
 40
0.0
 40
0.0
 40
0.0
 40
0.0713344666
 40
0.1424836719
 40
0.2132641656
 40
0.2834230661
 40
0.3524547339
 40
0.3862132019
 40
0.4191028871
 40
0.4506559025
 40
0.4800137598
 40
0.5069693427
 40
0.5328088891
 40
0.5593673274
 40
0.5869579653
 40
0.6445709893
 40
0.7039995649
 40
0.7641672237
 40
0.8840777534
 40
1.0
 40
1.0
 40
1.0
 40
1.0
 10
30.1594606932
 20
34.5137592626
 30
0.0
 10
30.1534908921
 20
34.5061894919
 30
0.0
 10
30.1418721971
 20
34.49082852
 30
0.0
 10
30.1250185185
 20
34.4674478622
 30
0.0
 10
30.1083778217
 20
34.4441098266
 30
0.0
 10
30.0916543492
 20
34.4211847653
 30
0.0
 10
30.0771420635
 20
34.4028402793
 30
0.0
 10
30.0647965816
 20
34.3892647598
 30
0.0
 10
30.0551185784
 20
34.3801646881
 30
0.0
 10
30.0450009936
 20
34.3724489602
 30
0.0
 10
30.0341278903
 20
34.3673470833
 30
0.0
 10
30.0227718615
 20
34.366144274
 30
0.0
 10
30.0123746092
 20
34.3698857998
 30
0.0
 10
30.0040136356
 20
34.3769420009
 30
0.0
 10
29.9946135996
 20
34.3888377977
 30
0.0
 10
29.9857491998
 20
34.4064210727
 30
0.0
 10
29.9776351465
 20
34.4289683523
 30
0.0
 10
29.9692274677
 20
34.4602590257
 30
0.0
 10
29.96225228
 20
34.499714989
 30
0.0
 10
29.9596874102
 20
34.5315588349
 30
0.0
 10
29.9594723189
 20
34.5472237361
 30
0.0
  0
SPLINE
  5
335
100
AcDbEntity
  8
0
100
AcDbSpline
 62
7
  6
BYLAYER
 70
0
 71
3
 72
17
 73
13
 74
0
 42
0.0000001
 43
0.0000001
 44
0.0000000001
 40
0.0
 40
0.0
 40
0.0
 40
0.0
 40
0.1030472968
 40
0.2158465502
 40
0.3348083588
 40
0.4579888424
 40
0.585569434
 40
0.7176718656
 40
0.785540148
 40
0.8551011615
 40
0.9269281881
 40
1.0
 40
1.0
 40
1.0
 40
1.0
 10
29.5865211489
 20
34.0932512704
 30
0.0
 10
29.6112125188
 20
34.0870244876
 30
0.0
 10
29.6623642214
 20
34.0717932062
 30
0.0
 10
29.7433885346
 20
34.0546743387
 30
0.0
 10
29.8301381832
 20
34.0413886481
 30
0.0
 10
29.9213397867
 20
34.0343792793
 30
0.0
 10
30.0160467907
 20
34.0349931805
 30
0.0
 10
30.0967996021
 20
34.0411737597
 30
0.0
 10
30.1630017019
 20
34.0485015123
 30
0.0
 10
30.2142798507
 20
34.0552138707
 30
0.0
 10
30.266664327
 20
34.0632384079
 30
0.0
 10
30.3020769406
 20
34.068564823
 30
0.0
 10
30.3199890612
 20
34.0708480938
 30
0.0
  0
SPLINE
  5
336
100
AcDbEntity
  8
0
100
AcDbSpline
 62
7
  6
BYLAYER
 70
0
 71
3
 72
9
 73
5
 74
0
 42
0.0000001
 43
0.0000001
 44
0.0000000001
 40
0.0
 40
0.0
 40
0.0
 40
0.0
 40
0.250463783
 40
1.0
 40
1.0
 40
1.0
 40
1.0
 10
30.5872689605
 20
34.5877904656
 30
0.0
 10
30.5509226006
 20
34.5877976981
 30
0.0
 10
30.4058965257
 20
34.5816188637
 30
0.0
 10
30.2617158057
 20
34.5509139609
 30
0.0
 10
30.1594795269
 20
34.5137840753
 30
0.0
  0
SPLINE
  5
337
100
AcDbEntity
  8
0
100
AcDbSpline
 62
7
  6
BYLAYER
 70
0
 71
3
 72
15
 73
11
 74
0
 42
0.0000001
 43
0.0000001
 44
0.0000000001
 40
0.0
 40
0.0
 40
0.0
 40
0.0
 40
0.1249908917
 40
0.250005635
 40
0.3750078019
 40
0.5000015327
 40
0.6249946389
 40
0.7499978121
 40
0.8750163226
 40
1.0
 40
1.0
 40
1.0
 40
1.0
 10
29.9102426377
 20
57.3772713705
 30
0.0
 10
29.9102441092
 20
57.1159481287
 30
0.0
 10
29.962277107
 20
56.5918938222
 30
0.0
 10
30.1904510839
 20
55.8367368665
 30
0.0
 10
30.5630311909
 20
55.1410597102
 30
0.0
 10
31.0630233245
 20
54.5306452479
 30
0.0
 10
31.673430765
 20
54.0306402158
 30
0.0
 10
32.3691173018
 20
53.6580568718
 30
0.0
 10
33.1242700167
 20
53.4298902165
 30
0.0
 10
33.6483152437
 20
53.3778435183
 30
0.0
 10
33.9096234021
 20
53.3778401401
 30
0.0
  0
SPLINE
  5
338
100
AcDbEntity
  8
0
100
AcDbSpline
 62
7
  6
BYLAYER
 70
0
 71
3
 72
17
 73
13
 74
0
 42
0.0000001
 43
0.0000001
 44
0.0000000001
 40
0.0
 40
0.0
 40
0.0
 40
0.0
 40
0.1249434238
 40
0.2499176525
 40
0.3747386444
 40
0.4993941033
 40
0.6239299332
 40
0.7483949728
 40
0.8108765134
 40
0.8737290834
 40
0.9368696564
 40
1.0
 40
1.0
 40
1.0
 40
1.0
 10
37.2875729016
 20
52.4274032387
 30
0.0
 10
37.2877787244
 20
52.4777462859
 30
0.0
 10
37.2816253852
 20
52.5785852604
 30
0.0
 10
37.2534063687
 20
52.7273023361
 30
0.0
 10
37.2070715431
 20
52.8712797255
 30
0.0
 10
37.1445346299
 20
53.0087241351
 30
0.0
 10
37.0688230193
 20
53.1390550301
 30
0.0
 10
36.9987505139
 20
53.2432549018
 30
0.0
 10
36.9394251796
 20
53.3245759188
 30
0.0
 10
36.893091824
 20
53.3847539475
 30
0.0
 10
36.8462343269
 20
53.4448382936
 30
0.0
 10
36.8180376729
 20
53.4873557098
 30
0.0
 10
36.8056029122
 20
53.5095463299
 30
0.0
  0
SPLINE
  5
339
100
AcDbEntity
  8
0
100
AcDbSpline
 62
7
  6
BYLAYER
 70
0
 71
3
 72
15
 73
11
 74
0
 42
0.0000001
 43
0.0000001
 44
0.0000000001
 40
0.0
 40
0.0
 40
0.0
 40
0.0
 40
0.0840448703
 40
0.1805075131
 40
0.2903055537
 40
0.4131802562
 40
0.5484349213
 40
0.6930835082
 40
0.8446004918
 40
1.0
 40
1.0
 40
1.0
 40
1.0
 10
30.0419983351
 20
60.2732785276
 30
0.0
 10
30.013797981
 20
60.2920100601
 30
0.0
 10
29.9543836517
 20
60.3339640858
 30
0.0
 10
29.8602900927
 20
60.4033869972
 30
0.0
 10
29.7533812007
 20
60.481821036
 30
0.0
 10
29.6292783381
 20
60.5630665253
 30
0.0
 10
29.4860866606
 20
60.6399198576
 30
0.0
 10
29.3239976292
 20
60.7040583101
 30
0.0
 10
29.1462388441
 20
60.7456039951
 30
0.0
 10
29.0223871559
 20
60.7554190489
 30
0.0
 10
28.9597903537
 20
60.7551759673
 30
0.0
  0
SPLINE
  5
33A
100
AcDbEntity
  8
0
100
AcDbSpline
 62
7
  6
BYLAYER
 70
0
 71
3
 72
15
 73
11
 74
0
 42
0.0000001
 43
0.0000001
 44
0.0000000001
 40
0.0
 40
0.0
 40
0.0
 40
0.0
 40
0.1249838268
 40
0.2500021037
 40
0.3750052203
 40
0.4999983606
 40
0.6249920616
 40
0.7499942681
 40
0.8750092048
 40
1.0
 40
1.0
 40
1.0
 40
1.0
 10
14.016181407
 20
53.3778401956
 30
0.0
 10
14.2774898755
 20
53.3778436517
 30
0.0
 10
14.8015349625
 20
53.4298899203
 30
0.0
 10
15.5566873303
 20
53.6580568278
 30
0.0
 10
16.25237324
 20
54.030640094
 30
0.0
 10
16.8627808905
 20
54.5306446407
 30
0.0
 10
17.3627734602
 20
55.1410588951
 30
0.0
 10
17.7353536104
 20
55.8367365465
 30
0.0
 10
17.9635274032
 20
56.5918938114
 30
0.0
 10
18.015560791
 20
57.1159482757
 30
0.0
 10
18.0155622381
 20
57.3772713133
 30
0.0
  0
SPLINE
  5
33B
100
AcDbEntity
  8
0
100
AcDbSpline
 62
7
  6
BYLAYER
 70
0
 71
3
 72
17
 73
13
 74
0
 42
0.0000001
 43
0.0000001
 44
0.0000000001
 40
0.0
 40
0.0
 40
0.0
 40
0.0
 40
0.1249434238
 40
0.2499176525
 40
0.3747386444
 40
0.4993941033
 40
0.6239299332
 40
0.7483949728
 40
0.8108765134
 40
0.8737290834
 40
0.9368696564
 40
1.0
 40
1.0
 40
1.0
 40
1.0
 10
18.9660027534
 20
60.7551740934
 30
0.0
 10
18.9156597066
 20
60.7553799158
 30
0.0
 10
18.8148207328
 20
60.7492265758
 30
0.0
 10
18.6661036584
 20
60.7210075584
 30
0.0
 10
18.5221262703
 20
60.6746727322
 30
0.0
 10
18.384681862
 20
60.6121358188
 30
0.0
 10
18.2543509681
 20
60.5364242084
 30
0.0
 10
18.1501510972
 20
60.4663517032
 30
0.0
 10
18.0688300808
 20
60.4070263692
 30
0.0
 10
18.0086520526
 20
60.3606930139
 30
0.0
 10
17.9485677068
 20
60.3138355173
 30
0.0
 10
17.9060502909
 20
60.2856388635
 30
0.0
 10
17.883859671
 20
60.2732041027
 30
0.0
  0
SPLINE
  5
33C
100
AcDbEntity
  8
0
100
AcDbSpline
 62
7
  6
BYLAYER
 70
0
 71
3
 72
15
 73
11
 74
0
 42
0.0000001
 43
0.0000001
 44
0.0000000001
 40
0.0
 40
0.0
 40
0.0
 40
0.0
 40
0.0840448724
 40
0.1805075158
 40
0.2903055557
 40
0.4131802564
 40
0.5484349194
 40
0.6930835052
 40
0.844600489
 40
1.0
 40
1.0
 40
1.0
 40
1.0
 10
11.1201274742
 20
53.5095995258
 30
0.0
 10
11.1013959443
 20
53.4813991757
 30
0.0
 10
11.0594419251
 20
53.4219848552
 30
0.0
 10
10.9900190248
 20
53.3278913107
 30
0.0
 10
10.9115849986
 20
53.2209824375
 30
0.0
 10
10.8303395197
 20
53.0968795995
 30
0.0
 10
10.7534861928
 20
52.9536879519
 30
0.0
 10
10.6893477359
 20
52.7915989546
 30
0.0
 10
10.6478020348
 20
52.6138402035
 30
0.0
 10
10.6379869638
 20
52.4899885361
 30
0.0
 10
10.6382300344
 20
52.427391743
 30
0.0
  0
SPLINE
  5
33D
100
AcDbEntity
  8
0
100
AcDbSpline
 62
7
  6
BYLAYER
 70
0
 71
3
 72
25
 73
21
 74
0
 42
0.0000001
 43
0.0000001
 44
0.0000000001
 40
0.0
 40
0.0
 40
0.0
 40
0.0
 40
0.2174384131
 40
0.4137144975
 40
0.5028780162
 40
0.5855838064
 40
0.661509166
 40
0.7303318715
 40
0.7917505767
 40
0.84554555
 40
0.8915190949
 40
0.9294772016
 40
0.9592560032
 40
0.9808001771
 40
0.9884923401
 40
0.9915762801
 40
0.9941597121
 40
0.9962548865
 40
0.9978861523
 40
1.0
 40
1.0
 40
1.0
 40
1.0
 10
19.4056339908
 20
33.9305024883
 30
0.0
 10
19.1008195906
 20
33.925521402
 30
0.0
 10
18.5208771449
 20
33.9147465636
 30
0.0
 10
17.8160259511
 20
33.8977959159
 30
0.0
 10
17.3000979515
 20
33.8825941873
 30
0.0
 10
16.9528764412
 20
33.8709535145
 30
0.0
 10
16.6342111468
 20
33.8587624106
 30
0.0
 10
16.3454358012
 20
33.8460752678
 30
0.0
 10
16.0877436364
 20
33.8329390341
 30
0.0
 10
15.86215351
 20
33.8194342087
 30
0.0
 10
15.6695476052
 20
33.8056295224
 30
0.0
 10
15.5107177131
 20
33.7916655136
 30
0.0
 10
15.3863380953
 20
33.7775630076
 30
0.0
 10
15.3044805735
 20
33.7650430492
 30
0.0
 10
15.2602595174
 20
33.7550331353
 30
0.0
 10
15.2422816895
 20
33.7497145795
 30
0.0
 10
15.2320461578
 20
33.7460627726
 30
0.0
 10
15.2239292789
 20
33.7423399675
 30
0.0
 10
15.2170811377
 20
33.7382049536
 30
0.0
 10
15.2130381906
 20
33.7336684576
 30
0.0
 10
15.2129090802
 20
33.7307075941
 30
0.0
  0
SPLINE
  5
33E
100
AcDbEntity
  8
0
100
AcDbSpline
 62
7
  6
BYLAYER
 70
0
 71
3
 72
9
 73
5
 74
0
 42
0.0000001
 43
0.0000001
 44
0.0000000001
 40
0.0
 40
0.0
 40
0.0
 40
0.0
 40
0.5193629129
 40
1.0
 40
1.0
 40
1.0
 40
1.0
 10
23.9629024054
 20
33.964798405
 30
0.0
 10
23.1738390705
 20
33.9647982703
 30
0.0
 10
21.6545438806
 20
33.9593801418
 30
0.0
 10
20.1353251102
 20
33.9424276467
 30
0.0
 10
19.4051950808
 20
33.9304944161
 30
0.0
  0
SPLINE
  5
33F
100
AcDbEntity
  8
0
100
AcDbSpline
 62
7
  6
BYLAYER
 70
0
 71
3
 72
32
 73
28
 74
0
 42
0.0000001
 43
0.0000001
 44
0.0000000001
 40
0.0
 40
0.0
 40
0.0
 40
0.0
 40
0.0007350243
 40
0.001246887
 40
0.0018820008
 40
0.0035549108
 40
0.0057913784
 40
0.0086033259
 40
0.0119950898
 40
0.0159678131
 40
0.0205210764
 40
0.0313634001
 40
0.0445072684
 40
0.0599338209
 40
0.077622508
 40
0.0975447892
 40
0.1196432252
 40
0.1701086142
 40
0.2284973835
 40
0.2942861463
 40
0.3669065626
 40
0.4456136075
 40
0.5296178326
 40
0.6181295551
 40
0.710336248
 40
0.8053344374
 40
1.0
 40
1.0
 40
1.0
 40
1.0
 10
32.7128956907
 20
33.7307106512
 30
0.0
 10
32.7128018271
 20
33.7328557598
 30
0.0
 10
32.7105988589
 20
33.7362560963
 30
0.0
 10
32.7063165376
 20
33.7396159492
 30
0.0
 10
32.6991741968
 20
33.7438165123
 30
0.0
 10
32.686799334
 20
33.748719539
 30
0.0
 10
32.6679628528
 20
33.754303307
 30
0.0
 10
32.6439384734
 20
33.7598941405
 30
0.0
 10
32.6147416647
 20
33.7655093112
 30
0.0
 10
32.5803790066
 20
33.7711212987
 30
0.0
 10
32.5243568238
 20
33.7790603308
 30
0.0
 10
32.4415302081
 20
33.7886624417
 30
0.0
 10
32.3269102338
 20
33.7995640923
 30
0.0
 10
32.1922038875
 20
33.8103415226
 30
0.0
 10
32.0376319894
 20
33.8209591227
 30
0.0
 10
31.863517487
 20
33.8313725974
 30
0.0
 10
31.5937189058
 20
33.8455944472
 30
0.0
 10
31.2115376542
 20
33.8623248478
 30
0.0
 10
30.7016888559
 20
33.8804954683
 30
0.0
 10
30.1270427672
 20
33.8972984658
 30
0.0
 10
29.4929809341
 20
33.9125239893
 30
0.0
 10
28.8056587862
 20
33.9260565882
 30
0.0
 10
28.0718752535
 20
33.937762295
 30
0.0
 10
27.2986246569
 20
33.9475084887
 30
0.0
 10
26.4932334012
 20
33.9551663497
 30
0.0
 10
25.3777329821
 20
33.9625932864
 30
0.0
 10
24.531561599
 20
33.9647985969
 30
0.0
 10
23.9629024054
 20
33.9647984998
 30
0.0
  0
SPLINE
  5
340
100
AcDbEntity
  8
0
100
AcDbSpline
 62
7
  6
BYLAYER
 70
0
 71
3
 72
15
 73
11
 74
0
 42
0.0000001
 43
0.0000001
 44
0.0000000001
 40
0.0
 40
0.0
 40
0.0
 40
0.0
 40
0.0840448709
 40
0.1805075138
 40
0.290305554
 40
0.413180256
 40
0.5484349206
 40
0.6930835071
 40
0.8446004906
 40
1.0
 40
1.0
 40
1.0
 40
1.0
 10
36.8056773353
 20
41.3514076667
 30
0.0
 10
36.8244088671
 20
41.3796080195
 30
0.0
 10
36.8663628907
 20
41.4390223461
 30
0.0
 10
36.9357857987
 20
41.5331159008
 30
0.0
 10
37.0142198338
 20
41.640024787
 30
0.0
 10
37.09546532
 20
41.7641276422
 30
0.0
 10
37.1723186508
 20
41.9073193107
 30
0.0
 10
37.2364571048
 20
42.0694083318
 30
0.0
 10
37.2780027951
 20
42.2471671067
 30
0.0
 10
37.287817854
 20
42.3710187888
 30
0.0
 10
37.2875747757
 20
42.4336155884
 30
0.0
  0
ENDSEC
  0
SECTION
  2
OBJECTS
  0
DICTIONARY
  5
C
100
AcDbDictionary
280
0
281
1
  3
ACAD_GROUP
350
D
  3
ACAD_MLINESTYLE
350
17
  3
ACAD_LAYOUT
350
1A
  3
ACAD_PLOTSETTINGS
350
19
  3
ACAD_PLOTSTYLENAME
350
E
  0
DICTIONARY
  5
D
102
{ACAD_REACTORS
330
C
102
}
100
AcDbDictionary
280
0
281
1
  0
ACDBDICTIONARYWDFLT
  5
E
102
{ACAD_REACTORS
330
C
102
}
100
AcDbDictionary
281
1
  3
Normal
350
F
100
AcDbDictionaryWithDefault
340
F
  0
DICTIONARY
  5
17
102
{ACAD_REACTORS
330
C
102
}
100
AcDbDictionary
280
0
281
1
  3
Standard
350
18
  0
DICTIONARY
  5
19
102
{ACAD_REACTORS
330
C
102
}
100
AcDbDictionary
281
1
  0
DICTIONARY
  5
1A
102
{ACAD_REACTORS
330
C
102
}
100
AcDbDictionary
281
1
  3
Model
350
341
  3
Layout1
350
342
  0
ACDBPLACEHOLDER
  5
F
102
{ACAD_REACTORS
330
E
102
}
  0
MLINESTYLE
  5
18
102
{ACAD_REACTORS
330
17
102
}
100
AcDbMlineStyle
  2
STANDARD
 70
0
  3

 62
256
 51
90.0
 52
90.0
 71
2
 49
0.5
 62
256
  6
BYLAYER
 49
-0.5
 62
256
  6
BYLAYER
  0
LAYOUT
  5
341
102
{ACAD_REACTORS
330
1A
102
}
100
AcDbPlotSettings
  1

  2
none_device
  4

  6

 40
0.0
 41
0.0
 42
0.0
 43
0.0
 44
210.0
 45
297.0
 46
0.0
 47
0.0
 48
0.0
 49
0.0
140
0.0
141
0.0
142
1.0
143
1.0
 70
1024
 72
1
 73
0
 74
0
  7

 75
0
147
1.0
148
0.0
149
0.0
100
AcDbLayout
  1
Model
 70
0
 71
0
 10
0.0
 20
0.0
 11
210.0
 21
297.0
 12
0.0
 22
0.0
 32
0.0
 14
0.0
 24
0.0
 34
0.0
 15
0.0
 25
0.0
 35
0.0
146
0.0
 13
0.0
 23
0.0
 33
0.0
 16
1.0
 26
0.0
 36
0.0
 17
0.0
 27
1.0
 37
0.0
 76
0
330
210
345
0
346
0
  0
LAYOUT
  5
342
102
{ACAD_REACTORS
330
1A
102
}
100
AcDbPlotSettings
  1

  2
none_device
  4

  6

 40
0.0
 41
0.0
 42
0.0
 43
0.0
 44
210.0
 45
297.0
 46
0.0
 47
0.0
 48
0.0
 49
0.0
140
0.0
141
0.0
142
1.0
143
1.0
 70
0
 72
1
 73
0
 74
0
  7

 75
0
147
1.0
148
0.0
149
0.0
100
AcDbLayout
  1
Layout1
 70
0
 71
1
 10
0.0
 20
0.0
 11
210.0
 21
297.0
 12
0.0
 22
0.0
 32
0.0
 14
0.0
 24
0.0
 34
0.0
 15
0.0
 25
0.0
 35
0.0
146
0.0
 13
0.0
 23
0.0
 33
0.0
 16
1.0
 26
0.0
 36
0.0
 17
0.0
 27
1.0
 37
0.0
 76
0
330
211
345
0
346
0
  0
ENDSEC
  0
EOF
