999
DXF file: C:\Users\sesa63760\Dev\_Creo\CAD\MCADID0004827_3D-CAD\drw0001_7.dxf
999
Pro/ENGINEER 2019471 by Parametric Technology Corporation
  0
SECTION
  2
HEADER
  9
$ACADVER
  1
AC1024
  9
$DWGCODEPAGE
  3
ANSI_1252
  9
$EXTMAX
 10
63.8380952286
 20
90.2853061091
 30
0.0
  9
$EXTMIN
 10
0.0
 20
0.0
 30
0.0
  9
$LIMMIN
 10
0.0
 20
0.0
  9
$LIMMAX
 10
63.8380952286
 20
90.2853061091
  9
$VIEWCTR
 10
31.9190476143
 20
45.1426530545
  9
$VIEWSIZE
 40
90.2853061091
  9
$CLAYER
  8
0
  9
$LTSCALE
 40
5.8852643982
  9
$CELTYPE
  6
BYLAYER
  9
$DIMSCALE
 40
1.0
  9
$DIMASZ
 40
0.7599773242
  9
$DIMEXO
 40
1.0
  9
$DIMDLI
 40
4.0661826751
  9
$DIMEXE
 40
1.0
  9
$DIMCEN
 40
0.9630432652
  9
$DIMLFAC
 40
1.0
  9
$DIMBLK
  1
_FILLED
  9
$DIMALT
 70
0
  9
$DIMALTF
 40
0.0393700787
  9
$DIMTXT
 40
1.0639682538
  9
$DIMTOL
 70
1
  9
$DIMLIM
 70
0
  9
$DIMTFAC
 40
1.0
  9
$DIMTP
 40
0.01
  9
$DIMTM
 40
0.01
  9
$DIMGAP
 40
0.625
  9
$DIMDSEP
 70
46
  9
$AUNITS
 70
0
  9
$PDMODE
 70
3
  9
$PDSIZE
 40
0.3125
  9
$HANDSEED
  5
2CF
  9
$TILEMODE
 70
1
  9
$MEASUREMENT
 70
1
  9
$INSUNITS
 70
4
  0
ENDSEC
  0
SECTION
  2
CLASSES
  0
CLASS
  1
ACDBDICTIONARYWDFLT
  2
AcDbDictionaryWithDefault
  3
AutoCAD 2000
 90
0
 91
1
280
0
281
0
  0
CLASS
  1
ACDBPLACEHOLDER
  2
AcDbPlaceHolder
  3
AutoCAD 2000
 90
0
 91
1
280
0
281
0
  0
CLASS
  1
LAYOUT
  2
AcDbLayout
  3
AutoCAD 2000
 90
0
 91
0
280
0
281
0
  0
ENDSEC
  0
SECTION
  2
TABLES
  0
TABLE
  2
VPORT
  5
8
100
AcDbSymbolTable
 70
2
  0
VPORT
  5
1F4
100
AcDbSymbolTableRecord
100
AcDbViewportTableRecord
  2
*ACTIVE
 70
0
 10
0.0
 20
0.0
 11
1.0
 21
1.0
 12
31.9190476143
 22
45.1426530545
 13
0.0
 23
0.0
 14
1.0
 24
1.0
 15
0.0
 25
0.0
 16
0.0
 26
0.0
 36
1.0
 17
0.0
 27
0.0
 37
0.0
 40
90.2853061091
 41
0.7070707071
 42
50.0
 43
0.0
 44
0.0
 50
0.0
 51
0.0
 71
0
 72
100
 73
1
 74
1
 75
0
 76
0
 77
0
 78
0
  0
ENDTAB
  0
TABLE
  2
LTYPE
  5
5
100
AcDbSymbolTable
 70
6
  0
LTYPE
  5
14
100
AcDbSymbolTableRecord
100
AcDbLinetypeTableRecord
  2
BYBLOCK
 70
0
  3

 72
65
 73
0
 40
0.0
  0
LTYPE
  5
15
100
AcDbSymbolTableRecord
100
AcDbLinetypeTableRecord
  2
BYLAYER
 70
0
  3

 72
65
 73
0
 40
0.0
  0
LTYPE
  5
16
100
AcDbSymbolTableRecord
100
AcDbLinetypeTableRecord
  2
CONTINUOUS
 70
64
  3
Solid line
 72
65
 73
0
 40
0.0
  0
LTYPE
  5
1F5
100
AcDbSymbolTableRecord
100
AcDbLinetypeTableRecord
  2
CENTER
 70
64
  3
____ _ ____ _ ____ _ ____ _ ____ _ ____ _ ____
 72
65
 73
4
 40
0.6
 49
0.375
 74
0
 49
-0.075
 74
0
 49
0.075
 74
0
 49
-0.075
 74
0
  0
LTYPE
  5
1F6
100
AcDbSymbolTableRecord
100
AcDbLinetypeTableRecord
  2
HIDDEN
 70
64
  3
- - - - - - - - - - - - - - - - - - - -
 72
65
 73
2
 40
0.2
 49
0.1
 74
0
 49
-0.1
 74
0
  0
LTYPE
  5
1F7
100
AcDbSymbolTableRecord
100
AcDbLinetypeTableRecord
  2
PHANTOM
 70
64
  3
_____ _ _ _____ _ _ _____ _ _ _____
 72
65
 73
6
 40
0.8
 49
0.45
 74
0
 49
-0.05
 74
0
 49
0.1
 74
0
 49
-0.05
 74
0
 49
0.1
 74
0
 49
-0.05
 74
0
  0
LTYPE
  5
1F8
100
AcDbSymbolTableRecord
100
AcDbLinetypeTableRecord
  2
DOT
 70
64
  3
. . . . . . . . . . . . . . . . . . . .
 72
65
 73
2
 40
0.2
 49
0.1
 74
0
 49
-0.1
 74
0
  0
LTYPE
  5
1F9
100
AcDbSymbolTableRecord
100
AcDbLinetypeTableRecord
  2
DASHED
 70
64
  3
- - - - - - - - - - - - - - - - - - - -
 72
65
 73
2
 40
0.2
 49
0.1
 74
0
 49
-0.1
 74
0
  0
ENDTAB
  0
TABLE
  2
LAYER
  5
2
100
AcDbSymbolTable
 70
36
  0
LAYER
  5
10
100
AcDbSymbolTableRecord
100
AcDbLayerTableRecord
  2
0
 70
0
 62
7
  6
CONTINUOUS
370
-3
390
F
  0
LAYER
  5
1FA
100
AcDbSymbolTableRecord
100
AcDbLayerTableRecord
  2
DEFAULT_1
 70
0
 62
7
  6
CENTER
370
-3
390
F
  0
LAYER
  5
1FB
100
AcDbSymbolTableRecord
100
AcDbLayerTableRecord
  2
DEFAULT_2
 70
0
 62
7
  6
HIDDEN
370
-3
390
F
  0
LAYER
  5
1FC
100
AcDbSymbolTableRecord
100
AcDbLayerTableRecord
  2
DEFAULT_3
 70
0
 62
7
  6
PHANTOM
370
-3
390
F
  0
LAYER
  5
1FD
100
AcDbSymbolTableRecord
100
AcDbLayerTableRecord
  2
00_COMPONENTS
 70
0
 62
7
  6
CONTINUOUS
370
-3
390
F
  0
LAYER
  5
1FE
100
AcDbSymbolTableRecord
100
AcDbLayerTableRecord
  2
01_1_DEFAULT_DATUMS
 70
0
 62
7
  6
CONTINUOUS
370
-3
390
F
  0
LAYER
  5
1FF
100
AcDbSymbolTableRecord
100
AcDbLayerTableRecord
  2
01_PLANES
 70
0
 62
7
  6
CONTINUOUS
370
-3
390
F
  0
LAYER
  5
200
100
AcDbSymbolTableRecord
100
AcDbLayerTableRecord
  2
02_COORD_SYS
 70
0
 62
7
  6
CONTINUOUS
370
-3
390
F
  0
LAYER
  5
201
100
AcDbSymbolTableRecord
100
AcDbLayerTableRecord
  2
03_AXES
 70
0
 62
7
  6
CONTINUOUS
370
-3
390
F
  0
LAYER
  5
202
100
AcDbSymbolTableRecord
100
AcDbLayerTableRecord
  2
04_POINTS
 70
0
 62
7
  6
CONTINUOUS
370
-3
390
F
  0
LAYER
  5
203
100
AcDbSymbolTableRecord
100
AcDbLayerTableRecord
  2
05_CURVES
 70
0
 62
7
  6
CONTINUOUS
370
-3
390
F
  0
LAYER
  5
204
100
AcDbSymbolTableRecord
100
AcDbLayerTableRecord
  2
06_SURFS
 70
0
 62
7
  6
CONTINUOUS
370
-3
390
F
  0
LAYER
  5
205
100
AcDbSymbolTableRecord
100
AcDbLayerTableRecord
  2
07_COSMETICS
 70
0
 62
7
  6
CONTINUOUS
370
-3
390
F
  0
LAYER
  5
206
100
AcDbSymbolTableRecord
100
AcDbLayerTableRecord
  2
10_NOTES
 70
0
 62
7
  6
CONTINUOUS
370
-3
390
F
  0
LAYER
  5
207
100
AcDbSymbolTableRecord
100
AcDbLayerTableRecord
  2
11_NOTES_PUB
 70
0
 62
7
  6
CONTINUOUS
370
-3
390
F
  0
LAYER
  5
208
100
AcDbSymbolTableRecord
100
AcDbLayerTableRecord
  2
13_REF_GTOL
 70
0
 62
7
  6
CONTINUOUS
370
-3
390
F
  0
LAYER
  5
209
100
AcDbSymbolTableRecord
100
AcDbLayerTableRecord
  2
16_MISC
 70
0
 62
7
  6
CONTINUOUS
370
-3
390
F
  0
LAYER
  5
20A
100
AcDbSymbolTableRecord
100
AcDbLayerTableRecord
  2
17_NO_PRINT
 70
0
 62
7
  6
CONTINUOUS
370
-3
390
F
  0
LAYER
  5
20B
100
AcDbSymbolTableRecord
100
AcDbLayerTableRecord
  2
18_DATUM_CAMS_JOINTS
 70
0
 62
7
  6
CONTINUOUS
370
-3
390
F
  0
LAYER
  5
20C
100
AcDbSymbolTableRecord
100
AcDbLayerTableRecord
  2
19_DATUM_FUNCTIONAL
 70
0
 62
7
  6
CONTINUOUS
370
-3
390
F
  0
LAYER
  5
20D
100
AcDbSymbolTableRecord
100
AcDbLayerTableRecord
  2
20_DATUM_KINEMATIC_SCHEME
 70
0
 62
7
  6
CONTINUOUS
370
-3
390
F
  0
ENDTAB
  0
TABLE
  2
STYLE
  5
3
100
AcDbSymbolTable
 70
1
  0
STYLE
  5
11
100
AcDbSymbolTableRecord
100
AcDbTextStyleTableRecord
  2
STANDARD
 70
0
 40
0.0
 41
1.0
 50
0.0
 71
0
 42
0.2
  3
ARIAL.TTF
  4

  0
STYLE
  5
20E
100
AcDbSymbolTableRecord
100
AcDbTextStyleTableRecord
  2
TEXTSTYLE_1
 70
0
 40
0.0
 41
0.8
 50
0.0
 71
0
 42
0.2
  3
gdt
  4

  0
ENDTAB
  0
TABLE
  2
VIEW
  5
6
100
AcDbSymbolTable
 70
0
  0
ENDTAB
  0
TABLE
  2
UCS
  5
7
100
AcDbSymbolTable
 70
0
  0
ENDTAB
  0
TABLE
  2
APPID
  5
9
100
AcDbSymbolTable
 70
1
  0
APPID
  5
20F
100
AcDbSymbolTableRecord
100
AcDbRegAppTableRecord
  2
ACAD
 70
0
  0
ENDTAB
  0
TABLE
  2
BLOCK_RECORD
  5
1
100
AcDbSymbolTable
 70
0
  0
BLOCK_RECORD
  5
210
100
AcDbSymbolTableRecord
100
AcDbBlockTableRecord
  2
*Model_Space
  0
BLOCK_RECORD
  5
211
100
AcDbSymbolTableRecord
100
AcDbBlockTableRecord
  2
*Paper_Space
  0
BLOCK_RECORD
  5
212
100
AcDbSymbolTableRecord
100
AcDbBlockTableRecord
  2
_FILLED
  0
ENDTAB
  0
TABLE
  2
DIMSTYLE
  5
A
100
AcDbSymbolTable
 70
1
100
AcDbDimStyleTable
 71
0
  0
DIMSTYLE
105
213
100
AcDbSymbolTableRecord
100
AcDbDimStyleTableRecord
  2
STANDARD
 70
0
  3

  4

 40
1.0
 41
0.7599773242
 42
1.0
 43
0.38
 44
1.0
 45
0.0
 46
0.0
 47
0.01
 48
0.01
140
1.0639682538
141
0.09
142
0.0
143
25.4
144
1.0
145
0.0
146
1.0
147
0.625
 71
1
 72
0
 73
0
 74
0
 75
0
 76
0
 77
1
 78
8
 79
2
170
0
171
1
172
0
173
0
174
0
175
0
176
0
177
0
178
0
270
2
179
2
271
2
272
2
273
2
274
2
275
0
280
0
281
0
282
0
283
1
284
8
285
0
286
0
287
3
288
0
340
11
278
46
341
212
342
212
343
212
344
212
  0
ENDTAB
  0
ENDSEC
  0
SECTION
  2
BLOCKS
  0
BLOCK
  5
20
100
AcDbEntity
  8
0
100
AcDbBlockBegin
  2
*Model_Space
 70
0
 10
0.0
 20
0.0
 30
0.0
  3
*Model_Space
  1

  0
ENDBLK
  5
21
100
AcDbEntity
  8
0
100
AcDbBlockEnd
  0
BLOCK
  5
1C
100
AcDbEntity
  8
0
100
AcDbBlockBegin
  2
*Paper_Space
 70
0
 10
0.0
 20
0.0
 30
0.0
  3
*Paper_Space
  1

  0
ENDBLK
  5
1D
100
AcDbEntity
  8
0
100
AcDbBlockEnd
  0
BLOCK
  5
214
100
AcDbEntity
  8
0
100
AcDbBlockBegin
  2
_FILLED
 70
64
 10
0.0
 20
0.0
  3
_FILLED
  1

  0
SOLID
  5
215
100
AcDbEntity
  8
0
  6
BYBLOCK
 62
0
100
AcDbTrace
 10
0.0
 20
0.0
 11
-1.0
 21
0.25
 12
-1.0
 22
-0.25
 13
-1.0
 23
-0.25
  0
ENDBLK
  5
216
100
AcDbEntity
  8
0
  6
BYBLOCK
 62
0
100
AcDbBlockEnd
  0
ENDSEC
  0
SECTION
  2
ENTITIES
  0
LINE
  5
217
100
AcDbEntity
  8
0
100
AcDbLine
 62
7
  6
BYLAYER
 10
16.6295550092
 20
18.7415854295
 11
19.6295550092
 21
18.7415854295
  0
LINE
  5
218
100
AcDbEntity
  8
0
100
AcDbLine
 62
7
  6
BYLAYER
 10
44.4295550092
 20
18.7415854295
 11
47.4295550092
 21
18.7415854295
  0
LINE
  5
219
100
AcDbEntity
  8
0
100
AcDbLine
 62
7
  6
BYLAYER
 10
47.3941966532
 20
18.7769969137
 11
44.4295550092
 21
18.7769969088
  0
LINE
  5
21A
100
AcDbEntity
  8
0
100
AcDbLine
 62
7
  6
BYLAYER
 10
16.6649133652
 20
18.7769969137
 11
19.6295550092
 21
18.7769969137
  0
LINE
  5
21B
100
AcDbEntity
  8
0
100
AcDbLine
 62
7
  6
BYLAYER
 10
19.8295550092
 20
19.0415854295
 11
21.3295550092
 21
19.0415854295
  0
LINE
  5
21C
100
AcDbEntity
  8
0
100
AcDbLine
 62
7
  6
BYLAYER
 10
42.7295550092
 20
19.0415854295
 11
44.2295550092
 21
19.0415854295
  0
LINE
  5
21D
100
AcDbEntity
  8
0
100
AcDbLine
 62
7
  6
BYLAYER
 10
19.6295550092
 20
21.9415854295
 11
44.4295550092
 21
21.9415854295
  0
LINE
  5
21E
100
AcDbEntity
  8
0
100
AcDbLine
 62
7
  6
BYLAYER
 10
31.4595550092
 20
73.1215854295
 11
31.1305828079
 21
72.7926132282
  0
LINE
  5
21F
100
AcDbEntity
  8
0
100
AcDbLine
 62
7
  6
BYLAYER
 10
32.5995550092
 20
74.2615854295
 11
32.9515894404
 21
74.6136198607
  0
LINE
  5
220
100
AcDbEntity
  8
0
100
AcDbLine
 62
7
  6
BYLAYER
 10
21.256805827
 20
19.634376066
 11
20.6480741926
 21
21.1409729975
  0
LINE
  5
221
100
AcDbEntity
  8
0
100
AcDbLine
 62
7
  6
BYLAYER
 10
16.6295550092
 20
18.7415853761
 11
16.6295550092
 21
66.1779825564
  0
LINE
  5
222
100
AcDbEntity
  8
0
100
AcDbLine
 62
7
  6
BYLAYER
 10
16.6295550092
 20
68.2017747532
 11
16.6295550092
 21
82.0415854295
  0
LINE
  5
223
100
AcDbEntity
  8
0
100
AcDbLine
 62
7
  6
BYLAYER
 10
16.6295551815
 20
66.1779825564
 11
16.6300095542
 21
22.7626103885
  0
LINE
  5
224
100
AcDbEntity
  8
0
100
AcDbLine
 62
7
  6
BYLAYER
 10
16.6295551815
 20
66.1779825564
 11
16.6305124395
 21
40.3987495724
  0
LINE
  5
225
100
AcDbEntity
  8
0
100
AcDbLine
 62
7
  6
BYLAYER
 10
16.6305124395
 20
40.3987495724
 11
16.6300095542
 21
22.7626103885
  0
LINE
  5
226
100
AcDbEntity
  8
0
100
AcDbLine
 62
7
  6
BYLAYER
 10
18.9295550092
 20
76.0415854295
 11
18.9295550092
 21
74.0415854295
  0
LINE
  5
227
100
AcDbEntity
  8
0
100
AcDbLine
 62
7
  6
BYLAYER
 10
19.6295550092
 20
21.9415854295
 11
19.6295550092
 21
18.7415854295
  0
LINE
  5
228
100
AcDbEntity
  8
0
100
AcDbLine
 62
7
  6
BYLAYER
 10
19.8295550092
 20
19.0415854295
 11
19.8295550092
 21
21.9415854295
  0
LINE
  5
229
100
AcDbEntity
  8
0
100
AcDbLine
 62
7
  6
BYLAYER
 10
20.2795550092
 20
19.2610816449
 11
20.2795703043
 21
19.0415854295
  0
LINE
  5
22A
100
AcDbEntity
  8
0
100
AcDbLine
 62
7
  6
BYLAYER
 10
20.2795550092
 20
21.9415854295
 11
20.2795550092
 21
19.2610816445
  0
LINE
  5
22B
100
AcDbEntity
  8
0
100
AcDbLine
 62
7
  6
BYLAYER
 10
21.3295550092
 20
18.7315156399
 11
21.3295550092
 21
19.2601152025
  0
LINE
  5
22C
100
AcDbEntity
  8
0
100
AcDbLine
 62
7
  6
BYLAYER
 10
23.1295550092
 20
75.8304398115
 11
23.1295550092
 21
76.0415854295
  0
LINE
  5
22D
100
AcDbEntity
  8
0
100
AcDbLine
 62
7
  6
BYLAYER
 10
24.7795550092
 20
17.0315803707
 11
24.7795550092
 21
17.9315461015
  0
LINE
  5
22E
100
AcDbEntity
  8
0
100
AcDbLine
 62
7
  6
BYLAYER
 10
26.1295550092
 20
8.2319154477
 11
26.1295550092
 21
15.0316565246
  0
LINE
  5
22F
100
AcDbEntity
  8
0
100
AcDbLine
 62
7
  6
BYLAYER
 10
26.7295550092
 20
6.7319725631
 11
26.7295550092
 21
8.2102762556
  0
LINE
  5
230
100
AcDbEntity
  8
0
100
AcDbLine
 62
7
  6
BYLAYER
 10
26.7795550092
 20
16.6920580891
 11
26.7795550092
 21
15.0316565246
  0
LINE
  5
231
100
AcDbEntity
  8
0
100
AcDbLine
 62
7
  6
BYLAYER
 10
47.4295550092
 20
18.7415854295
 11
47.3941966532
 21
18.7769969137
  0
LINE
  5
232
100
AcDbEntity
  8
0
100
AcDbLine
 62
7
  6
BYLAYER
 10
31.4595550092
 20
73.1215854295
 11
31.4595550092
 21
73.2215854295
  0
LINE
  5
233
100
AcDbEntity
  8
0
100
AcDbLine
 62
7
  6
BYLAYER
 10
31.4595550092
 20
74.1615854295
 11
31.4595550092
 21
74.2615854295
  0
LINE
  5
234
100
AcDbEntity
  8
0
100
AcDbLine
 62
7
  6
BYLAYER
 10
31.6595550092
 20
72.4534174178
 11
31.6595550092
 21
73.0215854295
  0
LINE
  5
235
100
AcDbEntity
  8
0
100
AcDbLine
 62
7
  6
BYLAYER
 10
31.6595550092
 20
74.3615854295
 11
31.6595550092
 21
74.9297534412
  0
LINE
  5
236
100
AcDbEntity
  8
0
100
AcDbLine
 62
7
  6
BYLAYER
 10
32.3995550092
 20
74.9297534412
 11
32.3995550092
 21
74.3615854295
  0
LINE
  5
237
100
AcDbEntity
  8
0
100
AcDbLine
 62
7
  6
BYLAYER
 10
32.3995550092
 20
73.0215854295
 11
32.3995550092
 21
72.4534174178
  0
LINE
  5
238
100
AcDbEntity
  8
0
100
AcDbLine
 62
7
  6
BYLAYER
 10
32.5995550092
 20
73.1215854295
 11
32.5995550092
 21
73.2215854295
  0
LINE
  5
239
100
AcDbEntity
  8
0
100
AcDbLine
 62
7
  6
BYLAYER
 10
32.5995550092
 20
74.1615854295
 11
32.5995550092
 21
74.2615854295
  0
LINE
  5
23A
100
AcDbEntity
  8
0
100
AcDbLine
 62
7
  6
BYLAYER
 10
37.2795550092
 20
16.6920426388
 11
37.2795550092
 21
15.0316565246
  0
LINE
  5
23B
100
AcDbEntity
  8
0
100
AcDbLine
 62
7
  6
BYLAYER
 10
37.3295550092
 20
6.7319725631
 11
37.3295550092
 21
8.2100778065
  0
LINE
  5
23C
100
AcDbEntity
  8
0
100
AcDbLine
 62
7
  6
BYLAYER
 10
37.9295550092
 20
8.2319154477
 11
37.9295550092
 21
15.0316565246
  0
LINE
  5
23D
100
AcDbEntity
  8
0
100
AcDbLine
 62
7
  6
BYLAYER
 10
39.2795550092
 20
17.0315803707
 11
39.2795550092
 21
17.9315461015
  0
LINE
  5
23E
100
AcDbEntity
  8
0
100
AcDbLine
 62
7
  6
BYLAYER
 10
16.6649133652
 20
18.7769969137
 11
16.6295550092
 21
18.7415854295
  0
LINE
  5
23F
100
AcDbEntity
  8
0
100
AcDbLine
 62
7
  6
BYLAYER
 10
40.9295550092
 20
76.0415854295
 11
40.9295550092
 21
75.8304398115
  0
LINE
  5
240
100
AcDbEntity
  8
0
100
AcDbLine
 62
7
  6
BYLAYER
 10
42.7295550092
 20
18.7315156399
 11
42.7295550092
 21
19.2601152025
  0
LINE
  5
241
100
AcDbEntity
  8
0
100
AcDbLine
 62
7
  6
BYLAYER
 10
16.6688150708
 20
68.1657846226
 11
16.6945770458
 21
68.1477780332
  0
LINE
  5
242
100
AcDbEntity
  8
0
100
AcDbLine
 62
7
  6
BYLAYER
 10
44.2295550092
 20
21.9415854295
 11
44.2295550092
 21
19.0415854295
  0
LINE
  5
243
100
AcDbEntity
  8
0
100
AcDbLine
 62
7
  6
BYLAYER
 10
44.4295550092
 20
18.7415854295
 11
44.4295550092
 21
21.9415854295
  0
LINE
  5
244
100
AcDbEntity
  8
0
100
AcDbLine
 62
7
  6
BYLAYER
 10
45.1295550092
 20
74.0415854295
 11
45.1295550092
 21
76.0415854295
  0
LINE
  5
245
100
AcDbEntity
  8
0
100
AcDbLine
 62
7
  6
BYLAYER
 10
43.7795397141
 20
19.0415854295
 11
43.7795550092
 21
21.9415854295
  0
LWPOLYLINE
  5
246
100
AcDbEntity
  8
0
100
AcDbPolyline
 62
7
  6
BYLAYER
 90
3
 70
0
 10
47.4291007131
 20
22.7626068425
 10
47.4285975761
 20
40.3987462217
 10
47.4295548415
 20
66.1779825564
  0
LINE
  5
247
100
AcDbEntity
  8
0
100
AcDbLine
 62
7
  6
BYLAYER
 10
47.4291007131
 20
22.7626068425
 11
47.4295548415
 21
66.1779825564
  0
LINE
  5
248
100
AcDbEntity
  8
0
100
AcDbLine
 62
7
  6
BYLAYER
 10
47.4295550092
 20
66.1779825564
 11
47.4295550092
 21
18.7415856578
  0
LINE
  5
249
100
AcDbEntity
  8
0
100
AcDbLine
 62
7
  6
BYLAYER
 10
47.4295550092
 20
68.2017747532
 11
47.4295550092
 21
82.0415854295
  0
LINE
  5
24A
100
AcDbEntity
  8
0
100
AcDbLine
 62
7
  6
BYLAYER
 10
42.8023041914
 20
19.634376066
 11
43.4110358258
 21
21.1409729975
  0
LINE
  5
24B
100
AcDbEntity
  8
0
100
AcDbLine
 62
7
  6
BYLAYER
 10
32.5995550092
 20
73.1215854295
 11
32.9515894404
 21
72.7695509984
  0
LINE
  5
24C
100
AcDbEntity
  8
0
100
AcDbLine
 62
7
  6
BYLAYER
 10
31.4595550092
 20
74.2615854295
 11
31.1305828079
 21
74.5905576309
  0
LINE
  5
24D
100
AcDbEntity
  8
0
100
AcDbLine
 62
7
  6
BYLAYER
 10
25.4670538588
 20
70.327006544
 11
24.5970801901
 21
70.327006544
  0
LINE
  5
24E
100
AcDbEntity
  8
0
100
AcDbLine
 62
7
  6
BYLAYER
 10
31.293333948
 20
73.1203121159
 11
31.4595550092
 21
73.1282108349
  0
LINE
  5
24F
100
AcDbEntity
  8
0
100
AcDbLine
 62
7
  6
BYLAYER
 10
21.0295550092
 20
71.9415854295
 11
22.0295550092
 21
71.9415854295
  0
LINE
  5
250
100
AcDbEntity
  8
0
100
AcDbLine
 62
7
  6
BYLAYER
 10
42.0295550092
 20
71.9415854295
 11
43.0295550092
 21
71.9415854295
  0
LINE
  5
251
100
AcDbEntity
  8
0
100
AcDbLine
 62
7
  6
BYLAYER
 10
32.3995550092
 20
72.7191586404
 11
31.6595550092
 21
72.7191586404
  0
LINE
  5
252
100
AcDbEntity
  8
0
100
AcDbLine
 62
7
  6
BYLAYER
 10
31.4595550092
 20
73.1215854295
 11
31.5595550092
 21
73.1215854295
  0
LINE
  5
253
100
AcDbEntity
  8
0
100
AcDbLine
 62
7
  6
BYLAYER
 10
32.4995550092
 20
73.1215854295
 11
32.5995550092
 21
73.1215854295
  0
LINE
  5
254
100
AcDbEntity
  8
0
100
AcDbLine
 62
7
  6
BYLAYER
 10
29.4516924594
 20
73.1415854295
 11
31.4595550092
 21
73.1415854295
  0
LINE
  5
255
100
AcDbEntity
  8
0
100
AcDbLine
 62
7
  6
BYLAYER
 10
32.5995550092
 20
73.1415854295
 11
34.607417559
 21
73.1415854295
  0
LINE
  5
256
100
AcDbEntity
  8
0
100
AcDbLine
 62
7
  6
BYLAYER
 10
32.7962177573
 20
73.3215854295
 11
32.6995550092
 21
73.3215854295
  0
LINE
  5
257
100
AcDbEntity
  8
0
100
AcDbLine
 62
7
  6
BYLAYER
 10
31.3595550092
 20
73.3215854295
 11
31.2628922612
 21
73.3215854295
  0
LINE
  5
258
100
AcDbEntity
  8
0
100
AcDbLine
 62
7
  6
BYLAYER
 10
32.5995550092
 20
73.1288461379
 11
32.778120325
 21
73.1203608278
  0
LINE
  5
259
100
AcDbEntity
  8
0
100
AcDbLine
 62
7
  6
BYLAYER
 10
32.778120325
 20
74.2628100313
 11
32.5995550092
 21
74.2543247212
  0
LINE
  5
25A
100
AcDbEntity
  8
0
100
AcDbLine
 62
7
  6
BYLAYER
 10
31.2628922612
 20
74.0615854295
 11
31.3595550092
 21
74.0615854295
  0
LINE
  5
25B
100
AcDbEntity
  8
0
100
AcDbLine
 62
7
  6
BYLAYER
 10
32.6995550092
 20
74.0615854295
 11
32.7962177573
 21
74.0615854295
  0
LINE
  5
25C
100
AcDbEntity
  8
0
100
AcDbLine
 62
7
  6
BYLAYER
 10
29.4516924594
 20
74.2415854295
 11
31.4595550092
 21
74.2415854295
  0
LINE
  5
25D
100
AcDbEntity
  8
0
100
AcDbLine
 62
7
  6
BYLAYER
 10
32.5995550092
 20
74.2415854295
 11
34.607417559
 21
74.2415854295
  0
LINE
  5
25E
100
AcDbEntity
  8
0
100
AcDbLine
 62
7
  6
BYLAYER
 10
31.4595550092
 20
74.2615854295
 11
31.5595550092
 21
74.2615854295
  0
LINE
  5
25F
100
AcDbEntity
  8
0
100
AcDbLine
 62
7
  6
BYLAYER
 10
32.4995550092
 20
74.2615854295
 11
32.5995550092
 21
74.2615854295
  0
LINE
  5
260
100
AcDbEntity
  8
0
100
AcDbLine
 62
7
  6
BYLAYER
 10
32.3995550092
 20
74.6640122187
 11
31.6595550092
 21
74.6640122187
  0
LINE
  5
261
100
AcDbEntity
  8
0
100
AcDbLine
 62
7
  6
BYLAYER
 10
31.4595550092
 20
74.2549600242
 11
31.293333948
 21
74.2628587432
  0
ARC
  5
262
100
AcDbEntity
  8
0
100
AcDbCircle
 62
7
  6
BYLAYER
 10
-10309.9569351128
 20
4.4882227528
 40
10326.84772777
100
AcDbArc
 50
0.1002300212
 51
0.353200419
  0
ARC
  5
263
100
AcDbEntity
  8
0
100
AcDbCircle
 62
7
  6
BYLAYER
 10
31.8885447046
 20
-87.5032341437
 40
161.7671879082
100
AcDbArc
 50
90.2108161838
 51
90.7766985264
  0
ARC
  5
264
100
AcDbEntity
  8
0
100
AcDbCircle
 62
7
  6
BYLAYER
 10
32.1724318733
 20
-87.3208134458
 40
161.5847586702
100
AcDbArc
 50
89.2230864446
 51
89.7852305283
  0
ARC
  5
265
100
AcDbEntity
  8
0
100
AcDbCircle
 62
7
  6
BYLAYER
 10
32.0280684811
 20
25.1023866057
 40
45.6948803197
100
AcDbArc
 50
91.6816166279
 51
109.6066307122
  0
ARC
  5
266
100
AcDbEntity
  8
0
100
AcDbCircle
 62
7
  6
BYLAYER
 10
23.4300654417
 20
22.2650475186
 40
3.0005030976
100
AcDbArc
 50
186.1953852683
 51
202.0013645644
  0
ARC
  5
267
100
AcDbEntity
  8
0
100
AcDbCircle
 62
7
  6
BYLAYER
 10
20.3305250862
 20
19.2601237764
 40
0.9990299231
100
AcDbArc
 50
359.9995082795
 51
22.0005581478
  0
ARC
  5
268
100
AcDbEntity
  8
0
100
AcDbCircle
 62
7
  6
BYLAYER
 10
23.9802771682
 20
17.931550381
 40
0.7992747812
100
AcDbArc
 50
359.999693221
 51
42.5314129713
  0
ARC
  5
269
100
AcDbEntity
  8
0
100
AcDbCircle
 62
7
  6
BYLAYER
 10
23.9826435475
 20
17.9339242246
 40
0.7959263735
100
AcDbArc
 50
42.5206407578
 51
68.2690195764
  0
ARC
  5
26A
100
AcDbEntity
  8
0
100
AcDbCircle
 62
7
  6
BYLAYER
 10
25.080359608
 20
17.0316507728
 40
0.3008046071
100
AcDbArc
 50
180.0134098546
 51
222.5419676082
  0
ARC
  5
26B
100
AcDbEntity
  8
0
100
AcDbCircle
 62
7
  6
BYLAYER
 10
18.8915550092
 20
66.8811807653
 40
20.0
100
AcDbArc
 50
9.9280434008
 51
41.3452324994
  0
ARC
  5
26C
100
AcDbEntity
  8
0
100
AcDbCircle
 62
7
  6
BYLAYER
 10
32.0292563899
 20
60.4266154141
 40
14.507849315
100
AcDbArc
 50
89.998820664
 51
91.4602179517
  0
ARC
  5
26D
100
AcDbEntity
  8
0
100
AcDbCircle
 62
7
  6
BYLAYER
 10
26.4844481508
 20
64.8249165964
 40
10.8145416947
100
AcDbArc
 50
61.4529912315
 51
64.5566045043
  0
ARC
  5
26E
100
AcDbEntity
  8
0
100
AcDbCircle
 62
7
  6
BYLAYER
 10
23.3952787698
 20
68.2624218074
 40
10.5658547774
100
AcDbArc
 50
25.2503947052
 51
27.3727309215
  0
ARC
  5
26F
100
AcDbEntity
  8
0
100
AcDbCircle
 62
7
  6
BYLAYER
 10
31.3595550092
 20
73.2215854295
 40
0.1
100
AcDbArc
 50
0.0
 51
90.0
  0
ARC
  5
270
100
AcDbEntity
  8
0
100
AcDbCircle
 62
7
  6
BYLAYER
 10
31.5595550092
 20
73.0215854295
 40
0.1
100
AcDbArc
 50
0.0
 51
90.0
  0
ARC
  5
271
100
AcDbEntity
  8
0
100
AcDbCircle
 62
7
  6
BYLAYER
 10
32.0295550092
 20
23.7515854295
 40
60.29
100
AcDbArc
 50
75.2008106802
 51
104.7991893198
  0
ARC
  5
272
100
AcDbEntity
  8
0
100
AcDbCircle
 62
7
  6
BYLAYER
 10
32.0295550094
 20
25.0622878173
 40
45.7350248884
100
AcDbArc
 50
88.3179960544
 51
91.682003946
  0
ARC
  5
273
100
AcDbEntity
  8
0
100
AcDbCircle
 62
7
  6
BYLAYER
 10
32.0310415348
 20
25.1023865778
 40
45.6948803474
100
AcDbArc
 50
70.3933692808
 51
88.31838337
  0
ARC
  5
274
100
AcDbEntity
  8
0
100
AcDbCircle
 62
7
  6
BYLAYER
 10
32.0295550092
 20
25.3915854295
 40
45.4144701818
100
AcDbArc
 50
81.691533108
 51
91.6924142093
  0
ARC
  5
275
100
AcDbEntity
  8
0
100
AcDbCircle
 62
7
  6
BYLAYER
 10
32.0295550092
 20
25.6915854295
 40
45.25
100
AcDbArc
 50
80.546123416
 51
81.6980657346
  0
ARC
  5
276
100
AcDbEntity
  8
0
100
AcDbCircle
 62
7
  6
BYLAYER
 10
32.0295550092
 20
25.6915854295
 40
45.25
100
AcDbArc
 50
98.3019342654
 51
99.453876584
  0
ARC
  5
277
100
AcDbEntity
  8
0
100
AcDbCircle
 62
7
  6
BYLAYER
 10
32.0295550092
 20
25.6915854295
 40
45.25
100
AcDbArc
 50
99.4567994423
 51
109.897071617
  0
ARC
  5
278
100
AcDbEntity
  8
0
100
AcDbCircle
 62
7
  6
BYLAYER
 10
32.0295550092
 20
25.6915854295
 40
45.25
100
AcDbArc
 50
70.102928383
 51
80.5449246107
  0
ARC
  5
279
100
AcDbEntity
  8
0
100
AcDbCircle
 62
7
  6
BYLAYER
 10
40.6290409587
 20
22.2650486025
 40
3.0005068582
100
AcDbArc
 50
337.998641705
 51
353.8046836663
  0
ARC
  5
27A
100
AcDbEntity
  8
0
100
AcDbCircle
 62
7
  6
BYLAYER
 10
43.728585102
 20
19.2601237434
 40
0.9990300928
100
AcDbArc
 50
157.9994437441
 51
180.0004898286
  0
ARC
  5
27B
100
AcDbEntity
  8
0
100
AcDbCircle
 62
7
  6
BYLAYER
 10
45.1675550092
 20
66.8811807653
 40
20.0
100
AcDbArc
 50
138.6547675006
 51
170.0719565992
  0
ARC
  5
27C
100
AcDbEntity
  8
0
100
AcDbCircle
 62
7
  6
BYLAYER
 10
32.0298511382
 20
60.4264198354
 40
14.5080448936
100
AcDbArc
 50
88.5397918992
 51
90.0011694851
  0
ARC
  5
27D
100
AcDbEntity
  8
0
100
AcDbCircle
 62
7
  6
BYLAYER
 10
37.568237372
 20
64.8365839808
 40
10.8122092433
100
AcDbArc
 50
115.2763533309
 51
118.5362887634
  0
ARC
  5
27E
100
AcDbEntity
  8
0
100
AcDbCircle
 62
7
  6
BYLAYER
 10
40.7637409306
 20
68.2125848038
 40
10.6665081347
100
AcDbArc
 50
152.6060346323
 51
154.5715234641
  0
ARC
  5
27F
100
AcDbEntity
  8
0
100
AcDbCircle
 62
7
  6
BYLAYER
 10
32.0295550092
 20
73.6915854295
 40
3.2
100
AcDbArc
 50
294.7806718178
 51
245.2193281822
  0
CIRCLE
  5
280
100
AcDbEntity
  8
0
100
AcDbCircle
 62
7
  6
BYLAYER
 10
32.0295550092
 20
73.6915854295
 40
2.725
  0
CIRCLE
  5
281
100
AcDbEntity
  8
0
100
AcDbCircle
 62
7
  6
BYLAYER
 10
32.0295550092
 20
73.6915854295
 40
2.723097349
  0
CIRCLE
  5
282
100
AcDbEntity
  8
0
100
AcDbCircle
 62
7
  6
BYLAYER
 10
32.0295550092
 20
73.6915854295
 40
2.6576604467
  0
ARC
  5
283
100
AcDbEntity
  8
0
100
AcDbCircle
 62
7
  6
BYLAYER
 10
32.0295550092
 20
73.6915854295
 40
2.635882267
100
AcDbArc
 50
167.9562346078
 51
192.0437653922
  0
ARC
  5
284
100
AcDbEntity
  8
0
100
AcDbCircle
 62
7
  6
BYLAYER
 10
32.0295550092
 20
73.6915854295
 40
2.635882267
100
AcDbArc
 50
347.9562346078
 51
12.0437653922
  0
ARC
  5
285
100
AcDbEntity
  8
0
100
AcDbCircle
 62
7
  6
BYLAYER
 10
32.0295550092
 20
73.6915854295
 40
2.3995145529
100
AcDbArc
 50
193.4349228262
 51
346.5650771738
  0
ARC
  5
286
100
AcDbEntity
  8
0
100
AcDbCircle
 62
7
  6
BYLAYER
 10
32.0295550092
 20
73.6915854295
 40
2.3995145529
100
AcDbArc
 50
13.4349228262
 51
166.5650771738
  0
ARC
  5
287
100
AcDbEntity
  8
0
100
AcDbCircle
 62
7
  6
BYLAYER
 10
32.0295550092
 20
73.6915854295
 40
0.8512765528
100
AcDbArc
 50
154.2375246411
 51
205.7624753589
  0
ARC
  5
288
100
AcDbEntity
  8
0
100
AcDbCircle
 62
7
  6
BYLAYER
 10
32.0295550092
 20
73.6915854295
 40
0.8512765528
100
AcDbArc
 50
244.2373902193
 51
295.7626025921
  0
ARC
  5
289
100
AcDbEntity
  8
0
100
AcDbCircle
 62
7
  6
BYLAYER
 10
32.0295550092
 20
73.6915854295
 40
0.8512765528
100
AcDbArc
 50
334.2375246411
 51
25.7624753589
  0
ARC
  5
28A
100
AcDbEntity
  8
0
100
AcDbCircle
 62
7
  6
BYLAYER
 10
32.0295550092
 20
73.6915854295
 40
0.8512765528
100
AcDbArc
 50
64.2373902193
 51
115.7626025921
  0
CIRCLE
  5
28B
100
AcDbEntity
  8
0
100
AcDbCircle
 62
7
  6
BYLAYER
 10
32.0295550092
 20
73.6915854295
 40
0.65
  0
ARC
  5
28C
100
AcDbEntity
  8
0
100
AcDbCircle
 62
7
  6
BYLAYER
 10
32.6995550092
 20
73.2215854295
 40
0.1
100
AcDbArc
 50
90.0
 51
180.0
  0
ARC
  5
28D
100
AcDbEntity
  8
0
100
AcDbCircle
 62
7
  6
BYLAYER
 10
32.4995550092
 20
73.0215854295
 40
0.1
100
AcDbArc
 50
90.0
 51
180.0
  0
ARC
  5
28E
100
AcDbEntity
  8
0
100
AcDbCircle
 62
7
  6
BYLAYER
 10
31.888544818
 20
234.8864181638
 40
161.7672010695
100
AcDbArc
 50
269.2233014966
 51
269.7891837932
  0
ARC
  5
28F
100
AcDbEntity
  8
0
100
AcDbCircle
 62
7
  6
BYLAYER
 10
32.172431209
 20
234.7040610627
 40
161.5848354299
100
AcDbArc
 50
270.2147696052
 51
270.7769134218
  0
ARC
  5
290
100
AcDbEntity
  8
0
100
AcDbCircle
 62
7
  6
BYLAYER
 10
35.1440688042
 20
148.0207033383
 40
133.0296559311
100
AcDbArc
 50
270.4554332178
 51
270.9299009668
  0
ARC
  5
291
100
AcDbEntity
  8
0
100
AcDbCircle
 62
7
  6
BYLAYER
 10
32.0294848127
 20
86.9744945995
 40
14.5257884666
100
AcDbArc
 50
268.5406845001
 51
271.4593146554
  0
ARC
  5
292
100
AcDbEntity
  8
0
100
AcDbCircle
 62
7
  6
BYLAYER
 10
26.5372649831
 20
82.4545739304
 40
10.6982266404
100
AcDbArc
 50
295.426519489
 51
298.5638847752
  0
ARC
  5
293
100
AcDbEntity
  8
0
100
AcDbCircle
 62
7
  6
BYLAYER
 10
37.5100987929
 20
82.4320208059
 40
10.6837881998
100
AcDbArc
 50
241.4441133504
 51
244.7432445553
  0
ARC
  5
294
100
AcDbEntity
  8
0
100
AcDbCircle
 62
7
  6
BYLAYER
 10
23.3167606395
 20
79.1595748469
 40
10.6534329095
100
AcDbArc
 50
332.6359935544
 51
334.740880819
  0
ARC
  5
295
100
AcDbEntity
  8
0
100
AcDbCircle
 62
7
  6
BYLAYER
 10
40.6915837808
 20
79.1347493197
 40
10.585953793
100
AcDbArc
 50
205.4209975516
 51
207.401444352
  0
ARC
  5
296
100
AcDbEntity
  8
0
100
AcDbCircle
 62
7
  6
BYLAYER
 10
32.0295550092
 20
78.4415854295
 40
2.5
100
AcDbArc
 50
41.3452324996
 51
138.6547675004
  0
ARC
  5
297
100
AcDbEntity
  8
0
100
AcDbCircle
 62
7
  6
BYLAYER
 10
42.0295550092
 20
74.0415854295
 40
2.1
100
AcDbArc
 50
121.5881355052
 51
270.0
  0
ARC
  5
298
100
AcDbEntity
  8
0
100
AcDbCircle
 62
7
  6
BYLAYER
 10
43.0295550092
 20
74.0415854295
 40
2.1
100
AcDbArc
 50
270.0
 51
360.0
  0
ARC
  5
299
100
AcDbEntity
  8
0
100
AcDbCircle
 62
7
  6
BYLAYER
 10
43.0295550092
 20
76.0415854295
 40
2.1
100
AcDbArc
 50
0.0
 51
180.0
  0
ARC
  5
29A
100
AcDbEntity
  8
0
100
AcDbCircle
 62
7
  6
BYLAYER
 10
22.0295550092
 20
74.0415854295
 40
2.1
100
AcDbArc
 50
270.0
 51
58.4118644948
  0
ARC
  5
29B
100
AcDbEntity
  8
0
100
AcDbCircle
 62
7
  6
BYLAYER
 10
21.0295550092
 20
76.0415854295
 40
2.1
100
AcDbArc
 50
0.0
 51
180.0
  0
ARC
  5
29C
100
AcDbEntity
  8
0
100
AcDbCircle
 62
7
  6
BYLAYER
 10
21.0295550092
 20
74.0415854295
 40
2.1
100
AcDbArc
 50
180.0
 51
270.0
  0
ARC
  5
29D
100
AcDbEntity
  8
0
100
AcDbCircle
 62
7
  6
BYLAYER
 10
32.6995550092
 20
74.1615854295
 40
0.1
100
AcDbArc
 50
180.0
 51
270.0
  0
ARC
  5
29E
100
AcDbEntity
  8
0
100
AcDbCircle
 62
7
  6
BYLAYER
 10
31.3595550092
 20
74.1615854295
 40
0.1
100
AcDbArc
 50
270.0
 51
360.0
  0
ARC
  5
29F
100
AcDbEntity
  8
0
100
AcDbCircle
 62
7
  6
BYLAYER
 10
32.4995550092
 20
74.3615854295
 40
0.1
100
AcDbArc
 50
180.0
 51
270.0
  0
ARC
  5
2A0
100
AcDbEntity
  8
0
100
AcDbCircle
 62
7
  6
BYLAYER
 10
31.5595550092
 20
74.3615854295
 40
0.1
100
AcDbArc
 50
270.0
 51
360.0
  0
ARC
  5
2A1
100
AcDbEntity
  8
0
100
AcDbCircle
 62
7
  6
BYLAYER
 10
10631.8462584872
 20
3.6317586828
 40
10584.6784303614
100
AcDbArc
 50
179.6507668979
 51
179.8975753925
  0
SPLINE
  5
2A2
100
AcDbEntity
  8
0
100
AcDbSpline
 62
7
  6
BYLAYER
 70
0
 71
3
 72
11
 73
7
 74
0
 42
0.0000001
 43
0.0000001
 44
0.0000000001
 40
0.0
 40
0.0
 40
0.0
 40
0.0
 40
0.3297822644
 40
0.613300507
 40
0.8397160326
 40
1.0
 40
1.0
 40
1.0
 40
1.0
 10
29.6957045088
 20
73.1340803344
 30
0.0
 10
29.6688680314
 20
73.1344529789
 30
0.0
 10
29.6189619542
 20
73.135290854
 30
0.0
 10
29.5506407051
 20
73.1369570974
 30
0.0
 10
29.4961314636
 20
73.1389091665
 30
0.0
 10
29.4646966536
 20
73.1405597347
 30
0.0
 10
29.4516924594
 20
73.1415854295
 30
0.0
  0
SPLINE
  5
2A3
100
AcDbEntity
  8
0
100
AcDbSpline
 62
7
  6
BYLAYER
 70
0
 71
3
 72
11
 73
7
 74
0
 42
0.0000001
 43
0.0000001
 44
0.0000000001
 40
0.0
 40
0.0
 40
0.0
 40
0.0
 40
0.1602840039
 40
0.3866996746
 40
0.6702179072
 40
1.0
 40
1.0
 40
1.0
 40
1.0
 10
29.4516924594
 20
74.2415854295
 30
0.0
 10
29.4646966565
 20
74.2426111246
 30
0.0
 10
29.4961314814
 20
74.2442616933
 30
0.0
 10
29.5506407368
 20
74.2462137626
 30
0.0
 10
29.618961983
 20
74.2478800057
 30
0.0
 10
29.6688680454
 20
74.2487178804
 30
0.0
 10
29.6957045088
 20
74.2490905246
 30
0.0
  0
SPLINE
  5
2A4
100
AcDbEntity
  8
0
100
AcDbSpline
 62
7
  6
BYLAYER
 70
0
 71
3
 72
11
 73
7
 74
0
 42
0.0000001
 43
0.0000001
 44
0.0000000001
 40
0.0
 40
0.0
 40
0.0
 40
0.0
 40
0.1602840371
 40
0.3866996374
 40
0.6702178366
 40
1.0
 40
1.0
 40
1.0
 40
1.0
 10
34.607417559
 20
73.1415854295
 30
0.0
 10
34.5944133592
 20
73.1405597343
 30
0.0
 10
34.5629785374
 20
73.1389091658
 30
0.0
 10
34.5084692877
 20
73.1369570967
 30
0.0
 10
34.4401480442
 20
73.1352908536
 30
0.0
 10
34.3902419788
 20
73.1344529788
 30
0.0
 10
34.3634055097
 20
73.1340803344
 30
0.0
  0
SPLINE
  5
2A5
100
AcDbEntity
  8
0
100
AcDbSpline
 62
7
  6
BYLAYER
 70
0
 71
3
 72
11
 73
7
 74
0
 42
0.0000001
 43
0.0000001
 44
0.0000000001
 40
0.0
 40
0.0
 40
0.0
 40
0.0
 40
0.3297821937
 40
0.6133004695
 40
0.8397160657
 40
1.0
 40
1.0
 40
1.0
 40
1.0
 10
34.3634055097
 20
74.2490905246
 30
0.0
 10
34.3902419813
 20
74.2487178803
 30
0.0
 10
34.4401480554
 20
74.2478800053
 30
0.0
 10
34.5084693073
 20
74.2462137618
 30
0.0
 10
34.5629785545
 20
74.2442616926
 30
0.0
 10
34.5944133676
 20
74.2426111241
 30
0.0
 10
34.607417559
 20
74.2415854295
 30
0.0
  0
SPLINE
  5
2A6
100
AcDbEntity
  8
0
100
AcDbSpline
 62
7
  6
BYLAYER
 70
0
 71
3
 72
39
 73
35
 74
0
 42
0.0000001
 43
0.0000001
 44
0.0000000001
 40
0.0
 40
0.0
 40
0.0
 40
0.0
 40
0.1380625131
 40
0.2168457421
 40
0.2998998893
 40
0.3854278059
 40
0.4715778518
 40
0.5564849668
 40
0.6383114029
 40
0.7152862106
 40
0.7514282183
 40
0.7857433789
 40
0.8180445408
 40
0.8481579403
 40
0.8759192092
 40
0.9011791801
 40
0.9237999004
 40
0.943660004
 40
0.95252057
 40
0.9606510598
 40
0.9680414793
 40
0.9746821947
 40
0.9805635955
 40
0.9856771333
 40
0.9900170553
 40
0.9935781697
 40
0.9950651227
 40
0.9963555554
 40
0.9974490887
 40
0.9983458005
 40
0.9990460541
 40
0.9995508044
 40
0.9998630771
 40
1.0
 40
1.0
 40
1.0
 40
1.0
 10
35.7772209495
 20
6.6992684233
 30
0.0
 10
35.3608050712
 20
6.6956345553
 30
0.0
 10
34.7067526478
 20
6.6916778869
 30
0.0
 10
33.8021848384
 20
6.6882080051
 30
0.0
 10
33.0560698479
 20
6.6864303533
 30
0.0
 10
32.2877331201
 20
6.6856113774
 30
0.0
 10
31.5138069198
 20
6.6857757053
 30
0.0
 10
30.751046162
 20
6.6869178054
 30
0.0
 10
30.0159623814
 20
6.6890123253
 30
0.0
 10
29.4279690745
 20
6.6915596363
 30
0.0
 10
28.983283706
 20
6.6940741788
 30
0.0
 10
28.6733451076
 20
6.6961232693
 30
0.0
 10
28.3815921497
 20
6.6983638716
 30
0.0
 10
28.1096095375
 20
6.7007828123
 30
0.0
 10
27.8588674908
 20
6.7033666795
 30
0.0
 10
27.6307282885
 20
6.7060994079
 30
0.0
 10
27.4264247295
 20
6.7089654528
 30
0.0
 10
27.2715870791
 20
6.7115362188
 30
0.0
 10
27.1604551838
 20
6.7136790731
 30
0.0
 10
27.0869311172
 20
6.7152481589
 30
0.0
 10
27.0201048405
 20
6.7168379613
 30
0.0
 10
26.9600649547
 20
6.7184457246
 30
0.0
 10
26.9068959754
 20
6.7200684858
 30
0.0
 10
26.8606706241
 20
6.721702466
 30
0.0
 10
26.8214497161
 20
6.7233438134
 30
0.0
 10
26.7931682265
 20
6.7247831321
 30
0.0
 10
26.7740875791
 20
6.7259695522
 30
0.0
 10
26.7624387761
 20
6.7268064938
 30
0.0
 10
26.7525865542
 20
6.7276363015
 30
0.0
 10
26.7444901022
 20
6.7284763833
 30
0.0
 10
26.7382623483
 20
6.7292679902
 30
0.0
 10
26.7336167427
 20
6.7301307537
 30
0.0
 10
26.731087518
 20
6.7307649818
 30
0.0
 10
26.7295620147
 20
6.7315595706
 30
0.0
 10
26.7295607502
 20
6.7319725632
 30
0.0
  0
SPLINE
  5
2A7
100
AcDbEntity
  8
0
100
AcDbSpline
 62
7
  6
BYLAYER
 70
0
 71
3
 72
16
 73
12
 74
0
 42
0.0000001
 43
0.0000001
 44
0.0000000001
 40
0.0
 40
0.0
 40
0.0
 40
0.0
 40
0.1166912475
 40
0.2517940756
 40
0.3975795076
 40
0.5457018934
 40
0.6876814676
 40
0.8153921615
 40
0.9215228036
 40
0.9645391755
 40
1.0
 40
1.0
 40
1.0
 40
1.0
 10
36.2014850182
 20
8.1955089524
 30
0.0
 10
35.8313382501
 20
8.1922788535
 30
0.0
 10
35.0326276377
 20
8.1870563368
 30
0.0
 10
33.7714584615
 20
8.1822251788
 30
0.0
 10
32.4105776542
 20
8.1800580591
 30
0.0
 10
31.0278814917
 20
8.1806937392
 30
0.0
 10
29.7025247399
 20
8.1840833918
 30
0.0
 10
28.5103824176
 20
8.1900240856
 30
0.0
 10
27.6321766257
 20
8.1970838401
 30
0.0
 10
27.0466166212
 20
8.2041255994
 30
0.0
 10
26.7977051691
 20
8.2080038919
 30
0.0
 10
26.6852380777
 20
8.2101023065
 30
0.0
  0
SPLINE
  5
2A8
100
AcDbEntity
  8
0
100
AcDbSpline
 62
7
  6
BYLAYER
 70
0
 71
3
 72
22
 73
18
 74
0
 42
0.0000001
 43
0.0000001
 44
0.0000000001
 40
0.0
 40
0.0
 40
0.0
 40
0.0
 40
0.2311015429
 40
0.432814032
 40
0.6045412686
 40
0.6790075958
 40
0.7457953093
 40
0.8048477031
 40
0.8561281929
 40
0.8996087726
 40
0.9352634433
 40
0.9630704658
 40
0.9830204511
 40
0.9900613003
 40
0.9951678099
 40
0.9983944315
 40
1.0
 40
1.0
 40
1.0
 40
1.0
 10
26.6852380777
 20
8.2101023065
 30
0.0
 10
26.6423561657
 20
8.2109023986
 30
0.0
 10
26.5620473542
 20
8.212498944
 30
0.0
 10
26.4498825805
 20
8.2151047505
 30
0.0
 10
26.3667884501
 20
8.2174025966
 30
0.0
 10
26.3087340973
 20
8.2192973325
 30
0.0
 10
26.2715846043
 20
8.2206574584
 30
0.0
 10
26.2387417492
 20
8.222023261
 30
0.0
 10
26.2102281534
 20
8.223392793
 30
0.0
 10
26.1860644687
 20
8.2247618752
 30
0.0
 10
26.16625987
 20
8.2261276886
 30
0.0
 10
26.1508471791
 20
8.2274742476
 30
0.0
 10
26.140725573
 20
8.2286827313
 30
0.0
 10
26.1348778045
 20
8.2296818793
 30
0.0
 10
26.1320633436
 20
8.2303949257
 30
0.0
 10
26.1303960824
 20
8.2309375208
 30
0.0
 10
26.1295632543
 20
8.2316174756
 30
0.0
 10
26.1295632075
 20
8.2319154477
 30
0.0
  0
SPLINE
  5
2A9
100
AcDbEntity
  8
0
100
AcDbSpline
 62
7
  6
BYLAYER
 70
0
 71
3
 72
22
 73
18
 74
0
 42
0.0000001
 43
0.0000001
 44
0.0000000001
 40
0.0
 40
0.0
 40
0.0
 40
0.0
 40
0.0015693098
 40
0.0047815782
 40
0.0098835496
 40
0.0169260631
 40
0.0368930093
 40
0.0647285338
 40
0.1004199531
 40
0.1439436811
 40
0.1952721908
 40
0.2543755494
 40
0.3212082628
 40
0.3957087212
 40
0.5674616025
 40
0.7691145454
 40
1.0
 40
1.0
 40
1.0
 40
1.0
 10
37.9295468772
 20
15.0316565246
 30
0.0
 10
37.9295468533
 20
15.0319713979
 30
0.0
 10
37.9286295384
 20
15.0326793086
 30
0.0
 10
37.9268407827
 20
15.0332381424
 30
0.0
 10
37.9237890836
 20
15.0339815762
 30
0.0
 10
37.9174606807
 20
15.0350198431
 30
0.0
 10
37.906500378
 20
15.0362777028
 30
0.0
 10
37.8898171252
 20
15.03767781
 30
0.0
 10
37.8683796568
 20
15.0390981937
 30
0.0
 10
37.8422267521
 20
15.0405213355
 30
0.0
 10
37.8113683845
 20
15.041944486
 30
0.0
 10
37.7758295427
 20
15.0433630071
 30
0.0
 10
37.7356376751
 20
15.0447750134
 30
0.0
 10
37.6728493557
 20
15.0467406799
 30
0.0
 10
37.5830105011
 20
15.0491219981
 30
0.0
 10
37.461792561
 20
15.0518180579
 30
0.0
 10
37.3750216514
 20
15.0534675762
 30
0.0
 10
37.3287031209
 20
15.0542933306
 30
0.0
  0
SPLINE
  5
2AA
100
AcDbEntity
  8
0
100
AcDbSpline
 62
7
  6
BYLAYER
 70
0
 71
3
 72
23
 73
19
 74
0
 42
0.0000001
 43
0.0000001
 44
0.0000000001
 40
0.0
 40
0.0
 40
0.0
 40
0.0
 40
0.2307611536
 40
0.432383564
 40
0.6041511406
 40
0.6786688908
 40
0.7455243828
 40
0.8046546472
 40
0.8560096997
 40
0.8995578067
 40
0.9352702829
 40
0.9631222237
 40
0.9740955193
 40
0.9831004742
 40
0.9901442663
 40
0.9952442213
 40
0.9984493343
 40
1.0
 40
1.0
 40
1.0
 40
1.0
 10
26.7560868199
 20
15.054745522
 30
0.0
 10
26.7078176177
 20
15.0539059108
 30
0.0
 10
26.6173760184
 20
15.0522276803
 30
0.0
 10
26.4910138679
 20
15.0494824974
 30
0.0
 10
26.3973400658
 20
15.0470555574
 30
0.0
 10
26.3318598318
 20
15.0450509718
 30
0.0
 10
26.2899380365
 20
15.0436104622
 30
0.0
 10
26.2528653774
 20
15.0421629073
 30
0.0
 10
26.2206734321
 20
15.0407103194
 30
0.0
 10
26.1933856173
 20
15.0392571236
 30
0.0
 10
26.1710249007
 20
15.0378073241
 30
0.0
 10
26.1554788438
 20
15.036530145
 30
0.0
 10
26.1455328726
 20
15.0354691657
 30
0.0
 10
26.139917784
 20
15.0347297416
 30
0.0
 10
26.1355736578
 20
15.034032141
 30
0.0
 10
26.1323861506
 20
15.0332719513
 30
0.0
 10
26.1305289452
 20
15.0327039685
 30
0.0
 10
26.1295631167
 20
15.0319809324
 30
0.0
 10
26.1295631413
 20
15.0316565246
 30
0.0
  0
SPLINE
  5
2AB
100
AcDbEntity
  8
0
100
AcDbSpline
 62
7
  6
BYLAYER
 70
0
 71
3
 72
22
 73
18
 74
0
 42
0.0000001
 43
0.0000001
 44
0.0000000001
 40
0.0
 40
0.0
 40
0.0
 40
0.0
 40
0.0015981217
 40
0.0048215098
 40
0.0099267838
 40
0.0169677445
 40
0.0369210994
 40
0.0647334019
 40
0.1003944429
 40
0.1438822578
 40
0.1951706869
 40
0.2542315195
 40
0.3210259057
 40
0.3954964184
 40
0.567226296
 40
0.7689337498
 40
1.0
 40
1.0
 40
1.0
 40
1.0
 10
37.929546811
 20
8.2319154477
 30
0.0
 10
37.9295468583
 20
8.2316143298
 30
0.0
 10
37.9286984002
 20
8.2309288651
 30
0.0
 10
37.9270083164
 20
8.2303832875
 30
0.0
 10
37.9241494603
 20
8.2296643849
 30
0.0
 10
37.918211326
 20
8.2286577962
 30
0.0
 10
37.9079320682
 20
8.2274398921
 30
0.0
 10
37.8922805757
 20
8.2260831011
 30
0.0
 10
37.8721692843
 20
8.2247068523
 30
0.0
 10
37.8476320863
 20
8.2233274333
 30
0.0
 10
37.8186782276
 20
8.2219476453
 30
0.0
 10
37.7853292013
 20
8.2205717682
 30
0.0
 10
37.747608546
 20
8.2192017125
 30
0.0
 10
37.6886648864
 20
8.2172933699
 30
0.0
 10
37.604301374
 20
8.2149794597
 30
0.0
 10
37.4904308632
 20
8.2123563251
 30
0.0
 10
37.4089033683
 20
8.2107495275
 30
0.0
 10
37.3653733315
 20
8.2099444495
 30
0.0
  0
SPLINE
  5
2AC
100
AcDbEntity
  8
0
100
AcDbSpline
 62
7
  6
BYLAYER
 70
0
 71
3
 72
9
 73
5
 74
0
 42
0.0000001
 43
0.0000001
 44
0.0000000001
 40
0.0
 40
0.0
 40
0.0
 40
0.0
 40
0.438636126
 40
1.0
 40
1.0
 40
1.0
 40
1.0
 10
37.3653733315
 20
8.2099444495
 30
0.0
 10
37.1952144083
 20
8.2067973993
 30
0.0
 10
36.8072566967
 20
8.2013091947
 30
0.0
 10
36.4192823326
 20
8.1974095684
 30
0.0
 10
36.2014850182
 20
8.1955089524
 30
0.0
  0
SPLINE
  5
2AD
100
AcDbEntity
  8
0
100
AcDbSpline
 62
7
  6
BYLAYER
 70
0
 71
3
 72
28
 73
24
 74
0
 42
0.0000001
 43
0.0000001
 44
0.0000000001
 40
0.0
 40
0.0
 40
0.0
 40
0.0
 40
0.0004460087
 40
0.0012980643
 40
0.0044656577
 40
0.0096541736
 40
0.0168771812
 40
0.026135528
 40
0.037426545
 40
0.0507462
 40
0.0660897251
 40
0.0834488724
 40
0.102811433
 40
0.1474964436
 40
0.200043515
 40
0.2603342525
 40
0.328210376
 40
0.4035075591
 40
0.4860530057
 40
0.5756503331
 40
0.6720989901
 40
0.7751757264
 40
1.0
 40
1.0
 40
1.0
 40
1.0
 10
37.3295492683
 20
6.7319725631
 30
0.0
 10
37.3295499754
 20
6.731741622
 30
0.0
 10
37.3289774532
 20
6.7311965924
 30
0.0
 10
37.3268733202
 20
6.7304264502
 30
0.0
 10
37.3221174399
 20
6.7294367273
 30
0.0
 10
37.3141616658
 20
6.7284008327
 30
0.0
 10
37.3029737651
 20
6.7273002231
 30
0.0
 10
37.2886424084
 20
6.7262022501
 30
0.0
 10
37.2711370389
 20
6.7250938356
 30
0.0
 10
37.2504792237
 20
6.7239866422
 30
0.0
 10
37.2266741975
 20
6.7228805354
 30
0.0
 10
37.1997375
 20
6.7217779307
 30
0.0
 10
37.1576132495
 20
6.7202393208
 30
0.0
 10
37.0972694258
 20
6.7183687392
 30
0.0
 10
37.0157320866
 20
6.7162397629
 30
0.0
 10
36.9221821842
 20
6.7141432148
 30
0.0
 10
36.8168490227
 20
6.7120843263
 30
0.0
 10
36.6999896911
 20
6.7100700724
 30
0.0
 10
36.5718808875
 20
6.7081063622
 30
0.0
 10
36.4328179633
 20
6.7061979002
 30
0.0
 10
36.283122311
 20
6.7043496619
 30
0.0
 10
36.0634087198
 20
6.7019014268
 30
0.0
 10
35.8936299618
 20
6.7002842706
 30
0.0
 10
35.7772209495
 20
6.6992684233
 30
0.0
  0
SPLINE
  5
2AE
100
AcDbEntity
  8
0
100
AcDbSpline
 62
7
  6
BYLAYER
 70
0
 71
3
 72
28
 73
24
 74
0
 42
0.0000001
 43
0.0000001
 44
0.0000000001
 40
0.0
 40
0.0
 40
0.0
 40
0.0
 40
0.0004460088
 40
0.0012980631
 40
0.0044656502
 40
0.0096541631
 40
0.0168771708
 40
0.026135519
 40
0.0374265372
 40
0.0507461911
 40
0.0660897122
 40
0.0834488576
 40
0.1028114188
 40
0.1474964341
 40
0.200043508
 40
0.2603342576
 40
0.3282104027
 40
0.4035076043
 40
0.4860530671
 40
0.5756504001
 40
0.6720990339
 40
0.7751757377
 40
1.0
 40
1.0
 40
1.0
 40
1.0
 10
37.2795493234
 20
15.0316565245
 30
0.0
 10
37.2795500234
 20
15.0314277621
 30
0.0
 10
37.2789829034
 20
15.030887875
 30
0.0
 10
37.2768986245
 20
15.0301249973
 30
0.0
 10
37.2721876169
 20
15.0291446112
 30
0.0
 10
37.2643069019
 20
15.0281184897
 30
0.0
 10
37.2532245482
 20
15.0270282636
 30
0.0
 10
37.2390283916
 20
15.025940649
 30
0.0
 10
37.2216881663
 20
15.0248426914
 30
0.0
 10
37.2012252381
 20
15.0237459433
 30
0.0
 10
37.1776447912
 20
15.0226502713
 30
0.0
 10
37.1509622162
 20
15.0215580685
 30
0.0
 10
37.1092353625
 20
15.0200339737
 30
0.0
 10
37.049460816
 20
15.0181810391
 30
0.0
 10
36.9686926871
 20
15.0160721469
 30
0.0
 10
36.8760253123
 20
15.0139953772
 30
0.0
 10
36.7716858331
 20
15.011955912
 30
0.0
 10
36.6559289191
 20
15.0099606599
 30
0.0
 10
36.5290286682
 20
15.0080154752
 30
0.0
 10
36.3912776589
 20
15.0061250178
 30
0.0
 10
36.2429942553
 20
15.0042942159
 30
0.0
 10
36.025353468
 20
15.0018690776
 30
0.0
 10
35.8571764188
 20
15.0002671782
 30
0.0
 10
35.7418656104
 20
14.9992609143
 30
0.0
  0
SPLINE
  5
2AF
100
AcDbEntity
  8
0
100
AcDbSpline
 62
7
  6
BYLAYER
 70
0
 71
3
 72
23
 73
19
 74
0
 42
0.0000001
 43
0.0000001
 44
0.0000000001
 40
0.0
 40
0.0
 40
0.0
 40
0.0
 40
0.2307611536
 40
0.432383564
 40
0.6041511406
 40
0.6786688908
 40
0.7455243828
 40
0.8046546472
 40
0.8560096997
 40
0.8995578067
 40
0.9352702829
 40
0.9631222237
 40
0.9740955193
 40
0.9831004742
 40
0.9901442663
 40
0.9952442213
 40
0.9984493343
 40
1.0
 40
1.0
 40
1.0
 40
1.0
 10
37.3030231986
 20
15.0085675271
 30
0.0
 10
37.3512924007
 20
15.0094071384
 30
0.0
 10
37.441734
 20
15.0110853688
 30
0.0
 10
37.5680961506
 20
15.0138305517
 30
0.0
 10
37.6617699526
 20
15.0162574918
 30
0.0
 10
37.7272501866
 20
15.0182620774
 30
0.0
 10
37.7691719819
 20
15.0197025869
 30
0.0
 10
37.8062446411
 20
15.0211501418
 30
0.0
 10
37.8384365863
 20
15.0226027297
 30
0.0
 10
37.8657244011
 20
15.0240559255
 30
0.0
 10
37.8880851177
 20
15.025505725
 30
0.0
 10
37.9036311746
 20
15.0267829042
 30
0.0
 10
37.9135771458
 20
15.0278438834
 30
0.0
 10
37.9191922344
 20
15.0285833075
 30
0.0
 10
37.9235363607
 20
15.0292809081
 30
0.0
 10
37.9267238679
 20
15.0300410979
 30
0.0
 10
37.9285810733
 20
15.0306090806
 30
0.0
 10
37.9295469017
 20
15.0313321168
 30
0.0
 10
37.9295468772
 20
15.0316565246
 30
0.0
  0
SPLINE
  5
2B0
100
AcDbEntity
  8
0
100
AcDbSpline
 62
7
  6
BYLAYER
 70
0
 71
3
 72
39
 73
35
 74
0
 42
0.0000001
 43
0.0000001
 44
0.0000000001
 40
0.0
 40
0.0
 40
0.0
 40
0.0
 40
0.1380624719
 40
0.2168456989
 40
0.299899834
 40
0.3854277284
 40
0.4715777598
 40
0.5564848777
 40
0.6383113293
 40
0.7152861487
 40
0.7514281611
 40
0.7857433283
 40
0.8180444968
 40
0.8481579048
 40
0.8759191811
 40
0.9011791595
 40
0.9237998866
 40
0.9436599958
 40
0.9525205652
 40
0.9606510573
 40
0.9680414782
 40
0.974682195
 40
0.9805635982
 40
0.9856771368
 40
0.9900170577
 40
0.993578171
 40
0.995065124
 40
0.9963555573
 40
0.997449091
 40
0.9983458026
 40
0.9990460557
 40
0.9995508053
 40
0.9998630774
 40
1.0
 40
1.0
 40
1.0
 40
1.0
 10
35.7418656104
 20
14.9992609143
 30
0.0
 10
35.3293783068
 20
14.9956613292
 30
0.0
 10
34.6814963182
 20
14.9917419882
 30
0.0
 10
33.7854623323
 20
14.9883048409
 30
0.0
 10
33.0463862707
 20
14.9865439592
 30
0.0
 10
32.2852981481
 20
14.9857327087
 30
0.0
 10
31.5186732394
 20
14.9858954854
 30
0.0
 10
30.7631083259
 20
14.9870268099
 30
0.0
 10
30.0349592081
 20
14.9891015696
 30
0.0
 10
29.4525129126
 20
14.9916248487
 30
0.0
 10
29.0120226204
 20
14.9941156692
 30
0.0
 10
28.7050079174
 20
14.9961454282
 30
0.0
 10
28.4160072811
 20
14.9983648931
 30
0.0
 10
28.146590475
 20
15.0007610135
 30
0.0
 10
27.8982138492
 20
15.0033205051
 30
0.0
 10
27.6722268382
 20
15.0060274533
 30
0.0
 10
27.4698506119
 20
15.0088664604
 30
0.0
 10
27.3164736471
 20
15.0114129747
 30
0.0
 10
27.206390132
 20
15.0135356136
 30
0.0
 10
27.1335596674
 20
15.0150898971
 30
0.0
 10
27.0673638121
 20
15.0166647018
 30
0.0
 10
27.0078903251
 20
15.0182572982
 30
0.0
 10
26.9552229263
 20
15.0198647502
 30
0.0
 10
26.9094336567
 20
15.0214833155
 30
0.0
 10
26.8705827613
 20
15.023109179
 30
0.0
 10
26.8425680847
 20
15.0245349194
 30
0.0
 10
26.8236674451
 20
15.0257101469
 30
0.0
 10
26.8121285334
 20
15.0265391925
 30
0.0
 10
26.8023692542
 20
15.0273611715
 30
0.0
 10
26.7943491848
 20
15.028193328
 30
0.0
 10
26.7881801872
 20
15.0289774665
 30
0.0
 10
26.7835784142
 20
15.0298320914
 30
0.0
 10
26.781073054
 20
15.0304603348
 30
0.0
 10
26.7795619468
 20
15.0312474291
 30
0.0
 10
26.779560695
 20
15.0316565246
 30
0.0
  0
SPLINE
  5
2B1
100
AcDbEntity
  8
0
100
AcDbSpline
 62
7
  6
BYLAYER
 70
0
 71
3
 72
22
 73
18
 74
0
 42
0.0000001
 43
0.0000001
 44
0.0000000001
 40
0.0
 40
0.0
 40
0.0
 40
0.0
 40
0.0015693098
 40
0.0047815782
 40
0.0098835496
 40
0.0169260631
 40
0.0368930093
 40
0.0647285338
 40
0.1004199531
 40
0.1439436811
 40
0.1952721908
 40
0.2543755494
 40
0.3212082628
 40
0.3957087212
 40
0.5674616025
 40
0.7691145454
 40
1.0
 40
1.0
 40
1.0
 40
1.0
 10
26.1295631413
 20
15.0316565246
 30
0.0
 10
26.1295631651
 20
15.0313416512
 30
0.0
 10
26.13048048
 20
15.0306337406
 30
0.0
 10
26.1322692357
 20
15.0300749068
 30
0.0
 10
26.1353209348
 20
15.0293314729
 30
0.0
 10
26.1416493377
 20
15.028293206
 30
0.0
 10
26.1526096404
 20
15.0270353464
 30
0.0
 10
26.1692928933
 20
15.0256352391
 30
0.0
 10
26.1907303617
 20
15.0242148554
 30
0.0
 10
26.2168832663
 20
15.0227917136
 30
0.0
 10
26.2477416339
 20
15.0213685631
 30
0.0
 10
26.2832804757
 20
15.019950042
 30
0.0
 10
26.3234723434
 20
15.0185380357
 30
0.0
 10
26.3862606627
 20
15.0165723692
 30
0.0
 10
26.4760995173
 20
15.0141910511
 30
0.0
 10
26.5973174574
 20
15.0114949913
 30
0.0
 10
26.6840883671
 20
15.0098454729
 30
0.0
 10
26.7304068975
 20
15.0090197185
 30
0.0
  0
SPLINE
  5
2B2
100
AcDbEntity
  8
0
100
AcDbSpline
 62
7
  6
BYLAYER
 70
0
 71
3
 72
16
 73
12
 74
0
 42
0.0000001
 43
0.0000001
 44
0.0000000001
 40
0.0
 40
0.0
 40
0.0
 40
0.0
 40
0.0364125809
 40
0.0801989253
 40
0.1873301064
 40
0.315375708
 40
0.4571396105
 40
0.6046563246
 40
0.7496360697
 40
0.8839313511
 40
1.0
 40
1.0
 40
1.0
 40
1.0
 10
26.7304068975
 20
15.0090197185
 30
0.0
 10
26.8453460759
 20
15.0069706135
 30
0.0
 10
27.0985130095
 20
15.0031737455
 30
0.0
 10
27.6898897172
 20
14.9962901986
 30
0.0
 10
28.570574499
 20
14.9893929731
 30
0.0
 10
29.7605934643
 20
14.9836218199
 30
0.0
 10
31.0781230396
 20
14.9803703226
 30
0.0
 10
32.4491186503
 20
14.9798303601
 30
0.0
 10
33.7965337241
 20
14.9820426603
 30
0.0
 10
35.0446570658
 20
14.9868683649
 30
0.0
 10
35.8350609234
 20
14.9920524164
 30
0.0
 10
36.2014850182
 20
14.9952500292
 30
0.0
  0
SPLINE
  5
2B3
100
AcDbEntity
  8
0
100
AcDbSpline
 62
7
  6
BYLAYER
 70
0
 71
3
 72
28
 73
24
 74
0
 42
0.0000001
 43
0.0000001
 44
0.0000000001
 40
0.0
 40
0.0
 40
0.0
 40
0.0
 40
0.0004656857
 40
0.0013251443
 40
0.004485474
 40
0.0096453224
 40
0.0168229683
 40
0.0260224669
 40
0.0372438759
 40
0.0504852082
 40
0.0657396751
 40
0.0829980805
 40
0.102250987
 40
0.1467018414
 40
0.1990110013
 40
0.2590648594
 40
0.3267336759
 40
0.4018852219
 40
0.4843599209
 40
0.5739793972
 40
0.6705637536
 40
0.773910826
 40
1.0
 40
1.0
 40
1.0
 40
1.0
 10
42.7295490545
 20
18.7315156399
 30
0.0
 10
42.7295490403
 20
18.7310898407
 30
0.0
 10
42.7285737244
 20
18.7300742663
 30
0.0
 10
42.7248507299
 20
18.7286005464
 30
0.0
 10
42.7165236483
 20
18.7267533078
 30
0.0
 10
42.7025534201
 20
18.7247915002
 30
0.0
 10
42.6829378757
 20
18.7227235861
 30
0.0
 10
42.6577983039
 20
18.7206538597
 30
0.0
 10
42.6270853407
 20
18.7185662319
 30
0.0
 10
42.5908308874
 20
18.7164794097
 30
0.0
 10
42.549046844
 20
18.7143935248
 30
0.0
 10
42.5017605532
 20
18.7123125458
 30
0.0
 10
42.4277896768
 20
18.7094062265
 30
0.0
 10
42.3217715915
 20
18.7058679937
 30
0.0
 10
42.1784453172
 20
18.7018343525
 30
0.0
 10
42.0138812324
 20
18.6978514792
 30
0.0
 10
41.8284246347
 20
18.693929409
 30
0.0
 10
41.6224621046
 20
18.690080501
 30
0.0
 10
41.3964244791
 20
18.6863136128
 30
0.0
 10
41.1507859354
 20
18.6826373097
 30
0.0
 10
40.8860594259
 20
18.679060641
 30
0.0
 10
40.4965570275
 20
18.67429129
 30
0.0
 10
40.1953537815
 20
18.6711160466
 30
0.0
 10
39.9886391144
 20
18.669108495
 30
0.0
  0
SPLINE
  5
2B4
100
AcDbEntity
  8
0
100
AcDbSpline
 62
7
  6
BYLAYER
 70
0
 71
3
 72
10
 73
6
 74
0
 42
0.0000001
 43
0.0000001
 44
0.0000000001
 40
0.0
 40
0.0
 40
0.0
 40
0.0
 40
0.208952722
 40
0.4525582421
 40
1.0
 40
1.0
 40
1.0
 40
1.0
 10
39.9886391144
 20
18.669108495
 30
0.0
 10
39.4343019947
 20
18.6637249371
 30
0.0
 10
38.2336712715
 20
18.6546384722
 30
0.0
 10
35.5806457151
 20
18.6416425779
 30
0.0
 10
33.4819486181
 20
18.6381417101
 30
0.0
 10
32.0295550092
 20
18.6381417101
 30
0.0
  0
SPLINE
  5
2B5
100
AcDbEntity
  8
0
100
AcDbSpline
 62
7
  6
BYLAYER
 70
0
 71
3
 72
10
 73
6
 74
0
 42
0.0000001
 43
0.0000001
 44
0.0000000001
 40
0.0
 40
0.0
 40
0.0
 40
0.0
 40
0.5473855522
 40
0.7909992195
 40
1.0
 40
1.0
 40
1.0
 40
1.0
 10
32.0295550092
 20
18.6381417101
 30
0.0
 10
30.5778995574
 20
18.6381417101
 30
0.0
 10
28.4801811634
 20
18.6416394607
 30
0.0
 10
25.8282316543
 20
18.6546220991
 30
0.0
 10
24.6279388195
 20
18.6636994242
 30
0.0
 10
24.0736990513
 20
18.6690771538
 30
0.0
  0
SPLINE
  5
2B6
100
AcDbEntity
  8
0
100
AcDbSpline
 62
7
  6
BYLAYER
 70
0
 71
3
 72
28
 73
24
 74
0
 42
0.0000001
 43
0.0000001
 44
0.0000000001
 40
0.0
 40
0.0
 40
0.0
 40
0.0
 40
0.226079435
 40
0.3294240556
 40
0.4260071498
 40
0.5156264433
 40
0.5981017739
 40
0.6732544846
 40
0.7409249508
 40
0.800980725
 40
0.853291791
 40
0.8977445298
 40
0.9169983376
 40
0.9342575787
 40
0.9495127865
 40
0.9627547389
 40
0.9739766842
 40
0.9831766409
 40
0.9903546441
 40
0.995514722
 40
0.9986751111
 40
0.9995345
 40
1.0
 40
1.0
 40
1.0
 40
1.0
 10
24.0736990513
 20
18.6690771538
 30
0.0
 10
23.8667500015
 20
18.6710851585
 30
0.0
 10
23.5652034035
 20
18.6742612757
 30
0.0
 10
23.1752548715
 20
18.6790322349
 30
0.0
 10
22.9102203381
 20
18.682610296
 30
0.0
 10
22.6642934089
 20
18.6862881655
 30
0.0
 10
22.4379882405
 20
18.6900567837
 30
0.0
 10
22.2317801114
 20
18.693907584
 30
0.0
 10
22.0461008662
 20
18.6978316798
 30
0.0
 10
21.8813380361
 20
18.7018166946
 30
0.0
 10
21.7378377872
 20
18.7058525965
 30
0.0
 10
21.631690563
 20
18.7093928625
 30
0.0
 10
21.5576292461
 20
18.7123008811
 30
0.0
 10
21.510284981
 20
18.7143830923
 30
0.0
 10
21.4684496883
 20
18.7164702225
 30
0.0
 10
21.4321507617
 20
18.7185583036
 30
0.0
 10
21.4014000852
 20
18.7206472052
 30
0.0
 10
21.3762296076
 20
18.7227181738
 30
0.0
 10
21.3565898509
 20
18.7247873944
 30
0.0
 10
21.342602533
 20
18.7267502902
 30
0.0
 10
21.3342650585
 20
18.7285988168
 30
0.0
 10
21.3305377277
 20
18.7300731967
 30
0.0
 10
21.3295609498
 20
18.7310895095
 30
0.0
 10
21.329560964
 20
18.7315156399
 30
0.0
  0
SPLINE
  5
2B7
100
AcDbEntity
  8
0
100
AcDbSpline
 62
7
  6
BYLAYER
 70
0
 71
3
 72
16
 73
12
 74
0
 42
0.0000001
 43
0.0000001
 44
0.0000000001
 40
0.0
 40
0.0
 40
0.0
 40
0.0
 40
0.2561904672
 40
0.3844428662
 40
0.5125156947
 40
0.6400444293
 40
0.7660608889
 40
0.828110608
 40
0.8890622848
 40
0.9472019198
 40
1.0
 40
1.0
 40
1.0
 40
1.0
 10
39.2795550092
 20
17.9315461015
 30
0.0
 10
39.2795550092
 20
18.0154809327
 30
0.0
 10
39.2998565036
 20
18.1425887034
 30
0.0
 10
39.3647220271
 20
18.2979936918
 30
0.0
 10
39.4311856015
 20
18.405424936
 30
0.0
 10
39.5130037943
 20
18.5006019892
 30
0.0
 10
39.5920856062
 20
18.5679213872
 30
0.0
 10
39.6600279969
 20
18.6132173781
 30
0.0
 10
39.7119480409
 20
18.6420916014
 30
0.0
 10
39.762994867
 20
18.6659619723
 30
0.0
 10
39.7968479708
 20
18.6792725137
 30
0.0
 10
39.8131595433
 20
18.6850305921
 30
0.0
  0
SPLINE
  5
2B8
100
AcDbEntity
  8
0
100
AcDbSpline
 62
7
  6
BYLAYER
 70
0
 71
3
 72
29
 73
25
 74
0
 42
0.0000001
 43
0.0000001
 44
0.0000000001
 40
0.0
 40
0.0
 40
0.0
 40
0.0
 40
0.0370446653
 40
0.0738048227
 40
0.0919890584
 40
0.1099141555
 40
0.1271623128
 40
0.1430724739
 40
0.1570564094
 40
0.1688128817
 40
0.1850076
 40
0.1949907299
 40
0.2022361674
 40
0.2238252566
 40
0.2465297122
 40
0.2744842539
 40
0.3086313105
 40
0.349257812
 40
0.3964382511
 40
0.4501538902
 40
0.510335472
 40
0.6496641643
 40
0.8133412116
 40
1.0
 40
1.0
 40
1.0
 40
1.0
 10
39.2795550092
 20
17.0315803707
 30
0.0
 10
39.2795550092
 20
17.0049170896
 30
0.0
 10
39.2723455175
 20
16.9515511652
 30
0.0
 10
39.2463659628
 20
16.8897873141
 30
0.0
 10
39.2168176163
 20
16.8462837583
 30
0.0
 10
39.1910305526
 20
16.8176701966
 30
0.0
 10
39.1632670071
 20
16.7934501484
 30
0.0
 10
39.1353506034
 20
16.7740343476
 30
0.0
 10
39.1088865467
 20
16.7598182977
 30
0.0
 10
39.0810490733
 20
16.7480993349
 30
0.0
 10
39.0550272218
 20
16.7396006404
 30
0.0
 10
39.0314757167
 20
16.7346181367
 30
0.0
 10
39.0039592033
 20
16.7297500741
 30
0.0
 10
38.9670035342
 20
16.726055244
 30
0.0
 10
38.9151219681
 20
16.7226441734
 30
0.0
 10
38.8541468321
 20
16.7197075715
 30
0.0
 10
38.7802619436
 20
16.7168832424
 30
0.0
 10
38.6925265878
 20
16.7141266423
 30
0.0
 10
38.5907001348
 20
16.7114189477
 30
0.0
 10
38.4747930491
 20
16.708760424
 30
0.0
 10
38.2925675822
 20
16.7051044128
 30
0.0
 10
38.0311945423
 20
16.700792702
 30
0.0
 10
37.6787846081
 20
16.6960801372
 30
0.0
 10
37.4266417537
 20
16.693309261
 30
0.0
 10
37.2922990164
 20
16.6919519341
 30
0.0
  0
SPLINE
  5
2B9
100
AcDbEntity
  8
0
100
AcDbSpline
 62
7
  6
BYLAYER
 70
0
 71
3
 72
13
 73
9
 74
0
 42
0.0000001
 43
0.0000001
 44
0.0000000001
 40
0.0
 40
0.0
 40
0.0
 40
0.0
 40
0.1034350905
 40
0.2250502397
 40
0.5000396337
 40
0.774999567
 40
0.8965902802
 40
1.0
 40
1.0
 40
1.0
 40
1.0
 10
37.2922990164
 20
16.6919519341
 30
0.0
 10
36.9293794058
 20
16.6882851894
 30
0.0
 10
36.1397341326
 20
16.6821187383
 30
0.0
 10
34.3851913957
 20
16.6732927296
 30
0.0
 10
32.0287700199
 20
16.6692919191
 30
0.0
 10
29.6724343929
 20
16.6732973302
 30
0.0
 10
27.9181698122
 20
16.6821264411
 30
0.0
 10
27.128699317
 20
16.6882940878
 30
0.0
 10
26.7658687393
 20
16.691961451
 30
0.0
  0
SPLINE
  5
2BA
100
AcDbEntity
  8
0
100
AcDbSpline
 62
7
  6
BYLAYER
 70
0
 71
3
 72
22
 73
18
 74
0
 42
0.0000001
 43
0.0000001
 44
0.0000000001
 40
0.0
 40
0.0
 40
0.0
 40
0.0
 40
0.1995668022
 40
0.3757630543
 40
0.5272401722
 40
0.5933559244
 40
0.6529068845
 40
0.7058137254
 40
0.7520366729
 40
0.7916018903
 40
0.8246682245
 40
0.8517285576
 40
0.8744319966
 40
0.9013806333
 40
0.9337751193
 40
0.9637169364
 40
1.0
 40
1.0
 40
1.0
 40
1.0
 10
26.7658687393
 20
16.691961451
 30
0.0
 10
26.6371331523
 20
16.6932626649
 30
0.0
 10
26.3947397101
 20
16.6959190621
 30
0.0
 10
26.0546422018
 20
16.7004138965
 30
0.0
 10
25.800638097
 20
16.7045127409
 30
0.0
 10
25.6218837606
 20
16.7079763468
 30
0.0
 10
25.5067120981
 20
16.7105039504
 30
0.0
 10
25.4043779677
 20
16.7130774045
 30
0.0
 10
25.3149427624
 20
16.7156956452
 30
0.0
 10
25.2383145208
 20
16.7183667616
 30
0.0
 10
25.1740608046
 20
16.7211101082
 30
0.0
 10
25.1207033221
 20
16.7240534549
 30
0.0
 10
25.0713591102
 20
16.7278041258
 30
0.0
 10
25.0188104449
 20
16.7349136729
 30
0.0
 10
24.9634203135
 20
16.7521698703
 30
0.0
 10
24.9072834702
 20
16.7828247088
 30
0.0
 10
24.8745570023
 20
16.8110213821
 30
0.0
 10
24.8587321016
 20
16.8282677352
 30
0.0
  0
SPLINE
  5
2BB
100
AcDbEntity
  8
0
100
AcDbSpline
 62
7
  6
BYLAYER
 70
0
 71
3
 72
38
 73
34
 74
0
 42
0.0000001
 43
0.0000001
 44
0.0000000001
 40
0.0
 40
0.0
 40
0.0
 40
0.0
 40
0.0001593485
 40
0.0004480926
 40
0.0008796361
 40
0.0014574283
 40
0.0021827543
 40
0.0030561807
 40
0.0052481878
 40
0.0080341962
 40
0.0114139339
 40
0.0153860365
 40
0.019947759
 40
0.0250961514
 40
0.0308282095
 40
0.044031097
 40
0.0595269013
 40
0.0772759882
 40
0.097237365
 40
0.1193644174
 40
0.1436016774
 40
0.169892711
 40
0.1981751252
 40
0.2283789855
 40
0.2942623
 40
0.3669100546
 40
0.4456271777
 40
0.5296587799
 40
0.6182002075
 40
0.7104004899
 40
0.8053717342
 40
0.9022328285
 40
1.0
 40
1.0
 40
1.0
 40
1.0
 10
20.6480744145
 20
21.1409730173
 30
0.0
 10
20.6483015473
 20
21.1404126467
 30
0.0
 10
20.6498781535
 20
21.1394120422
 30
0.0
 10
20.6529457818
 20
21.1383291525
 30
0.0
 10
20.6577794885
 20
21.1371520775
 30
0.0
 10
20.6642399716
 20
21.1359805274
 30
0.0
 10
20.6724202318
 20
21.1347868949
 30
0.0
 10
20.6866980695
 20
21.1330594428
 30
0.0
 10
20.7088092913
 20
21.1309820903
 30
0.0
 10
20.7404344175
 20
21.1286148496
 30
0.0
 10
20.7788308124
 20
21.1262428672
 30
0.0
 10
20.8239751079
 20
21.123869406
 30
0.0
 10
20.8758389705
 20
21.1215004766
 30
0.0
 10
20.934387327
 20
21.1191387293
 30
0.0
 10
21.0257131415
 20
21.1158462301
 30
0.0
 10
21.1563011155
 20
21.111842404
 30
0.0
 10
21.3324900351
 20
21.1072849473
 30
0.0
 10
21.5343331981
 20
21.1027955888
 30
0.0
 10
21.7613458408
 20
21.0983886902
 30
0.0
 10
22.0129838526
 20
21.0940785108
 30
0.0
 10
22.2886447572
 20
21.0898756348
 30
0.0
 10
22.5876664922
 20
21.0857923752
 30
0.0
 10
22.9093322305
 20
21.0818391385
 30
0.0
 10
23.381227251
 20
21.0766014697
 30
0.0
 10
24.0214684175
 20
21.0705261844
 30
0.0
 10
24.8457980655
 20
21.0640827687
 30
0.0
 10
25.7389987426
 20
21.0583616568
 30
0.0
 10
26.6925138839
 20
21.0534201119
 30
0.0
 10
27.6971956256
 20
21.0493081423
 30
0.0
 10
28.7433915277
 20
21.046066849
 30
0.0
 10
29.8211591182
 20
21.0437282047
 30
0.0
 10
30.9200520436
 20
21.042316438
 30
0.0
 10
31.6585746551
 20
21.0420017003
 30
0.0
 10
32.0295550092
 20
21.0420017003
 30
0.0
  0
LINE
  5
2BC
100
AcDbEntity
  8
0
100
AcDbLine
 62
7
  6
BYLAYER
 10
24.7797874211
 20
17.0310737866
 11
24.7795550092
 21
17.0315803707
  0
SPLINE
  5
2BD
100
AcDbEntity
  8
0
100
AcDbSpline
 62
7
  6
BYLAYER
 70
0
 71
3
 72
38
 73
34
 74
0
 42
0.0000001
 43
0.0000001
 44
0.0000000001
 40
0.0
 40
0.0
 40
0.0
 40
0.0
 40
0.0977674547
 40
0.1946285717
 40
0.2895999709
 40
0.381800442
 40
0.4703419618
 40
0.5543736474
 40
0.6330908725
 40
0.7057386499
 40
0.7716219367
 40
0.8018258219
 40
0.8301082325
 40
0.8563991745
 40
0.880636445
 40
0.9027634599
 40
0.9227247074
 40
0.9404737904
 40
0.9559695176
 40
0.9691722445
 40
0.9749042904
 40
0.9800526773
 40
0.9846143676
 40
0.9885863778
 40
0.9919659847
 40
0.9947519303
 40
0.9969439141
 40
0.9978173328
 40
0.9985426483
 40
0.9991204241
 40
0.9995519432
 40
0.9998406584
 40
1.0
 40
1.0
 40
1.0
 40
1.0
 10
32.0295550092
 20
19.5406980997
 30
0.0
 10
31.6784152635
 20
19.5406980997
 30
0.0
 10
30.9793909206
 20
19.5409960018
 30
0.0
 10
29.9392698629
 20
19.5423322702
 30
0.0
 10
28.9191446061
 20
19.5445458428
 30
0.0
 10
27.9289021983
 20
19.547613781
 30
0.0
 10
26.9779538511
 20
19.5515058432
 30
0.0
 10
26.075435806
 20
19.5561831136
 30
0.0
 10
25.2300065968
 20
19.5615982402
 30
0.0
 10
24.4497652977
 20
19.5676970627
 30
0.0
 10
23.8437669123
 20
19.5734474415
 30
0.0
 10
23.3971108912
 20
19.5784049731
 30
0.0
 10
23.0926494733
 20
19.582146772
 30
0.0
 10
22.8096210128
 20
19.5860117038
 30
0.0
 10
22.5487040658
 20
19.5899898126
 30
0.0
 10
22.310525299
 20
19.5940694599
 30
0.0
 10
22.0956548814
 20
19.5982406133
 30
0.0
 10
21.9046079125
 20
19.6024897442
 30
0.0
 10
21.7378432025
 20
19.6068034637
 30
0.0
 10
21.6142405447
 20
19.6105935284
 30
0.0
 10
21.5277998775
 20
19.6137101721
 30
0.0
 10
21.472383122
 20
19.6159456979
 30
0.0
 10
21.4232936273
 20
19.6181878672
 30
0.0
 10
21.3805647489
 20
19.6204341291
 30
0.0
 10
21.3442229574
 20
19.6226787376
 30
0.0
 10
21.3142900073
 20
19.6249186374
 30
0.0
 10
21.2933616723
 20
19.6268843119
 30
0.0
 10
21.279847591
 20
19.6285190942
 30
0.0
 10
21.2721049619
 20
19.6296488348
 30
0.0
 10
21.2659902074
 20
19.6307577502
 30
0.0
 10
21.2614153456
 20
19.6318722208
 30
0.0
 10
21.2585121292
 20
19.6328973965
 30
0.0
 10
21.2570203278
 20
19.6338454127
 30
0.0
 10
21.256805862
 20
19.6343759959
 30
0.0
  0
SPLINE
  5
2BE
100
AcDbEntity
  8
0
100
AcDbSpline
 62
7
  6
BYLAYER
 70
0
 71
3
 72
37
 73
33
 74
0
 42
0.0000001
 43
0.0000001
 44
0.0000000001
 40
0.0
 40
0.0
 40
0.0
 40
0.0
 40
0.0981488727
 40
0.1953388183
 40
0.2905850882
 40
0.3830060557
 40
0.4717137193
 40
0.5558575073
 40
0.6346335575
 40
0.7072881339
 40
0.7731277267
 40
0.8032913606
 40
0.8315216416
 40
0.8577488899
 40
0.8819110748
 40
0.903952036
 40
0.9238166144
 40
0.9414586148
 40
0.9568373465
 40
0.9699135412
 40
0.975578802
 40
0.980658154
 40
0.9851486375
 40
0.9890473511
 40
0.9923516231
 40
0.9950602126
 40
0.9971729762
 40
0.9986908114
 40
0.9992278987
 40
0.9996189747
 40
0.9998689248
 40
1.0
 40
1.0
 40
1.0
 40
1.0
 10
32.0866991968
 20
19.1667426043
 30
0.0
 10
32.4349667148
 20
19.1667588355
 30
0.0
 10
33.1280991556
 20
19.1670861229
 30
0.0
 10
34.1591988245
 20
19.1684581524
 30
0.0
 10
35.1699722704
 20
19.1706986401
 30
0.0
 10
36.150645166
 20
19.1737844409
 30
0.0
 10
37.0919192536
 20
19.1776851879
 30
0.0
 10
37.9847721233
 20
19.1823619675
 30
0.0
 10
38.8206576855
 20
19.1877675252
 30
0.0
 10
39.5915869077
 20
19.1938478805
 30
0.0
 10
40.1900184774
 20
19.1995761627
 30
0.0
 10
40.6308161203
 20
19.2045120168
 30
0.0
 10
40.931059457
 20
19.2082351989
 30
0.0
 10
41.2100041064
 20
19.2120795403
 30
0.0
 10
41.4669828955
 20
19.2160352054
 30
0.0
 10
41.7013800506
 20
19.2200905751
 30
0.0
 10
41.9126357105
 20
19.2242356353
 30
0.0
 10
42.1002446906
 20
19.2284569371
 30
0.0
 10
42.263757455
 20
19.2327410912
 30
0.0
 10
42.384770476
 20
19.2365057134
 30
0.0
 10
42.4692387218
 20
19.2396023553
 30
0.0
 10
42.52325303
 20
19.2418214896
 30
0.0
 10
42.5709925868
 20
19.2440468362
 30
0.0
 10
42.6124263023
 20
19.246275469
 30
0.0
 10
42.6475248152
 20
19.2485021412
 30
0.0
 10
42.6762773837
 20
19.2507211124
 30
0.0
 10
42.6986558488
 20
19.2529111365
 30
0.0
 10
42.7133418059
 20
19.2548690554
 30
0.0
 10
42.7218437571
 20
19.256496684
 30
0.0
 10
42.7259201223
 20
19.2576453343
 30
0.0
 10
42.7284021314
 20
19.2585552571
 30
0.0
 10
42.7295547183
 20
19.2596501007
 30
0.0
 10
42.7295549468
 20
19.2601152025
 30
0.0
  0
LINE
  5
2BF
100
AcDbEntity
  8
0
100
AcDbLine
 62
7
  6
BYLAYER
 10
32.0295550092
 20
19.1667412727
 11
32.0866991968
 21
19.1667426043
  0
LINE
  5
2C0
100
AcDbEntity
  8
0
100
AcDbLine
 62
7
  6
BYLAYER
 10
32.087088077
 20
19.5406994404
 11
32.0295550092
 21
19.5406980997
  0
LINE
  5
2C1
100
AcDbEntity
  8
0
100
AcDbLine
 62
7
  6
BYLAYER
 10
32.0295550092
 20
21.0420016798
 11
32.0906991159
 21
21.0420031131
  0
SPLINE
  5
2C2
100
AcDbEntity
  8
0
100
AcDbSpline
 62
7
  6
BYLAYER
 70
0
 71
3
 72
38
 73
34
 74
0
 42
0.0000001
 43
0.0000001
 44
0.0000000001
 40
0.0
 40
0.0
 40
0.0
 40
0.0
 40
0.0979322968
 40
0.1949120439
 40
0.2899605528
 40
0.3822021403
 40
0.4707547175
 40
0.5547729248
 40
0.6334577051
 40
0.7060597363
 40
0.7718890991
 40
0.8020643755
 40
0.8303179311
 40
0.856580449
 40
0.8807898344
 40
0.9028902491
 40
0.9228267309
 40
0.9405528154
 40
0.956028038
 40
0.9692131263
 40
0.9749373019
 40
0.9800785603
 40
0.9846339564
 40
0.9886005998
 40
0.9919757619
 40
0.9947579806
 40
0.9969470217
 40
0.9978192919
 40
0.9985436901
 40
0.9991207932
 40
0.9995519006
 40
0.9998404861
 40
1.0
 40
1.0
 40
1.0
 40
1.0
 10
32.0906991159
 20
21.0420031131
 30
0.0
 10
32.4603100763
 20
21.042020441
 30
0.0
 10
33.1959369582
 20
21.0423672935
 30
0.0
 10
34.2902901018
 20
21.043820585
 30
0.0
 10
35.363164025
 20
21.0461935779
 30
0.0
 10
36.404230068
 20
21.0494618808
 30
0.0
 10
37.403662735
 20
21.0535934546
 30
0.0
 10
38.3519256346
 20
21.0585472965
 30
0.0
 10
39.2399833491
 20
21.064273624
 30
0.0
 10
40.0593868487
 20
21.0707154877
 30
0.0
 10
40.69570483
 20
21.0767842701
 30
0.0
 10
41.1646445562
 20
21.0820135346
 30
0.0
 10
41.4842579607
 20
21.0859591273
 30
0.0
 10
41.7813516482
 20
21.0900334283
 30
0.0
 10
42.0552183431
 20
21.0942261931
 30
0.0
 10
42.3052048203
 20
21.0985251321
 30
0.0
 10
42.5307165606
 20
21.1029196268
 30
0.0
 10
42.7312168331
 20
21.1073957622
 30
0.0
 10
42.9062273907
 20
21.1119393543
 30
0.0
 10
43.0359389899
 20
21.1159308336
 30
0.0
 10
43.1266500807
 20
21.1192130027
 30
0.0
 10
43.1848031431
 20
21.121567139
 30
0.0
 10
43.2363167346
 20
21.1239281983
 30
0.0
 10
43.2811564778
 20
21.126293495
 30
0.0
 10
43.3192941069
 20
21.1286568725
 30
0.0
 10
43.3507061991
 20
21.1310153574
 30
0.0
 10
43.372668327
 20
21.1330850763
 30
0.0
 10
43.3868499422
 20
21.134806353
 30
0.0
 10
43.3949752827
 20
21.1359958683
 30
0.0
 10
43.4013929661
 20
21.1371635226
 30
0.0
 10
43.4061946217
 20
21.1383369925
 30
0.0
 10
43.4092440113
 20
21.1394168507
 30
0.0
 10
43.4108094451
 20
21.1404150145
 30
0.0
 10
43.4110354844
 20
21.1409729975
 30
0.0
  0
SPLINE
  5
2C3
100
AcDbEntity
  8
0
100
AcDbSpline
 62
7
  6
BYLAYER
 70
0
 71
3
 72
37
 73
33
 74
0
 42
0.0000001
 43
0.0000001
 44
0.0000000001
 40
0.0
 40
0.0
 40
0.0
 40
0.0
 40
0.0001309191
 40
0.0003810433
 40
0.0007725888
 40
0.0013104119
 40
0.0028304467
 40
0.0049462898
 40
0.0076587451
 40
0.010967588
 40
0.0148717547
 40
0.0193686194
 40
0.0244551874
 40
0.0301284063
 40
0.0432223967
 40
0.0586217228
 40
0.0762868109
 40
0.0961762231
 40
0.1182438063
 40
0.1424338957
 40
0.1686895672
 40
0.1969486717
 40
0.2271408802
 40
0.2930342762
 40
0.3657344424
 40
0.4445427481
 40
0.5286998096
 40
0.6173962103
 40
0.7097758652
 40
0.8049448578
 40
0.9020160435
 40
1.0
 40
1.0
 40
1.0
 40
1.0
 10
21.3295550716
 20
19.2601152025
 30
0.0
 10
21.3295548422
 20
19.2596481607
 30
0.0
 10
21.3307166553
 20
19.2585486913
 30
0.0
 10
21.3332136584
 20
19.2576371003
 30
0.0
 10
21.3373181761
 20
19.2564840901
 30
0.0
 10
21.3458784069
 20
19.2548512803
 30
0.0
 10
21.3606655664
 20
19.252886528
 30
0.0
 10
21.3831972465
 20
19.250689237
 30
0.0
 10
21.412145745
 20
19.248462767
 30
0.0
 10
21.4474825814
 20
19.24622857
 30
0.0
 10
21.4891975752
 20
19.2439925313
 30
0.0
 10
21.537261651
 20
19.241759886
 30
0.0
 10
21.591643068
 20
19.239533535
 30
0.0
 10
21.6766826903
 20
19.2364269897
 30
0.0
 10
21.7985110007
 20
19.2326504404
 30
0.0
 10
21.9631211741
 20
19.2283532766
 30
0.0
 10
22.1519819817
 20
19.224119715
 30
0.0
 10
22.3646378753
 20
19.2199630828
 30
0.0
 10
22.6005766509
 20
19.2158971809
 30
0.0
 10
22.8592310658
 20
19.2119320239
 30
0.0
 10
23.1399770917
 20
19.2080792233
 30
0.0
 10
23.4421385157
 20
19.2043488723
 30
0.0
 10
23.8856993509
 20
19.1994051439
 30
0.0
 10
24.4878001465
 20
19.1936707273
 30
0.0
 10
25.2633377204
 20
19.1875888722
 30
0.0
 10
26.1040357085
 20
19.1821881766
 30
0.0
 10
27.0018039635
 20
19.1775228785
 30
0.0
 10
27.9479908882
 20
19.1736404637
 30
0.0
 10
28.933465055
 20
19.1705799506
 30
0.0
 10
29.9488178365
 20
19.1683716225
 30
0.0
 10
30.9841649752
 20
19.1670384776
 30
0.0
 10
31.6800062683
 20
19.1667412727
 30
0.0
 10
32.0295550092
 20
19.1667412727
 30
0.0
  0
SPLINE
  5
2C4
100
AcDbEntity
  8
0
100
AcDbSpline
 62
7
  6
BYLAYER
 70
0
 71
3
 72
38
 73
34
 74
0
 42
0.0000001
 43
0.0000001
 44
0.0000000001
 40
0.0
 40
0.0
 40
0.0
 40
0.0
 40
0.000159513
 40
0.0004480994
 40
0.0008792092
 40
0.0014563162
 40
0.0021807196
 40
0.0030529964
 40
0.0052420545
 40
0.0080242951
 40
0.0113994837
 40
0.0153661588
 40
0.0199215918
 40
0.0250628918
 40
0.0307871134
 40
0.0439723057
 40
0.0594476487
 40
0.0771738679
 40
0.0971104956
 40
0.1192110664
 40
0.1434206154
 40
0.1696833005
 40
0.1979370256
 40
0.2281124698
 40
0.2939421496
 40
0.3665444497
 40
0.4452294205
 40
0.5292477072
 40
0.6178002197
 40
0.7100415655
 40
0.8050896215
 40
0.9020686725
 40
1.0
 40
1.0
 40
1.0
 40
1.0
 10
42.8023038414
 20
19.6343759959
 30
0.0
 10
42.8020898871
 20
19.6338478419
 30
0.0
 10
42.8006081198
 20
19.6329030459
 30
0.0
 10
42.7977217239
 20
19.6318809245
 30
0.0
 10
42.7931767057
 20
19.6307701949
 30
0.0
 10
42.7871020319
 20
19.6296649699
 30
0.0
 10
42.7794109668
 20
19.6285390525
 30
0.0
 10
42.7659873141
 20
19.6269098044
 30
0.0
 10
42.7451989911
 20
19.6249507439
 30
0.0
 10
42.7154657742
 20
19.6227183566
 30
0.0
 10
42.6793664771
 20
19.6204813383
 30
0.0
 10
42.6369232694
 20
19.618242504
 30
0.0
 10
42.5881629057
 20
19.616007681
 30
0.0
 10
42.5331179285
 20
19.6137794112
 30
0.0
 10
42.4472550493
 20
19.6106727278
 30
0.0
 10
42.3244761249
 20
19.6068946596
 30
0.0
 10
42.1588193495
 20
19.6025940012
 30
0.0
 10
41.9690352447
 20
19.598357196
 30
0.0
 10
41.7555765152
 20
19.5941976694
 30
0.0
 10
41.5189512259
 20
19.5901285939
 30
0.0
 10
41.2597221428
 20
19.5861600198
 30
0.0
 10
40.9785076025
 20
19.5823035802
 30
0.0
 10
40.6759771055
 20
19.5785689722
 30
0.0
 10
40.232101886
 20
19.5736193447
 30
0.0
 10
39.6297951435
 20
19.5678751107
 30
0.0
 10
38.8541895101
 20
19.5617777769
 30
0.0
 10
38.013600374
 20
19.556357747
 30
0.0
 10
37.1160254707
 20
19.551668926
 30
0.0
 10
36.1700175883
 20
19.5477584354
 30
0.0
 10
35.1846037147
 20
19.5446650853
 30
0.0
 10
34.1690844849
 20
19.5424192009
 30
0.0
 10
33.1332367909
 20
19.5410438683
 30
0.0
 10
32.4369382791
 20
19.5407157453
 30
0.0
 10
32.087088077
 20
19.5406994404
 30
0.0
  0
LINE
  5
2C5
100
AcDbEntity
  8
0
100
AcDbLine
 62
7
  6
BYLAYER
 10
24.7795550092
 20
17.9315461015
 11
24.7797874211
 21
17.9310395174
  0
SPLINE
  5
2C6
100
AcDbEntity
  8
0
100
AcDbSpline
 62
7
  6
BYLAYER
 70
0
 71
3
 72
63
 73
59
 74
0
 42
0.0000001
 43
0.0000001
 44
0.0000000001
 40
0.0
 40
0.0
 40
0.0
 40
0.0
 40
0.0001015994
 40
0.0002716386
 40
0.0005139426
 40
0.0008296641
 40
0.0016828718
 40
0.0028326688
 40
0.0042791265
 40
0.00602195
 40
0.0080606515
 40
0.0103940654
 40
0.0130205212
 40
0.0159383109
 40
0.022640982
 40
0.03048788
 40
0.0394599961
 40
0.0495346465
 40
0.0606889399
 40
0.0728965871
 40
0.0861268955
 40
0.1155293767
 40
0.1486143408
 40
0.18506651
 40
0.2245350314
 40
0.2666426325
 40
0.3109861028
 40
0.3571398084
 40
0.4046624398
 40
0.5019830114
 40
0.5992270618
 40
0.6466547355
 40
0.6926767693
 40
0.7368531319
 40
0.7787597746
 40
0.8179954215
 40
0.8541850364
 40
0.8869802706
 40
0.9020066036
 40
0.9160686472
 40
0.9291336867
 40
0.941171118
 40
0.9521506502
 40
0.9620464189
 40
0.9708359759
 40
0.9784970833
 40
0.9850111801
 40
0.9878337807
 40
0.9903645235
 40
0.9926017616
 40
0.9945438899
 40
0.9961898234
 40
0.9975391808
 40
0.9985918209
 40
0.9993481151
 40
0.9998102666
 40
0.9999347789
 40
1.0
 40
1.0
 40
1.0
 40
1.0
 10
24.7797874211
 20
17.9310395174
 30
0.0
 10
24.780119481
 20
17.9306776306
 30
0.0
 10
24.7813494184
 20
17.930088866
 30
0.0
 10
24.7837018315
 20
17.9293624411
 30
0.0
 10
24.7871571706
 20
17.9286201303
 30
0.0
 10
24.7938811869
 20
17.9274990953
 30
0.0
 10
24.8050221415
 20
17.926183957
 30
0.0
 10
24.8216278229
 20
17.9246842065
 30
0.0
 10
24.8425514882
 20
17.9231786714
 30
0.0
 10
24.8677790387
 20
17.9216661968
 30
0.0
 10
24.8973013934
 20
17.9201551673
 30
0.0
 10
24.9311000836
 20
17.918647149
 30
0.0
 10
24.9691523976
 20
17.9171442282
 30
0.0
 10
25.0283190234
 20
17.9150514092
 30
0.0
 10
25.1127210921
 20
17.9125052527
 30
0.0
 10
25.2263918838
 20
17.9096064796
 30
0.0
 10
25.3563689431
 20
17.9067524802
 30
0.0
 10
25.502338835
 20
17.9039509969
 30
0.0
 10
25.6639534264
 20
17.9012117278
 30
0.0
 10
25.8408259993
 20
17.8985420425
 30
0.0
 10
26.1059090617
 20
17.89495679
 30
0.0
 10
26.4719168626
 20
17.8907643396
 30
0.0
 10
26.9501854206
 20
17.8862614278
 30
0.0
 10
27.4771201353
 20
17.8821783134
 30
0.0
 10
28.0476759467
 20
17.878555282
 30
0.0
 10
28.6563829956
 20
17.8754302531
 30
0.0
 10
29.2974100133
 20
17.8728348846
 30
0.0
 10
29.9646162565
 20
17.8707941949
 30
0.0
 10
30.8879230922
 20
17.8688264889
 30
0.0
 10
32.0582108366
 20
17.8678843517
 30
0.0
 10
33.2280394755
 20
17.8689070412
 30
0.0
 10
34.1498806904
 20
17.8709396569
 30
0.0
 10
34.8151833949
 20
17.8730265957
 30
0.0
 10
35.453794402
 20
17.8756662808
 30
0.0
 10
36.059596153
 20
17.8788333321
 30
0.0
 10
36.626785212
 20
17.8824953247
 30
0.0
 10
37.1499239255
 20
17.8866149264
 30
0.0
 10
37.5560287861
 20
17.8904980065
 30
0.0
 10
37.8551651618
 20
17.8938431164
 30
0.0
 10
38.058925767
 20
17.8963673564
 30
0.0
 10
38.2482352618
 20
17.8989737082
 30
0.0
 10
38.4226407642
 20
17.9016551133
 30
0.0
 10
38.581722392
 20
17.9044050525
 30
0.0
 10
38.7250995394
 20
17.9072158795
 30
0.0
 10
38.8524303798
 20
17.9100777267
 30
0.0
 10
38.9634078832
 20
17.9129827564
 30
0.0
 10
39.0455388028
 20
17.9155354711
 30
0.0
 10
39.1028696232
 20
17.9176351024
 30
0.0
 10
39.1395328218
 20
17.9191398444
 30
0.0
 10
39.1719360335
 20
17.9206492541
 30
0.0
 10
39.2000548946
 20
17.922160228
 30
0.0
 10
39.2238794374
 20
17.9236732425
 30
0.0
 10
39.2433805386
 20
17.9251721648
 30
0.0
 10
39.258603376
 20
17.9266742329
 30
0.0
 10
39.2694302074
 20
17.9280887502
 30
0.0
 10
39.2759057775
 20
17.9294382868
 30
0.0
 10
39.2787725516
 20
17.9304890868
 30
0.0
 10
39.2795550092
 20
17.9312308124
 30
0.0
 10
39.2795550092
 20
17.9315461015
 30
0.0
  0
SPLINE
  5
2C7
100
AcDbEntity
  8
0
100
AcDbSpline
 62
7
  6
BYLAYER
 70
0
 71
3
 72
63
 73
59
 74
0
 42
0.0000001
 43
0.0000001
 44
0.0000000001
 40
0.0
 40
0.0
 40
0.0
 40
0.0
 40
0.0000652211
 40
0.0001897334
 40
0.0006518849
 40
0.0014081791
 40
0.0024608192
 40
0.0038101766
 40
0.0054561101
 40
0.0073982384
 40
0.0096354765
 40
0.0121662193
 40
0.0149888199
 40
0.0215029167
 40
0.0291640241
 40
0.0379535811
 40
0.0478493498
 40
0.058828882
 40
0.0708663133
 40
0.0839313528
 40
0.0979933964
 40
0.1130197294
 40
0.1458149636
 40
0.1820045785
 40
0.2212402254
 40
0.2631468681
 40
0.3073232307
 40
0.3533452645
 40
0.4007729382
 40
0.4980169886
 40
0.5953375602
 40
0.6428601916
 40
0.6890138972
 40
0.7333573675
 40
0.7754649686
 40
0.81493349
 40
0.8513856592
 40
0.8844706233
 40
0.9138731045
 40
0.9271034129
 40
0.9393110601
 40
0.9504653535
 40
0.9605400039
 40
0.96951212
 40
0.977359018
 40
0.9840616891
 40
0.9869794788
 40
0.9896059346
 40
0.9919393485
 40
0.99397805
 40
0.9957208735
 40
0.9971673312
 40
0.9983171282
 40
0.9991703359
 40
0.9994860574
 40
0.9997283614
 40
0.9998984006
 40
1.0
 40
1.0
 40
1.0
 40
1.0
 10
39.2795550092
 20
17.0315803707
 30
0.0
 10
39.2795550092
 20
17.0312650817
 30
0.0
 10
39.2787725516
 20
17.0305233561
 30
0.0
 10
39.2759057775
 20
17.029472556
 30
0.0
 10
39.2694302074
 20
17.0281230195
 30
0.0
 10
39.258603376
 20
17.0267085021
 30
0.0
 10
39.2433805386
 20
17.025206434
 30
0.0
 10
39.2238794374
 20
17.0237075118
 30
0.0
 10
39.2000548946
 20
17.0221944972
 30
0.0
 10
39.1719360335
 20
17.0206835234
 30
0.0
 10
39.1395328218
 20
17.0191741136
 30
0.0
 10
39.1028696232
 20
17.0176693716
 30
0.0
 10
39.0455388028
 20
17.0155697404
 30
0.0
 10
38.9634078832
 20
17.0130170256
 30
0.0
 10
38.8524303798
 20
17.0101119959
 30
0.0
 10
38.7250995394
 20
17.0072501487
 30
0.0
 10
38.581722392
 20
17.0044393217
 30
0.0
 10
38.4226407642
 20
17.0016893825
 30
0.0
 10
38.2482352618
 20
16.9990079775
 30
0.0
 10
38.058925767
 20
16.9964016256
 30
0.0
 10
37.8551651618
 20
16.9938773856
 30
0.0
 10
37.5560287861
 20
16.9905322758
 30
0.0
 10
37.1499239255
 20
16.9866491957
 30
0.0
 10
36.626785212
 20
16.9825295939
 30
0.0
 10
36.059596153
 20
16.9788676013
 30
0.0
 10
35.453794402
 20
16.9757005501
 30
0.0
 10
34.8151833949
 20
16.9730608649
 30
0.0
 10
34.1498806904
 20
16.9709739261
 30
0.0
 10
33.2280394755
 20
16.9689413104
 30
0.0
 10
32.0582108366
 20
16.9679186209
 30
0.0
 10
30.8879230922
 20
16.9688607581
 30
0.0
 10
29.9646162565
 20
16.9708284642
 30
0.0
 10
29.2974100133
 20
16.9728691538
 30
0.0
 10
28.6563829956
 20
16.9754645223
 30
0.0
 10
28.0476759467
 20
16.9785895513
 30
0.0
 10
27.4771201353
 20
16.9822125827
 30
0.0
 10
26.9501854206
 20
16.986295697
 30
0.0
 10
26.4719168626
 20
16.9907986088
 30
0.0
 10
26.1059090617
 20
16.9949910592
 30
0.0
 10
25.8408259993
 20
16.9985763117
 30
0.0
 10
25.6639534264
 20
17.0012459971
 30
0.0
 10
25.502338835
 20
17.0039852662
 30
0.0
 10
25.3563689431
 20
17.0067867495
 30
0.0
 10
25.2263918838
 20
17.0096407489
 30
0.0
 10
25.1127210921
 20
17.012539522
 30
0.0
 10
25.0283190234
 20
17.0150856784
 30
0.0
 10
24.9691523976
 20
17.0171784975
 30
0.0
 10
24.9311000836
 20
17.0186814182
 30
0.0
 10
24.8973013934
 20
17.0201894365
 30
0.0
 10
24.8677790387
 20
17.021700466
 30
0.0
 10
24.8425514882
 20
17.0232129406
 30
0.0
 10
24.8216278229
 20
17.0247184757
 30
0.0
 10
24.8050221415
 20
17.0262182263
 30
0.0
 10
24.7938811869
 20
17.0275333645
 30
0.0
 10
24.7871571706
 20
17.0286543995
 30
0.0
 10
24.7837018315
 20
17.0293967104
 30
0.0
 10
24.7813494184
 20
17.0301231352
 30
0.0
 10
24.780119481
 20
17.0307118999
 30
0.0
 10
24.7797874211
 20
17.0310737866
 30
0.0
  0
SPLINE
  5
2C8
100
AcDbEntity
  8
0
100
AcDbSpline
 62
7
  6
BYLAYER
 70
0
 71
3
 72
23
 73
19
 74
0
 42
0.0000001
 43
0.0000001
 44
0.0000000001
 40
0.0
 40
0.0
 40
0.0
 40
0.0
 40
0.0033971641
 40
0.0084706482
 40
0.0153262373
 40
0.0240029204
 40
0.0345179103
 40
0.0468794344
 40
0.0771543541
 40
0.1148311614
 40
0.1598712416
 40
0.2122230287
 40
0.2718315543
 40
0.3386355698
 40
0.4125551088
 40
0.5813995648
 40
0.7775915006
 40
1.0
 40
1.0
 40
1.0
 40
1.0
 10
47.3942375035
 20
18.7769969113
 30
0.0
 10
47.3912067385
 20
18.7800318653
 30
0.0
 10
47.3857597337
 20
18.7894998608
 30
0.0
 10
47.3789690949
 20
18.807572952
 30
0.0
 10
47.3720721486
 20
18.8327162792
 30
0.0
 10
47.3651316075
 20
18.8648581507
 30
0.0
 10
47.3581659849
 20
18.9040935137
 30
0.0
 10
47.3481916761
 20
18.9704582446
 30
0.0
 10
47.3361925242
 20
19.0711666931
 30
0.0
 10
47.3225894459
 20
19.2131804049
 30
0.0
 10
47.3090741521
 20
19.3831822026
 30
0.0
 10
47.295669952
 20
19.5809532835
 30
0.0
 10
47.2824149555
 20
19.8062662513
 30
0.0
 10
47.2693306671
 20
20.0588598113
 30
0.0
 10
47.2513347334
 20
20.449294115
 30
0.0
 10
47.2298269318
 20
21.0030901551
 30
0.0
 10
47.2059473587
 20
21.7443914395
 30
0.0
 10
47.1916246223
 20
22.2727063332
 30
0.0
 10
47.1845549077
 20
22.5534206489
 30
0.0
  0
LINE
  5
2C9
100
AcDbEntity
  8
0
100
AcDbLine
 62
7
  6
BYLAYER
 10
16.629555006
 20
68.1932137258
 11
16.6688150708
 21
68.1657846226
  0
LINE
  5
2CA
100
AcDbEntity
  8
0
100
AcDbLine
 62
7
  6
BYLAYER
 10
47.364532744
 20
68.147778039
 11
47.4295550117
 21
68.1932129031
  0
SPLINE
  5
2CB
100
AcDbEntity
  8
0
100
AcDbSpline
 62
7
  6
BYLAYER
 70
0
 71
3
 72
23
 73
19
 74
0
 42
0.0000001
 43
0.0000001
 44
0.0000000001
 40
0.0
 40
0.0
 40
0.0
 40
0.0
 40
0.2224084797
 40
0.4186003972
 40
0.5874448395
 40
0.6613643734
 40
0.7281683848
 40
0.7877769071
 40
0.8401286922
 40
0.8851687726
 40
0.922845584
 40
0.9531205142
 40
0.965482046
 40
0.9759970448
 40
0.9846737379
 40
0.9915293374
 40
0.996602831
 40
1.0
 40
1.0
 40
1.0
 40
1.0
 10
16.8745962295
 20
22.5534232293
 30
0.0
 10
16.8675265134
 20
22.272708729
 30
0.0
 10
16.8532041122
 20
21.7443934813
 30
0.0
 10
16.829325424
 20
21.0030916802
 30
0.0
 10
16.8078178959
 20
20.4492952618
 30
0.0
 10
16.7898219988
 20
20.0588606935
 30
0.0
 10
16.776737697
 20
19.806266961
 30
0.0
 10
16.7634826857
 20
19.5809538375
 30
0.0
 10
16.7500784349
 20
19.3831826183
 30
0.0
 10
16.7365630153
 20
19.2131806996
 30
0.0
 10
16.7229597045
 20
19.0711668832
 30
0.0
 10
16.7109602143
 20
18.9704583685
 30
0.0
 10
16.7009855978
 20
18.9040935983
 30
0.0
 10
16.694019765
 20
18.8648582082
 30
0.0
 10
16.6870790326
 20
18.8327163146
 30
0.0
 10
16.6801819296
 20
18.8075729718
 30
0.0
 10
16.6733911799
 20
18.7894998724
 30
0.0
 10
16.6679441364
 20
18.780031875
 30
0.0
 10
16.6649133652
 20
18.7769969137
 30
0.0
  0
SPLINE
  5
2CC
100
AcDbEntity
  8
0
100
AcDbSpline
 62
7
  6
BYLAYER
 70
0
 71
3
 72
11
 73
7
 74
0
 42
0.0000001
 43
0.0000001
 44
0.0000000001
 40
0.0
 40
0.0
 40
0.0
 40
0.0
 40
0.2494937517
 40
0.4999999968
 40
0.7505062446
 40
1.0
 40
1.0
 40
1.0
 40
1.0
 10
47.1845549077
 20
22.5534206489
 30
0.0
 10
44.6695587269
 20
22.762583791
 30
0.0
 10
39.6216573023
 20
23.0978633937
 30
0.0
 10
32.0295756916
 20
23.2751453098
 30
0.0
 10
24.4374939905
 20
23.0978654146
 30
0.0
 10
19.3895924399
 20
22.7625864664
 30
0.0
 10
16.8745962295
 20
22.5534232293
 30
0.0
  0
ENDSEC
  0
SECTION
  2
OBJECTS
  0
DICTIONARY
  5
C
100
AcDbDictionary
280
0
281
1
  3
ACAD_GROUP
350
D
  3
ACAD_MLINESTYLE
350
17
  3
ACAD_LAYOUT
350
1A
  3
ACAD_PLOTSETTINGS
350
19
  3
ACAD_PLOTSTYLENAME
350
E
  0
DICTIONARY
  5
D
102
{ACAD_REACTORS
330
C
102
}
100
AcDbDictionary
280
0
281
1
  0
ACDBDICTIONARYWDFLT
  5
E
102
{ACAD_REACTORS
330
C
102
}
100
AcDbDictionary
281
1
  3
Normal
350
F
100
AcDbDictionaryWithDefault
340
F
  0
DICTIONARY
  5
17
102
{ACAD_REACTORS
330
C
102
}
100
AcDbDictionary
280
0
281
1
  3
Standard
350
18
  0
DICTIONARY
  5
19
102
{ACAD_REACTORS
330
C
102
}
100
AcDbDictionary
281
1
  0
DICTIONARY
  5
1A
102
{ACAD_REACTORS
330
C
102
}
100
AcDbDictionary
281
1
  3
Model
350
2CD
  3
Layout1
350
2CE
  0
ACDBPLACEHOLDER
  5
F
102
{ACAD_REACTORS
330
E
102
}
  0
MLINESTYLE
  5
18
102
{ACAD_REACTORS
330
17
102
}
100
AcDbMlineStyle
  2
STANDARD
 70
0
  3

 62
256
 51
90.0
 52
90.0
 71
2
 49
0.5
 62
256
  6
BYLAYER
 49
-0.5
 62
256
  6
BYLAYER
  0
LAYOUT
  5
2CD
102
{ACAD_REACTORS
330
1A
102
}
100
AcDbPlotSettings
  1

  2
none_device
  4

  6

 40
0.0
 41
0.0
 42
0.0
 43
0.0
 44
210.0
 45
297.0
 46
0.0
 47
0.0
 48
0.0
 49
0.0
140
0.0
141
0.0
142
1.0
143
1.0
 70
1024
 72
1
 73
0
 74
0
  7

 75
0
147
1.0
148
0.0
149
0.0
100
AcDbLayout
  1
Model
 70
0
 71
0
 10
0.0
 20
0.0
 11
210.0
 21
297.0
 12
0.0
 22
0.0
 32
0.0
 14
0.0
 24
0.0
 34
0.0
 15
0.0
 25
0.0
 35
0.0
146
0.0
 13
0.0
 23
0.0
 33
0.0
 16
1.0
 26
0.0
 36
0.0
 17
0.0
 27
1.0
 37
0.0
 76
0
330
210
345
0
346
0
  0
LAYOUT
  5
2CE
102
{ACAD_REACTORS
330
1A
102
}
100
AcDbPlotSettings
  1

  2
none_device
  4

  6

 40
0.0
 41
0.0
 42
0.0
 43
0.0
 44
210.0
 45
297.0
 46
0.0
 47
0.0
 48
0.0
 49
0.0
140
0.0
141
0.0
142
1.0
143
1.0
 70
0
 72
1
 73
0
 74
0
  7

 75
0
147
1.0
148
0.0
149
0.0
100
AcDbLayout
  1
Layout1
 70
0
 71
1
 10
0.0
 20
0.0
 11
210.0
 21
297.0
 12
0.0
 22
0.0
 32
0.0
 14
0.0
 24
0.0
 34
0.0
 15
0.0
 25
0.0
 35
0.0
146
0.0
 13
0.0
 23
0.0
 33
0.0
 16
1.0
 26
0.0
 36
0.0
 17
0.0
 27
1.0
 37
0.0
 76
0
330
211
345
0
346
0
  0
ENDSEC
  0
EOF
