999
DXF file: C:\Users\sesa63760\Dev\_Creo\CAD\MCADID0004138_3D-CAD\drw0001_4.dxf
999
Pro/ENGINEER 2019471 by Parametric Technology Corporation
  0
SECTION
  2
HEADER
  9
$ACADVER
  1
AC1024
  9
$DWGCODEPAGE
  3
ANSI_1252
  9
$EXTMAX
 10
62.3349880614
 20
88.1594831154
 30
0.0
  9
$EXTMIN
 10
0.0
 20
0.0
 30
0.0
  9
$LIMMIN
 10
0.0
 20
0.0
  9
$LIMMAX
 10
62.3349880614
 20
88.1594831154
  9
$VIEWCTR
 10
31.1674940307
 20
44.0797415577
  9
$VIEWSIZE
 40
88.1594831154
  9
$CLAYER
  8
0
  9
$LTSCALE
 40
5.7466922327
  9
$CELTYPE
  6
BYLAYER
  9
$DIMSCALE
 40
1.0
  9
$DIMASZ
 40
0.7420831912
  9
$DIMEXO
 40
1.0
  9
$DIMDLI
 40
3.9704419062
  9
$DIMEXE
 40
1.0
  9
$DIMCEN
 40
0.9403678199
  9
$DIMLFAC
 40
1.0
  9
$DIMBLK
  1
_FILLED
  9
$DIMALT
 70
0
  9
$DIMALTF
 40
0.0393700787
  9
$DIMTXT
 40
1.0389164677
  9
$DIMTOL
 70
1
  9
$DIMLIM
 70
0
  9
$DIMTFAC
 40
1.0
  9
$DIMTP
 40
0.01
  9
$DIMTM
 40
0.01
  9
$DIMGAP
 40
0.625
  9
$DIMDSEP
 70
46
  9
$AUNITS
 70
0
  9
$PDMODE
 70
3
  9
$PDSIZE
 40
0.3125
  9
$HANDSEED
  5
339
  9
$TILEMODE
 70
1
  9
$MEASUREMENT
 70
1
  9
$INSUNITS
 70
4
  0
ENDSEC
  0
SECTION
  2
CLASSES
  0
CLASS
  1
ACDBDICTIONARYWDFLT
  2
AcDbDictionaryWithDefault
  3
AutoCAD 2000
 90
0
 91
1
280
0
281
0
  0
CLASS
  1
ACDBPLACEHOLDER
  2
AcDbPlaceHolder
  3
AutoCAD 2000
 90
0
 91
1
280
0
281
0
  0
CLASS
  1
LAYOUT
  2
AcDbLayout
  3
AutoCAD 2000
 90
0
 91
0
280
0
281
0
  0
ENDSEC
  0
SECTION
  2
TABLES
  0
TABLE
  2
VPORT
  5
8
100
AcDbSymbolTable
 70
2
  0
VPORT
  5
1F4
100
AcDbSymbolTableRecord
100
AcDbViewportTableRecord
  2
*ACTIVE
 70
0
 10
0.0
 20
0.0
 11
1.0
 21
1.0
 12
31.1674940307
 22
44.0797415577
 13
0.0
 23
0.0
 14
1.0
 24
1.0
 15
0.0
 25
0.0
 16
0.0
 26
0.0
 36
1.0
 17
0.0
 27
0.0
 37
0.0
 40
88.1594831154
 41
0.7070707071
 42
50.0
 43
0.0
 44
0.0
 50
0.0
 51
0.0
 71
0
 72
100
 73
1
 74
1
 75
0
 76
0
 77
0
 78
0
  0
ENDTAB
  0
TABLE
  2
LTYPE
  5
5
100
AcDbSymbolTable
 70
6
  0
LTYPE
  5
14
100
AcDbSymbolTableRecord
100
AcDbLinetypeTableRecord
  2
BYBLOCK
 70
0
  3

 72
65
 73
0
 40
0.0
  0
LTYPE
  5
15
100
AcDbSymbolTableRecord
100
AcDbLinetypeTableRecord
  2
BYLAYER
 70
0
  3

 72
65
 73
0
 40
0.0
  0
LTYPE
  5
16
100
AcDbSymbolTableRecord
100
AcDbLinetypeTableRecord
  2
CONTINUOUS
 70
64
  3
Solid line
 72
65
 73
0
 40
0.0
  0
LTYPE
  5
1F5
100
AcDbSymbolTableRecord
100
AcDbLinetypeTableRecord
  2
CENTER
 70
64
  3
____ _ ____ _ ____ _ ____ _ ____ _ ____ _ ____
 72
65
 73
4
 40
0.6
 49
0.375
 74
0
 49
-0.075
 74
0
 49
0.075
 74
0
 49
-0.075
 74
0
  0
LTYPE
  5
1F6
100
AcDbSymbolTableRecord
100
AcDbLinetypeTableRecord
  2
HIDDEN
 70
64
  3
- - - - - - - - - - - - - - - - - - - -
 72
65
 73
2
 40
0.2
 49
0.1
 74
0
 49
-0.1
 74
0
  0
LTYPE
  5
1F7
100
AcDbSymbolTableRecord
100
AcDbLinetypeTableRecord
  2
PHANTOM
 70
64
  3
_____ _ _ _____ _ _ _____ _ _ _____
 72
65
 73
6
 40
0.8
 49
0.45
 74
0
 49
-0.05
 74
0
 49
0.1
 74
0
 49
-0.05
 74
0
 49
0.1
 74
0
 49
-0.05
 74
0
  0
LTYPE
  5
1F8
100
AcDbSymbolTableRecord
100
AcDbLinetypeTableRecord
  2
DOT
 70
64
  3
. . . . . . . . . . . . . . . . . . . .
 72
65
 73
2
 40
0.2
 49
0.1
 74
0
 49
-0.1
 74
0
  0
LTYPE
  5
1F9
100
AcDbSymbolTableRecord
100
AcDbLinetypeTableRecord
  2
DASHED
 70
64
  3
- - - - - - - - - - - - - - - - - - - -
 72
65
 73
2
 40
0.2
 49
0.1
 74
0
 49
-0.1
 74
0
  0
ENDTAB
  0
TABLE
  2
LAYER
  5
2
100
AcDbSymbolTable
 70
36
  0
LAYER
  5
10
100
AcDbSymbolTableRecord
100
AcDbLayerTableRecord
  2
0
 70
0
 62
7
  6
CONTINUOUS
370
-3
390
F
  0
LAYER
  5
1FA
100
AcDbSymbolTableRecord
100
AcDbLayerTableRecord
  2
DEFAULT_1
 70
0
 62
7
  6
CENTER
370
-3
390
F
  0
LAYER
  5
1FB
100
AcDbSymbolTableRecord
100
AcDbLayerTableRecord
  2
DEFAULT_2
 70
0
 62
7
  6
HIDDEN
370
-3
390
F
  0
LAYER
  5
1FC
100
AcDbSymbolTableRecord
100
AcDbLayerTableRecord
  2
DEFAULT_3
 70
0
 62
7
  6
PHANTOM
370
-3
390
F
  0
LAYER
  5
1FD
100
AcDbSymbolTableRecord
100
AcDbLayerTableRecord
  2
00_COMPONENTS
 70
0
 62
7
  6
CONTINUOUS
370
-3
390
F
  0
LAYER
  5
1FE
100
AcDbSymbolTableRecord
100
AcDbLayerTableRecord
  2
01_1_DEFAULT_DATUMS
 70
0
 62
7
  6
CONTINUOUS
370
-3
390
F
  0
LAYER
  5
1FF
100
AcDbSymbolTableRecord
100
AcDbLayerTableRecord
  2
01_PLANES
 70
0
 62
7
  6
CONTINUOUS
370
-3
390
F
  0
LAYER
  5
200
100
AcDbSymbolTableRecord
100
AcDbLayerTableRecord
  2
02_COORD_SYS
 70
0
 62
7
  6
CONTINUOUS
370
-3
390
F
  0
LAYER
  5
201
100
AcDbSymbolTableRecord
100
AcDbLayerTableRecord
  2
03_AXES
 70
0
 62
7
  6
CONTINUOUS
370
-3
390
F
  0
LAYER
  5
202
100
AcDbSymbolTableRecord
100
AcDbLayerTableRecord
  2
04_POINTS
 70
0
 62
7
  6
CONTINUOUS
370
-3
390
F
  0
LAYER
  5
203
100
AcDbSymbolTableRecord
100
AcDbLayerTableRecord
  2
05_CURVES
 70
0
 62
7
  6
CONTINUOUS
370
-3
390
F
  0
LAYER
  5
204
100
AcDbSymbolTableRecord
100
AcDbLayerTableRecord
  2
06_SURFS
 70
0
 62
7
  6
CONTINUOUS
370
-3
390
F
  0
LAYER
  5
205
100
AcDbSymbolTableRecord
100
AcDbLayerTableRecord
  2
07_COSMETICS
 70
0
 62
7
  6
CONTINUOUS
370
-3
390
F
  0
LAYER
  5
206
100
AcDbSymbolTableRecord
100
AcDbLayerTableRecord
  2
10_NOTES
 70
0
 62
7
  6
CONTINUOUS
370
-3
390
F
  0
LAYER
  5
207
100
AcDbSymbolTableRecord
100
AcDbLayerTableRecord
  2
11_NOTES_PUB
 70
0
 62
7
  6
CONTINUOUS
370
-3
390
F
  0
LAYER
  5
208
100
AcDbSymbolTableRecord
100
AcDbLayerTableRecord
  2
13_REF_GTOL
 70
0
 62
7
  6
CONTINUOUS
370
-3
390
F
  0
LAYER
  5
209
100
AcDbSymbolTableRecord
100
AcDbLayerTableRecord
  2
16_MISC
 70
0
 62
7
  6
CONTINUOUS
370
-3
390
F
  0
LAYER
  5
20A
100
AcDbSymbolTableRecord
100
AcDbLayerTableRecord
  2
17_NO_PRINT
 70
0
 62
7
  6
CONTINUOUS
370
-3
390
F
  0
LAYER
  5
20B
100
AcDbSymbolTableRecord
100
AcDbLayerTableRecord
  2
18_DATUM_CAMS_JOINTS
 70
0
 62
7
  6
CONTINUOUS
370
-3
390
F
  0
LAYER
  5
20C
100
AcDbSymbolTableRecord
100
AcDbLayerTableRecord
  2
19_DATUM_FUNCTIONAL
 70
0
 62
7
  6
CONTINUOUS
370
-3
390
F
  0
LAYER
  5
20D
100
AcDbSymbolTableRecord
100
AcDbLayerTableRecord
  2
20_DATUM_KINEMATIC_SCHEME
 70
0
 62
7
  6
CONTINUOUS
370
-3
390
F
  0
ENDTAB
  0
TABLE
  2
STYLE
  5
3
100
AcDbSymbolTable
 70
1
  0
STYLE
  5
11
100
AcDbSymbolTableRecord
100
AcDbTextStyleTableRecord
  2
STANDARD
 70
0
 40
0.0
 41
1.0
 50
0.0
 71
0
 42
0.2
  3
ARIAL.TTF
  4

  0
STYLE
  5
20E
100
AcDbSymbolTableRecord
100
AcDbTextStyleTableRecord
  2
TEXTSTYLE_1
 70
0
 40
0.0
 41
0.8
 50
0.0
 71
0
 42
0.2
  3
gdt
  4

  0
ENDTAB
  0
TABLE
  2
VIEW
  5
6
100
AcDbSymbolTable
 70
0
  0
ENDTAB
  0
TABLE
  2
UCS
  5
7
100
AcDbSymbolTable
 70
0
  0
ENDTAB
  0
TABLE
  2
APPID
  5
9
100
AcDbSymbolTable
 70
1
  0
APPID
  5
20F
100
AcDbSymbolTableRecord
100
AcDbRegAppTableRecord
  2
ACAD
 70
0
  0
ENDTAB
  0
TABLE
  2
BLOCK_RECORD
  5
1
100
AcDbSymbolTable
 70
0
  0
BLOCK_RECORD
  5
210
100
AcDbSymbolTableRecord
100
AcDbBlockTableRecord
  2
*Model_Space
  0
BLOCK_RECORD
  5
211
100
AcDbSymbolTableRecord
100
AcDbBlockTableRecord
  2
*Paper_Space
  0
BLOCK_RECORD
  5
212
100
AcDbSymbolTableRecord
100
AcDbBlockTableRecord
  2
_FILLED
  0
ENDTAB
  0
TABLE
  2
DIMSTYLE
  5
A
100
AcDbSymbolTable
 70
1
100
AcDbDimStyleTable
 71
0
  0
DIMSTYLE
105
213
100
AcDbSymbolTableRecord
100
AcDbDimStyleTableRecord
  2
STANDARD
 70
0
  3

  4

 40
1.0
 41
0.7420831912
 42
1.0
 43
0.38
 44
1.0
 45
0.0
 46
0.0
 47
0.01
 48
0.01
140
1.0389164677
141
0.09
142
0.0
143
25.4
144
1.0
145
0.0
146
1.0
147
0.625
 71
1
 72
0
 73
0
 74
0
 75
0
 76
0
 77
1
 78
8
 79
2
170
0
171
1
172
0
173
0
174
0
175
0
176
0
177
0
178
0
270
2
179
2
271
2
272
2
273
2
274
2
275
0
280
0
281
0
282
0
283
1
284
8
285
0
286
0
287
3
288
0
340
11
278
46
341
212
342
212
343
212
344
212
  0
ENDTAB
  0
ENDSEC
  0
SECTION
  2
BLOCKS
  0
BLOCK
  5
20
100
AcDbEntity
  8
0
100
AcDbBlockBegin
  2
*Model_Space
 70
0
 10
0.0
 20
0.0
 30
0.0
  3
*Model_Space
  1

  0
ENDBLK
  5
21
100
AcDbEntity
  8
0
100
AcDbBlockEnd
  0
BLOCK
  5
1C
100
AcDbEntity
  8
0
100
AcDbBlockBegin
  2
*Paper_Space
 70
0
 10
0.0
 20
0.0
 30
0.0
  3
*Paper_Space
  1

  0
ENDBLK
  5
1D
100
AcDbEntity
  8
0
100
AcDbBlockEnd
  0
BLOCK
  5
214
100
AcDbEntity
  8
0
100
AcDbBlockBegin
  2
_FILLED
 70
64
 10
0.0
 20
0.0
  3
_FILLED
  1

  0
SOLID
  5
215
100
AcDbEntity
  8
0
  6
BYBLOCK
 62
0
100
AcDbTrace
 10
0.0
 20
0.0
 11
-1.0
 21
0.25
 12
-1.0
 22
-0.25
 13
-1.0
 23
-0.25
  0
ENDBLK
  5
216
100
AcDbEntity
  8
0
  6
BYBLOCK
 62
0
100
AcDbBlockEnd
  0
ENDSEC
  0
SECTION
  2
ENTITIES
  0
LINE
  5
217
100
AcDbEntity
  8
0
100
AcDbLine
 62
7
  6
BYLAYER
 10
6.9425197835
 20
39.9326253046
 11
6.9425197835
 21
47.6873258422
  0
LINE
  5
218
100
AcDbEntity
  8
0
100
AcDbLine
 62
7
  6
BYLAYER
 10
8.7424395247
 20
55.1099755739
 11
8.7424395247
 21
32.5099755743
  0
LINE
  5
219
100
AcDbEntity
  8
0
100
AcDbLine
 62
7
  6
BYLAYER
 10
8.9424395253
 20
32.3099755737
 11
8.9424395246
 21
55.3099755737
  0
LINE
  5
21A
100
AcDbEntity
  8
0
100
AcDbLine
 62
7
  6
BYLAYER
 10
7.7425197847
 20
48.4873258426
 11
6.9425197842
 21
47.6873258421
  0
LINE
  5
21B
100
AcDbEntity
  8
0
100
AcDbLine
 62
7
  6
BYLAYER
 10
6.9425197842
 20
39.9326253043
 11
7.7425197849
 21
39.1326253054
  0
LINE
  5
21C
100
AcDbEntity
  8
0
100
AcDbLine
 62
7
  6
BYLAYER
 10
21.4822395519
 20
51.5428805069
 11
21.670749209
 21
51.7313901639
  0
LINE
  5
21D
100
AcDbEntity
  8
0
100
AcDbLine
 62
7
  6
BYLAYER
 10
21.8639343748
 20
51.5382049983
 11
21.6754247168
 21
51.3496953413
  0
LINE
  5
21E
100
AcDbEntity
  8
0
100
AcDbLine
 62
7
  6
BYLAYER
 10
23.9425197835
 20
32.3552378448
 11
23.2596770725
 21
32.5382049983
  0
LINE
  5
21F
100
AcDbEntity
  8
0
100
AcDbLine
 62
7
  6
BYLAYER
 10
23.4010984284
 20
32.7313901635
 11
24.0839411403
 21
32.5484230103
  0
LINE
  5
220
100
AcDbEntity
  8
0
100
AcDbLine
 62
7
  6
BYLAYER
 10
21.670749209
 20
35.8885609842
 11
21.4822395519
 21
36.0770706403
  0
LINE
  5
221
100
AcDbEntity
  8
0
100
AcDbLine
 62
7
  6
BYLAYER
 10
21.6754247169
 20
36.2702558062
 11
21.863934374
 21
36.0817461491
  0
LINE
  5
222
100
AcDbEntity
  8
0
100
AcDbLine
 62
7
  6
BYLAYER
 10
27.0211051943
 20
55.0817461488
 11
27.2493346192
 21
55.3099755738
  0
LINE
  5
223
100
AcDbEntity
  8
0
100
AcDbLine
 62
7
  6
BYLAYER
 10
27.4028000163
 20
55.0770706411
 11
27.2142903593
 21
54.888560984
  0
LINE
  5
224
100
AcDbEntity
  8
0
100
AcDbLine
 62
7
  6
BYLAYER
 10
51.7265886814
 20
32.4416696965
 11
56.8844692448
 21
32.4529017055
  0
LINE
  5
225
100
AcDbEntity
  8
0
100
AcDbLine
 62
7
  6
BYLAYER
 10
8.9424395239
 20
32.3099755737
 11
56.7463447069
 21
32.3099755737
  0
LINE
  5
226
100
AcDbEntity
  8
0
100
AcDbLine
 62
7
  6
BYLAYER
 10
24.6596773451
 20
32.3238456442
 11
24.2253626821
 21
32.3238456385
  0
LINE
  5
227
100
AcDbEntity
  8
0
100
AcDbLine
 62
7
  6
BYLAYER
 10
51.5924298105
 20
32.5099755729
 11
27.5946627571
 21
32.5099755729
  0
LINE
  5
228
100
AcDbEntity
  8
0
100
AcDbLine
 62
7
  6
BYLAYER
 10
21.2903768061
 20
32.5099755729
 11
8.7424395247
 21
32.5099755729
  0
LINE
  5
229
100
AcDbEntity
  8
0
100
AcDbLine
 62
7
  6
BYLAYER
 10
24.6596770723
 20
32.5170308089
 11
24.2253624966
 21
32.5170308034
  0
LINE
  5
22A
100
AcDbEntity
  8
0
100
AcDbLine
 62
7
  6
BYLAYER
 10
21.8639343745
 20
32.5382049983
 11
23.2596770725
 21
32.5382049983
  0
LINE
  5
22B
100
AcDbEntity
  8
0
100
AcDbLine
 62
7
  6
BYLAYER
 10
25.6253624963
 20
32.5382049983
 11
27.0211051939
 21
32.5382049983
  0
LINE
  5
22C
100
AcDbEntity
  8
0
100
AcDbLine
 62
7
  6
BYLAYER
 10
27.5959851816
 20
32.5428805071
 11
27.4028000163
 21
32.5428805071
  0
LINE
  5
22D
100
AcDbEntity
  8
0
100
AcDbLine
 62
7
  6
BYLAYER
 10
21.4822395519
 20
32.5428805066
 11
21.2890543858
 21
32.5428805066
  0
LINE
  5
22E
100
AcDbEntity
  8
0
100
AcDbLine
 62
7
  6
BYLAYER
 10
27.2142903593
 20
32.7313901632
 11
25.4839411403
 21
32.7313901637
  0
LINE
  5
22F
100
AcDbEntity
  8
0
100
AcDbLine
 62
7
  6
BYLAYER
 10
23.4010984284
 20
32.7313901637
 11
21.670749209
 21
32.7313901633
  0
LINE
  5
230
100
AcDbEntity
  8
0
100
AcDbLine
 62
7
  6
BYLAYER
 10
27.4031302075
 20
32.5254365946
 11
27.5946627571
 21
32.5099755738
  0
LINE
  5
231
100
AcDbEntity
  8
0
100
AcDbLine
 62
7
  6
BYLAYER
 10
27.2493346188
 20
32.3099755735
 11
27.0211051939
 21
32.5382049983
  0
LINE
  5
232
100
AcDbEntity
  8
0
100
AcDbLine
 62
7
  6
BYLAYER
 10
27.2142903593
 20
32.7313901632
 11
27.4028000163
 21
32.542880507
  0
LINE
  5
233
100
AcDbEntity
  8
0
100
AcDbLine
 62
7
  6
BYLAYER
 10
21.2890543858
 20
55.0770706428
 11
21.2890543541
 21
51.5428805477
  0
LINE
  5
234
100
AcDbEntity
  8
0
100
AcDbLine
 62
7
  6
BYLAYER
 10
21.2890543858
 20
36.0770706403
 11
21.2890543858
 21
32.5428805071
  0
LINE
  5
235
100
AcDbEntity
  8
0
100
AcDbLine
 62
7
  6
BYLAYER
 10
21.4822395519
 20
32.5428805069
 11
21.4822395519
 21
36.0770706403
  0
LINE
  5
236
100
AcDbEntity
  8
0
100
AcDbLine
 62
7
  6
BYLAYER
 10
21.4822395519
 20
51.5428805069
 11
21.4822395519
 21
55.0770706403
  0
LINE
  5
237
100
AcDbEntity
  8
0
100
AcDbLine
 62
7
  6
BYLAYER
 10
21.670749209
 20
54.8885609842
 11
21.670749209
 21
51.7313901639
  0
LINE
  5
238
100
AcDbEntity
  8
0
100
AcDbLine
 62
7
  6
BYLAYER
 10
21.670749209
 20
35.8885609842
 11
21.670749209
 21
32.7313901639
  0
LINE
  5
239
100
AcDbEntity
  8
0
100
AcDbLine
 62
7
  6
BYLAYER
 10
21.6754247169
 20
36.2702558062
 11
21.6754247169
 21
36.4634409713
  0
LINE
  5
23A
100
AcDbEntity
  8
0
100
AcDbLine
 62
7
  6
BYLAYER
 10
21.6754247167
 20
51.156510176
 11
21.6754247167
 21
51.3496953413
  0
LINE
  5
23B
100
AcDbEntity
  8
0
100
AcDbLine
 62
7
  6
BYLAYER
 10
21.8639343743
 20
32.5382049984
 11
21.8639343743
 21
36.0817461491
  0
LINE
  5
23C
100
AcDbEntity
  8
0
100
AcDbLine
 62
7
  6
BYLAYER
 10
21.8639343738
 20
51.5382049983
 11
21.8639343743
 21
55.0817461491
  0
LINE
  5
23D
100
AcDbEntity
  8
0
100
AcDbLine
 62
7
  6
BYLAYER
 10
25.6253624963
 20
32.5382049983
 11
24.9425193792
 21
32.3552377691
  0
LINE
  5
23E
100
AcDbEntity
  8
0
100
AcDbLine
 62
7
  6
BYLAYER
 10
24.8010984278
 20
32.5484230103
 11
25.4839411398
 21
32.7313901635
  0
LINE
  5
23F
100
AcDbEntity
  8
0
100
AcDbLine
 62
7
  6
BYLAYER
 10
21.4819093402
 20
32.525436693
 11
21.2903767638
 21
32.5099756268
  0
LINE
  5
240
100
AcDbEntity
  8
0
100
AcDbLine
 62
7
  6
BYLAYER
 10
25.4839411398
 20
35.8885609841
 11
24.8010984278
 21
36.0715281373
  0
LINE
  5
241
100
AcDbEntity
  8
0
100
AcDbLine
 62
7
  6
BYLAYER
 10
24.9425197698
 20
36.2647133062
 11
25.6253624963
 21
36.0817461491
  0
LINE
  5
242
100
AcDbEntity
  8
0
100
AcDbLine
 62
7
  6
BYLAYER
 10
23.2596770714
 20
55.0817461491
 11
23.2596770714
 21
51.5382049983
  0
LINE
  5
243
100
AcDbEntity
  8
0
100
AcDbLine
 62
7
  6
BYLAYER
 10
23.2596770712
 20
36.0817461491
 11
23.2596770712
 21
32.5382049984
  0
LINE
  5
244
100
AcDbEntity
  8
0
100
AcDbLine
 62
7
  6
BYLAYER
 10
23.4010984284
 20
32.7313901635
 11
23.4010984284
 21
35.8885609841
  0
LINE
  5
245
100
AcDbEntity
  8
0
100
AcDbLine
 62
7
  6
BYLAYER
 10
23.4010984284
 20
51.7313901633
 11
23.4010984284
 21
54.8885609841
  0
LINE
  5
246
100
AcDbEntity
  8
0
100
AcDbLine
 62
7
  6
BYLAYER
 10
23.9648418506
 20
51.3496953413
 11
23.9648418506
 21
51.156510176
  0
LINE
  5
247
100
AcDbEntity
  8
0
100
AcDbLine
 62
7
  6
BYLAYER
 10
23.9648419314
 20
36.4634409713
 11
23.9648419314
 21
36.2702558062
  0
LINE
  5
248
100
AcDbEntity
  8
0
100
AcDbLine
 62
7
  6
BYLAYER
 10
24.0839411403
 20
55.0715281373
 11
24.0839411403
 21
51.5484230101
  0
LINE
  5
249
100
AcDbEntity
  8
0
100
AcDbLine
 62
7
  6
BYLAYER
 10
24.0839411403
 20
36.0715281373
 11
24.0839411403
 21
32.5484230103
  0
LINE
  5
24A
100
AcDbEntity
  8
0
100
AcDbLine
 62
7
  6
BYLAYER
 10
24.2253624966
 20
32.3238456414
 11
24.2253624963
 21
36.4493305049
  0
LINE
  5
24B
100
AcDbEntity
  8
0
100
AcDbLine
 62
7
  6
BYLAYER
 10
24.2253624958
 20
51.1706206482
 11
24.2253625649
 21
55.296105503
  0
LINE
  5
24C
100
AcDbEntity
  8
0
100
AcDbLine
 62
7
  6
BYLAYER
 10
24.6596770718
 20
55.296105503
 11
24.6596769514
 21
51.1706206482
  0
LINE
  5
24D
100
AcDbEntity
  8
0
100
AcDbLine
 62
7
  6
BYLAYER
 10
24.6596769349
 20
36.4493305049
 11
24.6596770307
 21
32.3238456414
  0
LINE
  5
24E
100
AcDbEntity
  8
0
100
AcDbLine
 62
7
  6
BYLAYER
 10
24.8010984278
 20
32.5484230103
 11
24.8010984278
 21
36.0715281373
  0
LINE
  5
24F
100
AcDbEntity
  8
0
100
AcDbLine
 62
7
  6
BYLAYER
 10
24.8010984278
 20
51.5484230101
 11
24.8010984278
 21
55.0715281276
  0
LINE
  5
250
100
AcDbEntity
  8
0
100
AcDbLine
 62
7
  6
BYLAYER
 10
21.6719450777
 20
41.5664084124
 11
22.5678649502
 21
43.9003594796
  0
LINE
  5
251
100
AcDbEntity
  8
0
100
AcDbLine
 62
7
  6
BYLAYER
 10
7.7425197849
 20
39.1326253054
 11
8.7424395247
 21
39.7099755731
  0
LINE
  5
252
100
AcDbEntity
  8
0
100
AcDbLine
 62
7
  6
BYLAYER
 10
21.670749209
 20
35.8885609843
 11
23.4010984284
 21
35.8885609838
  0
LINE
  5
253
100
AcDbEntity
  8
0
100
AcDbLine
 62
7
  6
BYLAYER
 10
25.4839411403
 20
35.8885609838
 11
27.2142903593
 21
35.8885609842
  0
LINE
  5
254
100
AcDbEntity
  8
0
100
AcDbLine
 62
7
  6
BYLAYER
 10
21.2890543858
 20
36.0770706403
 11
21.4822395519
 21
36.0770706403
  0
LINE
  5
255
100
AcDbEntity
  8
0
100
AcDbLine
 62
7
  6
BYLAYER
 10
27.4028000163
 20
36.0770706412
 11
27.5959851816
 21
36.0770706412
  0
LINE
  5
256
100
AcDbEntity
  8
0
100
AcDbLine
 62
7
  6
BYLAYER
 10
27.0211051939
 20
36.0817461491
 11
25.6253624963
 21
36.0817461491
  0
LINE
  5
257
100
AcDbEntity
  8
0
100
AcDbLine
 62
7
  6
BYLAYER
 10
23.2596770725
 20
36.0817461491
 11
21.863934374
 21
36.0817461491
  0
LINE
  5
258
100
AcDbEntity
  8
0
100
AcDbLine
 62
7
  6
BYLAYER
 10
24.2253624966
 20
36.1029203377
 11
24.6596770723
 21
36.1029203377
  0
LINE
  5
259
100
AcDbEntity
  8
0
100
AcDbLine
 62
7
  6
BYLAYER
 10
21.6754247169
 20
36.2702558062
 11
23.9648419317
 21
36.2702558062
  0
LINE
  5
25A
100
AcDbEntity
  8
0
100
AcDbLine
 62
7
  6
BYLAYER
 10
24.9201970272
 20
36.2702558062
 11
27.209614852
 21
36.2702558062
  0
LINE
  5
25B
100
AcDbEntity
  8
0
100
AcDbLine
 62
7
  6
BYLAYER
 10
24.2253624963
 20
36.2761254185
 11
24.6596769349
 21
36.2761254185
  0
LINE
  5
25C
100
AcDbEntity
  8
0
100
AcDbLine
 62
7
  6
BYLAYER
 10
24.2253624753
 20
36.4493305105
 11
24.6596757137
 21
36.4493304994
  0
LINE
  5
25D
100
AcDbEntity
  8
0
100
AcDbLine
 62
7
  6
BYLAYER
 10
27.2096148519
 20
36.4634409713
 11
24.9201976037
 21
36.4634409713
  0
LINE
  5
25E
100
AcDbEntity
  8
0
100
AcDbLine
 62
7
  6
BYLAYER
 10
23.9648419781
 20
36.4634409713
 11
21.6754247168
 21
36.4634409713
  0
LINE
  5
25F
100
AcDbEntity
  8
0
100
AcDbLine
 62
7
  6
BYLAYER
 10
8.7424395247
 20
47.9100219108
 11
7.7425197847
 21
48.4873258426
  0
LINE
  5
260
100
AcDbEntity
  8
0
100
AcDbLine
 62
7
  6
BYLAYER
 10
22.5678649502
 20
43.9003594796
 11
23.1027872836
 21
43.2397854122
  0
LINE
  5
261
100
AcDbEntity
  8
0
100
AcDbLine
 62
7
  6
BYLAYER
 10
23.6062435968
 20
42.6180686428
 11
24.1411659284
 21
41.9574945754
  0
LINE
  5
262
100
AcDbEntity
  8
0
100
AcDbLine
 62
7
  6
BYLAYER
 10
24.9201976038
 20
36.2702558062
 11
24.9201976038
 21
36.4634409713
  0
LINE
  5
263
100
AcDbEntity
  8
0
100
AcDbLine
 62
7
  6
BYLAYER
 10
24.9201976408
 20
51.156510176
 11
24.9201976408
 21
51.3496953413
  0
LINE
  5
264
100
AcDbEntity
  8
0
100
AcDbLine
 62
7
  6
BYLAYER
 10
25.4839411398
 20
54.8885609743
 11
25.4839411398
 21
51.7313901633
  0
LINE
  5
265
100
AcDbEntity
  8
0
100
AcDbLine
 62
7
  6
BYLAYER
 10
25.4839411398
 20
35.8885609841
 11
25.4839411398
 21
32.7313901635
  0
LINE
  5
266
100
AcDbEntity
  8
0
100
AcDbLine
 62
7
  6
BYLAYER
 10
25.6253624969
 20
32.5382049984
 11
25.6253624969
 21
36.0817461491
  0
LINE
  5
267
100
AcDbEntity
  8
0
100
AcDbLine
 62
7
  6
BYLAYER
 10
25.6253624971
 20
51.5382049983
 11
25.6253624971
 21
55.0817461491
  0
LINE
  5
268
100
AcDbEntity
  8
0
100
AcDbLine
 62
7
  6
BYLAYER
 10
22.8100885799
 20
45.1902539375
 11
23.4318053494
 21
45.6937102507
  0
LINE
  5
269
100
AcDbEntity
  8
0
100
AcDbLine
 62
7
  6
BYLAYER
 10
24.0839411403
 20
36.0715281373
 11
23.4010984284
 21
35.8885609841
  0
LINE
  5
26A
100
AcDbEntity
  8
0
100
AcDbLine
 62
7
  6
BYLAYER
 10
29.3922672527
 20
38.8602281063
 11
28.3316070804
 21
39.9208882767
  0
LINE
  5
26B
100
AcDbEntity
  8
0
100
AcDbLine
 62
7
  6
BYLAYER
 10
25.4532342231
 20
41.9262408986
 11
24.5096364372
 21
43.0914871205
  0
LINE
  5
26C
100
AcDbEntity
  8
0
100
AcDbLine
 62
7
  6
BYLAYER
 10
23.7448856938
 20
44.0358756368
 11
22.8100885799
 21
45.1902539375
  0
LINE
  5
26D
100
AcDbEntity
  8
0
100
AcDbLine
 62
7
  6
BYLAYER
 10
23.4318053494
 20
45.6937102507
 11
24.3531753417
 21
44.5559130643
  0
LINE
  5
26E
100
AcDbEntity
  8
0
100
AcDbLine
 62
7
  6
BYLAYER
 10
25.132670415
 20
43.5933168139
 11
26.0749509907
 21
42.4296972118
  0
LINE
  5
26F
100
AcDbEntity
  8
0
100
AcDbLine
 62
7
  6
BYLAYER
 10
27.021105194
 20
55.0817461491
 11
27.021105194
 21
51.5382049983
  0
LINE
  5
270
100
AcDbEntity
  8
0
100
AcDbLine
 62
7
  6
BYLAYER
 10
27.0211051945
 20
36.0817461491
 11
27.021105194
 21
32.5382049984
  0
LINE
  5
271
100
AcDbEntity
  8
0
100
AcDbLine
 62
7
  6
BYLAYER
 10
27.2096148511
 20
51.3496953413
 11
27.2096148511
 21
51.156510176
  0
LINE
  5
272
100
AcDbEntity
  8
0
100
AcDbLine
 62
7
  6
BYLAYER
 10
27.2096148518
 20
36.4634409713
 11
27.2096148518
 21
36.2702558062
  0
LINE
  5
273
100
AcDbEntity
  8
0
100
AcDbLine
 62
7
  6
BYLAYER
 10
27.2142903593
 20
32.7313901632
 11
27.2142903593
 21
35.8885609837
  0
LINE
  5
274
100
AcDbEntity
  8
0
100
AcDbLine
 62
7
  6
BYLAYER
 10
27.2142903593
 20
51.7313901632
 11
27.2142903593
 21
54.888560984
  0
LINE
  5
275
100
AcDbEntity
  8
0
100
AcDbLine
 62
7
  6
BYLAYER
 10
27.4028000163
 20
55.0770706411
 11
27.4028000163
 21
51.542880507
  0
LINE
  5
276
100
AcDbEntity
  8
0
100
AcDbLine
 62
7
  6
BYLAYER
 10
27.4028000163
 20
36.0770706407
 11
27.4028000163
 21
32.542880507
  0
LINE
  5
277
100
AcDbEntity
  8
0
100
AcDbLine
 62
7
  6
BYLAYER
 10
27.5959851811
 20
32.5428805071
 11
27.5959851811
 21
36.0770706421
  0
LINE
  5
278
100
AcDbEntity
  8
0
100
AcDbLine
 62
7
  6
BYLAYER
 10
27.5959851811
 20
51.5428805052
 11
27.5959851811
 21
55.0770706403
  0
LINE
  5
279
100
AcDbEntity
  8
0
100
AcDbLine
 62
7
  6
BYLAYER
 10
23.1027872836
 20
43.2397854122
 11
23.7131634079
 21
43.7340582505
  0
LINE
  5
27A
100
AcDbEntity
  8
0
100
AcDbLine
 62
7
  6
BYLAYER
 10
24.6836542427
 20
44.5199462343
 11
26.133656531
 21
45.6941349375
  0
LINE
  5
27B
100
AcDbEntity
  8
0
100
AcDbLine
 62
7
  6
BYLAYER
 10
26.6371128461
 20
45.0724181681
 11
25.1626348581
 21
43.8784094338
  0
LINE
  5
27C
100
AcDbEntity
  8
0
100
AcDbLine
 62
7
  6
BYLAYER
 10
24.2286327459
 20
43.1220694396
 11
23.6062435968
 21
42.6180686428
  0
LINE
  5
27D
100
AcDbEntity
  8
0
100
AcDbLine
 62
7
  6
BYLAYER
 10
23.2596770725
 20
36.0817461491
 11
23.9425201909
 21
36.2647133791
  0
LINE
  5
27E
100
AcDbEntity
  8
0
100
AcDbLine
 62
7
  6
BYLAYER
 10
26.0749509907
 20
42.4296972118
 11
25.4532342231
 21
41.9262408986
  0
LINE
  5
27F
100
AcDbEntity
  8
0
100
AcDbLine
 62
7
  6
BYLAYER
 10
47.6422261082
 20
41.8099755737
 11
40.0518019425
 21
41.8099755737
  0
LINE
  5
280
100
AcDbEntity
  8
0
100
AcDbLine
 62
7
  6
BYLAYER
 10
47.5942760705
 20
41.8299755737
 11
40.067991184
 21
41.8299755737
  0
LINE
  5
281
100
AcDbEntity
  8
0
100
AcDbLine
 62
7
  6
BYLAYER
 10
46.9002548097
 20
42.1099755745
 11
46.7847847561
 21
42.1099755745
  0
LINE
  5
282
100
AcDbEntity
  8
0
100
AcDbLine
 62
7
  6
BYLAYER
 10
43.9002548097
 20
42.1099755745
 11
43.7847847561
 21
42.1099755745
  0
LINE
  5
283
100
AcDbEntity
  8
0
100
AcDbLine
 62
7
  6
BYLAYER
 10
40.8425197838
 20
42.1099755745
 11
40.7270497302
 21
42.1099755745
  0
LINE
  5
284
100
AcDbEntity
  8
0
100
AcDbLine
 62
7
  6
BYLAYER
 10
26.133656531
 20
45.6941349375
 11
26.6371128461
 21
45.0724181681
  0
LINE
  5
285
100
AcDbEntity
  8
0
100
AcDbLine
 62
7
  6
BYLAYER
 10
51.5924298087
 20
55.1099755727
 11
51.7272169875
 21
55.17858705
  0
LINE
  5
286
100
AcDbEntity
  8
0
100
AcDbLine
 62
7
  6
BYLAYER
 10
24.1411659284
 20
41.9574945754
 11
21.6719450777
 21
41.5664084124
  0
LINE
  5
287
100
AcDbEntity
  8
0
100
AcDbLine
 62
7
  6
BYLAYER
 10
40.7270497302
 20
42.8099755737
 11
40.8425197838
 21
42.8099755737
  0
LINE
  5
288
100
AcDbEntity
  8
0
100
AcDbLine
 62
7
  6
BYLAYER
 10
43.7847847561
 20
42.8099755737
 11
43.9002548097
 21
42.8099755737
  0
LINE
  5
289
100
AcDbEntity
  8
0
100
AcDbLine
 62
7
  6
BYLAYER
 10
46.7847847561
 20
42.8099755737
 11
46.9002548097
 21
42.8099755737
  0
LINE
  5
28A
100
AcDbEntity
  8
0
100
AcDbLine
 62
7
  6
BYLAYER
 10
51.7272173567
 20
32.4413638732
 11
51.5924298101
 21
32.5099755741
  0
LINE
  5
28B
100
AcDbEntity
  8
0
100
AcDbLine
 62
7
  6
BYLAYER
 10
21.4822395519
 20
32.5428805069
 11
21.670749209
 21
32.7313901639
  0
LINE
  5
28C
100
AcDbEntity
  8
0
100
AcDbLine
 62
7
  6
BYLAYER
 10
21.8639343745
 20
32.5382049983
 11
21.6357049496
 21
32.3099755735
  0
LINE
  5
28D
100
AcDbEntity
  8
0
100
AcDbLine
 62
7
  6
BYLAYER
 10
27.0211051939
 20
36.0817461491
 11
27.209614852
 21
36.2702558062
  0
LINE
  5
28E
100
AcDbEntity
  8
0
100
AcDbLine
 62
7
  6
BYLAYER
 10
45.4002548097
 20
44.8099755737
 11
45.2847847561
 21
44.8099755737
  0
LINE
  5
28F
100
AcDbEntity
  8
0
100
AcDbLine
 62
7
  6
BYLAYER
 10
42.4002548097
 20
44.8099755737
 11
42.2847847561
 21
44.8099755737
  0
LINE
  5
290
100
AcDbEntity
  8
0
100
AcDbLine
 62
7
  6
BYLAYER
 10
42.2847847561
 20
45.509975573
 11
42.4002548097
 21
45.509975573
  0
LINE
  5
291
100
AcDbEntity
  8
0
100
AcDbLine
 62
7
  6
BYLAYER
 10
45.2847847561
 20
45.509975573
 11
45.4002548097
 21
45.509975573
  0
LINE
  5
292
100
AcDbEntity
  8
0
100
AcDbLine
 62
7
  6
BYLAYER
 10
40.1024893576
 20
45.7899755737
 11
47.5364793665
 21
45.7899755737
  0
LINE
  5
293
100
AcDbEntity
  8
0
100
AcDbLine
 62
7
  6
BYLAYER
 10
40.0907784571
 20
45.8099755737
 11
47.5708000569
 21
45.8099755737
  0
LINE
  5
294
100
AcDbEntity
  8
0
100
AcDbLine
 62
7
  6
BYLAYER
 10
21.670749209
 20
54.8885609842
 11
21.4822395519
 21
55.0770706403
  0
LINE
  5
295
100
AcDbEntity
  8
0
100
AcDbLine
 62
7
  6
BYLAYER
 10
21.6357049498
 20
55.3099755738
 11
21.8639343748
 21
55.0817461488
  0
LINE
  5
296
100
AcDbEntity
  8
0
100
AcDbLine
 62
7
  6
BYLAYER
 10
27.2096148512
 20
51.3496953413
 11
27.0211051942
 21
51.5382049983
  0
LINE
  5
297
100
AcDbEntity
  8
0
100
AcDbLine
 62
7
  6
BYLAYER
 10
27.4028000163
 20
36.0770706407
 11
27.2142903593
 21
35.8885609837
  0
LINE
  5
298
100
AcDbEntity
  8
0
100
AcDbLine
 62
7
  6
BYLAYER
 10
27.2142903593
 20
51.7313901632
 11
27.4028000163
 21
51.542880507
  0
LINE
  5
299
100
AcDbEntity
  8
0
100
AcDbLine
 62
7
  6
BYLAYER
 10
23.9425196303
 20
51.355237872
 11
23.2596770724
 21
51.5382049983
  0
LINE
  5
29A
100
AcDbEntity
  8
0
100
AcDbLine
 62
7
  6
BYLAYER
 10
23.4010984284
 20
51.7313901633
 11
24.0839411403
 21
51.5484230101
  0
LINE
  5
29B
100
AcDbEntity
  8
0
100
AcDbLine
 62
7
  6
BYLAYER
 10
21.6754247168
 20
51.1565101761
 11
23.9648418552
 21
51.1565101761
  0
LINE
  5
29C
100
AcDbEntity
  8
0
100
AcDbLine
 62
7
  6
BYLAYER
 10
24.920197641
 20
51.1565101761
 11
27.2096148519
 21
51.1565101761
  0
LINE
  5
29D
100
AcDbEntity
  8
0
100
AcDbLine
 62
7
  6
BYLAYER
 10
24.2253624959
 20
51.1706206481
 11
24.6596769423
 21
51.1706206034
  0
LINE
  5
29E
100
AcDbEntity
  8
0
100
AcDbLine
 62
7
  6
BYLAYER
 10
24.2253624967
 20
51.3438257289
 11
24.6596770175
 21
51.3438257289
  0
LINE
  5
29F
100
AcDbEntity
  8
0
100
AcDbLine
 62
7
  6
BYLAYER
 10
27.2096148512
 20
51.3496953413
 11
24.9201976372
 21
51.3496953413
  0
LINE
  5
2A0
100
AcDbEntity
  8
0
100
AcDbLine
 62
7
  6
BYLAYER
 10
23.9648422671
 20
51.3496953413
 11
21.6754247168
 21
51.3496953413
  0
LINE
  5
2A1
100
AcDbEntity
  8
0
100
AcDbLine
 62
7
  6
BYLAYER
 10
39.8425197841
 20
42.0192577321
 11
39.8425197841
 21
45.5617169005
  0
LINE
  5
2A2
100
AcDbEntity
  8
0
100
AcDbLine
 62
7
  6
BYLAYER
 10
39.8625197841
 20
42.0354469736
 11
39.8625197841
 21
45.5500060002
  0
LINE
  5
2A3
100
AcDbEntity
  8
0
100
AcDbLine
 62
7
  6
BYLAYER
 10
40.7270497302
 20
42.1099755745
 11
40.7270497302
 21
42.8099755737
  0
LINE
  5
2A4
100
AcDbEntity
  8
0
100
AcDbLine
 62
7
  6
BYLAYER
 10
40.8425197838
 20
42.8099755737
 11
40.8425197838
 21
42.1099755745
  0
LINE
  5
2A5
100
AcDbEntity
  8
0
100
AcDbLine
 62
7
  6
BYLAYER
 10
25.6253624963
 20
51.5382049983
 11
24.9425197815
 21
51.3552378443
  0
LINE
  5
2A6
100
AcDbEntity
  8
0
100
AcDbLine
 62
7
  6
BYLAYER
 10
24.8010984278
 20
51.5484230101
 11
25.4839411398
 21
51.7313901633
  0
LINE
  5
2A7
100
AcDbEntity
  8
0
100
AcDbLine
 62
7
  6
BYLAYER
 10
24.6596770717
 20
51.5170308097
 11
24.2253624973
 21
51.5170308097
  0
LINE
  5
2A8
100
AcDbEntity
  8
0
100
AcDbLine
 62
7
  6
BYLAYER
 10
21.8639343748
 20
51.5382049983
 11
23.2596770724
 21
51.5382049983
  0
LINE
  5
2A9
100
AcDbEntity
  8
0
100
AcDbLine
 62
7
  6
BYLAYER
 10
25.6253624963
 20
51.5382049983
 11
27.0211051942
 21
51.5382049983
  0
LINE
  5
2AA
100
AcDbEntity
  8
0
100
AcDbLine
 62
7
  6
BYLAYER
 10
27.5959851811
 20
51.5428805053
 11
27.4028000163
 21
51.5428805053
  0
LINE
  5
2AB
100
AcDbEntity
  8
0
100
AcDbLine
 62
7
  6
BYLAYER
 10
21.4822395519
 20
51.5428805126
 11
21.2890543867
 21
51.5428805126
  0
LINE
  5
2AC
100
AcDbEntity
  8
0
100
AcDbLine
 62
7
  6
BYLAYER
 10
27.2142903592
 20
51.7313901632
 11
25.4839411398
 21
51.7313901636
  0
LINE
  5
2AD
100
AcDbEntity
  8
0
100
AcDbLine
 62
7
  6
BYLAYER
 10
23.4010984279
 20
51.7313901636
 11
21.6707492089
 21
51.7313901634
  0
LINE
  5
2AE
100
AcDbEntity
  8
0
100
AcDbLine
 62
7
  6
BYLAYER
 10
25.4839411398
 20
54.8885609743
 11
24.8010984278
 21
55.0715281276
  0
LINE
  5
2AF
100
AcDbEntity
  8
0
100
AcDbLine
 62
7
  6
BYLAYER
 10
24.9425198707
 20
55.2647132927
 11
25.6253624962
 21
55.0817461488
  0
LINE
  5
2B0
100
AcDbEntity
  8
0
100
AcDbLine
 62
7
  6
BYLAYER
 10
42.2847847561
 20
44.8099755737
 11
42.2847847561
 21
45.509975573
  0
LINE
  5
2B1
100
AcDbEntity
  8
0
100
AcDbLine
 62
7
  6
BYLAYER
 10
42.4002548097
 20
45.509975573
 11
42.4002548097
 21
44.8099755737
  0
LINE
  5
2B2
100
AcDbEntity
  8
0
100
AcDbLine
 62
7
  6
BYLAYER
 10
21.6707492089
 20
54.8885609843
 11
23.4010984279
 21
54.8885609838
  0
LINE
  5
2B3
100
AcDbEntity
  8
0
100
AcDbLine
 62
7
  6
BYLAYER
 10
25.4839411398
 20
54.8885609838
 11
27.2142903592
 21
54.8885609838
  0
LINE
  5
2B4
100
AcDbEntity
  8
0
100
AcDbLine
 62
7
  6
BYLAYER
 10
21.290376764
 20
55.1099755143
 11
21.48190934
 21
55.0945144478
  0
LINE
  5
2B5
100
AcDbEntity
  8
0
100
AcDbLine
 62
7
  6
BYLAYER
 10
43.7847847561
 20
42.1099755745
 11
43.7847847561
 21
42.8099755737
  0
LINE
  5
2B6
100
AcDbEntity
  8
0
100
AcDbLine
 62
7
  6
BYLAYER
 10
43.9002548097
 20
42.8099755737
 11
43.9002548097
 21
42.1099755745
  0
LINE
  5
2B7
100
AcDbEntity
  8
0
100
AcDbLine
 62
7
  6
BYLAYER
 10
24.0839411403
 20
55.0715281373
 11
23.4010984284
 21
54.8885609841
  0
LINE
  5
2B8
100
AcDbEntity
  8
0
100
AcDbLine
 62
7
  6
BYLAYER
 10
27.5946627794
 20
55.1099755737
 11
27.4031302194
 21
55.0945145537
  0
LINE
  5
2B9
100
AcDbEntity
  8
0
100
AcDbLine
 62
7
  6
BYLAYER
 10
21.2890543867
 20
55.0770706403
 11
21.4822395519
 21
55.0770706403
  0
LINE
  5
2BA
100
AcDbEntity
  8
0
100
AcDbLine
 62
7
  6
BYLAYER
 10
27.4028000163
 20
55.0770706409
 11
27.5959851811
 21
55.0770706409
  0
LINE
  5
2BB
100
AcDbEntity
  8
0
100
AcDbLine
 62
7
  6
BYLAYER
 10
27.0211051943
 20
55.0817461488
 11
25.6253624962
 21
55.0817461488
  0
LINE
  5
2BC
100
AcDbEntity
  8
0
100
AcDbLine
 62
7
  6
BYLAYER
 10
23.2596770725
 20
55.0817461488
 11
21.8639343748
 21
55.0817461488
  0
LINE
  5
2BD
100
AcDbEntity
  8
0
100
AcDbLine
 62
7
  6
BYLAYER
 10
24.2253624973
 20
55.1029203403
 11
24.6596770717
 21
55.1029203384
  0
LINE
  5
2BE
100
AcDbEntity
  8
0
100
AcDbLine
 62
7
  6
BYLAYER
 10
8.7424395247
 20
55.1099755745
 11
21.2903768322
 21
55.1099755745
  0
LINE
  5
2BF
100
AcDbEntity
  8
0
100
AcDbLine
 62
7
  6
BYLAYER
 10
27.5946627794
 20
55.1099755745
 11
51.5924298105
 21
55.1099755745
  0
LINE
  5
2C0
100
AcDbEntity
  8
0
100
AcDbLine
 62
7
  6
BYLAYER
 10
24.6596770709
 20
55.2961055029
 11
24.2253626337
 21
55.2961055063
  0
LINE
  5
2C1
100
AcDbEntity
  8
0
100
AcDbLine
 62
7
  6
BYLAYER
 10
8.9424395239
 20
55.3099755737
 11
56.7463452363
 21
55.3099755737
  0
LINE
  5
2C2
100
AcDbEntity
  8
0
100
AcDbLine
 62
7
  6
BYLAYER
 10
56.8844662529
 20
55.1670486314
 11
51.7265883812
 21
55.1782813584
  0
LINE
  5
2C3
100
AcDbEntity
  8
0
100
AcDbLine
 62
7
  6
BYLAYER
 10
45.2847847561
 20
44.8099755737
 11
45.2847847561
 21
45.509975573
  0
LINE
  5
2C4
100
AcDbEntity
  8
0
100
AcDbLine
 62
7
  6
BYLAYER
 10
45.4002548097
 20
45.509975573
 11
45.4002548097
 21
44.8099755737
  0
LINE
  5
2C5
100
AcDbEntity
  8
0
100
AcDbLine
 62
7
  6
BYLAYER
 10
46.7847847561
 20
42.1099755745
 11
46.7847847561
 21
42.8099755737
  0
LINE
  5
2C6
100
AcDbEntity
  8
0
100
AcDbLine
 62
7
  6
BYLAYER
 10
46.9002548097
 20
42.8099755737
 11
46.9002548097
 21
42.1099755745
  0
LINE
  5
2C7
100
AcDbEntity
  8
0
100
AcDbLine
 62
7
  6
BYLAYER
 10
23.2596770725
 20
55.0817461488
 11
23.9425197835
 21
55.2647133023
  0
LINE
  5
2C8
100
AcDbEntity
  8
0
100
AcDbLine
 62
7
  6
BYLAYER
 10
47.8225197841
 20
45.5039351561
 11
47.8225197841
 21
42.0582192867
  0
LINE
  5
2C9
100
AcDbEntity
  8
0
100
AcDbLine
 62
7
  6
BYLAYER
 10
47.8425197841
 20
45.5382558467
 11
47.8425197841
 21
42.0102692496
  0
LINE
  5
2CA
100
AcDbEntity
  8
0
100
AcDbLine
 62
7
  6
BYLAYER
 10
51.5924298094
 20
55.3099755737
 11
51.5924298094
 21
55.1099755737
  0
LINE
  5
2CB
100
AcDbEntity
  8
0
100
AcDbLine
 62
7
  6
BYLAYER
 10
51.5924298101
 20
32.5099755737
 11
51.5924298101
 21
32.3099755737
  0
LINE
  5
2CC
100
AcDbEntity
  8
0
100
AcDbLine
 62
7
  6
BYLAYER
 10
56.8844314131
 20
55.1114459248
 11
56.8837210198
 21
55.1668447181
  0
LINE
  5
2CD
100
AcDbEntity
  8
0
100
AcDbLine
 62
7
  6
BYLAYER
 10
56.8838700865
 20
32.4531599286
 11
56.8844639977
 21
32.5106145113
  0
ARC
  5
2CE
100
AcDbEntity
  8
0
100
AcDbCircle
 62
7
  6
BYLAYER
 10
-928.5317943998
 20
43.8086574886
 40
985.5426313672
100
AcDbArc
 50
359.3431199042
 51
0.6570333427
  0
ARC
  5
2CF
100
AcDbEntity
  8
0
100
AcDbCircle
 62
7
  6
BYLAYER
 10
-779.6166868767
 20
43.8083001902
 40
836.5771258361
100
AcDbArc
 50
359.2260961007
 51
0.7741569264
  0
ARC
  5
2D0
100
AcDbEntity
  8
0
100
AcDbCircle
 62
7
  6
BYLAYER
 10
24.8756872481
 20
42.8099755737
 40
6.0
100
AcDbArc
 50
318.8303167638
 51
55.4602186361
  0
ARC
  5
2D1
100
AcDbEntity
  8
0
100
AcDbCircle
 62
7
  6
BYLAYER
 10
24.7738442257
 20
35.6330218812
 40
0.6538240083
100
AcDbArc
 50
75.0495330416
 51
77.0653014872
  0
ARC
  5
2D2
100
AcDbEntity
  8
0
100
AcDbCircle
 62
7
  6
BYLAYER
 10
24.1062857298
 20
35.6528002734
 40
0.6334486199
100
AcDbArc
 50
102.902365955
 51
104.9829139358
  0
ARC
  5
2D3
100
AcDbEntity
  8
0
100
AcDbCircle
 62
7
  6
BYLAYER
 10
27.1868777247
 20
32.5428431938
 40
0.409107459
100
AcDbArc
 50
355.3919009686
 51
0.0052257615
  0
ARC
  5
2D4
100
AcDbEntity
  8
0
100
AcDbCircle
 62
7
  6
BYLAYER
 10
21.6981618066
 20
32.5428431233
 40
0.4091074242
100
AcDbArc
 50
179.9947643647
 51
184.6080895474
  0
ARC
  5
2D5
100
AcDbEntity
  8
0
100
AcDbCircle
 62
7
  6
BYLAYER
 10
47.5942760711
 20
42.0582192867
 40
0.228243713
100
AcDbArc
 50
269.9999998406
 51
0.0000002465
  0
ARC
  5
2D6
100
AcDbEntity
  8
0
100
AcDbCircle
 62
7
  6
BYLAYER
 10
27.1869889034
 20
32.5300703936
 40
0.2161909712
100
AcDbArc
 50
358.7718905971
 51
3.3969764687
  0
ARC
  5
2D7
100
AcDbEntity
  8
0
100
AcDbCircle
 62
7
  6
BYLAYER
 10
21.6980497957
 20
32.530070433
 40
0.2161901014
100
AcDbArc
 50
176.6030202566
 51
181.2281768934
  0
ARC
  5
2D8
100
AcDbEntity
  8
0
100
AcDbCircle
 62
7
  6
BYLAYER
 10
40.0518019425
 20
42.0192577321
 40
0.2092821584
100
AcDbArc
 50
180.0000000096
 51
270.0000000041
  0
ARC
  5
2D9
100
AcDbEntity
  8
0
100
AcDbCircle
 62
7
  6
BYLAYER
 10
40.067991184
 20
42.0354469736
 40
0.2054713999
100
AcDbArc
 50
179.9999990145
 51
269.9999999986
  0
ARC
  5
2DA
100
AcDbEntity
  8
0
100
AcDbCircle
 62
7
  6
BYLAYER
 10
25.2901989468
 20
43.7208809034
 40
0.2027013442
100
AcDbArc
 50
128.9999999977
 51
218.9999999145
  0
ARC
  5
2DB
100
AcDbEntity
  8
0
100
AcDbCircle
 62
7
  6
BYLAYER
 10
24.3537345227
 20
42.9652402394
 40
0.2006082788
100
AcDbArc
 50
39.0000000151
 51
129.0000000823
  0
ARC
  5
2DC
100
AcDbEntity
  8
0
100
AcDbCircle
 62
7
  6
BYLAYER
 10
47.6422261082
 20
42.0102692496
 40
0.2002936759
100
AcDbArc
 50
269.9999999943
 51
359.9999999772
  0
ARC
  5
2DD
100
AcDbEntity
  8
0
100
AcDbCircle
 62
7
  6
BYLAYER
 10
8.9424395247
 20
32.5099755737
 40
0.2
100
AcDbArc
 50
180.0
 51
269.999999788
  0
ARC
  5
2DE
100
AcDbEntity
  8
0
100
AcDbCircle
 62
7
  6
BYLAYER
 10
56.7463071417
 20
32.5099379484
 40
0.1999648219
100
AcDbArc
 50
270.0107841715
 51
0.0107806361
  0
ARC
  5
2DF
100
AcDbEntity
  8
0
100
AcDbCircle
 62
7
  6
BYLAYER
 10
29.3935909448
 20
43.8099755734
 40
25.060650014
100
AcDbArc
 50
333.0222845367
 51
26.9777154652
  0
ARC
  5
2E0
100
AcDbEntity
  8
0
100
AcDbCircle
 62
7
  6
BYLAYER
 10
29.3935909448
 20
43.8099755734
 40
24.9094047904
100
AcDbArc
 50
333.0222845353
 51
26.9777154661
  0
ARC
  5
2E1
100
AcDbEntity
  8
0
100
AcDbCircle
 62
7
  6
BYLAYER
 10
24.4425197841
 20
43.8099755737
 40
5.5
100
AcDbArc
 50
314.9999999948
 51
45.7908560552
  0
CIRCLE
  5
2E2
100
AcDbEntity
  8
0
100
AcDbCircle
 62
7
  6
BYLAYER
 10
24.4425197841
 20
43.8099755737
 40
4.15
  0
CIRCLE
  5
2E3
100
AcDbEntity
  8
0
100
AcDbCircle
 62
7
  6
BYLAYER
 10
24.4425197855
 20
43.8099755747
 40
4.0500000004
  0
ARC
  5
2E4
100
AcDbEntity
  8
0
100
AcDbCircle
 62
7
  6
BYLAYER
 10
24.1112211941
 20
51.9870251919
 40
0.6539233591
100
AcDbArc
 50
255.0494997207
 51
257.0649500725
  0
ARC
  5
2E5
100
AcDbEntity
  8
0
100
AcDbCircle
 62
7
  6
BYLAYER
 10
24.7787470067
 20
51.96717943
 40
0.6334779967
100
AcDbArc
 50
282.9023942344
 51
284.9828792637
  0
ARC
  5
2E6
100
AcDbEntity
  8
0
100
AcDbCircle
 62
7
  6
BYLAYER
 10
27.1868697491
 20
55.0771079095
 40
0.4091154346
100
AcDbArc
 50
359.9947805284
 51
4.608015203
  0
ARC
  5
2E7
100
AcDbEntity
  8
0
100
AcDbCircle
 62
7
  6
BYLAYER
 10
21.6981543598
 20
55.077107996
 40
0.4090999788
100
AcDbArc
 50
175.3918224483
 51
180.0052314475
  0
ARC
  5
2E8
100
AcDbEntity
  8
0
100
AcDbCircle
 62
7
  6
BYLAYER
 10
47.5364793665
 20
45.5039351561
 40
0.2860404176
100
AcDbArc
 50
359.9999993542
 51
90.000000001
  0
ARC
  5
2E9
100
AcDbEntity
  8
0
100
AcDbCircle
 62
7
  6
BYLAYER
 10
47.5708000569
 20
45.5382558465
 40
0.2717197272
100
AcDbArc
 50
0.0000000389
 51
89.9999999926
  0
ARC
  5
2EA
100
AcDbEntity
  8
0
100
AcDbCircle
 62
7
  6
BYLAYER
 10
40.0907784571
 20
45.5617169008
 40
0.2482586729
100
AcDbArc
 50
90.0000000012
 51
180.0000000794
  0
ARC
  5
2EB
100
AcDbEntity
  8
0
100
AcDbCircle
 62
7
  6
BYLAYER
 10
40.1024893576
 20
45.5500060002
 40
0.2399695735
100
AcDbArc
 50
90.000000074
 51
180.0000006759
  0
ARC
  5
2EC
100
AcDbEntity
  8
0
100
AcDbCircle
 62
7
  6
BYLAYER
 10
24.5365262912
 20
44.7043877361
 40
0.2359285889
100
AcDbArc
 50
218.9999999598
 51
309.0000000285
  0
ARC
  5
2ED
100
AcDbEntity
  8
0
100
AcDbCircle
 62
7
  6
BYLAYER
 10
27.1869846155
 20
55.0898809822
 40
0.2161952645
100
AcDbArc
 50
356.6030305815
 51
1.2280326792
  0
ARC
  5
2EE
100
AcDbEntity
  8
0
100
AcDbCircle
 62
7
  6
BYLAYER
 10
21.6980458588
 20
55.0898804662
 40
0.2161861562
100
AcDbArc
 50
178.7717476892
 51
183.3969757909
  0
ARC
  5
2EF
100
AcDbEntity
  8
0
100
AcDbCircle
 62
7
  6
BYLAYER
 10
23.578115858
 20
43.9008280861
 40
0.2145926815
100
AcDbArc
 50
308.9999999594
 51
39.0000000716
  0
ARC
  5
2F0
100
AcDbEntity
  8
0
100
AcDbCircle
 62
7
  6
BYLAYER
 10
8.9424395247
 20
55.1099755737
 40
0.2
100
AcDbArc
 50
90.000000212
 51
180.0
  0
ARC
  5
2F1
100
AcDbEntity
  8
0
100
AcDbCircle
 62
7
  6
BYLAYER
 10
56.7463072105
 20
55.1100131995
 40
0.1999648221
100
AcDbArc
 50
359.9892192301
 51
89.9891337581
  0
SPLINE
  5
2F2
100
AcDbEntity
  8
0
100
AcDbSpline
 62
7
  6
BYLAYER
 70
0
 71
3
 72
11
 73
7
 74
0
 42
0.0000001
 43
0.0000001
 44
0.0000000001
 40
0.0
 40
0.0
 40
0.0
 40
0.0
 40
0.2487389562
 40
0.500312297
 40
0.7516636636
 40
1.0
 40
1.0
 40
1.0
 40
1.0
 10
27.2096148515
 20
36.2702558062
 30
0.0
 10
27.2352206484
 20
36.2717378586
 30
0.0
 10
27.287925212
 20
36.2655530055
 30
0.0
 10
27.3566831789
 20
36.224003359
 30
0.0
 10
27.3982568139
 20
36.1553023775
 30
0.0
 10
27.4043728505
 20
36.1026294275
 30
0.0
 10
27.4028000164
 20
36.077070641
 30
0.0
  0
SPLINE
  5
2F3
100
AcDbEntity
  8
0
100
AcDbSpline
 62
7
  6
BYLAYER
 70
0
 71
3
 72
9
 73
5
 74
0
 42
0.0000001
 43
0.0000001
 44
0.0000000001
 40
0.0
 40
0.0
 40
0.0
 40
0.0
 40
0.5068410493
 40
1.0
 40
1.0
 40
1.0
 40
1.0
 10
24.6596769378
 20
36.2761253951
 30
0.0
 10
24.7037082689
 20
36.2760504949
 30
0.0
 10
24.7905566564
 20
36.2757484642
 30
0.0
 10
24.8774971632
 20
36.2737451646
 30
0.0
 10
24.9201976041
 20
36.2702558063
 30
0.0
  0
SPLINE
  5
2F4
100
AcDbEntity
  8
0
100
AcDbSpline
 62
7
  6
BYLAYER
 70
0
 71
3
 72
11
 73
7
 74
0
 42
0.0000001
 43
0.0000001
 44
0.0000000001
 40
0.0
 40
0.0
 40
0.0
 40
0.0
 40
0.2739525811
 40
0.540095792
 40
0.7842563812
 40
1.0
 40
1.0
 40
1.0
 40
1.0
 10
24.801098428
 20
36.0715281373
 30
0.0
 10
24.8041517977
 20
36.0943187995
 30
0.0
 10
24.8156853033
 20
36.1386872803
 30
0.0
 10
24.8471739896
 20
36.1972473844
 30
0.0
 10
24.8895950197
 20
36.242113907
 30
0.0
 10
24.9249519555
 20
36.2603213453
 30
0.0
 10
24.9425197842
 20
36.2647133024
 30
0.0
  0
SPLINE
  5
2F5
100
AcDbEntity
  8
0
100
AcDbSpline
 62
7
  6
BYLAYER
 70
0
 71
3
 72
9
 73
5
 74
0
 42
0.0000001
 43
0.0000001
 44
0.0000000001
 40
0.0
 40
0.0
 40
0.0
 40
0.0
 40
0.5367995415
 40
1.0
 40
1.0
 40
1.0
 40
1.0
 10
24.6596770723
 20
36.1029203436
 30
0.0
 10
24.6857768463
 20
36.1028918542
 30
0.0
 10
24.7344647353
 20
36.0977020875
 30
0.0
 10
24.7812718769
 20
36.0822107281
 30
0.0
 10
24.8010984279
 20
36.0715281371
 30
0.0
  0
SPLINE
  5
2F6
100
AcDbEntity
  8
0
100
AcDbSpline
 62
7
  6
BYLAYER
 70
0
 71
3
 72
10
 73
6
 74
0
 42
0.0000001
 43
0.0000001
 44
0.0000000001
 40
0.0
 40
0.0
 40
0.0
 40
0.0
 40
0.4562278646
 40
0.7244302963
 40
1.0
 40
1.0
 40
1.0
 40
1.0
 10
25.6253624968
 20
36.081746149
 30
0.0
 10
25.5884605882
 20
36.0725206719
 30
0.0
 10
25.5376180328
 20
36.0293991384
 30
0.0
 10
25.4987328713
 20
35.9558048334
 30
0.0
 10
25.4869920012
 20
35.9113329175
 30
0.0
 10
25.4839411406
 20
35.8885609839
 30
0.0
  0
SPLINE
  5
2F7
100
AcDbEntity
  8
0
100
AcDbSpline
 62
7
  6
BYLAYER
 70
0
 71
3
 72
9
 73
5
 74
0
 42
0.0000001
 43
0.0000001
 44
0.0000000001
 40
0.0
 40
0.0
 40
0.0
 40
0.0
 40
0.5400179563
 40
1.0
 40
1.0
 40
1.0
 40
1.0
 10
24.2253626821
 20
32.3238456385
 30
0.0
 10
24.1740389201
 20
32.3238456316
 30
0.0
 10
24.0789791012
 20
32.3286580761
 30
0.0
 10
23.9847472415
 20
32.3439230315
 30
0.0
 10
23.9425197835
 20
32.3552378448
 30
0.0
  0
SPLINE
  5
2F8
100
AcDbEntity
  8
0
100
AcDbSpline
 62
7
  6
BYLAYER
 70
0
 71
3
 72
9
 73
5
 74
0
 42
0.0000001
 43
0.0000001
 44
0.0000000001
 40
0.0
 40
0.0
 40
0.0
 40
0.0
 40
0.4586400374
 40
1.0
 40
1.0
 40
1.0
 40
1.0
 10
24.942503316
 20
32.3552417862
 30
0.0
 10
24.9004014166
 20
32.3439604226
 30
0.0
 10
24.806183618
 20
32.3286543573
 30
0.0
 10
24.7111258288
 20
32.3238510825
 30
0.0
 10
24.6596773451
 20
32.3238510922
 30
0.0
  0
SPLINE
  5
2F9
100
AcDbEntity
  8
0
100
AcDbSpline
 62
7
  6
BYLAYER
 70
0
 71
3
 72
9
 73
5
 74
0
 42
0.0000001
 43
0.0000001
 44
0.0000000001
 40
0.0
 40
0.0
 40
0.0
 40
0.0
 40
0.4631924714
 40
1.0
 40
1.0
 40
1.0
 40
1.0
 10
24.8010984279
 20
32.5484230736
 30
0.0
 10
24.7812656926
 20
32.5377553062
 30
0.0
 10
24.7344539768
 20
32.5223061389
 30
0.0
 10
24.6857758539
 20
32.5170575584
 30
0.0
 10
24.6596770723
 20
32.5170308004
 30
0.0
  0
SPLINE
  5
2FA
100
AcDbEntity
  8
0
100
AcDbSpline
 62
7
  6
BYLAYER
 70
0
 71
3
 72
11
 73
7
 74
0
 42
0.0000001
 43
0.0000001
 44
0.0000000001
 40
0.0
 40
0.0
 40
0.0
 40
0.0
 40
0.2157437088
 40
0.4599043205
 40
0.7260474929
 40
1.0
 40
1.0
 40
1.0
 40
1.0
 10
24.9425198593
 20
32.3552378815
 30
0.0
 10
24.9249520166
 20
32.3596298329
 30
0.0
 10
24.8895950514
 20
32.3778372542
 30
0.0
 10
24.8471739708
 20
32.4227037601
 30
0.0
 10
24.8156852411
 20
32.4812638521
 30
0.0
 10
24.8041517133
 20
32.5256323301
 30
0.0
 10
24.8010983349
 20
32.5484229907
 30
0.0
  0
SPLINE
  5
2FB
100
AcDbEntity
  8
0
100
AcDbSpline
 62
7
  6
BYLAYER
 70
0
 71
3
 72
11
 73
7
 74
0
 42
0.0000001
 43
0.0000001
 44
0.0000000001
 40
0.0
 40
0.0
 40
0.0
 40
0.0
 40
0.2739525809
 40
0.5400957918
 40
0.7842563811
 40
1.0
 40
1.0
 40
1.0
 40
1.0
 10
24.0839411403
 20
32.5484230104
 30
0.0
 10
24.0808877705
 20
32.5256323482
 30
0.0
 10
24.069354265
 20
32.4812638673
 30
0.0
 10
24.0378655786
 20
32.4227037631
 30
0.0
 10
23.9954445484
 20
32.3778372404
 30
0.0
 10
23.9600876125
 20
32.3596298022
 30
0.0
 10
23.9425197837
 20
32.355237845
 30
0.0
  0
SPLINE
  5
2FC
100
AcDbEntity
  8
0
100
AcDbSpline
 62
7
  6
BYLAYER
 70
0
 71
3
 72
9
 73
5
 74
0
 42
0.0000001
 43
0.0000001
 44
0.0000000001
 40
0.0
 40
0.0
 40
0.0
 40
0.0
 40
0.5368084255
 40
1.0
 40
1.0
 40
1.0
 40
1.0
 10
24.2253624966
 20
32.5170308034
 30
0.0
 10
24.1992636829
 20
32.5170590618
 30
0.0
 10
24.1505858751
 20
32.5223062602
 30
0.0
 10
24.1037734212
 20
32.5377545089
 30
0.0
 10
24.0839411403
 20
32.5484230108
 30
0.0
  0
SPLINE
  5
2FD
100
AcDbEntity
  8
0
100
AcDbSpline
 62
7
  6
BYLAYER
 70
0
 71
3
 72
10
 73
6
 74
0
 42
0.0000001
 43
0.0000001
 44
0.0000000001
 40
0.0
 40
0.0
 40
0.0
 40
0.0
 40
0.4562278645
 40
0.7244302963
 40
1.0
 40
1.0
 40
1.0
 40
1.0
 10
23.2596770712
 20
32.5382049984
 30
0.0
 10
23.2965789798
 20
32.5474304755
 30
0.0
 10
23.3474215354
 20
32.590552009
 30
0.0
 10
23.386306697
 20
32.6641463141
 30
0.0
 10
23.398047567
 20
32.7086182301
 30
0.0
 10
23.4010984277
 20
32.7313901638
 30
0.0
  0
SPLINE
  5
2FE
100
AcDbEntity
  8
0
100
AcDbSpline
 62
7
  6
BYLAYER
 70
0
 71
3
 72
9
 73
5
 74
0
 42
0.0000001
 43
0.0000001
 44
0.0000000001
 40
0.0
 40
0.0
 40
0.0
 40
0.0
 40
0.493159746
 40
1.0
 40
1.0
 40
1.0
 40
1.0
 10
23.9648419282
 20
36.2702558099
 30
0.0
 10
24.0075424015
 20
36.2737454925
 30
0.0
 10
24.0944828973
 20
36.2757489333
 30
0.0
 10
24.1813312625
 20
36.2760511837
 30
0.0
 10
24.225362515
 20
36.2761254123
 30
0.0
  0
SPLINE
  5
2FF
100
AcDbEntity
  8
0
100
AcDbSpline
 62
7
  6
BYLAYER
 70
0
 71
3
 72
9
 73
5
 74
0
 42
0.0000001
 43
0.0000001
 44
0.0000000001
 40
0.0
 40
0.0
 40
0.0
 40
0.0
 40
0.4632018329
 40
1.0
 40
1.0
 40
1.0
 40
1.0
 10
24.0839411403
 20
36.0715280737
 30
0.0
 10
24.103768357
 20
36.0822096022
 30
0.0
 10
24.1505743846
 20
36.0977024249
 30
0.0
 10
24.1992627694
 20
36.1028941174
 30
0.0
 10
24.2253624966
 20
36.1029203474
 30
0.0
  0
SPLINE
  5
300
100
AcDbEntity
  8
0
100
AcDbSpline
 62
7
  6
BYLAYER
 70
0
 71
3
 72
11
 73
7
 74
0
 42
0.0000001
 43
0.0000001
 44
0.0000000001
 40
0.0
 40
0.0
 40
0.0
 40
0.0
 40
0.2157435569
 40
0.4599041326
 40
0.726047371
 40
1.0
 40
1.0
 40
1.0
 40
1.0
 10
23.9425201254
 20
36.2647133939
 30
0.0
 10
23.9600879486
 20
36.2603214387
 30
0.0
 10
23.9954448758
 20
36.2421139991
 30
0.0
 10
24.0378658951
 20
36.1972474754
 30
0.0
 10
24.0693545801
 20
36.1386873678
 30
0.0
 10
24.0808880909
 20
36.0943188839
 30
0.0
 10
24.083941465
 20
36.071528219
 30
0.0
  0
SPLINE
  5
301
100
AcDbEntity
  8
0
100
AcDbSpline
 62
7
  6
BYLAYER
 70
0
 71
3
 72
10
 73
6
 74
0
 42
0.0000001
 43
0.0000001
 44
0.0000000001
 40
0.0
 40
0.0
 40
0.0
 40
0.0
 40
0.2755697036
 40
0.5437721353
 40
1.0
 40
1.0
 40
1.0
 40
1.0
 10
23.4010984276
 20
35.8885609839
 30
0.0
 10
23.398047567
 20
35.9113329175
 30
0.0
 10
23.3863066969
 20
35.9558048334
 30
0.0
 10
23.3474215354
 20
36.0293991384
 30
0.0
 10
23.29657898
 20
36.0725206719
 30
0.0
 10
23.2596770714
 20
36.081746149
 30
0.0
  0
SPLINE
  5
302
100
AcDbEntity
  8
0
100
AcDbSpline
 62
7
  6
BYLAYER
 70
0
 71
3
 72
10
 73
6
 74
0
 42
0.0000001
 43
0.0000001
 44
0.0000000001
 40
0.0
 40
0.0
 40
0.0
 40
0.0
 40
0.2755696955
 40
0.5437721216
 40
1.0
 40
1.0
 40
1.0
 40
1.0
 10
25.4839411405
 20
32.7313901637
 30
0.0
 10
25.4869920007
 20
32.7086182336
 30
0.0
 10
25.4987328678
 20
32.6641463239
 30
0.0
 10
25.537618022
 20
32.5905520278
 30
0.0
 10
25.5884605614
 20
32.5474304877
 30
0.0
 10
25.6253624653
 20
32.5382050064
 30
0.0
  0
SPLINE
  5
303
100
AcDbEntity
  8
0
100
AcDbSpline
 62
7
  6
BYLAYER
 70
0
 71
3
 72
11
 73
7
 74
0
 42
0.0000001
 43
0.0000001
 44
0.0000000001
 40
0.0
 40
0.0
 40
0.0
 40
0.0
 40
0.2487389563
 40
0.500312297
 40
0.7516636636
 40
1.0
 40
1.0
 40
1.0
 40
1.0
 10
21.4822395519
 20
36.0770706407
 30
0.0
 10
21.4807574995
 20
36.1026764377
 30
0.0
 10
21.4869423524
 20
36.1553810014
 30
0.0
 10
21.5284919989
 20
36.2241389685
 30
0.0
 10
21.5971929804
 20
36.2657126037
 30
0.0
 10
21.6498659305
 20
36.2718286404
 30
0.0
 10
21.6754247171
 20
36.2702558062
 30
0.0
  0
SPLINE
  5
304
100
AcDbEntity
  8
0
100
AcDbSpline
 62
7
  6
BYLAYER
 70
0
 71
3
 72
14
 73
10
 74
0
 42
0.0000001
 43
0.0000001
 44
0.0000000001
 40
0.0
 40
0.0
 40
0.0
 40
0.0
 40
0.1598583643
 40
0.2585007423
 40
0.3734841656
 40
0.5045519296
 40
0.6508193353
 40
0.8163673699
 40
1.0
 40
1.0
 40
1.0
 40
1.0
 10
21.5102537205
 20
32.3099669968
 30
0.0
 10
21.5112574542
 20
32.321535319
 30
0.0
 10
21.5112482261
 20
32.3404897064
 30
0.0
 10
21.5063283725
 20
32.3672052546
 30
0.0
 10
21.5007395694
 20
32.3916064561
 30
0.0
 10
21.4944954858
 20
32.4194156805
 30
0.0
 10
21.4888144354
 20
32.4510933658
 30
0.0
 10
21.4840014187
 20
32.4867622238
 30
0.0
 10
21.4820678413
 20
32.5120988346
 30
0.0
 10
21.4819093404
 20
32.5254365924
 30
0.0
  0
SPLINE
  5
305
100
AcDbEntity
  8
0
100
AcDbSpline
 62
7
  6
BYLAYER
 70
0
 71
3
 72
22
 73
18
 74
0
 42
0.0000001
 43
0.0000001
 44
0.0000000001
 40
0.0
 40
0.0
 40
0.0
 40
0.0
 40
0.1586747785
 40
0.2360488538
 40
0.3118191574
 40
0.4577949571
 40
0.5276633679
 40
0.5944694827
 40
0.6568058145
 40
0.7133284645
 40
0.7381817903
 40
0.7595127455
 40
0.777099504
 40
0.7921593241
 40
0.8280293011
 40
0.878506094
 40
1.0
 40
1.0
 40
1.0
 40
1.0
 10
21.2903767721
 20
32.5099755737
 30
0.0
 10
21.2939865395
 20
32.4950133499
 30
0.0
 10
21.30030948
 20
32.4728496177
 30
0.0
 10
21.3137242115
 20
32.4456433739
 30
0.0
 10
21.3297583769
 20
32.4213958429
 30
0.0
 10
21.3483203435
 20
32.3999193599
 30
0.0
 10
21.367715869
 20
32.3805450002
 30
0.0
 10
21.3816823923
 20
32.3672159465
 30
0.0
 10
21.394474676
 20
32.3545398375
 30
0.0
 10
21.4042119183
 20
32.3445579605
 30
0.0
 10
21.4106898529
 20
32.336974301
 30
0.0
 10
21.4140910491
 20
32.3317779895
 30
0.0
 10
21.415899636
 20
32.3267670941
 30
0.0
 10
21.414979401
 20
32.3197470482
 30
0.0
 10
21.4050547251
 20
32.3145761034
 30
0.0
 10
21.3858659785
 20
32.3106539745
 30
0.0
 10
21.3688232699
 20
32.3099755737
 30
0.0
 10
21.3570383182
 20
32.3099755737
 30
0.0
  0
SPLINE
  5
306
100
AcDbEntity
  8
0
100
AcDbSpline
 62
7
  6
BYLAYER
 70
0
 71
3
 72
11
 73
7
 74
0
 42
0.0000001
 43
0.0000001
 44
0.0000000001
 40
0.0
 40
0.0
 40
0.0
 40
0.0
 40
0.2479915066
 40
0.5
 40
0.7520084934
 40
1.0
 40
1.0
 40
1.0
 40
1.0
 10
27.2142903592
 20
35.8885609838
 30
0.0
 10
27.2126552222
 20
35.9129706415
 30
0.0
 10
27.1999069309
 20
35.9619626123
 30
0.0
 10
27.1564464801
 20
36.0239022697
 30
0.0
 10
27.0945068229
 20
36.0673627205
 30
0.0
 10
27.045514852
 20
36.080111012
 30
0.0
 10
27.0211051944
 20
36.081746149
 30
0.0
  0
SPLINE
  5
307
100
AcDbEntity
  8
0
100
AcDbSpline
 62
7
  6
BYLAYER
 70
0
 71
3
 72
11
 73
7
 74
0
 42
0.0000001
 43
0.0000001
 44
0.0000000001
 40
0.0
 40
0.0
 40
0.0
 40
0.0
 40
0.2500917668
 40
0.5000677917
 40
0.7499802604
 40
1.0
 40
1.0
 40
1.0
 40
1.0
 10
27.2096148519
 20
36.4634409713
 30
0.0
 10
27.2600191935
 20
36.463440971
 30
0.0
 10
27.3618542572
 20
36.4441563193
 30
0.0
 10
27.4919042907
 20
36.3593177503
 30
0.0
 10
27.5767016042
 20
36.2292651456
 30
0.0
 10
27.5959851802
 20
36.1274604672
 30
0.0
 10
27.5959851811
 20
36.0770706421
 30
0.0
  0
SPLINE
  5
308
100
AcDbEntity
  8
0
100
AcDbSpline
 62
7
  6
BYLAYER
 70
0
 71
3
 72
10
 73
6
 74
0
 42
0.0000001
 43
0.0000001
 44
0.0000000001
 40
0.0
 40
0.0
 40
0.0
 40
0.0
 40
0.2211856488
 40
0.581385737
 40
1.0
 40
1.0
 40
1.0
 40
1.0
 10
24.6596757141
 20
36.449597821
 30
0.0
 10
24.6789152233
 20
36.4495977956
 30
0.0
 10
24.7294990648
 20
36.4512419182
 30
0.0
 10
24.8160909627
 20
36.4594034614
 30
0.0
 10
24.883784952
 20
36.4637635177
 30
0.0
 10
24.9201974978
 20
36.4637750537
 30
0.0
  0
SPLINE
  5
309
100
AcDbEntity
  8
0
100
AcDbSpline
 62
7
  6
BYLAYER
 70
0
 71
3
 72
10
 73
6
 74
0
 42
0.0000001
 43
0.0000001
 44
0.0000000001
 40
0.0
 40
0.0
 40
0.0
 40
0.0
 40
0.2862996789
 40
0.6640606028
 40
1.0
 40
1.0
 40
1.0
 40
1.0
 10
23.9648420832
 20
36.4637738599
 30
0.0
 10
23.9897457622
 20
36.4637659956
 30
0.0
 10
24.0475124693
 20
36.4612869415
 30
0.0
 10
24.1340750803
 20
36.4528732606
 30
0.0
 10
24.1961409006
 20
36.4495967714
 30
0.0
 10
24.2253624748
 20
36.449596821
 30
0.0
  0
SPLINE
  5
30A
100
AcDbEntity
  8
0
100
AcDbSpline
 62
7
  6
BYLAYER
 70
0
 71
3
 72
11
 73
7
 74
0
 42
0.0000001
 43
0.0000001
 44
0.0000000001
 40
0.0
 40
0.0
 40
0.0
 40
0.0
 40
0.2500917984
 40
0.5000678753
 40
0.7499803256
 40
1.0
 40
1.0
 40
1.0
 40
1.0
 10
21.2890543858
 20
36.0770706403
 30
0.0
 10
21.2890543859
 20
36.1274749738
 30
0.0
 10
21.3083393711
 20
36.229309848
 30
0.0
 10
21.3931772156
 20
36.3593604966
 30
0.0
 10
21.5232305909
 20
36.4441564789
 30
0.0
 10
21.6250349194
 20
36.4634409705
 30
0.0
 10
21.6754247168
 20
36.4634409713
 30
0.0
  0
SPLINE
  5
30B
100
AcDbEntity
  8
0
100
AcDbSpline
 62
7
  6
BYLAYER
 70
0
 71
3
 72
10
 73
6
 74
0
 42
0.0000001
 43
0.0000001
 44
0.0000000001
 40
0.0
 40
0.0
 40
0.0
 40
0.0
 40
0.2211448767
 40
0.5813615126
 40
1.0
 40
1.0
 40
1.0
 40
1.0
 10
24.2253624959
 20
51.1703529437
 30
0.0
 10
24.2061266265
 20
51.1703529437
 30
0.0
 10
24.1555451632
 20
51.1687086409
 30
0.0
 10
24.0689535479
 20
51.1605490215
 30
0.0
 10
24.0012564376
 20
51.1561871024
 30
0.0
 10
23.9648419614
 20
51.1561755453
 30
0.0
  0
SPLINE
  5
30C
100
AcDbEntity
  8
0
100
AcDbSpline
 62
7
  6
BYLAYER
 70
0
 71
3
 72
10
 73
6
 74
0
 42
0.0000001
 43
0.0000001
 44
0.0000000001
 40
0.0
 40
0.0
 40
0.0
 40
0.0
 40
0.2862525949
 40
0.6639679841
 40
1.0
 40
1.0
 40
1.0
 40
1.0
 10
24.9201975348
 20
51.1561755119
 30
0.0
 10
24.8952979282
 20
51.1561834139
 30
0.0
 10
24.8375392089
 20
51.158661918
 30
0.0
 10
24.7509766457
 20
51.1670774876
 30
0.0
 10
24.6889065994
 20
51.1703527887
 30
0.0
 10
24.6596769415
 20
51.1703528719
 30
0.0
  0
SPLINE
  5
30D
100
AcDbEntity
  8
0
100
AcDbSpline
 62
7
  6
BYLAYER
 70
0
 71
3
 72
11
 73
7
 74
0
 42
0.0000001
 43
0.0000001
 44
0.0000000001
 40
0.0
 40
0.0
 40
0.0
 40
0.0
 40
0.2479915066
 40
0.5
 40
0.7520084934
 40
1.0
 40
1.0
 40
1.0
 40
1.0
 10
27.0211051939
 20
32.5382049985
 30
0.0
 10
27.0455148516
 20
32.5398401355
 30
0.0
 10
27.0945068225
 20
32.5525884269
 30
0.0
 10
27.1564464799
 20
32.5960488777
 30
0.0
 10
27.1999069308
 20
32.6579885351
 30
0.0
 10
27.2126552222
 20
32.706980506
 30
0.0
 10
27.2142903592
 20
32.7313901637
 30
0.0
  0
SPLINE
  5
30E
100
AcDbEntity
  8
0
100
AcDbSpline
 62
7
  6
BYLAYER
 70
0
 71
3
 72
9
 73
5
 74
0
 42
0.0000001
 43
0.0000001
 44
0.0000000001
 40
0.0
 40
0.0
 40
0.0
 40
0.0
 40
0.4974445308
 40
1.0
 40
1.0
 40
1.0
 40
1.0
 10
21.8639343743
 20
36.081746149
 30
0.0
 10
21.8244739809
 20
36.0791028039
 30
0.0
 10
21.7454011392
 20
36.0487388362
 30
0.0
 10
21.6956327069
 20
35.9804887426
 30
0.0
 10
21.6821455522
 20
35.9428787407
 30
0.0
  0
SPLINE
  5
30F
100
AcDbEntity
  8
0
100
AcDbSpline
 62
7
  6
BYLAYER
 70
0
 71
3
 72
9
 73
5
 74
0
 42
0.0000001
 43
0.0000001
 44
0.0000000001
 40
0.0
 40
0.0
 40
0.0
 40
0.0
 40
0.2518916652
 40
1.0
 40
1.0
 40
1.0
 40
1.0
 10
21.6821455522
 20
35.9428787407
 30
0.0
 10
21.6805696969
 20
35.9384843429
 30
0.0
 10
21.6749069993
 20
35.9208322872
 30
0.0
 10
21.6716759107
 20
35.902394974
 30
0.0
 10
21.670749209
 20
35.8885609836
 30
0.0
  0
SPLINE
  5
310
100
AcDbEntity
  8
0
100
AcDbSpline
 62
7
  6
BYLAYER
 70
0
 71
3
 72
23
 73
19
 74
0
 42
0.0000001
 43
0.0000001
 44
0.0000000001
 40
0.0
 40
0.0
 40
0.0
 40
0.0
 40
0.1592285812
 40
0.2369224988
 40
0.3128125216
 40
0.4592129957
 40
0.5291071145
 40
0.5962676259
 40
0.6592752495
 40
0.715776269
 40
0.761062536
 40
0.7931197676
 40
0.8083817417
 40
0.8272039897
 40
0.8506621406
 40
0.8776260869
 40
0.9363205455
 40
1.0
 40
1.0
 40
1.0
 40
1.0
 10
27.5946627957
 20
32.5099755737
 30
0.0
 10
27.5907601648
 20
32.4951384616
 30
0.0
 10
27.5840935028
 20
32.4731990068
 30
0.0
 10
27.5711047034
 20
32.4459214538
 30
0.0
 10
27.5554115691
 20
32.4215737237
 30
0.0
 10
27.5370404887
 20
32.4001092529
 30
0.0
 10
27.5179097227
 20
32.3806225431
 30
0.0
 10
27.5039265476
 20
32.3673451287
 30
0.0
 10
27.4908371392
 20
32.3550274035
 30
0.0
 10
27.4799211198
 20
32.343416205
 30
0.0
 10
27.4721406459
 20
32.3332286994
 30
0.0
 10
27.4700922519
 20
32.3235031232
 30
0.0
 10
27.4739962228
 20
32.3180438877
 30
0.0
 10
27.4789690305
 20
32.3153857473
 30
0.0
 10
27.4853684474
 20
32.3134605188
 30
0.0
 10
27.495724367
 20
32.311562982
 30
0.0
 10
27.5100712852
 20
32.3102278526
 30
0.0
 10
27.5218656815
 20
32.3099755737
 30
0.0
 10
27.5280012422
 20
32.3099755737
 30
0.0
  0
SPLINE
  5
311
100
AcDbEntity
  8
0
100
AcDbSpline
 62
7
  6
BYLAYER
 70
0
 71
3
 72
11
 73
7
 74
0
 42
0.0000001
 43
0.0000001
 44
0.0000000001
 40
0.0
 40
0.0
 40
0.0
 40
0.0
 40
0.2852164748
 40
0.5471951848
 40
0.7825210555
 40
1.0
 40
1.0
 40
1.0
 40
1.0
 10
56.8844662529
 20
55.1670486314
 30
0.0
 10
56.8801918758
 20
55.1867226466
 30
0.0
 10
56.8672674818
 20
55.2236384509
 30
0.0
 10
56.8355537402
 20
55.2698065865
 30
0.0
 10
56.7940877226
 20
55.3005082054
 30
0.0
 10
56.761709008
 20
55.3077558049
 30
0.0
 10
56.7463585533
 20
55.3075766368
 30
0.0
  0
SPLINE
  5
312
100
AcDbEntity
  8
0
100
AcDbSpline
 62
7
  6
BYLAYER
 70
0
 71
3
 72
11
 73
7
 74
0
 42
0.0000001
 43
0.0000001
 44
0.0000000001
 40
0.0
 40
0.0
 40
0.0
 40
0.0
 40
0.3304997481
 40
0.6015632678
 40
0.8182007265
 40
1.0
 40
1.0
 40
1.0
 40
1.0
 10
56.8838756168
 20
55.1667895605
 30
0.0
 10
56.8931604734
 20
55.163513306
 30
0.0
 10
56.9097390357
 20
55.1564693451
 30
0.0
 10
56.9301726972
 20
55.1428792255
 30
0.0
 10
56.9435463541
 20
55.1275425195
 30
0.0
 10
56.9466207856
 20
55.1153804293
 30
0.0
 10
56.9462744674
 20
55.1099755223
 30
0.0
  0
SPLINE
  5
313
100
AcDbEntity
  8
0
100
AcDbSpline
 62
7
  6
BYLAYER
 70
0
 71
3
 72
13
 73
9
 74
0
 42
0.0000001
 43
0.0000001
 44
0.0000000001
 40
0.0
 40
0.0
 40
0.0
 40
0.0
 40
0.1837262479
 40
0.3495516221
 40
0.6269080487
 40
0.742364879
 40
0.8417961543
 40
1.0
 40
1.0
 40
1.0
 40
1.0
 10
21.4819093414
 20
55.0945145073
 30
0.0
 10
21.4820949898
 20
55.1078610158
 30
0.0
 10
21.4839637263
 20
55.1332293656
 30
0.0
 10
21.4900360281
 20
55.1783818418
 30
0.0
 10
21.4982509984
 20
55.2181645794
 30
0.0
 10
21.5063579712
 20
55.2529923311
 30
0.0
 10
21.511621659
 20
55.2795918058
 30
0.0
 10
21.5116087257
 20
55.2986194394
 30
0.0
 10
21.5098545979
 20
55.3099783799
 30
0.0
  0
SPLINE
  5
314
100
AcDbEntity
  8
0
100
AcDbSpline
 62
7
  6
BYLAYER
 70
0
 71
3
 72
23
 73
19
 74
0
 42
0.0000001
 43
0.0000001
 44
0.0000000001
 40
0.0
 40
0.0
 40
0.0
 40
0.0
 40
0.0632701035
 40
0.1216275285
 40
0.1718147094
 40
0.1921629392
 40
0.2085871586
 40
0.2234847253
 40
0.2412723155
 40
0.2628855159
 40
0.2875538235
 40
0.3438233006
 40
0.4062551069
 40
0.4730242628
 40
0.5428374798
 40
0.6886903591
 40
0.8414823328
 40
1.0
 40
1.0
 40
1.0
 40
1.0
 10
21.3570383193
 20
55.3099755737
 30
0.0
 10
21.3631787433
 20
55.3099755737
 30
0.0
 10
21.3749969787
 20
55.3097000258
 30
0.0
 10
21.3915790013
 20
55.308182549
 30
0.0
 10
21.4039707234
 20
55.3055545226
 30
0.0
 10
21.4115413509
 20
55.3018140724
 30
0.0
 10
21.415375997
 20
55.2982009196
 30
0.0
 10
21.4160175591
 20
55.2931511208
 30
0.0
 10
21.4139579102
 20
55.2881854887
 30
0.0
 10
21.4105560439
 20
55.282980057
 30
0.0
 10
21.4042067834
 20
55.275291447
 30
0.0
 10
21.3944520588
 20
55.2653594541
 30
0.0
 10
21.3816367121
 20
55.2527217765
 30
0.0
 10
21.3676873988
 20
55.2393606492
 30
0.0
 10
21.3482763472
 20
55.2200065096
 30
0.0
 10
21.3248085799
 20
55.1928987815
 30
0.0
 10
21.3021071394
 20
55.1542717852
 30
0.0
 10
21.2939172041
 20
55.1249469394
 30
0.0
 10
21.2903767735
 20
55.1099755745
 30
0.0
  0
SPLINE
  5
315
100
AcDbEntity
  8
0
100
AcDbSpline
 62
7
  6
BYLAYER
 70
0
 71
3
 72
11
 73
7
 74
0
 42
0.0000001
 43
0.0000001
 44
0.0000000001
 40
0.0
 40
0.0
 40
0.0
 40
0.0
 40
0.2479915066
 40
0.5
 40
0.7520084934
 40
1.0
 40
1.0
 40
1.0
 40
1.0
 10
21.6707492087
 20
32.7313901635
 30
0.0
 10
21.6723843458
 20
32.7069805057
 30
0.0
 10
21.6851326372
 20
32.6579885348
 30
0.0
 10
21.7285930881
 20
32.5960488773
 30
0.0
 10
21.7905327456
 20
32.5525884265
 30
0.0
 10
21.8395247166
 20
32.5398401352
 30
0.0
 10
21.8639343744
 20
32.5382049982
 30
0.0
  0
SPLINE
  5
316
100
AcDbEntity
  8
0
100
AcDbSpline
 62
7
  6
BYLAYER
 70
0
 71
3
 72
11
 73
7
 74
0
 42
0.0000001
 43
0.0000001
 44
0.0000000001
 40
0.0
 40
0.0
 40
0.0
 40
0.0
 40
0.2500570264
 40
0.5000058581
 40
0.7499491612
 40
1.0
 40
1.0
 40
1.0
 40
1.0
 10
21.2890543541
 20
51.5428805477
 30
0.0
 10
21.2890544992
 20
51.4924820971
 30
0.0
 10
21.3083349978
 20
51.390659407
 30
0.0
 10
21.3931444247
 20
51.2605960302
 30
0.0
 10
21.5232051751
 20
51.1757800113
 30
0.0
 10
21.6250275132
 20
51.1565101763
 30
0.0
 10
21.6754247168
 20
51.1565101761
 30
0.0
  0
SPLINE
  5
317
100
AcDbEntity
  8
0
100
AcDbSpline
 62
7
  6
BYLAYER
 70
0
 71
3
 72
9
 73
5
 74
0
 42
0.0000001
 43
0.0000001
 44
0.0000000001
 40
0.0
 40
0.0
 40
0.0
 40
0.0
 40
0.5368190097
 40
1.0
 40
1.0
 40
1.0
 40
1.0
 10
24.2253624973
 20
55.1029203403
 30
0.0
 10
24.1992631857
 20
55.1028730026
 30
0.0
 10
24.1505884757
 20
55.0976474538
 30
0.0
 10
24.1037673386
 20
55.0822068731
 30
0.0
 10
24.0839411403
 20
55.0715281366
 30
0.0
  0
SPLINE
  5
318
100
AcDbEntity
  8
0
100
AcDbSpline
 62
7
  6
BYLAYER
 70
0
 71
3
 72
9
 73
5
 74
0
 42
0.0000001
 43
0.0000001
 44
0.0000000001
 40
0.0
 40
0.0
 40
0.0
 40
0.0
 40
0.4631925503
 40
1.0
 40
1.0
 40
1.0
 40
1.0
 10
24.0839411403
 20
51.5484230348
 30
0.0
 10
24.1037629433
 20
51.5377323624
 30
0.0
 10
24.1505764942
 20
51.5222455794
 30
0.0
 10
24.1992623124
 20
51.5170737993
 30
0.0
 10
24.2253624973
 20
51.5170308096
 30
0.0
  0
SPLINE
  5
319
100
AcDbEntity
  8
0
100
AcDbSpline
 62
7
  6
BYLAYER
 70
0
 71
3
 72
11
 73
7
 74
0
 42
0.0000001
 43
0.0000001
 44
0.0000000001
 40
0.0
 40
0.0
 40
0.0
 40
0.0
 40
0.2852175989
 40
0.5471953697
 40
0.7825198728
 40
1.0
 40
1.0
 40
1.0
 40
1.0
 10
56.8844692448
 20
32.4529017055
 30
0.0
 10
56.880194836
 20
32.4332275886
 30
0.0
 10
56.8672701184
 20
32.3963118638
 30
0.0
 10
56.8355565646
 20
32.3501435357
 30
0.0
 10
56.7940900635
 20
32.319442616
 30
0.0
 10
56.7617113503
 20
32.3121949712
 30
0.0
 10
56.7463607932
 20
32.3123742699
 30
0.0
  0
SPLINE
  5
31A
100
AcDbEntity
  8
0
100
AcDbSpline
 62
7
  6
BYLAYER
 70
0
 71
3
 72
11
 73
7
 74
0
 42
0.0000001
 43
0.0000001
 44
0.0000000001
 40
0.0
 40
0.0
 40
0.0
 40
0.0
 40
0.1817989372
 40
0.3984362128
 40
0.6694998436
 40
1.0
 40
1.0
 40
1.0
 40
1.0
 10
56.9462743899
 20
32.5099756126
 30
0.0
 10
56.9466207185
 20
32.5045707427
 30
0.0
 10
56.9435463154
 20
32.492408719
 30
0.0
 10
56.9301727146
 20
32.4770721087
 30
0.0
 10
56.9097391323
 20
32.4634820689
 30
0.0
 10
56.8931606325
 20
32.4564381454
 30
0.0
 10
56.8838758084
 20
32.4531619055
 30
0.0
  0
SPLINE
  5
31B
100
AcDbEntity
  8
0
100
AcDbSpline
 62
7
  6
BYLAYER
 70
0
 71
3
 72
11
 73
7
 74
0
 42
0.0000001
 43
0.0000001
 44
0.0000000001
 40
0.0
 40
0.0
 40
0.0
 40
0.0
 40
0.2842080993
 40
0.5455235822
 40
0.7815214854
 40
1.0
 40
1.0
 40
1.0
 40
1.0
 10
51.7265886814
 20
32.4416696965
 30
0.0
 10
51.7218341042
 20
32.4230558113
 30
0.0
 10
51.7088730477
 20
32.3881138165
 30
0.0
 10
51.6779873636
 20
32.3443485231
 30
0.0
 10
51.6381194264
 20
32.3151962875
 30
0.0
 10
51.607213588
 20
32.3077776942
 30
0.0
 10
51.5924463315
 20
32.307592017
 30
0.0
  0
SPLINE
  5
31C
100
AcDbEntity
  8
0
100
AcDbSpline
 62
7
  6
BYLAYER
 70
0
 71
3
 72
11
 73
7
 74
0
 42
0.0000001
 43
0.0000001
 44
0.0000000001
 40
0.0
 40
0.0
 40
0.0
 40
0.0
 40
0.2842088754
 40
0.5455237403
 40
0.7815207657
 40
1.0
 40
1.0
 40
1.0
 40
1.0
 10
51.7265883812
 20
55.1782813584
 30
0.0
 10
51.7218338084
 20
55.1968952976
 30
0.0
 10
51.7088726184
 20
55.2318372119
 30
0.0
 10
51.6779873758
 20
55.2756027909
 30
0.0
 10
51.6381193411
 20
55.304754775
 30
0.0
 10
51.6072136102
 20
55.3121736578
 30
0.0
 10
51.5924463066
 20
55.3123593779
 30
0.0
  0
SPLINE
  5
31D
100
AcDbEntity
  8
0
100
AcDbSpline
 62
7
  6
BYLAYER
 70
0
 71
3
 72
24
 73
20
 74
0
 42
0.0000001
 43
0.0000001
 44
0.0000000001
 40
0.0
 40
0.0
 40
0.0
 40
0.0
 40
0.1590376467
 40
0.3123977042
 40
0.4585748244
 40
0.5285411192
 40
0.5957800826
 40
0.6587931309
 40
0.7149726412
 40
0.7394969982
 40
0.7607478015
 40
0.7783110634
 40
0.7932854445
 40
0.8087621891
 40
0.8275139923
 40
0.8506988661
 40
0.8775576037
 40
0.9365790886
 40
1.0
 40
1.0
 40
1.0
 40
1.0
 10
27.594662795
 20
55.1099755737
 30
0.0
 10
27.5911571749
 20
55.1249075491
 30
0.0
 10
27.5827785208
 20
55.1541109758
 30
0.0
 10
27.560002955
 20
55.1924618812
 30
0.0
 10
27.5371442807
 20
55.2199015825
 30
0.0
 10
27.5179680667
 20
55.2393886758
 30
0.0
 10
27.5038616487
 20
55.252577686
 30
0.0
 10
27.4908186205
 20
55.2649503532
 30
0.0
 10
27.4812740974
 20
55.2750313459
 30
0.0
 10
27.4752809092
 20
55.2828479431
 30
0.0
 10
27.4721655955
 20
55.2881171371
 30
0.0
 10
27.4704695148
 20
55.2931168232
 30
0.0
 10
27.4710436944
 20
55.297923625
 30
0.0
 10
27.474106074
 20
55.3017914895
 30
0.0
 10
27.4789816327
 20
55.3045676682
 30
0.0
 10
27.4853541129
 20
55.3065109093
 30
0.0
 10
27.4957104374
 20
55.3084055988
 30
0.0
 10
27.5100753947
 20
55.3096871484
 30
0.0
 10
27.5218847783
 20
55.3099755737
 30
0.0
 10
27.5280012415
 20
55.3099755737
 30
0.0
  0
SPLINE
  5
31E
100
AcDbEntity
  8
0
100
AcDbSpline
 62
7
  6
BYLAYER
 70
0
 71
3
 72
11
 73
7
 74
0
 42
0.0000001
 43
0.0000001
 44
0.0000000001
 40
0.0
 40
0.0
 40
0.0
 40
0.0
 40
0.3392381387
 40
0.606553365
 40
0.8239133921
 40
1.0
 40
1.0
 40
1.0
 40
1.0
 10
27.4031347039
 20
55.0945114984
 30
0.0
 10
27.4025992387
 20
55.1191556517
 30
0.0
 10
27.3979355379
 20
55.163112726
 30
0.0
 10
27.3860449573
 20
55.2219593172
 30
0.0
 10
27.3752094673
 20
55.2682999735
 30
0.0
 10
27.37207656
 20
55.2977428534
 30
0.0
 10
27.3752319886
 20
55.3101425955
 30
0.0
  0
SPLINE
  5
31F
100
AcDbEntity
  8
0
100
AcDbSpline
 62
7
  6
BYLAYER
 70
0
 71
3
 72
11
 73
7
 74
0
 42
0.0000001
 43
0.0000001
 44
0.0000000001
 40
0.0
 40
0.0
 40
0.0
 40
0.0
 40
0.1760884625
 40
0.3934301274
 40
0.6607523173
 40
1.0
 40
1.0
 40
1.0
 40
1.0
 10
27.3752319638
 20
32.3098086707
 30
0.0
 10
27.3720772031
 20
32.3222087134
 30
0.0
 10
27.3752088661
 20
32.3516500794
 30
0.0
 10
27.3860446315
 20
32.3979902215
 30
0.0
 10
27.397935152
 20
32.4568365529
 30
0.0
 10
27.4025991493
 20
32.5007948049
 30
0.0
 10
27.4031346363
 20
32.5254396358
 30
0.0
  0
SPLINE
  5
320
100
AcDbEntity
  8
0
100
AcDbSpline
 62
7
  6
BYLAYER
 70
0
 71
3
 72
9
 73
5
 74
0
 42
0.0000001
 43
0.0000001
 44
0.0000000001
 40
0.0
 40
0.0
 40
0.0
 40
0.0
 40
0.541390164
 40
1.0
 40
1.0
 40
1.0
 40
1.0
 10
24.6596770709
 20
55.296099516
 30
0.0
 10
24.7111283028
 20
55.296099516
 30
0.0
 10
24.8061860687
 20
55.2912979054
 30
0.0
 10
24.900403224
 20
55.2759894892
 30
0.0
 10
24.9425022487
 20
55.2647088859
 30
0.0
  0
SPLINE
  5
321
100
AcDbEntity
  8
0
100
AcDbSpline
 62
7
  6
BYLAYER
 70
0
 71
3
 72
9
 73
5
 74
0
 42
0.0000001
 43
0.0000001
 44
0.0000000001
 40
0.0
 40
0.0
 40
0.0
 40
0.0
 40
0.459982014
 40
1.0
 40
1.0
 40
1.0
 40
1.0
 10
23.9425197835
 20
55.2647133023
 30
0.0
 10
23.9847472316
 20
55.2760281127
 30
0.0
 10
24.0789790756
 20
55.2912930618
 30
0.0
 10
24.1740388777
 20
55.2961055117
 30
0.0
 10
24.2253626337
 20
55.2961055063
 30
0.0
  0
SPLINE
  5
322
100
AcDbEntity
  8
0
100
AcDbSpline
 62
7
  6
BYLAYER
 70
0
 71
3
 72
11
 73
7
 74
0
 42
0.0000001
 43
0.0000001
 44
0.0000000001
 40
0.0
 40
0.0
 40
0.0
 40
0.0
 40
0.248525034
 40
0.5001079411
 40
0.7514726947
 40
1.0
 40
1.0
 40
1.0
 40
1.0
 10
21.4822395542
 20
51.5428805089
 30
0.0
 10
21.4807009391
 20
51.5173004012
 30
0.0
 10
21.4867591398
 20
51.4645811058
 30
0.0
 10
21.5284415433
 20
51.3958902157
 30
0.0
 10
21.5971774341
 20
51.3544095294
 30
0.0
 10
21.6498438956
 20
51.3481647174
 30
0.0
 10
21.6754247173
 20
51.3496953413
 30
0.0
  0
SPLINE
  5
323
100
AcDbEntity
  8
0
100
AcDbSpline
 62
7
  6
BYLAYER
 70
0
 71
3
 72
9
 73
5
 74
0
 42
0.0000001
 43
0.0000001
 44
0.0000000001
 40
0.0
 40
0.0
 40
0.0
 40
0.0
 40
0.4931014449
 40
1.0
 40
1.0
 40
1.0
 40
1.0
 10
23.9648426536
 20
51.3496952538
 30
0.0
 10
24.007540597
 20
51.346240802
 30
0.0
 10
24.0944782722
 20
51.3442838252
 30
0.0
 10
24.1813264376
 20
51.3438343366
 30
0.0
 10
24.2253624967
 20
51.3438327628
 30
0.0
  0
SPLINE
  5
324
100
AcDbEntity
  8
0
100
AcDbSpline
 62
7
  6
BYLAYER
 70
0
 71
3
 72
11
 73
7
 74
0
 42
0.0000001
 43
0.0000001
 44
0.0000000001
 40
0.0
 40
0.0
 40
0.0
 40
0.0
 40
0.2739525415
 40
0.5400957417
 40
0.784256349
 40
1.0
 40
1.0
 40
1.0
 40
1.0
 10
24.0839411517
 20
51.5484230022
 30
0.0
 10
24.0808877723
 20
51.5256323423
 30
0.0
 10
24.0693542473
 20
51.4812638662
 30
0.0
 10
24.0378655359
 20
51.4227037714
 30
0.0
 10
23.995444486
 20
51.3778372554
 30
0.0
 10
23.9600875425
 20
51.3596298173
 30
0.0
 10
23.9425197096
 20
51.3552378579
 30
0.0
  0
SPLINE
  5
325
100
AcDbEntity
  8
0
100
AcDbSpline
 62
7
  6
BYLAYER
 70
0
 71
3
 72
10
 73
6
 74
0
 42
0.0000001
 43
0.0000001
 44
0.0000000001
 40
0.0
 40
0.0
 40
0.0
 40
0.0
 40
0.4562278585
 40
0.7244302927
 40
1.0
 40
1.0
 40
1.0
 40
1.0
 10
23.2596770575
 20
51.5382049951
 30
0.0
 10
23.296578968
 20
51.5474304708
 30
0.0
 10
23.3474215305
 20
51.590552001
 30
0.0
 10
23.3863066951
 20
51.66414631
 30
0.0
 10
23.3980475664
 20
51.7086182286
 30
0.0
 10
23.4010984273
 20
51.7313901638
 30
0.0
  0
SPLINE
  5
326
100
AcDbEntity
  8
0
100
AcDbSpline
 62
7
  6
BYLAYER
 70
0
 71
3
 72
11
 73
7
 74
0
 42
0.0000001
 43
0.0000001
 44
0.0000000001
 40
0.0
 40
0.0
 40
0.0
 40
0.0
 40
0.2479915066
 40
0.5
 40
0.7520084934
 40
1.0
 40
1.0
 40
1.0
 40
1.0
 10
21.6707492087
 20
51.7313901634
 30
0.0
 10
21.6723843458
 20
51.7069805057
 30
0.0
 10
21.6851326371
 20
51.6579885348
 30
0.0
 10
21.7285930881
 20
51.5960488774
 30
0.0
 10
21.7905327455
 20
51.5525884265
 30
0.0
 10
21.8395247164
 20
51.5398401352
 30
0.0
 10
21.8639343742
 20
51.5382049982
 30
0.0
  0
SPLINE
  5
327
100
AcDbEntity
  8
0
100
AcDbSpline
 62
7
  6
BYLAYER
 70
0
 71
3
 72
11
 73
7
 74
0
 42
0.0000001
 43
0.0000001
 44
0.0000000001
 40
0.0
 40
0.0
 40
0.0
 40
0.0
 40
0.2479915066
 40
0.5
 40
0.7520084934
 40
1.0
 40
1.0
 40
1.0
 40
1.0
 10
21.863934374
 20
55.0817461492
 30
0.0
 10
21.8395247163
 20
55.0801110122
 30
0.0
 10
21.7905327454
 20
55.0673627208
 30
0.0
 10
21.728593088
 20
55.0239022699
 30
0.0
 10
21.6851326371
 20
54.9619626125
 30
0.0
 10
21.6723843457
 20
54.9129706416
 30
0.0
 10
21.6707492087
 20
54.8885609839
 30
0.0
  0
SPLINE
  5
328
100
AcDbEntity
  8
0
100
AcDbSpline
 62
7
  6
BYLAYER
 70
0
 71
3
 72
10
 73
6
 74
0
 42
0.0000001
 43
0.0000001
 44
0.0000000001
 40
0.0
 40
0.0
 40
0.0
 40
0.0
 40
0.2755697036
 40
0.5437721354
 40
1.0
 40
1.0
 40
1.0
 40
1.0
 10
23.4010984272
 20
54.8885609838
 30
0.0
 10
23.3980475666
 20
54.9113329174
 30
0.0
 10
23.3863066965
 20
54.9558048333
 30
0.0
 10
23.3474215351
 20
55.0293991384
 30
0.0
 10
23.2965789795
 20
55.0725206714
 30
0.0
 10
23.259677071
 20
55.0817461489
 30
0.0
  0
SPLINE
  5
329
100
AcDbEntity
  8
0
100
AcDbSpline
 62
7
  6
BYLAYER
 70
0
 71
3
 72
11
 73
7
 74
0
 42
0.0000001
 43
0.0000001
 44
0.0000000001
 40
0.0
 40
0.0
 40
0.0
 40
0.0
 40
0.2157436181
 40
0.4599042072
 40
0.7260474184
 40
1.0
 40
1.0
 40
1.0
 40
1.0
 10
23.9425197863
 20
55.264713303
 30
0.0
 10
23.9600876149
 20
55.2603213458
 30
0.0
 10
23.9954445504
 20
55.2421139074
 30
0.0
 10
24.0378655803
 20
55.1972473847
 30
0.0
 10
24.0693542663
 20
55.1386872805
 30
0.0
 10
24.0808877717
 20
55.0943187998
 30
0.0
 10
24.0839411415
 20
55.0715281376
 30
0.0
  0
SPLINE
  5
32A
100
AcDbEntity
  8
0
100
AcDbSpline
 62
7
  6
BYLAYER
 70
0
 71
3
 72
11
 73
7
 74
0
 42
0.0000001
 43
0.0000001
 44
0.0000000001
 40
0.0
 40
0.0
 40
0.0
 40
0.0
 40
0.2739525372
 40
0.5400957362
 40
0.7842563455
 40
1.0
 40
1.0
 40
1.0
 40
1.0
 10
24.8010984153
 20
55.071528136
 30
0.0
 10
24.8041517938
 20
55.0943187952
 30
0.0
 10
24.8156853169
 20
55.1386872704
 30
0.0
 10
24.8471740249
 20
55.1972473653
 30
0.0
 10
24.8895950713
 20
55.2421138834
 30
0.0
 10
24.9249520127
 20
55.2603213247
 30
0.0
 10
24.942519845
 20
55.2647132861
 30
0.0
  0
SPLINE
  5
32B
100
AcDbEntity
  8
0
100
AcDbSpline
 62
7
  6
BYLAYER
 70
0
 71
3
 72
10
 73
6
 74
0
 42
0.0000001
 43
0.0000001
 44
0.0000000001
 40
0.0
 40
0.0
 40
0.0
 40
0.0
 40
0.4562278647
 40
0.7244302967
 40
1.0
 40
1.0
 40
1.0
 40
1.0
 10
25.6253624972
 20
55.0817461489
 30
0.0
 10
25.5884605872
 20
55.0725206714
 30
0.0
 10
25.5376180301
 20
55.0293991356
 30
0.0
 10
25.4987328691
 20
54.9558048268
 30
0.0
 10
25.4869920001
 20
54.9113329089
 30
0.0
 10
25.4839411397
 20
54.8885609744
 30
0.0
  0
SPLINE
  5
32C
100
AcDbEntity
  8
0
100
AcDbSpline
 62
7
  6
BYLAYER
 70
0
 71
3
 72
9
 73
5
 74
0
 42
0.0000001
 43
0.0000001
 44
0.0000000001
 40
0.0
 40
0.0
 40
0.0
 40
0.0
 40
0.2518916652
 40
1.0
 40
1.0
 40
1.0
 40
1.0
 10
27.0754229508
 20
55.0703498058
 30
0.0
 10
27.071028553
 20
55.0719256611
 30
0.0
 10
27.0533764976
 20
55.0775883586
 30
0.0
 10
27.0349391846
 20
55.0808194473
 30
0.0
 10
27.0211051944
 20
55.0817461489
 30
0.0
  0
SPLINE
  5
32D
100
AcDbEntity
  8
0
100
AcDbSpline
 62
7
  6
BYLAYER
 70
0
 71
3
 72
9
 73
5
 74
0
 42
0.0000001
 43
0.0000001
 44
0.0000000001
 40
0.0
 40
0.0
 40
0.0
 40
0.0
 40
0.4974445308
 40
1.0
 40
1.0
 40
1.0
 40
1.0
 10
27.2142903591
 20
54.8885609837
 30
0.0
 10
27.211647014
 20
54.9280213771
 30
0.0
 10
27.1812830463
 20
55.0070942188
 30
0.0
 10
27.1130329527
 20
55.0568626511
 30
0.0
 10
27.0754229508
 20
55.0703498058
 30
0.0
  0
SPLINE
  5
32E
100
AcDbEntity
  8
0
100
AcDbSpline
 62
7
  6
BYLAYER
 70
0
 71
3
 72
11
 73
7
 74
0
 42
0.0000001
 43
0.0000001
 44
0.0000000001
 40
0.0
 40
0.0
 40
0.0
 40
0.0
 40
0.2500721888
 40
0.5000332331
 40
0.7499632941
 40
1.0
 40
1.0
 40
1.0
 40
1.0
 10
27.2096148519
 20
51.1565101761
 30
0.0
 10
27.2600163693
 20
51.1565101761
 30
0.0
 10
27.361847694
 20
51.1757791173
 30
0.0
 10
27.4919076534
 20
51.2606078149
 30
0.0
 10
27.5767034028
 20
51.3906725256
 30
0.0
 10
27.59598518
 20
51.4924861394
 30
0.0
 10
27.5959851811
 20
51.5428805052
 30
0.0
  0
SPLINE
  5
32F
100
AcDbEntity
  8
0
100
AcDbSpline
 62
7
  6
BYLAYER
 70
0
 71
3
 72
11
 73
7
 74
0
 42
0.0000001
 43
0.0000001
 44
0.0000000001
 40
0.0
 40
0.0
 40
0.0
 40
0.0
 40
0.2487454229
 40
0.5003496681
 40
0.751687737
 40
1.0
 40
1.0
 40
1.0
 40
1.0
 10
27.209614851
 20
51.3496953413
 30
0.0
 10
27.2352208572
 20
51.3482097136
 30
0.0
 10
27.287927325
 20
51.3544055108
 30
0.0
 10
27.3566918595
 20
51.3959511936
 30
0.0
 10
27.3982464081
 20
51.4646575511
 30
0.0
 10
27.4043844415
 20
51.5173251741
 30
0.0
 10
27.4028000163
 20
51.5428805066
 30
0.0
  0
SPLINE
  5
330
100
AcDbEntity
  8
0
100
AcDbSpline
 62
7
  6
BYLAYER
 70
0
 71
3
 72
9
 73
5
 74
0
 42
0.0000001
 43
0.0000001
 44
0.0000000001
 40
0.0
 40
0.0
 40
0.0
 40
0.0
 40
0.5068984416
 40
1.0
 40
1.0
 40
1.0
 40
1.0
 10
24.6596769604
 20
51.3438328343
 30
0.0
 10
24.7037131531
 20
51.3438340313
 30
0.0
 10
24.7905615953
 20
51.3442835099
 30
0.0
 10
24.8774995816
 20
51.3462404509
 30
0.0
 10
24.9201976393
 20
51.3496953418
 30
0.0
  0
SPLINE
  5
331
100
AcDbEntity
  8
0
100
AcDbSpline
 62
7
  6
BYLAYER
 70
0
 71
3
 72
11
 73
7
 74
0
 42
0.0000001
 43
0.0000001
 44
0.0000000001
 40
0.0
 40
0.0
 40
0.0
 40
0.0
 40
0.2157436188
 40
0.459904208
 40
0.726047419
 40
1.0
 40
1.0
 40
1.0
 40
1.0
 10
24.9425197842
 20
51.355237845
 30
0.0
 10
24.9249519555
 20
51.3596298022
 30
0.0
 10
24.8895950197
 20
51.3778372405
 30
0.0
 10
24.8471739895
 20
51.4227037631
 30
0.0
 10
24.8156853033
 20
51.4812638673
 30
0.0
 10
24.8041517977
 20
51.5256323481
 30
0.0
 10
24.8010984279
 20
51.5484230103
 30
0.0
  0
SPLINE
  5
332
100
AcDbEntity
  8
0
100
AcDbSpline
 62
7
  6
BYLAYER
 70
0
 71
3
 72
9
 73
5
 74
0
 42
0.0000001
 43
0.0000001
 44
0.0000000001
 40
0.0
 40
0.0
 40
0.0
 40
0.0
 40
0.5368088734
 40
1.0
 40
1.0
 40
1.0
 40
1.0
 10
24.6596770717
 20
51.5170308063
 30
0.0
 10
24.6857772904
 20
51.5170759782
 30
0.0
 10
24.7344625132
 20
51.5222465949
 30
0.0
 10
24.7812772065
 20
51.5377314628
 30
0.0
 10
24.8010984279
 20
51.5484230102
 30
0.0
  0
SPLINE
  5
333
100
AcDbEntity
  8
0
100
AcDbSpline
 62
7
  6
BYLAYER
 70
0
 71
3
 72
9
 73
5
 74
0
 42
0.0000001
 43
0.0000001
 44
0.0000000001
 40
0.0
 40
0.0
 40
0.0
 40
0.0
 40
0.4631819246
 40
1.0
 40
1.0
 40
1.0
 40
1.0
 10
24.8010984279
 20
55.0715281124
 30
0.0
 10
24.7812718452
 20
55.0822062692
 30
0.0
 10
24.7344514661
 20
55.0976481311
 30
0.0
 10
24.6857763614
 20
55.1028744307
 30
0.0
 10
24.6596770717
 20
55.1029203384
 30
0.0
  0
SPLINE
  5
334
100
AcDbEntity
  8
0
100
AcDbSpline
 62
7
  6
BYLAYER
 70
0
 71
3
 72
10
 73
6
 74
0
 42
0.0000001
 43
0.0000001
 44
0.0000000001
 40
0.0
 40
0.0
 40
0.0
 40
0.0
 40
0.2755697037
 40
0.5437721354
 40
1.0
 40
1.0
 40
1.0
 40
1.0
 10
25.4839411409
 20
51.7313901638
 30
0.0
 10
25.4869920016
 20
51.7086182301
 30
0.0
 10
25.4987328716
 20
51.6641463142
 30
0.0
 10
25.5376180331
 20
51.5905520091
 30
0.0
 10
25.5884605886
 20
51.5474304757
 30
0.0
 10
25.6253624972
 20
51.5382049985
 30
0.0
  0
SPLINE
  5
335
100
AcDbEntity
  8
0
100
AcDbSpline
 62
7
  6
BYLAYER
 70
0
 71
3
 72
9
 73
5
 74
0
 42
0.0000001
 43
0.0000001
 44
0.0000000001
 40
0.0
 40
0.0
 40
0.0
 40
0.0
 40
0.4974445308
 40
1.0
 40
1.0
 40
1.0
 40
1.0
 10
27.0211051939
 20
51.5382049984
 30
0.0
 10
27.0605655873
 20
51.5408483436
 30
0.0
 10
27.139638429
 20
51.5712123113
 30
0.0
 10
27.1894068613
 20
51.6394624049
 30
0.0
 10
27.2028940159
 20
51.6770724068
 30
0.0
  0
SPLINE
  5
336
100
AcDbEntity
  8
0
100
AcDbSpline
 62
7
  6
BYLAYER
 70
0
 71
3
 72
9
 73
5
 74
0
 42
0.0000001
 43
0.0000001
 44
0.0000000001
 40
0.0
 40
0.0
 40
0.0
 40
0.0
 40
0.2518916652
 40
1.0
 40
1.0
 40
1.0
 40
1.0
 10
27.2028940159
 20
51.6770724068
 30
0.0
 10
27.2044698713
 20
51.6814668046
 30
0.0
 10
27.2101325689
 20
51.6991188602
 30
0.0
 10
27.2133636575
 20
51.7175561734
 30
0.0
 10
27.2142903591
 20
51.7313901637
 30
0.0
  0
ENDSEC
  0
SECTION
  2
OBJECTS
  0
DICTIONARY
  5
C
100
AcDbDictionary
280
0
281
1
  3
ACAD_GROUP
350
D
  3
ACAD_MLINESTYLE
350
17
  3
ACAD_LAYOUT
350
1A
  3
ACAD_PLOTSETTINGS
350
19
  3
ACAD_PLOTSTYLENAME
350
E
  0
DICTIONARY
  5
D
102
{ACAD_REACTORS
330
C
102
}
100
AcDbDictionary
280
0
281
1
  0
ACDBDICTIONARYWDFLT
  5
E
102
{ACAD_REACTORS
330
C
102
}
100
AcDbDictionary
281
1
  3
Normal
350
F
100
AcDbDictionaryWithDefault
340
F
  0
DICTIONARY
  5
17
102
{ACAD_REACTORS
330
C
102
}
100
AcDbDictionary
280
0
281
1
  3
Standard
350
18
  0
DICTIONARY
  5
19
102
{ACAD_REACTORS
330
C
102
}
100
AcDbDictionary
281
1
  0
DICTIONARY
  5
1A
102
{ACAD_REACTORS
330
C
102
}
100
AcDbDictionary
281
1
  3
Model
350
337
  3
Layout1
350
338
  0
ACDBPLACEHOLDER
  5
F
102
{ACAD_REACTORS
330
E
102
}
  0
MLINESTYLE
  5
18
102
{ACAD_REACTORS
330
17
102
}
100
AcDbMlineStyle
  2
STANDARD
 70
0
  3

 62
256
 51
90.0
 52
90.0
 71
2
 49
0.5
 62
256
  6
BYLAYER
 49
-0.5
 62
256
  6
BYLAYER
  0
LAYOUT
  5
337
102
{ACAD_REACTORS
330
1A
102
}
100
AcDbPlotSettings
  1

  2
none_device
  4

  6

 40
0.0
 41
0.0
 42
0.0
 43
0.0
 44
210.0
 45
297.0
 46
0.0
 47
0.0
 48
0.0
 49
0.0
140
0.0
141
0.0
142
1.0
143
1.0
 70
1024
 72
1
 73
0
 74
0
  7

 75
0
147
1.0
148
0.0
149
0.0
100
AcDbLayout
  1
Model
 70
0
 71
0
 10
0.0
 20
0.0
 11
210.0
 21
297.0
 12
0.0
 22
0.0
 32
0.0
 14
0.0
 24
0.0
 34
0.0
 15
0.0
 25
0.0
 35
0.0
146
0.0
 13
0.0
 23
0.0
 33
0.0
 16
1.0
 26
0.0
 36
0.0
 17
0.0
 27
1.0
 37
0.0
 76
0
330
210
345
0
346
0
  0
LAYOUT
  5
338
102
{ACAD_REACTORS
330
1A
102
}
100
AcDbPlotSettings
  1

  2
none_device
  4

  6

 40
0.0
 41
0.0
 42
0.0
 43
0.0
 44
210.0
 45
297.0
 46
0.0
 47
0.0
 48
0.0
 49
0.0
140
0.0
141
0.0
142
1.0
143
1.0
 70
0
 72
1
 73
0
 74
0
  7

 75
0
147
1.0
148
0.0
149
0.0
100
AcDbLayout
  1
Layout1
 70
0
 71
1
 10
0.0
 20
0.0
 11
210.0
 21
297.0
 12
0.0
 22
0.0
 32
0.0
 14
0.0
 24
0.0
 34
0.0
 15
0.0
 25
0.0
 35
0.0
146
0.0
 13
0.0
 23
0.0
 33
0.0
 16
1.0
 26
0.0
 36
0.0
 17
0.0
 27
1.0
 37
0.0
 76
0
330
211
345
0
346
0
  0
ENDSEC
  0
EOF
